999
DXF file: 1-469_top.dxf
999
Pro/ENGINEER 2019352 by Parametric Technology Corporation
  0
SECTION
  2
HEADER
  9
$ACADVER
  1
AC1032
  9
$DWGCODEPAGE
  3
ANSI_1252
  9
$EXTMAX
 10
11.0
 20
8.5
 30
0.0
  9
$EXTMIN
 10
0.0
 20
0.0
 30
0.0
  9
$LIMMIN
 10
0.0
 20
0.0
  9
$LIMMAX
 10
11.0
 20
8.5
  9
$VIEWCTR
 10
5.5
 20
4.25
  9
$VIEWSIZE
 40
8.5
  9
$CLAYER
  8
0
  9
$LTSCALE
 40
0.605
  9
$CELTYPE
  6
BYLAYER
  9
$DIMSCALE
 40
1.0
  9
$DIMASZ
 40
0.1
  9
$DIMEXO
 40
0.0625
  9
$DIMDLI
 40
0.418
  9
$DIMEXE
 40
0.125
  9
$DIMCEN
 40
0.099
  9
$DIMLFAC
 40
1.0
  9
$DIMBLK
  1
_FILLED
  9
$DIMALT
 70
1
  9
$DIMALTD
 70
2
  9
$DIMALTTD
 70
2
  9
$DIMALTF
 40
25.4
  9
$DIMTXT
 40
0.08
  9
$DIMTOL
 70
1
  9
$DIMLIM
 70
0
  9
$DIMTFAC
 40
1.0
  9
$DIMTP
 40
0.001
  9
$DIMTM
 40
0.001
  9
$DIMGAP
 40
0.09
  9
$DIMDSEP
 70
46
  9
$AUNITS
 70
0
  9
$PDMODE
 70
3
  9
$PDSIZE
 40
0.3125
  9
$HANDSEED
  5
513
  9
$TILEMODE
 70
1
  9
$MEASUREMENT
 70
0
  9
$INSUNITS
 70
1
  0
ENDSEC
  0
SECTION
  2
CLASSES
  0
CLASS
  1
ACDBDICTIONARYWDFLT
  2
AcDbDictionaryWithDefault
  3
AutoCAD 2000
 90
0
 91
1
280
0
281
0
  0
CLASS
  1
ACDBPLACEHOLDER
  2
AcDbPlaceHolder
  3
AutoCAD 2000
 90
0
 91
1
280
0
281
0
  0
CLASS
  1
LAYOUT
  2
AcDbLayout
  3
AutoCAD 2000
 90
0
 91
0
280
0
281
0
  0
ENDSEC
  0
SECTION
  2
TABLES
  0
TABLE
  2
VPORT
  5
8
100
AcDbSymbolTable
 70
2
  0
VPORT
  5
1F4
100
AcDbSymbolTableRecord
100
AcDbViewportTableRecord
  2
*ACTIVE
 70
0
 10
0.0
 20
0.0
 11
1.0
 21
1.0
 12
5.5
 22
4.25
 13
0.0
 23
0.0
 14
1.0
 24
1.0
 15
0.0
 25
0.0
 16
0.0
 26
0.0
 36
1.0
 17
0.0
 27
0.0
 37
0.0
 40
8.5
 41
1.2941176471
 42
50.0
 43
0.0
 44
0.0
 50
0.0
 51
0.0
 71
0
 72
100
 73
1
 74
1
 75
0
 76
0
 77
0
 78
0
  0
ENDTAB
  0
TABLE
  2
LTYPE
  5
5
100
AcDbSymbolTable
 70
6
  0
LTYPE
  5
14
100
AcDbSymbolTableRecord
100
AcDbLinetypeTableRecord
  2
BYBLOCK
 70
0
  3

 72
65
 73
0
 40
0.0
  0
LTYPE
  5
15
100
AcDbSymbolTableRecord
100
AcDbLinetypeTableRecord
  2
BYLAYER
 70
0
  3

 72
65
 73
0
 40
0.0
  0
LTYPE
  5
16
100
AcDbSymbolTableRecord
100
AcDbLinetypeTableRecord
  2
CONTINUOUS
 70
64
  3
Solid line
 72
65
 73
0
 40
0.0
  0
LTYPE
  5
1F5
100
AcDbSymbolTableRecord
100
AcDbLinetypeTableRecord
  2
CENTER
 70
64
  3
____ _ ____ _ ____ _ ____ _ ____ _ ____ _ ____
 72
65
 73
4
 40
0.6
 49
0.375
 74
0
 49
-0.075
 74
0
 49
0.075
 74
0
 49
-0.075
 74
0
  0
LTYPE
  5
1F6
100
AcDbSymbolTableRecord
100
AcDbLinetypeTableRecord
  2
HIDDEN
 70
64
  3
- - - - - - - - - - - - - - - - - - - -
 72
65
 73
2
 40
0.2
 49
0.1
 74
0
 49
-0.1
 74
0
  0
LTYPE
  5
1F7
100
AcDbSymbolTableRecord
100
AcDbLinetypeTableRecord
  2
PHANTOM
 70
64
  3
_____ _ _ _____ _ _ _____ _ _ _____
 72
65
 73
6
 40
0.8
 49
0.45
 74
0
 49
-0.05
 74
0
 49
0.1
 74
0
 49
-0.05
 74
0
 49
0.1
 74
0
 49
-0.05
 74
0
  0
LTYPE
  5
1F8
100
AcDbSymbolTableRecord
100
AcDbLinetypeTableRecord
  2
DOT
 70
64
  3
. . . . . . . . . . . . . . . . . . . .
 72
65
 73
2
 40
0.2
 49
0.1
 74
0
 49
-0.1
 74
0
  0
LTYPE
  5
1F9
100
AcDbSymbolTableRecord
100
AcDbLinetypeTableRecord
  2
DASHED
 70
64
  3
- - - - - - - - - - - - - - - - - - - -
 72
65
 73
2
 40
0.2
 49
0.1
 74
0
 49
-0.1
 74
0
  0
ENDTAB
  0
TABLE
  2
LAYER
  5
2
100
AcDbSymbolTable
 70
36
  0
LAYER
  5
10
100
AcDbSymbolTableRecord
100
AcDbLayerTableRecord
  2
0
 70
0
 62
7
  6
CONTINUOUS
370
-3
390
F
  0
LAYER
  5
1FA
100
AcDbSymbolTableRecord
100
AcDbLayerTableRecord
  2
DEFAULT_1
 70
0
 62
7
  6
CENTER
370
-3
390
F
  0
LAYER
  5
1FB
100
AcDbSymbolTableRecord
100
AcDbLayerTableRecord
  2
DEFAULT_2
 70
0
 62
8
  6
HIDDEN
370
-3
390
F
  0
LAYER
  5
1FC
100
AcDbSymbolTableRecord
100
AcDbLayerTableRecord
  2
DEFAULT_3
 70
0
 62
7
  6
PHANTOM
370
-3
390
F
  0
LAYER
  5
1FD
100
AcDbSymbolTableRecord
100
AcDbLayerTableRecord
  2
DEFAULT_COORDINATE_SYSTEM
 70
0
 62
7
  6
CONTINUOUS
370
-3
390
F
  0
LAYER
  5
1FE
100
AcDbSymbolTableRecord
100
AcDbLayerTableRecord
  2
DEFAULT_DATUM_AXES
 70
0
 62
7
  6
CONTINUOUS
370
-3
390
F
  0
LAYER
  5
1FF
100
AcDbSymbolTableRecord
100
AcDbLayerTableRecord
  2
DEFAULT_DATUM_PLANES
 70
0
 62
7
  6
CONTINUOUS
370
-3
390
F
  0
ENDTAB
  0
TABLE
  2
STYLE
  5
3
100
AcDbSymbolTable
 70
1
  0
STYLE
  5
11
100
AcDbSymbolTableRecord
100
AcDbTextStyleTableRecord
  2
STANDARD
 70
0
 40
0.0
 41
0.8
 50
0.0
 71
0
 42
0.2
  3
txt
  4

  0
STYLE
  5
200
100
AcDbSymbolTableRecord
100
AcDbTextStyleTableRecord
  2
TEXTSTYLE_1
 70
0
 40
0.0
 41
0.8
 50
0.0
 71
0
 42
0.2
  3
gdt
  4

  0
ENDTAB
  0
TABLE
  2
VIEW
  5
6
100
AcDbSymbolTable
 70
0
  0
ENDTAB
  0
TABLE
  2
UCS
  5
7
100
AcDbSymbolTable
 70
0
  0
ENDTAB
  0
TABLE
  2
APPID
  5
9
100
AcDbSymbolTable
 70
1
  0
APPID
  5
201
100
AcDbSymbolTableRecord
100
AcDbRegAppTableRecord
  2
ACAD
 70
0
  0
ENDTAB
  0
TABLE
  2
BLOCK_RECORD
  5
1
100
AcDbSymbolTable
 70
0
  0
BLOCK_RECORD
  5
202
100
AcDbSymbolTableRecord
100
AcDbBlockTableRecord
  2
*Model_Space
  0
BLOCK_RECORD
  5
203
100
AcDbSymbolTableRecord
100
AcDbBlockTableRecord
  2
*Paper_Space
  0
BLOCK_RECORD
  5
204
100
AcDbSymbolTableRecord
100
AcDbBlockTableRecord
  2
_FILLED
  0
ENDTAB
  0
TABLE
  2
DIMSTYLE
  5
A
100
AcDbSymbolTable
 70
1
100
AcDbDimStyleTable
 71
0
  0
DIMSTYLE
105
205
100
AcDbSymbolTableRecord
100
AcDbDimStyleTableRecord
  2
STANDARD
 70
0
  3

  4

 40
1.0
 41
0.1
 42
0.0625
 43
0.38
 44
0.125
 45
0.0
 46
0.0
 47
0.001
 48
0.001
140
0.08
141
0.09
142
0.0
143
25.4
144
1.0
145
0.0
146
1.0
147
0.09
 71
1.0
 72
0.0
 73
1
 74
1
 75
0
 76
0
 77
0
 78
4
 79
1
170
1
171
2
172
0
173
0
174
0
175
0
176
0
177
0
178
0
270
2
179
3
271
3
272
3
273
2
274
2
275
0
280
0
281
0
282
0
283
1
284
4
285
0
286
0
287
3
288
0
340
11
278
46
341
204
342
204
343
204
344
204
  0
ENDTAB
  0
ENDSEC
  0
SECTION
  2
BLOCKS
  0
BLOCK
  5
20
100
AcDbEntity
  8
0
100
AcDbBlockBegin
  2
*Model_Space
 70
0
 10
0.0
 20
0.0
 30
0.0
  3
*Model_Space
  1

  0
ENDBLK
  5
21
100
AcDbEntity
  8
0
100
AcDbBlockEnd
  0
BLOCK
  5
1C
100
AcDbEntity
  8
0
100
AcDbBlockBegin
  2
*Paper_Space
 70
0
 10
0.0
 20
0.0
 30
0.0
  3
*Paper_Space
  1

  0
ENDBLK
  5
1D
100
AcDbEntity
  8
0
100
AcDbBlockEnd
  0
BLOCK
  5
206
100
AcDbEntity
  8
0
100
AcDbBlockBegin
  2
_FILLED
 70
64
 10
0.0
 20
0.0
  3
_FILLED
  1

  0
SOLID
  5
207
100
AcDbEntity
  8
0
  6
BYBLOCK
 62
0
100
AcDbTrace
 10
0.0
 20
0.0
 11
-1.0
 21
0.2
 12
-1.0
 22
-0.2
 13
-1.0
 23
-0.2
  0
ENDBLK
  5
208
100
AcDbEntity
  8
0
  6
BYBLOCK
 62
0
100
AcDbBlockEnd
  0
ENDSEC
  0
SECTION
  2
ENTITIES
  0
MTEXT
  5
209
100
AcDbEntity
  8
0
100
AcDbMText
 62
2
  6
CONTINUOUS
  7
STANDARD
 71
3
 72
1
 10
5.5407583124
 20
2.514884724
 30
0.0
 11
1.0
 21
0.0
 31
0.0
 73
2
 44
0.9
  1
SCALE 0.500
 40
0.08
 41
0.704
  0
LINE
  5
20A
100
AcDbEntity
  8
0
100
AcDbLine
 62
7
  6
CONTINUOUS
 10
0.0
 20
0.0
 11
0.0
 21
8.5
  0
LINE
  5
20B
100
AcDbEntity
  8
0
100
AcDbLine
 62
7
  6
CONTINUOUS
 10
0.0
 20
0.0
 11
11.0
 21
0.0
  0
LINE
  5
20C
100
AcDbEntity
  8
0
100
AcDbLine
 62
7
  6
CONTINUOUS
 10
0.0
 20
8.5
 11
11.0
 21
8.5
  0
LINE
  5
20D
100
AcDbEntity
  8
0
100
AcDbLine
 62
7
  6
CONTINUOUS
 10
11.0
 20
0.0
 11
11.0
 21
8.5
  0
LINE
  5
20E
100
AcDbEntity
  8
0
100
AcDbLine
 62
7
  6
CONTINUOUS
 10
2.7490393664
 20
5.8000509724
 11
2.7490393664
 21
3.5500509724
  0
LINE
  5
20F
100
AcDbEntity
  8
0
100
AcDbLine
 62
7
  6
CONTINUOUS
 10
2.7590393664
 20
5.8000509724
 11
2.7590393664
 21
3.5500509724
  0
LINE
  5
210
100
AcDbEntity
  8
0
100
AcDbLine
 62
7
  6
CONTINUOUS
 10
2.8740393664
 20
3.4350509724
 11
2.8740393664
 21
3.4250509724
  0
LINE
  5
211
100
AcDbEntity
  8
0
100
AcDbLine
 62
7
  6
CONTINUOUS
 10
2.8740393664
 20
5.9150509724
 11
2.8740393664
 21
5.9250509724
  0
LINE
  5
212
100
AcDbEntity
  8
0
100
AcDbLine
 62
7
  6
CONTINUOUS
 10
3.0305393664
 20
3.6625509724
 11
3.0305393664
 21
3.6875509724
  0
LINE
  5
213
100
AcDbEntity
  8
0
100
AcDbLine
 62
7
  6
CONTINUOUS
 10
3.0305393664
 20
5.6625509724
 11
3.0305393664
 21
5.6875509724
  0
LINE
  5
214
100
AcDbEntity
  8
0
100
AcDbLine
 62
7
  6
CONTINUOUS
 10
3.0805393664
 20
3.6125509724
 11
3.0805393664
 21
3.7375509724
  0
LINE
  5
215
100
AcDbEntity
  8
0
100
AcDbLine
 62
7
  6
CONTINUOUS
 10
3.0805393664
 20
5.6125509724
 11
3.0805393664
 21
5.7375509724
  0
LINE
  5
216
100
AcDbEntity
  8
0
100
AcDbLine
 62
7
  6
CONTINUOUS
 10
3.1055393664
 20
3.6125509724
 11
3.1055393664
 21
3.7375509724
  0
LINE
  5
217
100
AcDbEntity
  8
0
100
AcDbLine
 62
7
  6
CONTINUOUS
 10
3.1055393664
 20
5.6125509724
 11
3.1055393664
 21
5.7375509724
  0
LINE
  5
218
100
AcDbEntity
  8
0
100
AcDbLine
 62
7
  6
CONTINUOUS
 10
3.1555393664
 20
3.6625509724
 11
3.1555393664
 21
3.6875509724
  0
LINE
  5
219
100
AcDbEntity
  8
0
100
AcDbLine
 62
7
  6
CONTINUOUS
 10
3.1555393664
 20
5.6625509724
 11
3.1555393664
 21
5.6875509724
  0
LINE
  5
21A
100
AcDbEntity
  8
0
100
AcDbLine
 62
7
  6
CONTINUOUS
 10
3.4825393664
 20
4.1801336732
 11
3.4825393664
 21
4.1980196367
  0
LINE
  5
21B
100
AcDbEntity
  8
0
100
AcDbLine
 62
7
  6
CONTINUOUS
 10
3.4903518664
 20
4.1837373386
 11
3.4903518664
 21
4.1833014449
  0
LINE
  5
21C
100
AcDbEntity
  8
0
100
AcDbLine
 62
7
  6
CONTINUOUS
 10
3.4942581164
 20
4.1831877148
 11
3.4942581164
 21
4.1958653802
  0
LINE
  5
21D
100
AcDbEntity
  8
0
100
AcDbLine
 62
7
  6
CONTINUOUS
 10
3.5046747806
 20
4.1766697929
 11
3.5046747806
 21
4.1808122421
  0
LINE
  5
21E
100
AcDbEntity
  8
0
100
AcDbLine
 62
7
  6
CONTINUOUS
 10
3.5124872806
 20
4.1760424145
 11
3.5124872806
 21
4.1756095416
  0
LINE
  5
21F
100
AcDbEntity
  8
0
100
AcDbLine
 62
7
  6
CONTINUOUS
 10
3.5137893664
 20
4.1798351879
 11
3.5137893664
 21
4.1924374053
  0
LINE
  5
220
100
AcDbEntity
  8
0
100
AcDbLine
 62
7
  6
CONTINUOUS
 10
3.5163935306
 20
4.1756753744
 11
3.5163935306
 21
4.1792476482
  0
LINE
  5
221
100
AcDbEntity
  8
0
100
AcDbLine
 62
7
  6
CONTINUOUS
 10
3.5333206164
 20
4.1782489226
 11
3.5333206164
 21
4.1907972742
  0
LINE
  5
222
100
AcDbEntity
  8
0
100
AcDbLine
 62
7
  6
CONTINUOUS
 10
3.5359247806
 20
4.1732295679
 11
3.5359247806
 21
4.1772645034
  0
LINE
  5
223
100
AcDbEntity
  8
0
100
AcDbLine
 62
7
  6
CONTINUOUS
 10
3.5372268664
 20
4.1778101236
 11
3.5372268664
 21
4.1773794213
  0
LINE
  5
224
100
AcDbEntity
  8
0
100
AcDbLine
 62
7
  6
CONTINUOUS
 10
3.5450393664
 20
4.1768278405
 11
3.5450393664
 21
4.1899000729
  0
LINE
  5
225
100
AcDbEntity
  8
0
100
AcDbLine
 62
7
  6
CONTINUOUS
 10
3.5512893664
 20
4.9375509724
 11
3.5512893664
 21
4.4125509724
  0
LINE
  5
226
100
AcDbEntity
  8
0
100
AcDbLine
 62
7
  6
CONTINUOUS
 10
3.5554560306
 20
4.1725278673
 11
3.5554560306
 21
4.1760771942
  0
LINE
  5
227
100
AcDbEntity
  8
0
100
AcDbLine
 62
7
  6
CONTINUOUS
 10
3.5554560306
 20
4.1762836682
 11
3.5554560306
 21
4.1887953245
  0
LINE
  5
228
100
AcDbEntity
  8
0
100
AcDbLine
 62
7
  6
CONTINUOUS
 10
3.5593622806
 20
4.1722650132
 11
3.5593622806
 21
4.1718353896
  0
LINE
  5
229
100
AcDbEntity
  8
0
100
AcDbLine
 62
7
  6
CONTINUOUS
 10
3.5637893664
 20
4.4250509724
 11
3.5637893664
 21
4.9250509724
  0
LINE
  5
22A
100
AcDbEntity
  8
0
100
AcDbLine
 62
7
  6
CONTINUOUS
 10
3.5671747806
 20
4.1716332797
 11
3.5671747806
 21
4.1757340459
  0
LINE
  5
22B
100
AcDbEntity
  8
0
100
AcDbLine
 62
7
  6
CONTINUOUS
 10
3.5762893664
 20
4.1763941864
 11
3.5762893664
 21
4.1888946624
  0
LINE
  5
22C
100
AcDbEntity
  8
0
100
AcDbLine
 62
7
  6
CONTINUOUS
 10
3.5775914447
 20
4.1715524584
 11
3.5775914447
 21
4.1756510059
  0
LINE
  5
22D
100
AcDbEntity
  8
0
100
AcDbLine
 62
7
  6
CONTINUOUS
 10
3.5854039447
 20
4.1716332796
 11
3.5854039447
 21
4.1757340457
  0
LINE
  5
22E
100
AcDbEntity
  8
0
100
AcDbLine
 62
7
  6
CONTINUOUS
 10
3.5867060306
 20
4.1765029975
 11
3.5867060306
 21
4.1890062719
  0
LINE
  5
22F
100
AcDbEntity
  8
0
100
AcDbLine
 62
7
  6
CONTINUOUS
 10
3.5887893664
 20
4.4250509724
 11
3.5887893664
 21
4.9250509724
  0
LINE
  5
230
100
AcDbEntity
  8
0
100
AcDbLine
 62
7
  6
CONTINUOUS
 10
3.5958206164
 20
4.1719297353
 11
3.5958206164
 21
4.176030339
  0
LINE
  5
231
100
AcDbEntity
  8
0
100
AcDbLine
 62
7
  6
CONTINUOUS
 10
3.6012893664
 20
4.4125509724
 11
3.6012893664
 21
4.9375509724
  0
LINE
  5
232
100
AcDbEntity
  8
0
100
AcDbLine
 62
7
  6
CONTINUOUS
 10
3.6036331164
 20
4.1722938061
 11
3.6036331164
 21
4.1727703099
  0
LINE
  5
233
100
AcDbEntity
  8
0
100
AcDbLine
 62
7
  6
CONTINUOUS
 10
3.6075393664
 20
4.1730679682
 11
3.6075393664
 21
4.1766106665
  0
LINE
  5
234
100
AcDbEntity
  8
0
100
AcDbLine
 62
7
  6
CONTINUOUS
 10
3.6075393664
 20
4.1768278405
 11
3.6075393664
 21
4.1893535147
  0
LINE
  5
235
100
AcDbEntity
  8
0
100
AcDbLine
 62
7
  6
CONTINUOUS
 10
3.617956038
 20
4.1775906824
 11
3.617956038
 21
4.1906835022
  0
LINE
  5
236
100
AcDbEntity
  8
0
100
AcDbLine
 62
7
  6
CONTINUOUS
 10
3.625768538
 20
4.1788550416
 11
3.625768538
 21
4.1914191193
  0
LINE
  5
237
100
AcDbEntity
  8
0
100
AcDbLine
 62
7
  6
CONTINUOUS
 10
3.6400914522
 20
4.175691436
 11
3.6400914522
 21
4.1797419688
  0
LINE
  5
238
100
AcDbEntity
  8
0
100
AcDbLine
 62
7
  6
CONTINUOUS
 10
3.6439976947
 20
4.180789785
 11
3.6439976947
 21
4.1934100518
  0
LINE
  5
239
100
AcDbEntity
  8
0
100
AcDbLine
 62
7
  6
CONTINUOUS
 10
3.6479039522
 20
4.1766697929
 11
3.6479039522
 21
4.1808122421
  0
LINE
  5
23A
100
AcDbEntity
  8
0
100
AcDbLine
 62
7
  6
CONTINUOUS
 10
3.6622268664
 20
4.1838551497
 11
3.6622268664
 21
4.1965504982
  0
LINE
  5
23B
100
AcDbEntity
  8
0
100
AcDbLine
 62
7
  6
CONTINUOUS
 10
3.6700393664
 20
4.1801336732
 11
3.6700393664
 21
4.1980196367
  0
LINE
  5
23C
100
AcDbEntity
  8
0
100
AcDbLine
 62
7
  6
CONTINUOUS
 10
3.5887893664
 20
4.9250509724
 11
3.588798364
 21
4.9250603735
  0
LINE
  5
23D
100
AcDbEntity
  8
0
100
AcDbLine
 62
7
  6
CONTINUOUS
 10
3.5887893664
 20
4.9250509724
 11
3.6012893664
 21
4.9375509724
  0
LINE
  5
23E
100
AcDbEntity
  8
0
100
AcDbLine
 62
7
  6
CONTINUOUS
 10
3.5887893664
 20
4.4250509724
 11
3.5887987674
 21
4.4250419748
  0
LINE
  5
23F
100
AcDbEntity
  8
0
100
AcDbLine
 62
7
  6
CONTINUOUS
 10
3.5887893664
 20
4.4250509724
 11
3.6012893664
 21
4.4125509724
  0
LINE
  5
240
100
AcDbEntity
  8
0
100
AcDbLine
 62
7
  6
CONTINUOUS
 10
2.8740393664
 20
3.4250509724
 11
7.8115393664
 21
3.4250509724
  0
LINE
  5
241
100
AcDbEntity
  8
0
100
AcDbLine
 62
7
  6
CONTINUOUS
 10
2.8740393664
 20
3.4350509724
 11
7.8115393664
 21
3.4350509724
  0
LINE
  5
242
100
AcDbEntity
  8
0
100
AcDbLine
 62
7
  6
CONTINUOUS
 10
3.5637893664
 20
4.4250509724
 11
3.5637803687
 21
4.4250415713
  0
LINE
  5
243
100
AcDbEntity
  8
0
100
AcDbLine
 62
7
  6
CONTINUOUS
 10
3.5637893664
 20
4.4250509724
 11
3.5512893664
 21
4.4125509724
  0
LINE
  5
244
100
AcDbEntity
  8
0
100
AcDbLine
 62
7
  6
CONTINUOUS
 10
2.7590393664
 20
3.5500509724
 11
2.7490393664
 21
3.5500509724
  0
LINE
  5
245
100
AcDbEntity
  8
0
100
AcDbLine
 62
7
  6
CONTINUOUS
 10
7.9265393664
 20
3.5500509724
 11
7.9365393664
 21
3.5500509724
  0
LINE
  5
246
100
AcDbEntity
  8
0
100
AcDbLine
 62
7
  6
CONTINUOUS
 10
3.0805393664
 20
3.6125509724
 11
3.1055393664
 21
3.6125509724
  0
LINE
  5
247
100
AcDbEntity
  8
0
100
AcDbLine
 62
7
  6
CONTINUOUS
 10
4.5805393664
 20
3.6125509724
 11
4.6055393664
 21
3.6125509724
  0
LINE
  5
248
100
AcDbEntity
  8
0
100
AcDbLine
 62
7
  6
CONTINUOUS
 10
6.0805393664
 20
3.6125509724
 11
6.1055393664
 21
3.6125509724
  0
LINE
  5
249
100
AcDbEntity
  8
0
100
AcDbLine
 62
7
  6
CONTINUOUS
 10
7.5805393664
 20
3.6125509724
 11
7.6055393664
 21
3.6125509724
  0
LINE
  5
24A
100
AcDbEntity
  8
0
100
AcDbLine
 62
7
  6
CONTINUOUS
 10
7.6555393664
 20
3.6625509724
 11
7.5305393664
 21
3.6625509724
  0
LINE
  5
24B
100
AcDbEntity
  8
0
100
AcDbLine
 62
7
  6
CONTINUOUS
 10
6.1555393664
 20
3.6625509724
 11
6.0305393664
 21
3.6625509724
  0
LINE
  5
24C
100
AcDbEntity
  8
0
100
AcDbLine
 62
7
  6
CONTINUOUS
 10
4.6555393664
 20
3.6625509724
 11
4.5305393664
 21
3.6625509724
  0
LINE
  5
24D
100
AcDbEntity
  8
0
100
AcDbLine
 62
7
  6
CONTINUOUS
 10
3.1555393664
 20
3.6625509724
 11
3.0305393664
 21
3.6625509724
  0
LINE
  5
24E
100
AcDbEntity
  8
0
100
AcDbLine
 62
7
  6
CONTINUOUS
 10
7.6555393664
 20
3.6875509724
 11
7.5305393664
 21
3.6875509724
  0
LINE
  5
24F
100
AcDbEntity
  8
0
100
AcDbLine
 62
7
  6
CONTINUOUS
 10
6.1555393664
 20
3.6875509724
 11
6.0305393664
 21
3.6875509724
  0
LINE
  5
250
100
AcDbEntity
  8
0
100
AcDbLine
 62
7
  6
CONTINUOUS
 10
4.6555393664
 20
3.6875509724
 11
4.5305393664
 21
3.6875509724
  0
LINE
  5
251
100
AcDbEntity
  8
0
100
AcDbLine
 62
7
  6
CONTINUOUS
 10
3.1555393664
 20
3.6875509724
 11
3.0305393664
 21
3.6875509724
  0
LINE
  5
252
100
AcDbEntity
  8
0
100
AcDbLine
 62
7
  6
CONTINUOUS
 10
3.0805393664
 20
3.7375509724
 11
3.1055393664
 21
3.7375509724
  0
LINE
  5
253
100
AcDbEntity
  8
0
100
AcDbLine
 62
7
  6
CONTINUOUS
 10
4.5805393664
 20
3.7375509724
 11
4.6055393664
 21
3.7375509724
  0
LINE
  5
254
100
AcDbEntity
  8
0
100
AcDbLine
 62
7
  6
CONTINUOUS
 10
6.0805393664
 20
3.7375509724
 11
6.1055393664
 21
3.7375509724
  0
LINE
  5
255
100
AcDbEntity
  8
0
100
AcDbLine
 62
7
  6
CONTINUOUS
 10
7.5805393664
 20
3.7375509724
 11
7.6055393664
 21
3.7375509724
  0
LINE
  5
256
100
AcDbEntity
  8
0
100
AcDbLine
 62
7
  6
CONTINUOUS
 10
3.5637893664
 20
4.9250509724
 11
3.5637799653
 21
4.92505997
  0
LINE
  5
257
100
AcDbEntity
  8
0
100
AcDbLine
 62
7
  6
CONTINUOUS
 10
3.5637893664
 20
4.9250509724
 11
3.5512893664
 21
4.9375509724
  0
LINE
  5
258
100
AcDbEntity
  8
0
100
AcDbLine
 62
7
  6
CONTINUOUS
 10
3.5599501504
 20
4.9288904586
 11
3.559492984
 21
4.9293475831
  0
LINE
  5
259
100
AcDbEntity
  8
0
100
AcDbLine
 62
7
  6
CONTINUOUS
 10
4.5305393664
 20
3.6625509724
 11
4.5305393664
 21
3.6875509724
  0
LINE
  5
25A
100
AcDbEntity
  8
0
100
AcDbLine
 62
7
  6
CONTINUOUS
 10
4.5305393664
 20
5.6625509724
 11
4.5305393664
 21
5.6875509724
  0
LINE
  5
25B
100
AcDbEntity
  8
0
100
AcDbLine
 62
7
  6
CONTINUOUS
 10
4.5805393664
 20
3.6125509724
 11
4.5805393664
 21
3.7375509724
  0
LINE
  5
25C
100
AcDbEntity
  8
0
100
AcDbLine
 62
7
  6
CONTINUOUS
 10
4.5805393664
 20
5.6125509724
 11
4.5805393664
 21
5.7375509724
  0
LINE
  5
25D
100
AcDbEntity
  8
0
100
AcDbLine
 62
7
  6
CONTINUOUS
 10
4.9844560171
 20
5.3511148021
 11
4.9886226858
 21
5.3532424614
  0
LINE
  5
25E
100
AcDbEntity
  8
0
100
AcDbLine
 62
7
  6
CONTINUOUS
 10
4.9782060171
 20
5.3596254393
 11
4.9719560171
 21
5.35749778
  0
LINE
  5
25F
100
AcDbEntity
  8
0
100
AcDbLine
 62
7
  6
CONTINUOUS
 10
5.496956044
 20
3.9399445891
 11
5.4886226947
 21
3.9378169298
  0
LINE
  5
260
100
AcDbEntity
  8
0
100
AcDbLine
 62
7
  6
CONTINUOUS
 10
5.4886226947
 20
3.9250509724
 11
5.4990393694
 21
3.9271786319
  0
LINE
  5
261
100
AcDbEntity
  8
0
100
AcDbLine
 62
7
  6
CONTINUOUS
 10
5.5927893664
 20
3.8750509724
 11
5.5996643664
 21
3.8750509724
  0
LINE
  5
262
100
AcDbEntity
  8
0
100
AcDbLine
 62
7
  6
CONTINUOUS
 10
5.6283101986
 20
3.8750509724
 11
5.6363310341
 21
3.8750509724
  0
LINE
  5
263
100
AcDbEntity
  8
0
100
AcDbLine
 62
7
  6
CONTINUOUS
 10
5.5996643664
 20
3.8996254408
 11
5.6191435325
 21
3.8996254408
  0
LINE
  5
264
100
AcDbEntity
  8
0
100
AcDbLine
 62
7
  6
CONTINUOUS
 10
5.6214351986
 20
3.9066467166
 11
5.5996643664
 21
3.9066467166
  0
LINE
  5
265
100
AcDbEntity
  8
0
100
AcDbLine
 62
7
  6
CONTINUOUS
 10
5.5996643664
 20
3.9241999093
 11
5.6214351986
 21
3.9241999093
  0
LINE
  5
266
100
AcDbEntity
  8
0
100
AcDbLine
 62
7
  6
CONTINUOUS
 10
5.284456032
 20
3.9250509724
 11
5.2927893694
 21
3.9250509724
  0
LINE
  5
267
100
AcDbEntity
  8
0
100
AcDbLine
 62
7
  6
CONTINUOUS
 10
5.3427893694
 20
3.9250509724
 11
5.3552893694
 21
3.9250509724
  0
LINE
  5
268
100
AcDbEntity
  8
0
100
AcDbLine
 62
7
  6
CONTINUOUS
 10
5.4698726947
 20
3.9250509724
 11
5.4886226947
 21
3.9250509724
  0
LINE
  5
269
100
AcDbEntity
  8
0
100
AcDbLine
 62
7
  6
CONTINUOUS
 10
5.6202893664
 20
3.9300509724
 11
5.5927893664
 21
3.9300509724
  0
LINE
  5
26A
100
AcDbEntity
  8
0
100
AcDbLine
 62
7
  6
CONTINUOUS
 10
5.1907060365
 20
3.9271786319
 11
5.203206035
 21
3.9250509724
  0
LINE
  5
26B
100
AcDbEntity
  8
0
100
AcDbLine
 62
7
  6
CONTINUOUS
 10
5.2740393694
 20
3.9271786319
 11
5.284456032
 21
3.9250509724
  0
LINE
  5
26C
100
AcDbEntity
  8
0
100
AcDbLine
 62
7
  6
CONTINUOUS
 10
5.1844560365
 20
3.9293062914
 11
5.1907060365
 21
3.9271786319
  0
LINE
  5
26D
100
AcDbEntity
  8
0
100
AcDbLine
 62
7
  6
CONTINUOUS
 10
5.2011227037
 20
3.9335616104
 11
5.1886227022
 21
3.9378169298
  0
LINE
  5
26E
100
AcDbEntity
  8
0
100
AcDbLine
 62
7
  6
CONTINUOUS
 10
4.6055393664
 20
3.6125509724
 11
4.6055393664
 21
3.7375509724
  0
LINE
  5
26F
100
AcDbEntity
  8
0
100
AcDbLine
 62
7
  6
CONTINUOUS
 10
4.6055393664
 20
5.6125509724
 11
4.6055393664
 21
5.7375509724
  0
LINE
  5
270
100
AcDbEntity
  8
0
100
AcDbLine
 62
7
  6
CONTINUOUS
 10
4.6555393664
 20
3.6625509724
 11
4.6555393664
 21
3.6875509724
  0
LINE
  5
271
100
AcDbEntity
  8
0
100
AcDbLine
 62
7
  6
CONTINUOUS
 10
4.6555393664
 20
5.6625509724
 11
4.6555393664
 21
5.6875509724
  0
LINE
  5
272
100
AcDbEntity
  8
0
100
AcDbLine
 62
7
  6
CONTINUOUS
 10
4.9844560171
 20
5.3702637359
 11
4.9823726858
 21
5.363880758
  0
LINE
  5
273
100
AcDbEntity
  8
0
100
AcDbLine
 62
7
  6
CONTINUOUS
 10
4.9886226858
 20
5.3532424614
 11
4.9948726858
 21
5.3617530987
  0
LINE
  5
274
100
AcDbEntity
  8
0
100
AcDbLine
 62
7
  6
CONTINUOUS
 10
4.9886226858
 20
5.3085616104
 11
4.9948726858
 21
5.3170722485
  0
LINE
  5
275
100
AcDbEntity
  8
0
100
AcDbLine
 62
7
  6
CONTINUOUS
 10
5.0823726858
 20
5.3532424614
 11
5.0886226858
 21
5.3617530987
  0
LINE
  5
276
100
AcDbEntity
  8
0
100
AcDbLine
 62
7
  6
CONTINUOUS
 10
4.9823726858
 20
5.363880758
 11
4.9782060171
 21
5.3596254393
  0
LINE
  5
277
100
AcDbEntity
  8
0
100
AcDbLine
 62
7
  6
CONTINUOUS
 10
4.9823726858
 20
5.3191999093
 11
4.9782060171
 21
5.3149445891
  0
LINE
  5
278
100
AcDbEntity
  8
0
100
AcDbLine
 62
7
  6
CONTINUOUS
 10
5.0761226858
 20
5.363880758
 11
5.0719560231
 21
5.3596254393
  0
LINE
  5
279
100
AcDbEntity
  8
0
100
AcDbLine
 62
7
  6
CONTINUOUS
 10
5.2261226858
 20
5.3936679944
 11
5.2177893604
 21
5.3851573572
  0
LINE
  5
27A
100
AcDbEntity
  8
0
100
AcDbLine
 62
7
  6
CONTINUOUS
 10
4.9802893545
 20
5.3021786319
 11
4.9886226858
 21
5.3085616104
  0
LINE
  5
27B
100
AcDbEntity
  8
0
100
AcDbLine
 62
7
  6
CONTINUOUS
 10
5.2302893604
 20
5.3809020385
 11
5.2365393604
 21
5.3851573572
  0
LINE
  5
27C
100
AcDbEntity
  8
0
100
AcDbLine
 62
7
  6
CONTINUOUS
 10
5.3240393366
 20
5.3809020385
 11
5.3302893366
 21
5.3851573572
  0
LINE
  5
27D
100
AcDbEntity
  8
0
100
AcDbLine
 62
7
  6
CONTINUOUS
 10
5.2698726858
 20
5.3191999093
 11
5.2636226858
 21
5.3149445891
  0
LINE
  5
27E
100
AcDbEntity
  8
0
100
AcDbLine
 62
7
  6
CONTINUOUS
 10
5.0740393485
 20
5.3489871427
 11
5.0823726858
 21
5.3532424614
  0
LINE
  5
27F
100
AcDbEntity
  8
0
100
AcDbLine
 62
7
  6
CONTINUOUS
 10
5.2344560112
 20
5.3979233131
 11
5.2261226858
 21
5.3936679944
  0
LINE
  5
280
100
AcDbEntity
  8
0
100
AcDbLine
 62
7
  6
CONTINUOUS
 10
5.328206035
 20
5.3979233131
 11
5.3198726858
 21
5.3936679944
  0
LINE
  5
281
100
AcDbEntity
  8
0
100
AcDbLine
 62
7
  6
CONTINUOUS
 10
5.2657060112
 20
5.3021786319
 11
5.2740393604
 21
5.3064339511
  0
LINE
  5
282
100
AcDbEntity
  8
0
100
AcDbLine
 62
7
  6
CONTINUOUS
 10
5.359456035
 20
5.3021786319
 11
5.3677893366
 21
5.3064339511
  0
LINE
  5
283
100
AcDbEntity
  8
0
100
AcDbLine
 62
7
  6
CONTINUOUS
 10
5.0719560231
 20
5.3596254393
 11
5.0657060231
 21
5.35749778
  0
LINE
  5
284
100
AcDbEntity
  8
0
100
AcDbLine
 62
7
  6
CONTINUOUS
 10
4.9782060171
 20
5.3149445891
 11
4.9719560171
 21
5.3128169298
  0
LINE
  5
285
100
AcDbEntity
  8
0
100
AcDbLine
 62
7
  6
CONTINUOUS
 10
5.2365393604
 20
5.3851573572
 11
5.2427893604
 21
5.3872850165
  0
LINE
  5
286
100
AcDbEntity
  8
0
100
AcDbLine
 62
7
  6
CONTINUOUS
 10
5.3302893366
 20
5.3851573572
 11
5.3365393366
 21
5.3872850165
  0
LINE
  5
287
100
AcDbEntity
  8
0
100
AcDbLine
 62
7
  6
CONTINUOUS
 10
5.3011227067
 20
3.9399445891
 11
5.2927893694
 21
3.9378169298
  0
LINE
  5
288
100
AcDbEntity
  8
0
100
AcDbLine
 62
7
  6
CONTINUOUS
 10
5.4615393694
 20
4.0101573572
 11
5.4698726947
 21
4.0122850165
  0
LINE
  5
289
100
AcDbEntity
  8
0
100
AcDbLine
 62
7
  6
CONTINUOUS
 10
5.1927893694
 20
3.98249778
 11
5.2011227037
 21
3.9846254393
  0
LINE
  5
28A
100
AcDbEntity
  8
0
100
AcDbLine
 62
7
  6
CONTINUOUS
 10
5.2927893694
 20
3.9250509724
 11
5.303206032
 21
3.9271786319
  0
LINE
  5
28B
100
AcDbEntity
  8
0
100
AcDbLine
 62
7
  6
CONTINUOUS
 10
5.3927893694
 20
3.9697318241
 11
5.403206044
 21
3.9718594834
  0
LINE
  5
28C
100
AcDbEntity
  8
0
100
AcDbLine
 62
7
  6
CONTINUOUS
 10
5.4698726947
 20
4.0250509724
 11
5.459456044
 21
4.0229233131
  0
LINE
  5
28D
100
AcDbEntity
  8
0
100
AcDbLine
 62
7
  6
CONTINUOUS
 10
5.203206035
 20
3.9931360766
 11
5.1907060365
 21
3.9910084173
  0
LINE
  5
28E
100
AcDbEntity
  8
0
100
AcDbLine
 62
7
  6
CONTINUOUS
 10
5.203206035
 20
3.9250509724
 11
5.2177893694
 21
3.9271786319
  0
LINE
  5
28F
100
AcDbEntity
  8
0
100
AcDbLine
 62
7
  6
CONTINUOUS
 10
5.215706035
 20
3.9356892705
 11
5.2011227037
 21
3.9335616104
  0
LINE
  5
290
100
AcDbEntity
  8
0
100
AcDbLine
 62
7
  6
CONTINUOUS
 10
5.4886226947
 20
3.9378169298
 11
5.4698726947
 21
3.9378169298
  0
LINE
  5
291
100
AcDbEntity
  8
0
100
AcDbLine
 62
7
  6
CONTINUOUS
 10
5.2927893694
 20
3.9378169298
 11
5.284456032
 21
3.9378169298
  0
LINE
  5
292
100
AcDbEntity
  8
0
100
AcDbLine
 62
7
  6
CONTINUOUS
 10
5.234456038
 20
3.9463275686
 11
5.2240393694
 21
3.9463275686
  0
LINE
  5
293
100
AcDbEntity
  8
0
100
AcDbLine
 62
7
  6
CONTINUOUS
 10
5.5177893694
 20
3.9505828872
 11
5.5052893694
 21
3.9505828872
  0
LINE
  5
294
100
AcDbEntity
  8
0
100
AcDbLine
 62
7
  6
CONTINUOUS
 10
5.3552893694
 20
3.9697318241
 11
5.3927893694
 21
3.9697318241
  0
LINE
  5
295
100
AcDbEntity
  8
0
100
AcDbLine
 62
7
  6
CONTINUOUS
 10
5.2240393694
 20
3.9718594834
 11
5.234456038
 21
3.9718594834
  0
LINE
  5
296
100
AcDbEntity
  8
0
100
AcDbLine
 62
7
  6
CONTINUOUS
 10
5.3948726947
 20
3.98249778
 11
5.3552893694
 21
3.98249778
  0
LINE
  5
297
100
AcDbEntity
  8
0
100
AcDbLine
 62
7
  6
CONTINUOUS
 10
5.5052893694
 20
3.9995190546
 11
5.5177893694
 21
3.9995190546
  0
LINE
  5
298
100
AcDbEntity
  8
0
100
AcDbLine
 62
7
  6
CONTINUOUS
 10
5.4698726947
 20
4.0122850165
 11
5.4886226947
 21
4.0122850165
  0
LINE
  5
299
100
AcDbEntity
  8
0
100
AcDbLine
 62
7
  6
CONTINUOUS
 10
5.3552893694
 20
4.0144126758
 11
5.3948726947
 21
4.0144126758
  0
LINE
  5
29A
100
AcDbEntity
  8
0
100
AcDbLine
 62
7
  6
CONTINUOUS
 10
5.4886226947
 20
4.0250509724
 11
5.4698726947
 21
4.0250509724
  0
LINE
  5
29B
100
AcDbEntity
  8
0
100
AcDbLine
 62
7
  6
CONTINUOUS
 10
5.3927893694
 20
4.0250509724
 11
5.3427893694
 21
4.0250509724
  0
LINE
  5
29C
100
AcDbEntity
  8
0
100
AcDbLine
 62
7
  6
CONTINUOUS
 10
5.3261227067
 20
4.0250509724
 11
5.3136227067
 21
4.0250509724
  0
LINE
  5
29D
100
AcDbEntity
  8
0
100
AcDbLine
 62
7
  6
CONTINUOUS
 10
5.2636227007
 20
4.0250509724
 11
5.2511227007
 21
4.0250509724
  0
LINE
  5
29E
100
AcDbEntity
  8
0
100
AcDbLine
 62
7
  6
CONTINUOUS
 10
5.2011227037
 20
3.9846254393
 11
5.215706035
 21
3.98249778
  0
LINE
  5
29F
100
AcDbEntity
  8
0
100
AcDbLine
 62
7
  6
CONTINUOUS
 10
5.2177893694
 20
3.9910084173
 11
5.203206035
 21
3.9931360766
  0
LINE
  5
2A0
100
AcDbEntity
  8
0
100
AcDbLine
 62
7
  6
CONTINUOUS
 10
5.459456044
 20
3.9271786319
 11
5.4698726947
 21
3.9250509724
  0
LINE
  5
2A1
100
AcDbEntity
  8
0
100
AcDbLine
 62
7
  6
CONTINUOUS
 10
5.6260185341
 20
3.9288807598
 11
5.6202893664
 21
3.9300509724
  0
LINE
  5
2A2
100
AcDbEntity
  8
0
100
AcDbLine
 62
7
  6
CONTINUOUS
 10
5.403206044
 20
4.0229233131
 11
5.3927893694
 21
4.0250509724
  0
LINE
  5
2A3
100
AcDbEntity
  8
0
100
AcDbLine
 62
7
  6
CONTINUOUS
 10
5.4990393694
 20
4.0229233131
 11
5.4886226947
 21
4.0250509724
  0
LINE
  5
2A4
100
AcDbEntity
  8
0
100
AcDbLine
 62
7
  6
CONTINUOUS
 10
5.284456032
 20
3.9378169298
 11
5.2761227067
 21
3.9399445891
  0
LINE
  5
2A5
100
AcDbEntity
  8
0
100
AcDbLine
 62
7
  6
CONTINUOUS
 10
5.4698726947
 20
3.9378169298
 11
5.4615393694
 21
3.9399445891
  0
LINE
  5
2A6
100
AcDbEntity
  8
0
100
AcDbLine
 62
7
  6
CONTINUOUS
 10
5.4886226947
 20
4.0122850165
 11
5.496956044
 21
4.0101573572
  0
LINE
  5
2A7
100
AcDbEntity
  8
0
100
AcDbLine
 62
7
  6
CONTINUOUS
 10
5.6214351986
 20
3.9241999093
 11
5.6248726986
 21
3.9230296966
  0
LINE
  5
2A8
100
AcDbEntity
  8
0
100
AcDbLine
 62
7
  6
CONTINUOUS
 10
5.3948726947
 20
4.0144126758
 11
5.4011226947
 21
4.0122850165
  0
LINE
  5
2A9
100
AcDbEntity
  8
0
100
AcDbLine
 62
7
  6
CONTINUOUS
 10
5.265706038
 20
3.9314339511
 11
5.2740393694
 21
3.9271786319
  0
LINE
  5
2AA
100
AcDbEntity
  8
0
100
AcDbLine
 62
7
  6
CONTINUOUS
 10
5.2261227007
 20
3.9867530987
 11
5.2177893694
 21
3.9910084173
  0
LINE
  5
2AB
100
AcDbEntity
  8
0
100
AcDbLine
 62
7
  6
CONTINUOUS
 10
5.4511226947
 20
3.9314339511
 11
5.459456044
 21
3.9271786319
  0
LINE
  5
2AC
100
AcDbEntity
  8
0
100
AcDbLine
 62
7
  6
CONTINUOUS
 10
5.1782060358
 20
3.9335616104
 11
5.1844560365
 21
3.9293062914
  0
LINE
  5
2AD
100
AcDbEntity
  8
0
100
AcDbLine
 62
7
  6
CONTINUOUS
 10
5.2761227067
 20
3.9399445891
 11
5.2698727067
 21
3.9441999093
  0
LINE
  5
2AE
100
AcDbEntity
  8
0
100
AcDbLine
 62
7
  6
CONTINUOUS
 10
5.215706035
 20
3.98249778
 11
5.221956038
 21
3.9782424614
  0
LINE
  5
2AF
100
AcDbEntity
  8
0
100
AcDbLine
 62
7
  6
CONTINUOUS
 10
5.1740393694
 20
3.9378169298
 11
5.1782060358
 21
3.9335616104
  0
LINE
  5
2B0
100
AcDbEntity
  8
0
100
AcDbLine
 62
7
  6
CONTINUOUS
 10
5.1886227022
 20
3.9378169298
 11
5.1823727022
 21
3.9441999093
  0
LINE
  5
2B1
100
AcDbEntity
  8
0
100
AcDbLine
 62
7
  6
CONTINUOUS
 10
5.2573727007
 20
3.9399445891
 11
5.265706038
 21
3.9314339511
  0
LINE
  5
2B2
100
AcDbEntity
  8
0
100
AcDbLine
 62
7
  6
CONTINUOUS
 10
5.2323727007
 20
3.9803701207
 11
5.2261227007
 21
3.9867530987
  0
LINE
  5
2B3
100
AcDbEntity
  8
0
100
AcDbLine
 62
7
  6
CONTINUOUS
 10
4.8277893664
 20
4.3000509724
 11
4.8277893664
 21
5.0500509724
  0
LINE
  5
2B4
100
AcDbEntity
  8
0
100
AcDbLine
 62
7
  6
CONTINUOUS
 10
4.8427893664
 20
4.3000509724
 11
4.8427893664
 21
5.0500509724
  0
LINE
  5
2B5
100
AcDbEntity
  8
0
100
AcDbLine
 62
7
  6
CONTINUOUS
 10
4.9198726858
 20
5.4000509724
 11
4.9198726858
 21
5.3000509724
  0
LINE
  5
2B6
100
AcDbEntity
  8
0
100
AcDbLine
 62
7
  6
CONTINUOUS
 10
4.9323726858
 20
5.3128169298
 11
4.9323726858
 21
5.3447318241
  0
LINE
  5
2B7
100
AcDbEntity
  8
0
100
AcDbLine
 62
7
  6
CONTINUOUS
 10
4.9323726858
 20
5.35749778
 11
4.9323726858
 21
5.3872850165
  0
LINE
  5
2B8
100
AcDbEntity
  8
0
100
AcDbLine
 62
7
  6
CONTINUOUS
 10
4.9677893664
 20
5.1900509724
 11
4.9677893664
 21
5.1750509724
  0
LINE
  5
2B9
100
AcDbEntity
  8
0
100
AcDbLine
 62
7
  6
CONTINUOUS
 10
4.9677893664
 20
4.1600509724
 11
4.9677893664
 21
4.1750509724
  0
LINE
  5
2BA
100
AcDbEntity
  8
0
100
AcDbLine
 62
7
  6
CONTINUOUS
 10
4.9844560171
 20
5.3745190546
 11
4.9844560171
 21
5.3702637359
  0
LINE
  5
2BB
100
AcDbEntity
  8
0
100
AcDbLine
 62
7
  6
CONTINUOUS
 10
4.9844560171
 20
5.3319658652
 11
4.9844560171
 21
5.3255828872
  0
LINE
  5
2BC
100
AcDbEntity
  8
0
100
AcDbLine
 62
7
  6
CONTINUOUS
 10
4.9948726858
 20
5.3617530987
 11
4.9969560171
 21
5.3681360766
  0
LINE
  5
2BD
100
AcDbEntity
  8
0
100
AcDbLine
 62
7
  6
CONTINUOUS
 10
4.9844560171
 20
5.3255828872
 11
4.9823726858
 21
5.3191999093
  0
LINE
  5
2BE
100
AcDbEntity
  8
0
100
AcDbLine
 62
7
  6
CONTINUOUS
 10
4.9948726858
 20
5.3170722485
 11
4.9969560171
 21
5.3234552279
  0
LINE
  5
2BF
100
AcDbEntity
  8
0
100
AcDbLine
 62
7
  6
CONTINUOUS
 10
5.0782060231
 20
5.3702637359
 11
5.0761226858
 21
5.363880758
  0
LINE
  5
2C0
100
AcDbEntity
  8
0
100
AcDbLine
 62
7
  6
CONTINUOUS
 10
5.0886226858
 20
5.3617530987
 11
5.0907060231
 21
5.3681360766
  0
LINE
  5
2C1
100
AcDbEntity
  8
0
100
AcDbLine
 62
7
  6
CONTINUOUS
 10
5.1323726858
 20
5.3340935245
 11
5.1511226858
 21
5.3915403351
  0
LINE
  5
2C2
100
AcDbEntity
  8
0
100
AcDbLine
 62
7
  6
CONTINUOUS
 10
5.1219560112
 20
5.3000509724
 11
5.1302893604
 21
5.3255828872
  0
LINE
  5
2C3
100
AcDbEntity
  8
0
100
AcDbLine
 62
7
  6
CONTINUOUS
 10
5.1427893604
 20
5.4000509724
 11
5.1094560231
 21
5.3000509724
  0
LINE
  5
2C4
100
AcDbEntity
  8
0
100
AcDbLine
 62
7
  6
CONTINUOUS
 10
5.2740393604
 20
5.3255828872
 11
5.2698726858
 21
5.3191999093
  0
LINE
  5
2C5
100
AcDbEntity
  8
0
100
AcDbLine
 62
7
  6
CONTINUOUS
 10
5.3198726858
 20
5.3936679944
 11
5.3115393604
 21
5.3851573572
  0
LINE
  5
2C6
100
AcDbEntity
  8
0
100
AcDbLine
 62
7
  6
CONTINUOUS
 10
5.2740393604
 20
5.3064339511
 11
5.2823726858
 21
5.3149445891
  0
LINE
  5
2C7
100
AcDbEntity
  8
0
100
AcDbLine
 62
7
  6
CONTINUOUS
 10
5.3677893366
 20
5.3064339511
 11
5.3761226858
 21
5.3149445891
  0
LINE
  5
2C8
100
AcDbEntity
  8
0
100
AcDbLine
 62
7
  6
CONTINUOUS
 10
5.3636226858
 20
5.3191999093
 11
5.3573726858
 21
5.3149445891
  0
LINE
  5
2C9
100
AcDbEntity
  8
0
100
AcDbLine
 62
7
  6
CONTINUOUS
 10
5.603206035
 20
5.3809020385
 11
5.609456035
 21
5.3851573572
  0
LINE
  5
2CA
100
AcDbEntity
  8
0
100
AcDbLine
 62
7
  6
CONTINUOUS
 10
5.6511226858
 20
5.3191999093
 11
5.6448726858
 21
5.3149445891
  0
LINE
  5
2CB
100
AcDbEntity
  8
0
100
AcDbLine
 62
7
  6
CONTINUOUS
 10
5.6073726858
 20
5.3979233131
 11
5.5990393366
 21
5.3936679944
  0
LINE
  5
2CC
100
AcDbEntity
  8
0
100
AcDbLine
 62
7
  6
CONTINUOUS
 10
5.646956035
 20
5.3021786319
 11
5.6552893366
 21
5.3064339511
  0
LINE
  5
2CD
100
AcDbEntity
  8
0
100
AcDbLine
 62
7
  6
CONTINUOUS
 10
6.2177893664
 20
4.1600509724
 11
4.9677893664
 21
4.1600509724
  0
LINE
  5
2CE
100
AcDbEntity
  8
0
100
AcDbLine
 62
7
  6
CONTINUOUS
 10
6.2177893664
 20
4.1750509724
 11
4.9677893664
 21
4.1750509724
  0
LINE
  5
2CF
100
AcDbEntity
  8
0
100
AcDbLine
 62
7
  6
CONTINUOUS
 10
6.3577893664
 20
4.3000509724
 11
6.3427893664
 21
4.3000509724
  0
LINE
  5
2D0
100
AcDbEntity
  8
0
100
AcDbLine
 62
7
  6
CONTINUOUS
 10
4.8277893664
 20
4.3000509724
 11
4.8427893664
 21
4.3000509724
  0
LINE
  5
2D1
100
AcDbEntity
  8
0
100
AcDbLine
 62
7
  6
CONTINUOUS
 10
5.5073726947
 20
4.0186679944
 11
5.4990393694
 21
4.0229233131
  0
LINE
  5
2D2
100
AcDbEntity
  8
0
100
AcDbLine
 62
7
  6
CONTINUOUS
 10
5.4615393694
 20
3.9399445891
 11
5.4552893694
 21
3.9441999093
  0
LINE
  5
2D3
100
AcDbEntity
  8
0
100
AcDbLine
 62
7
  6
CONTINUOUS
 10
5.496956044
 20
4.0101573572
 11
5.503206044
 21
4.0059020385
  0
LINE
  5
2D4
100
AcDbEntity
  8
0
100
AcDbLine
 62
7
  6
CONTINUOUS
 10
5.4115393694
 20
4.0165403351
 11
5.403206044
 21
4.0229233131
  0
LINE
  5
2D5
100
AcDbEntity
  8
0
100
AcDbLine
 62
7
  6
CONTINUOUS
 10
5.6306018664
 20
3.9253701219
 11
5.6260185341
 21
3.9288807598
  0
LINE
  5
2D6
100
AcDbEntity
  8
0
100
AcDbLine
 62
7
  6
CONTINUOUS
 10
5.4427893694
 20
3.9399445891
 11
5.4511226947
 21
3.9314339511
  0
LINE
  5
2D7
100
AcDbEntity
  8
0
100
AcDbLine
 62
7
  6
CONTINUOUS
 10
5.4011226947
 20
4.0122850165
 11
5.4052893694
 21
4.0080296978
  0
LINE
  5
2D8
100
AcDbEntity
  8
0
100
AcDbLine
 62
7
  6
CONTINUOUS
 10
5.2698727067
 20
3.9441999093
 11
5.265706038
 21
3.9505828872
  0
LINE
  5
2D9
100
AcDbEntity
  8
0
100
AcDbLine
 62
7
  6
CONTINUOUS
 10
5.1698727027
 20
3.9463275686
 11
5.1740393694
 21
3.9378169298
  0
LINE
  5
2DA
100
AcDbEntity
  8
0
100
AcDbLine
 62
7
  6
CONTINUOUS
 10
5.253206038
 20
3.9484552279
 11
5.2573727007
 21
3.9399445891
  0
LINE
  5
2DB
100
AcDbEntity
  8
0
100
AcDbLine
 62
7
  6
CONTINUOUS
 10
5.1823727022
 20
3.9441999093
 11
5.1782060358
 21
3.9548382059
  0
LINE
  5
2DC
100
AcDbEntity
  8
0
100
AcDbLine
 62
7
  6
CONTINUOUS
 10
4.9969560171
 20
5.3234552279
 11
4.9969560171
 21
5.3340935245
  0
LINE
  5
2DD
100
AcDbEntity
  8
0
100
AcDbLine
 62
7
  6
CONTINUOUS
 10
4.9969560171
 20
5.3681360766
 11
4.9969560171
 21
5.3766467199
  0
LINE
  5
2DE
100
AcDbEntity
  8
0
100
AcDbLine
 62
7
  6
CONTINUOUS
 10
5.0136226858
 20
5.4000509724
 11
5.0136226858
 21
5.3000509724
  0
LINE
  5
2DF
100
AcDbEntity
  8
0
100
AcDbLine
 62
7
  6
CONTINUOUS
 10
5.0261226858
 20
5.3000509724
 11
5.0261226858
 21
5.3447318241
  0
LINE
  5
2E0
100
AcDbEntity
  8
0
100
AcDbLine
 62
7
  6
CONTINUOUS
 10
5.0261226858
 20
5.35749778
 11
5.0261226858
 21
5.3894126758
  0
LINE
  5
2E1
100
AcDbEntity
  8
0
100
AcDbLine
 62
7
  6
CONTINUOUS
 10
5.0782060231
 20
5.3766467199
 11
5.0782060231
 21
5.3702637359
  0
LINE
  5
2E2
100
AcDbEntity
  8
0
100
AcDbLine
 62
7
  6
CONTINUOUS
 10
5.0907060231
 20
5.3681360766
 11
5.0907060231
 21
5.3766467199
  0
LINE
  5
2E3
100
AcDbEntity
  8
0
100
AcDbLine
 62
7
  6
CONTINUOUS
 10
5.2177893604
 20
5.3851573572
 11
5.2157060112
 21
5.3766467199
  0
LINE
  5
2E4
100
AcDbEntity
  8
0
100
AcDbLine
 62
7
  6
CONTINUOUS
 10
5.3115393604
 20
5.3851573572
 11
5.3094560112
 21
5.3766467199
  0
LINE
  5
2E5
100
AcDbEntity
  8
0
100
AcDbLine
 62
7
  6
CONTINUOUS
 10
5.2282060112
 20
5.3745190546
 11
5.2302893604
 21
5.3809020385
  0
LINE
  5
2E6
100
AcDbEntity
  8
0
100
AcDbLine
 62
7
  6
CONTINUOUS
 10
5.321956035
 20
5.3745190546
 11
5.3240393366
 21
5.3809020385
  0
LINE
  5
2E7
100
AcDbEntity
  8
0
100
AcDbLine
 62
7
  6
CONTINUOUS
 10
5.2823726858
 20
5.3149445891
 11
5.2865393604
 21
5.3234552279
  0
LINE
  5
2E8
100
AcDbEntity
  8
0
100
AcDbLine
 62
7
  6
CONTINUOUS
 10
5.3761226858
 20
5.3149445891
 11
5.3802893366
 21
5.3234552279
  0
LINE
  5
2E9
100
AcDbEntity
  8
0
100
AcDbLine
 62
7
  6
CONTINUOUS
 10
5.3677893366
 20
5.3255828872
 11
5.3636226858
 21
5.3191999093
  0
LINE
  5
2EA
100
AcDbEntity
  8
0
100
AcDbLine
 62
7
  6
CONTINUOUS
 10
5.5990393366
 20
5.3745190546
 11
5.603206035
 21
5.3809020385
  0
LINE
  5
2EB
100
AcDbEntity
  8
0
100
AcDbLine
 62
7
  6
CONTINUOUS
 10
5.5990393366
 20
5.3936679944
 11
5.590706035
 21
5.3851573572
  0
LINE
  5
2EC
100
AcDbEntity
  8
0
100
AcDbLine
 62
7
  6
CONTINUOUS
 10
5.6552893366
 20
5.3064339511
 11
5.6636226858
 21
5.3149445891
  0
LINE
  5
2ED
100
AcDbEntity
  8
0
100
AcDbLine
 62
7
  6
CONTINUOUS
 10
3.5512893664
 20
4.4125509724
 11
3.6012893664
 21
4.4125509724
  0
LINE
  5
2EE
100
AcDbEntity
  8
0
100
AcDbLine
 62
7
  6
CONTINUOUS
 10
7.0677893664
 20
4.4125509724
 11
7.1177893664
 21
4.4125509724
  0
LINE
  5
2EF
100
AcDbEntity
  8
0
100
AcDbLine
 62
7
  6
CONTINUOUS
 10
3.5637893664
 20
4.4250509724
 11
3.5887893664
 21
4.4250509724
  0
LINE
  5
2F0
100
AcDbEntity
  8
0
100
AcDbLine
 62
7
  6
CONTINUOUS
 10
7.0802893664
 20
4.4250509724
 11
7.1052893664
 21
4.4250509724
  0
LINE
  5
2F1
100
AcDbEntity
  8
0
100
AcDbLine
 62
7
  6
CONTINUOUS
 10
5.515706044
 20
4.0101573572
 11
5.5073726947
 21
4.0186679944
  0
LINE
  5
2F2
100
AcDbEntity
  8
0
100
AcDbLine
 62
7
  6
CONTINUOUS
 10
5.6248726986
 20
3.9230296966
 11
5.6271643664
 21
3.9206892714
  0
LINE
  5
2F3
100
AcDbEntity
  8
0
100
AcDbLine
 62
7
  6
CONTINUOUS
 10
5.4177893694
 20
4.0080296978
 11
5.4115393694
 21
4.0165403351
  0
LINE
  5
2F4
100
AcDbEntity
  8
0
100
AcDbLine
 62
7
  6
CONTINUOUS
 10
5.6340393664
 20
3.9206892714
 11
5.6306018664
 21
3.9253701219
  0
LINE
  5
2F5
100
AcDbEntity
  8
0
100
AcDbLine
 62
7
  6
CONTINUOUS
 10
5.4552893694
 20
3.9441999093
 11
5.4511226947
 21
3.9505828872
  0
LINE
  5
2F6
100
AcDbEntity
  8
0
100
AcDbLine
 62
7
  6
CONTINUOUS
 10
5.4386226947
 20
3.9484552279
 11
5.4427893694
 21
3.9399445891
  0
LINE
  5
2F7
100
AcDbEntity
  8
0
100
AcDbLine
 62
7
  6
CONTINUOUS
 10
5.221956038
 20
3.9782424614
 11
5.2240393694
 21
3.9718594834
  0
LINE
  5
2F8
100
AcDbEntity
  8
0
100
AcDbLine
 62
7
  6
CONTINUOUS
 10
5.234456038
 20
3.9718594834
 11
5.2323727007
 21
3.9803701207
  0
LINE
  5
2F9
100
AcDbEntity
  8
0
100
AcDbLine
 62
7
  6
CONTINUOUS
 10
5.265706038
 20
3.9505828872
 11
5.2636227007
 21
3.9590935245
  0
LINE
  5
2FA
100
AcDbEntity
  8
0
100
AcDbLine
 62
7
  6
CONTINUOUS
 10
5.2511227007
 20
3.9590935245
 11
5.253206038
 21
3.9484552279
  0
LINE
  5
2FB
100
AcDbEntity
  8
0
100
AcDbLine
 62
7
  6
CONTINUOUS
 10
5.1677893694
 20
3.9590935245
 11
5.1698727027
 21
3.9463275686
  0
LINE
  5
2FC
100
AcDbEntity
  8
0
100
AcDbLine
 62
7
  6
CONTINUOUS
 10
5.1782060358
 20
3.9548382059
 11
5.1782060358
 21
3.9612211838
  0
LINE
  5
2FD
100
AcDbEntity
  8
0
100
AcDbLine
 62
7
  6
CONTINUOUS
 10
5.2157060112
 20
5.3766467199
 11
5.2157060112
 21
5.3681360766
  0
LINE
  5
2FE
100
AcDbEntity
  8
0
100
AcDbLine
 62
7
  6
CONTINUOUS
 10
5.2282060112
 20
5.3702637359
 11
5.2282060112
 21
5.3745190546
  0
LINE
  5
2FF
100
AcDbEntity
  8
0
100
AcDbLine
 62
7
  6
CONTINUOUS
 10
5.2511227007
 20
4.0250509724
 11
5.2511227007
 21
3.9590935245
  0
LINE
  5
300
100
AcDbEntity
  8
0
100
AcDbLine
 62
7
  6
CONTINUOUS
 10
5.2636227007
 20
3.9590935245
 11
5.2636227007
 21
4.0250509724
  0
LINE
  5
301
100
AcDbEntity
  8
0
100
AcDbLine
 62
7
  6
CONTINUOUS
 10
5.2740393604
 20
5.3319658652
 11
5.2740393604
 21
5.3255828872
  0
LINE
  5
302
100
AcDbEntity
  8
0
100
AcDbLine
 62
7
  6
CONTINUOUS
 10
5.2865393604
 20
5.3234552279
 11
5.2865393604
 21
5.3340935245
  0
LINE
  5
303
100
AcDbEntity
  8
0
100
AcDbLine
 62
7
  6
CONTINUOUS
 10
5.3094560112
 20
5.3766467199
 11
5.3094560112
 21
5.3681360766
  0
LINE
  5
304
100
AcDbEntity
  8
0
100
AcDbLine
 62
7
  6
CONTINUOUS
 10
5.3136227067
 20
4.0250509724
 11
5.3136227067
 21
3.9590935245
  0
LINE
  5
305
100
AcDbEntity
  8
0
100
AcDbLine
 62
7
  6
CONTINUOUS
 10
5.321956035
 20
5.3702637359
 11
5.321956035
 21
5.3745190546
  0
LINE
  5
306
100
AcDbEntity
  8
0
100
AcDbLine
 62
7
  6
CONTINUOUS
 10
5.3261227067
 20
3.9590935245
 11
5.3261227067
 21
4.0250509724
  0
LINE
  5
307
100
AcDbEntity
  8
0
100
AcDbLine
 62
7
  6
CONTINUOUS
 10
5.3427893694
 20
4.0250509724
 11
5.3427893694
 21
3.9250509724
  0
LINE
  5
308
100
AcDbEntity
  8
0
100
AcDbLine
 62
7
  6
CONTINUOUS
 10
5.3552893694
 20
3.9250509724
 11
5.3552893694
 21
3.9697318241
  0
LINE
  5
309
100
AcDbEntity
  8
0
100
AcDbLine
 62
7
  6
CONTINUOUS
 10
5.3552893694
 20
3.98249778
 11
5.3552893694
 21
4.0144126758
  0
LINE
  5
30A
100
AcDbEntity
  8
0
100
AcDbLine
 62
7
  6
CONTINUOUS
 10
5.3677893366
 20
5.3319658652
 11
5.3677893366
 21
5.3255828872
  0
LINE
  5
30B
100
AcDbEntity
  8
0
100
AcDbLine
 62
7
  6
CONTINUOUS
 10
5.1698727027
 20
3.9718594834
 11
5.1677893694
 21
3.9590935245
  0
LINE
  5
30C
100
AcDbEntity
  8
0
100
AcDbLine
 62
7
  6
CONTINUOUS
 10
5.1782060358
 20
3.9612211838
 11
5.1802893694
 21
3.9697318241
  0
LINE
  5
30D
100
AcDbEntity
  8
0
100
AcDbLine
 62
7
  6
CONTINUOUS
 10
5.590706035
 20
5.3851573572
 11
5.5865393366
 21
5.3766467199
  0
LINE
  5
30E
100
AcDbEntity
  8
0
100
AcDbLine
 62
7
  6
CONTINUOUS
 10
3.5637893664
 20
4.5500509724
 11
3.5887893664
 21
4.5500509724
  0
LINE
  5
30F
100
AcDbEntity
  8
0
100
AcDbLine
 62
7
  6
CONTINUOUS
 10
7.0802893664
 20
4.5500509724
 11
7.1052893664
 21
4.5500509724
  0
LINE
  5
310
100
AcDbEntity
  8
0
100
AcDbLine
 62
7
  6
CONTINUOUS
 10
5.6363310341
 20
3.8750509724
 11
5.6260185341
 21
3.9019658661
  0
LINE
  5
311
100
AcDbEntity
  8
0
100
AcDbLine
 62
7
  6
CONTINUOUS
 10
5.0927893485
 20
5.3000509724
 11
5.0740393485
 21
5.3489871427
  0
LINE
  5
312
100
AcDbEntity
  8
0
100
AcDbLine
 62
7
  6
CONTINUOUS
 10
5.0615393485
 20
5.3447318241
 11
5.0782060231
 21
5.3000509724
  0
LINE
  5
313
100
AcDbEntity
  8
0
100
AcDbLine
 62
7
  6
CONTINUOUS
 10
5.6191435325
 20
3.8996254408
 11
5.6283101986
 21
3.8750509724
  0
LINE
  5
314
100
AcDbEntity
  8
0
100
AcDbLine
 62
7
  6
CONTINUOUS
 10
5.4052893694
 20
4.0080296978
 11
5.4073726947
 21
4.0016467199
  0
LINE
  5
315
100
AcDbEntity
  8
0
100
AcDbLine
 62
7
  6
CONTINUOUS
 10
4.9823726858
 20
5.3383488461
 11
4.9844560171
 21
5.3319658652
  0
LINE
  5
316
100
AcDbEntity
  8
0
100
AcDbLine
 62
7
  6
CONTINUOUS
 10
5.4198726947
 20
4.0016467199
 11
5.4177893694
 21
4.0080296978
  0
LINE
  5
317
100
AcDbEntity
  8
0
100
AcDbLine
 62
7
  6
CONTINUOUS
 10
4.9969560171
 20
5.3340935245
 11
4.9948726858
 21
5.3404765055
  0
LINE
  5
318
100
AcDbEntity
  8
0
100
AcDbLine
 62
7
  6
CONTINUOUS
 10
4.9823726858
 20
5.3809020385
 11
4.9844560171
 21
5.3745190546
  0
LINE
  5
319
100
AcDbEntity
  8
0
100
AcDbLine
 62
7
  6
CONTINUOUS
 10
4.9969560171
 20
5.3766467199
 11
4.9948726858
 21
5.3830296978
  0
LINE
  5
31A
100
AcDbEntity
  8
0
100
AcDbLine
 62
7
  6
CONTINUOUS
 10
5.503206044
 20
4.0059020385
 11
5.5052893694
 21
3.9995190546
  0
LINE
  5
31B
100
AcDbEntity
  8
0
100
AcDbLine
 62
7
  6
CONTINUOUS
 10
5.0761226858
 20
5.3830296978
 11
5.0782060231
 21
5.3766467199
  0
LINE
  5
31C
100
AcDbEntity
  8
0
100
AcDbLine
 62
7
  6
CONTINUOUS
 10
5.0907060231
 20
5.3766467199
 11
5.0886226858
 21
5.3830296978
  0
LINE
  5
31D
100
AcDbEntity
  8
0
100
AcDbLine
 62
7
  6
CONTINUOUS
 10
5.4511226947
 20
3.9505828872
 11
5.4490393694
 21
3.9590935245
  0
LINE
  5
31E
100
AcDbEntity
  8
0
100
AcDbLine
 62
7
  6
CONTINUOUS
 10
5.2094560112
 20
5.3277105465
 11
5.2115393604
 21
5.3191999093
  0
LINE
  5
31F
100
AcDbEntity
  8
0
100
AcDbLine
 62
7
  6
CONTINUOUS
 10
5.4365393694
 20
3.9590935245
 11
5.4386226947
 21
3.9484552279
  0
LINE
  5
320
100
AcDbEntity
  8
0
100
AcDbLine
 62
7
  6
CONTINUOUS
 10
5.3802893366
 20
5.3234552279
 11
5.3802893366
 21
5.3340935245
  0
LINE
  5
321
100
AcDbEntity
  8
0
100
AcDbLine
 62
7
  6
CONTINUOUS
 10
5.396956035
 20
5.4000509724
 11
5.396956035
 21
5.3894126758
  0
LINE
  5
322
100
AcDbEntity
  8
0
100
AcDbLine
 62
7
  6
CONTINUOUS
 10
5.4073726947
 20
4.0016467199
 11
5.4073726947
 21
3.9952637359
  0
LINE
  5
323
100
AcDbEntity
  8
0
100
AcDbLine
 62
7
  6
CONTINUOUS
 10
5.4198726947
 20
3.9931360766
 11
5.4198726947
 21
4.0016467199
  0
LINE
  5
324
100
AcDbEntity
  8
0
100
AcDbLine
 62
7
  6
CONTINUOUS
 10
5.4302893366
 20
5.3894126758
 11
5.4302893366
 21
5.3000509724
  0
LINE
  5
325
100
AcDbEntity
  8
0
100
AcDbLine
 62
7
  6
CONTINUOUS
 10
5.4365393694
 20
3.9910084173
 11
5.4365393694
 21
3.9590935245
  0
LINE
  5
326
100
AcDbEntity
  8
0
100
AcDbLine
 62
7
  6
CONTINUOUS
 10
5.4427893366
 20
5.3000509724
 11
5.4427893366
 21
5.3894126758
  0
LINE
  5
327
100
AcDbEntity
  8
0
100
AcDbLine
 62
7
  6
CONTINUOUS
 10
5.4490393694
 20
3.9590935245
 11
5.4490393694
 21
3.9910084173
  0
LINE
  5
328
100
AcDbEntity
  8
0
100
AcDbLine
 62
7
  6
CONTINUOUS
 10
5.4761226858
 20
5.3894126758
 11
5.4761226858
 21
5.4000509724
  0
LINE
  5
329
100
AcDbEntity
  8
0
100
AcDbLine
 62
7
  6
CONTINUOUS
 10
5.4927893366
 20
5.4000509724
 11
5.4927893366
 21
5.3000509724
  0
LINE
  5
32A
100
AcDbEntity
  8
0
100
AcDbLine
 62
7
  6
CONTINUOUS
 10
5.5052893366
 20
5.3128169298
 11
5.5052893366
 21
5.3468594834
  0
LINE
  5
32B
100
AcDbEntity
  8
0
100
AcDbLine
 62
7
  6
CONTINUOUS
 10
5.5052893366
 20
5.3596254393
 11
5.5052893366
 21
5.3872850165
  0
LINE
  5
32C
100
AcDbEntity
  8
0
100
AcDbLine
 62
7
  6
CONTINUOUS
 10
5.559456035
 20
5.3468594834
 11
5.559456035
 21
5.3596254393
  0
LINE
  5
32D
100
AcDbEntity
  8
0
100
AcDbLine
 62
7
  6
CONTINUOUS
 10
5.5865393366
 20
5.3766467199
 11
5.584456035
 21
5.3660084173
  0
LINE
  5
32E
100
AcDbEntity
  8
0
100
AcDbLine
 62
7
  6
CONTINUOUS
 10
5.3240393694
 20
3.9484552279
 11
5.3261227067
 21
3.9590935245
  0
LINE
  5
32F
100
AcDbEntity
  8
0
100
AcDbLine
 62
7
  6
CONTINUOUS
 10
5.6636226858
 20
5.3149445891
 11
5.665706035
 21
5.3255828872
  0
LINE
  5
330
100
AcDbEntity
  8
0
100
AcDbLine
 62
7
  6
CONTINUOUS
 10
5.2323727007
 20
3.9378169298
 11
5.234456038
 21
3.9463275686
  0
LINE
  5
331
100
AcDbEntity
  8
0
100
AcDbLine
 62
7
  6
CONTINUOUS
 10
5.596956035
 20
5.3660084173
 11
5.5990393366
 21
5.3745190546
  0
LINE
  5
332
100
AcDbEntity
  8
0
100
AcDbLine
 62
7
  6
CONTINUOUS
 10
5.3136227067
 20
3.9590935245
 11
5.3115393694
 21
3.9505828872
  0
LINE
  5
333
100
AcDbEntity
  8
0
100
AcDbLine
 62
7
  6
CONTINUOUS
 10
5.653206035
 20
5.3255828872
 11
5.6511226858
 21
5.3191999093
  0
LINE
  5
334
100
AcDbEntity
  8
0
100
AcDbLine
 62
7
  6
CONTINUOUS
 10
5.2240393694
 20
3.9463275686
 11
5.221956038
 21
3.9399445891
  0
LINE
  5
335
100
AcDbEntity
  8
0
100
AcDbLine
 62
7
  6
CONTINUOUS
 10
5.1740393694
 20
3.9803701207
 11
5.1698727027
 21
3.9718594834
  0
LINE
  5
336
100
AcDbEntity
  8
0
100
AcDbLine
 62
7
  6
CONTINUOUS
 10
5.1802893694
 20
3.9697318241
 11
5.1823727022
 21
3.9739871427
  0
LINE
  5
337
100
AcDbEntity
  8
0
100
AcDbLine
 62
7
  6
CONTINUOUS
 10
7.1052893664
 20
4.8000509724
 11
7.0802893664
 21
4.8000509724
  0
LINE
  5
338
100
AcDbEntity
  8
0
100
AcDbLine
 62
7
  6
CONTINUOUS
 10
3.5887893664
 20
4.8000509724
 11
3.5637893664
 21
4.8000509724
  0
LINE
  5
339
100
AcDbEntity
  8
0
100
AcDbLine
 62
7
  6
CONTINUOUS
 10
4.9782060171
 20
5.3426041648
 11
4.9823726858
 21
5.3383488461
  0
LINE
  5
33A
100
AcDbEntity
  8
0
100
AcDbLine
 62
7
  6
CONTINUOUS
 10
4.9948726858
 20
5.3404765055
 11
4.9886226858
 21
5.3489871427
  0
LINE
  5
33B
100
AcDbEntity
  8
0
100
AcDbLine
 62
7
  6
CONTINUOUS
 10
4.9948726858
 20
5.3830296978
 11
4.9886226858
 21
5.3915403351
  0
LINE
  5
33C
100
AcDbEntity
  8
0
100
AcDbLine
 62
7
  6
CONTINUOUS
 10
5.0886226858
 20
5.3830296978
 11
5.0823726858
 21
5.3915403351
  0
LINE
  5
33D
100
AcDbEntity
  8
0
100
AcDbLine
 62
7
  6
CONTINUOUS
 10
5.2115393604
 20
5.3191999093
 11
5.2177893604
 21
5.3085616104
  0
LINE
  5
33E
100
AcDbEntity
  8
0
100
AcDbLine
 62
7
  6
CONTINUOUS
 10
5.1927893604
 20
5.3000509724
 11
5.1594560112
 21
5.4000509724
  0
LINE
  5
33F
100
AcDbEntity
  8
0
100
AcDbLine
 62
7
  6
CONTINUOUS
 10
5.6271643664
 20
3.9206892714
 11
5.6283101986
 21
3.9171786335
  0
LINE
  5
340
100
AcDbEntity
  8
0
100
AcDbLine
 62
7
  6
CONTINUOUS
 10
5.1719560112
 20
5.3255828872
 11
5.1802893604
 21
5.3000509724
  0
LINE
  5
341
100
AcDbEntity
  8
0
100
AcDbLine
 62
7
  6
CONTINUOUS
 10
5.1511226858
 20
5.3915403351
 11
5.1698726858
 21
5.3340935245
  0
LINE
  5
342
100
AcDbEntity
  8
0
100
AcDbLine
 62
7
  6
CONTINUOUS
 10
5.6351851986
 20
3.9171786335
 11
5.6340393664
 21
3.9206892714
  0
LINE
  5
343
100
AcDbEntity
  8
0
100
AcDbLine
 62
7
  6
CONTINUOUS
 10
5.2240393604
 20
5.3213275686
 11
5.2219560112
 21
5.3277105465
  0
LINE
  5
344
100
AcDbEntity
  8
0
100
AcDbLine
 62
7
  6
CONTINUOUS
 10
5.2302893604
 20
5.363880758
 11
5.2282060112
 21
5.3702637359
  0
LINE
  5
345
100
AcDbEntity
  8
0
100
AcDbLine
 62
7
  6
CONTINUOUS
 10
5.2802893604
 20
5.3766467199
 11
5.2782060112
 21
5.3830296978
  0
LINE
  5
346
100
AcDbEntity
  8
0
100
AcDbLine
 62
7
  6
CONTINUOUS
 10
5.3177893604
 20
5.3213275686
 11
5.3157060112
 21
5.3277105465
  0
LINE
  5
347
100
AcDbEntity
  8
0
100
AcDbLine
 62
7
  6
CONTINUOUS
 10
5.3240393366
 20
5.363880758
 11
5.321956035
 21
5.3702637359
  0
LINE
  5
348
100
AcDbEntity
  8
0
100
AcDbLine
 62
7
  6
CONTINUOUS
 10
5.2157060112
 20
5.3681360766
 11
5.2177893604
 21
5.3596254393
  0
LINE
  5
349
100
AcDbEntity
  8
0
100
AcDbLine
 62
7
  6
CONTINUOUS
 10
5.3032060112
 20
5.3277105465
 11
5.3052893604
 21
5.3191999093
  0
LINE
  5
34A
100
AcDbEntity
  8
0
100
AcDbLine
 62
7
  6
CONTINUOUS
 10
5.3094560112
 20
5.3681360766
 11
5.3115393604
 21
5.3596254393
  0
LINE
  5
34B
100
AcDbEntity
  8
0
100
AcDbLine
 62
7
  6
CONTINUOUS
 10
5.5177893694
 20
3.9995190546
 11
5.515706044
 21
4.0101573572
  0
LINE
  5
34C
100
AcDbEntity
  8
0
100
AcDbLine
 62
7
  6
CONTINUOUS
 10
5.5677893366
 20
5.3000509724
 11
5.5677893366
 21
5.3128169298
  0
LINE
  5
34D
100
AcDbEntity
  8
0
100
AcDbLine
 62
7
  6
CONTINUOUS
 10
5.5677893366
 20
5.3872850165
 11
5.5677893366
 21
5.4000509724
  0
LINE
  5
34E
100
AcDbEntity
  8
0
100
AcDbLine
 62
7
  6
CONTINUOUS
 10
5.584456035
 20
5.3660084173
 11
5.584456035
 21
5.3340935245
  0
LINE
  5
34F
100
AcDbEntity
  8
0
100
AcDbLine
 62
7
  6
CONTINUOUS
 10
5.5927893664
 20
3.9300509724
 11
5.5927893664
 21
3.8750509724
  0
LINE
  5
350
100
AcDbEntity
  8
0
100
AcDbLine
 62
7
  6
CONTINUOUS
 10
5.596956035
 20
5.3340935245
 11
5.596956035
 21
5.3660084173
  0
LINE
  5
351
100
AcDbEntity
  8
0
100
AcDbLine
 62
7
  6
CONTINUOUS
 10
5.5996643664
 20
3.8750509724
 11
5.5996643664
 21
3.8996254408
  0
LINE
  5
352
100
AcDbEntity
  8
0
100
AcDbLine
 62
7
  6
CONTINUOUS
 10
5.5996643664
 20
3.9066467166
 11
5.5996643664
 21
3.9241999093
  0
LINE
  5
353
100
AcDbEntity
  8
0
100
AcDbLine
 62
7
  6
CONTINUOUS
 10
5.6283101986
 20
3.9171786335
 11
5.6283101986
 21
3.9136679923
  0
LINE
  5
354
100
AcDbEntity
  8
0
100
AcDbLine
 62
7
  6
CONTINUOUS
 10
5.6351851986
 20
3.9124977797
 11
5.6351851986
 21
3.9171786335
  0
LINE
  5
355
100
AcDbEntity
  8
0
100
AcDbLine
 62
7
  6
CONTINUOUS
 10
5.6823726858
 20
5.4000509724
 11
5.6823726858
 21
5.3000509724
  0
LINE
  5
356
100
AcDbEntity
  8
0
100
AcDbLine
 62
7
  6
CONTINUOUS
 10
5.6948726858
 20
5.3000509724
 11
5.6948726858
 21
5.3468594834
  0
LINE
  5
357
100
AcDbEntity
  8
0
100
AcDbLine
 62
7
  6
CONTINUOUS
 10
5.6948726858
 20
5.3596254393
 11
5.6948726858
 21
5.4000509724
  0
LINE
  5
358
100
AcDbEntity
  8
0
100
AcDbLine
 62
7
  6
CONTINUOUS
 10
5.4386226947
 20
4.0016467199
 11
5.4365393694
 21
3.9910084173
  0
LINE
  5
359
100
AcDbEntity
  8
0
100
AcDbLine
 62
7
  6
CONTINUOUS
 10
5.515706044
 20
3.9399445891
 11
5.5177893694
 21
3.9505828872
  0
LINE
  5
35A
100
AcDbEntity
  8
0
100
AcDbLine
 62
7
  6
CONTINUOUS
 10
5.4490393694
 20
3.9910084173
 11
5.4511226947
 21
3.9995190546
  0
LINE
  5
35B
100
AcDbEntity
  8
0
100
AcDbLine
 62
7
  6
CONTINUOUS
 10
5.4073726947
 20
3.9952637359
 11
5.4052893694
 21
3.988880758
  0
LINE
  5
35C
100
AcDbEntity
  8
0
100
AcDbLine
 62
7
  6
CONTINUOUS
 10
5.4177893694
 20
3.9867530987
 11
5.4198726947
 21
3.9931360766
  0
LINE
  5
35D
100
AcDbEntity
  8
0
100
AcDbLine
 62
7
  6
CONTINUOUS
 10
5.5052893694
 20
3.9505828872
 11
5.503206044
 21
3.9441999093
  0
LINE
  5
35E
100
AcDbEntity
  8
0
100
AcDbLine
 62
7
  6
CONTINUOUS
 10
5.3198727067
 20
3.9399445891
 11
5.3240393694
 21
3.9484552279
  0
LINE
  5
35F
100
AcDbEntity
  8
0
100
AcDbLine
 62
7
  6
CONTINUOUS
 10
5.4427893694
 20
4.0101573572
 11
5.4386226947
 21
4.0016467199
  0
LINE
  5
360
100
AcDbEntity
  8
0
100
AcDbLine
 62
7
  6
CONTINUOUS
 10
5.3115393694
 20
3.9505828872
 11
5.3073727067
 21
3.9441999093
  0
LINE
  5
361
100
AcDbEntity
  8
0
100
AcDbLine
 62
7
  6
CONTINUOUS
 10
5.1782060358
 20
3.9846254393
 11
5.1740393694
 21
3.9803701207
  0
LINE
  5
362
100
AcDbEntity
  8
0
100
AcDbLine
 62
7
  6
CONTINUOUS
 10
5.1823727022
 20
3.9739871427
 11
5.1886227022
 21
3.9803701207
  0
LINE
  5
363
100
AcDbEntity
  8
0
100
AcDbLine
 62
7
  6
CONTINUOUS
 10
7.1052893664
 20
4.9250509724
 11
7.0802893664
 21
4.9250509724
  0
LINE
  5
364
100
AcDbEntity
  8
0
100
AcDbLine
 62
7
  6
CONTINUOUS
 10
3.5887893664
 20
4.9250509724
 11
3.5637893664
 21
4.9250509724
  0
LINE
  5
365
100
AcDbEntity
  8
0
100
AcDbLine
 62
7
  6
CONTINUOUS
 10
7.1177893664
 20
4.9375509724
 11
7.0677893664
 21
4.9375509724
  0
LINE
  5
366
100
AcDbEntity
  8
0
100
AcDbLine
 62
7
  6
CONTINUOUS
 10
3.6012893664
 20
4.9375509724
 11
3.5512893664
 21
4.9375509724
  0
LINE
  5
367
100
AcDbEntity
  8
0
100
AcDbLine
 62
7
  6
CONTINUOUS
 10
6.3577893664
 20
5.0500509724
 11
6.3427893664
 21
5.0500509724
  0
LINE
  5
368
100
AcDbEntity
  8
0
100
AcDbLine
 62
7
  6
CONTINUOUS
 10
4.8277893664
 20
5.0500509724
 11
4.8427893664
 21
5.0500509724
  0
LINE
  5
369
100
AcDbEntity
  8
0
100
AcDbLine
 62
7
  6
CONTINUOUS
 10
4.9886226858
 20
5.3915403351
 11
4.9802893545
 21
5.3979233131
  0
LINE
  5
36A
100
AcDbEntity
  8
0
100
AcDbLine
 62
7
  6
CONTINUOUS
 10
4.9782060171
 20
5.3851573572
 11
4.9823726858
 21
5.3809020385
  0
LINE
  5
36B
100
AcDbEntity
  8
0
100
AcDbLine
 62
7
  6
CONTINUOUS
 10
5.0719560231
 20
5.3872850165
 11
5.0761226858
 21
5.3830296978
  0
LINE
  5
36C
100
AcDbEntity
  8
0
100
AcDbLine
 62
7
  6
CONTINUOUS
 10
5.2302893604
 20
5.3149445891
 11
5.2240393604
 21
5.3213275686
  0
LINE
  5
36D
100
AcDbEntity
  8
0
100
AcDbLine
 62
7
  6
CONTINUOUS
 10
5.2177893604
 20
5.3596254393
 11
5.2261226858
 21
5.3511148021
  0
LINE
  5
36E
100
AcDbEntity
  8
0
100
AcDbLine
 62
7
  6
CONTINUOUS
 10
5.2782060112
 20
5.3830296978
 11
5.2719560112
 21
5.3915403351
  0
LINE
  5
36F
100
AcDbEntity
  8
0
100
AcDbLine
 62
7
  6
CONTINUOUS
 10
5.2698726858
 20
5.3383488461
 11
5.2740393604
 21
5.3319658652
  0
LINE
  5
370
100
AcDbEntity
  8
0
100
AcDbLine
 62
7
  6
CONTINUOUS
 10
5.3636226858
 20
5.3383488461
 11
5.3677893366
 21
5.3319658652
  0
LINE
  5
371
100
AcDbEntity
  8
0
100
AcDbLine
 62
7
  6
CONTINUOUS
 10
5.3052893604
 20
5.3191999093
 11
5.3115393604
 21
5.3085616104
  0
LINE
  5
372
100
AcDbEntity
  8
0
100
AcDbLine
 62
7
  6
CONTINUOUS
 10
5.2865393604
 20
5.3340935245
 11
5.2823726858
 21
5.3426041648
  0
LINE
  5
373
100
AcDbEntity
  8
0
100
AcDbLine
 62
7
  6
CONTINUOUS
 10
5.2657060112
 20
5.3809020385
 11
5.2677893604
 21
5.3766467199
  0
LINE
  5
374
100
AcDbEntity
  8
0
100
AcDbLine
 62
7
  6
CONTINUOUS
 10
5.3802893366
 20
5.3340935245
 11
5.3761226858
 21
5.3426041648
  0
LINE
  5
375
100
AcDbEntity
  8
0
100
AcDbLine
 62
7
  6
CONTINUOUS
 10
5.359456035
 20
5.3809020385
 11
5.3615393366
 21
5.3766467199
  0
LINE
  5
376
100
AcDbEntity
  8
0
100
AcDbLine
 62
7
  6
CONTINUOUS
 10
5.3740393366
 20
5.3766467199
 11
5.371956035
 21
5.3830296978
  0
LINE
  5
377
100
AcDbEntity
  8
0
100
AcDbLine
 62
7
  6
CONTINUOUS
 10
5.5990393366
 20
5.3255828872
 11
5.596956035
 21
5.3340935245
  0
LINE
  5
378
100
AcDbEntity
  8
0
100
AcDbLine
 62
7
  6
CONTINUOUS
 10
5.584456035
 20
5.3340935245
 11
5.5865393366
 21
5.3234552279
  0
LINE
  5
379
100
AcDbEntity
  8
0
100
AcDbLine
 62
7
  6
CONTINUOUS
 10
5.7532059873
 20
5.4000509724
 11
5.7532059873
 21
5.3596254393
  0
LINE
  5
37A
100
AcDbEntity
  8
0
100
AcDbLine
 62
7
  6
CONTINUOUS
 10
5.7532059873
 20
5.3468594834
 11
5.7532059873
 21
5.3000509724
  0
LINE
  5
37B
100
AcDbEntity
  8
0
100
AcDbLine
 62
7
  6
CONTINUOUS
 10
5.7657059873
 20
5.3000509724
 11
5.7657059873
 21
5.4000509724
  0
LINE
  5
37C
100
AcDbEntity
  8
0
100
AcDbLine
 62
7
  6
CONTINUOUS
 10
5.6283101986
 20
3.9136679923
 11
5.6271643664
 21
3.9101573545
  0
LINE
  5
37D
100
AcDbEntity
  8
0
100
AcDbLine
 62
7
  6
CONTINUOUS
 10
5.6340393664
 20
3.9089871418
 11
5.6351851986
 21
3.9124977797
  0
LINE
  5
37E
100
AcDbEntity
  8
0
100
AcDbLine
 62
7
  6
CONTINUOUS
 10
5.4511226947
 20
3.9995190546
 11
5.4552893694
 21
4.0059020385
  0
LINE
  5
37F
100
AcDbEntity
  8
0
100
AcDbLine
 62
7
  6
CONTINUOUS
 10
5.4115393694
 20
3.9782424614
 11
5.4177893694
 21
3.9867530987
  0
LINE
  5
380
100
AcDbEntity
  8
0
100
AcDbLine
 62
7
  6
CONTINUOUS
 10
5.2261227007
 20
3.9314339511
 11
5.2323727007
 21
3.9378169298
  0
LINE
  5
381
100
AcDbEntity
  8
0
100
AcDbLine
 62
7
  6
CONTINUOUS
 10
5.3115393694
 20
3.9314339511
 11
5.3198727067
 21
3.9399445891
  0
LINE
  5
382
100
AcDbEntity
  8
0
100
AcDbLine
 62
7
  6
CONTINUOUS
 10
5.4052893694
 20
3.988880758
 11
5.4011226947
 21
3.9846254393
  0
LINE
  5
383
100
AcDbEntity
  8
0
100
AcDbLine
 62
7
  6
CONTINUOUS
 10
5.4511226947
 20
4.0186679944
 11
5.4427893694
 21
4.0101573572
  0
LINE
  5
384
100
AcDbEntity
  8
0
100
AcDbLine
 62
7
  6
CONTINUOUS
 10
5.403206044
 20
3.9718594834
 11
5.4115393694
 21
3.9782424614
  0
LINE
  5
385
100
AcDbEntity
  8
0
100
AcDbLine
 62
7
  6
CONTINUOUS
 10
5.1844560365
 20
3.988880758
 11
5.1782060358
 21
3.9846254393
  0
LINE
  5
386
100
AcDbEntity
  8
0
100
AcDbLine
 62
7
  6
CONTINUOUS
 10
5.221956038
 20
3.9399445891
 11
5.215706035
 21
3.9356892705
  0
LINE
  5
387
100
AcDbEntity
  8
0
100
AcDbLine
 62
7
  6
CONTINUOUS
 10
5.3073727067
 20
3.9441999093
 11
5.3011227067
 21
3.9399445891
  0
LINE
  5
388
100
AcDbEntity
  8
0
100
AcDbLine
 62
7
  6
CONTINUOUS
 10
5.1886227022
 20
3.9803701207
 11
5.1927893694
 21
3.98249778
  0
LINE
  5
389
100
AcDbEntity
  8
0
100
AcDbLine
 62
7
  6
CONTINUOUS
 10
5.1907060365
 20
3.9910084173
 11
5.1844560365
 21
3.988880758
  0
LINE
  5
38A
100
AcDbEntity
  8
0
100
AcDbLine
 62
7
  6
CONTINUOUS
 10
5.6448726858
 20
5.3149445891
 11
5.6365393366
 21
5.3128169298
  0
LINE
  5
38B
100
AcDbEntity
  8
0
100
AcDbLine
 62
7
  6
CONTINUOUS
 10
5.6365393366
 20
5.3000509724
 11
5.646956035
 21
5.3021786319
  0
LINE
  5
38C
100
AcDbEntity
  8
0
100
AcDbLine
 62
7
  6
CONTINUOUS
 10
4.9677893664
 20
5.1750509724
 11
6.2177893664
 21
5.1750509724
  0
LINE
  5
38D
100
AcDbEntity
  8
0
100
AcDbLine
 62
7
  6
CONTINUOUS
 10
4.9677893664
 20
5.1900509724
 11
6.2177893664
 21
5.1900509724
  0
LINE
  5
38E
100
AcDbEntity
  8
0
100
AcDbLine
 62
7
  6
CONTINUOUS
 10
5.2282060112
 20
5.3021786319
 11
5.2386226858
 21
5.3000509724
  0
LINE
  5
38F
100
AcDbEntity
  8
0
100
AcDbLine
 62
7
  6
CONTINUOUS
 10
5.2386226858
 20
5.3128169298
 11
5.2302893604
 21
5.3149445891
  0
LINE
  5
390
100
AcDbEntity
  8
0
100
AcDbLine
 62
7
  6
CONTINUOUS
 10
4.9719560171
 20
5.3447318241
 11
4.9782060171
 21
5.3426041648
  0
LINE
  5
391
100
AcDbEntity
  8
0
100
AcDbLine
 62
7
  6
CONTINUOUS
 10
4.9719560171
 20
5.3872850165
 11
4.9782060171
 21
5.3851573572
  0
LINE
  5
392
100
AcDbEntity
  8
0
100
AcDbLine
 62
7
  6
CONTINUOUS
 10
5.0657060231
 20
5.3894126758
 11
5.0719560231
 21
5.3872850165
  0
LINE
  5
393
100
AcDbEntity
  8
0
100
AcDbLine
 62
7
  6
CONTINUOUS
 10
4.9886226858
 20
5.3489871427
 11
4.9844560171
 21
5.3511148021
  0
LINE
  5
394
100
AcDbEntity
  8
0
100
AcDbLine
 62
7
  6
CONTINUOUS
 10
5.2261226858
 20
5.3511148021
 11
5.2344560112
 21
5.3468594834
  0
LINE
  5
395
100
AcDbEntity
  8
0
100
AcDbLine
 62
7
  6
CONTINUOUS
 10
5.2740393604
 20
5.3511148021
 11
5.2657060112
 21
5.3553701207
  0
LINE
  5
396
100
AcDbEntity
  8
0
100
AcDbLine
 62
7
  6
CONTINUOUS
 10
5.3198726858
 20
5.3511148021
 11
5.328206035
 21
5.3468594834
  0
LINE
  5
397
100
AcDbEntity
  8
0
100
AcDbLine
 62
7
  6
CONTINUOUS
 10
5.2177893604
 20
5.3085616104
 11
5.2282060112
 21
5.3021786319
  0
LINE
  5
398
100
AcDbEntity
  8
0
100
AcDbLine
 62
7
  6
CONTINUOUS
 10
5.3115393604
 20
5.3085616104
 11
5.321956035
 21
5.3021786319
  0
LINE
  5
399
100
AcDbEntity
  8
0
100
AcDbLine
 62
7
  6
CONTINUOUS
 10
5.2365393604
 20
5.3596254393
 11
5.2302893604
 21
5.363880758
  0
LINE
  5
39A
100
AcDbEntity
  8
0
100
AcDbLine
 62
7
  6
CONTINUOUS
 10
5.2636226858
 20
5.3426041648
 11
5.2698726858
 21
5.3383488461
  0
LINE
  5
39B
100
AcDbEntity
  8
0
100
AcDbLine
 62
7
  6
CONTINUOUS
 10
5.3302893366
 20
5.3596254393
 11
5.3240393366
 21
5.363880758
  0
LINE
  5
39C
100
AcDbEntity
  8
0
100
AcDbLine
 62
7
  6
CONTINUOUS
 10
5.3573726858
 20
5.3426041648
 11
5.3636226858
 21
5.3383488461
  0
LINE
  5
39D
100
AcDbEntity
  8
0
100
AcDbLine
 62
7
  6
CONTINUOUS
 10
5.0823726858
 20
5.3915403351
 11
5.0740393485
 21
5.3979233131
  0
LINE
  5
39E
100
AcDbEntity
  8
0
100
AcDbLine
 62
7
  6
CONTINUOUS
 10
5.2719560112
 20
5.3915403351
 11
5.2636226858
 21
5.3979233131
  0
LINE
  5
39F
100
AcDbEntity
  8
0
100
AcDbLine
 62
7
  6
CONTINUOUS
 10
5.365706035
 20
5.3915403351
 11
5.3573726858
 21
5.3979233131
  0
LINE
  5
3A0
100
AcDbEntity
  8
0
100
AcDbLine
 62
7
  6
CONTINUOUS
 10
5.2823726858
 20
5.3426041648
 11
5.2740393604
 21
5.3511148021
  0
LINE
  5
3A1
100
AcDbEntity
  8
0
100
AcDbLine
 62
7
  6
CONTINUOUS
 10
5.3240393366
 20
5.3149445891
 11
5.3177893604
 21
5.3213275686
  0
LINE
  5
3A2
100
AcDbEntity
  8
0
100
AcDbLine
 62
7
  6
CONTINUOUS
 10
5.2615393604
 20
5.3851573572
 11
5.2657060112
 21
5.3809020385
  0
LINE
  5
3A3
100
AcDbEntity
  8
0
100
AcDbLine
 62
7
  6
CONTINUOUS
 10
5.3115393604
 20
5.3596254393
 11
5.3198726858
 21
5.3511148021
  0
LINE
  5
3A4
100
AcDbEntity
  8
0
100
AcDbLine
 62
7
  6
CONTINUOUS
 10
5.3761226858
 20
5.3426041648
 11
5.3677893366
 21
5.3511148021
  0
LINE
  5
3A5
100
AcDbEntity
  8
0
100
AcDbLine
 62
7
  6
CONTINUOUS
 10
5.3552893366
 20
5.3851573572
 11
5.359456035
 21
5.3809020385
  0
LINE
  5
3A6
100
AcDbEntity
  8
0
100
AcDbLine
 62
7
  6
CONTINUOUS
 10
5.371956035
 20
5.3830296978
 11
5.365706035
 21
5.3915403351
  0
LINE
  5
3A7
100
AcDbEntity
  8
0
100
AcDbLine
 62
7
  6
CONTINUOUS
 10
5.603206035
 20
5.3191999093
 11
5.5990393366
 21
5.3255828872
  0
LINE
  5
3A8
100
AcDbEntity
  8
0
100
AcDbLine
 62
7
  6
CONTINUOUS
 10
5.5865393366
 20
5.3234552279
 11
5.590706035
 21
5.3149445891
  0
LINE
  5
3A9
100
AcDbEntity
  8
0
100
AcDbLine
 62
7
  6
CONTINUOUS
 10
5.6511226858
 20
5.3809020385
 11
5.653206035
 21
5.3745190546
  0
LINE
  5
3AA
100
AcDbEntity
  8
0
100
AcDbLine
 62
7
  6
CONTINUOUS
 10
5.665706035
 20
5.3745190546
 11
5.6636226858
 21
5.3851573572
  0
LINE
  5
3AB
100
AcDbEntity
  8
0
100
AcDbLine
 62
7
  6
CONTINUOUS
 10
6.0305393664
 20
3.6625509724
 11
6.0305393664
 21
3.6875509724
  0
LINE
  5
3AC
100
AcDbEntity
  8
0
100
AcDbLine
 62
7
  6
CONTINUOUS
 10
6.0305393664
 20
5.6625509724
 11
6.0305393664
 21
5.6875509724
  0
LINE
  5
3AD
100
AcDbEntity
  8
0
100
AcDbLine
 62
7
  6
CONTINUOUS
 10
6.0805393664
 20
3.6125509724
 11
6.0805393664
 21
3.7375509724
  0
LINE
  5
3AE
100
AcDbEntity
  8
0
100
AcDbLine
 62
7
  6
CONTINUOUS
 10
6.0805393664
 20
5.6125509724
 11
6.0805393664
 21
5.7375509724
  0
LINE
  5
3AF
100
AcDbEntity
  8
0
100
AcDbLine
 62
7
  6
CONTINUOUS
 10
6.1055393664
 20
3.6125509724
 11
6.1055393664
 21
3.7375509724
  0
LINE
  5
3B0
100
AcDbEntity
  8
0
100
AcDbLine
 62
7
  6
CONTINUOUS
 10
6.1055393664
 20
5.6125509724
 11
6.1055393664
 21
5.7375509724
  0
LINE
  5
3B1
100
AcDbEntity
  8
0
100
AcDbLine
 62
7
  6
CONTINUOUS
 10
5.6306018664
 20
3.9043062913
 11
5.6340393664
 21
3.9089871418
  0
LINE
  5
3B2
100
AcDbEntity
  8
0
100
AcDbLine
 62
7
  6
CONTINUOUS
 10
5.5073726947
 20
3.9314339511
 11
5.515706044
 21
3.9399445891
  0
LINE
  5
3B3
100
AcDbEntity
  8
0
100
AcDbLine
 62
7
  6
CONTINUOUS
 10
5.6271643664
 20
3.9101573545
 11
5.6248726986
 21
3.9078169292
  0
LINE
  5
3B4
100
AcDbEntity
  8
0
100
AcDbLine
 62
7
  6
CONTINUOUS
 10
5.4552893694
 20
4.0059020385
 11
5.4615393694
 21
4.0101573572
  0
LINE
  5
3B5
100
AcDbEntity
  8
0
100
AcDbLine
 62
7
  6
CONTINUOUS
 10
5.503206044
 20
3.9441999093
 11
5.496956044
 21
3.9399445891
  0
LINE
  5
3B6
100
AcDbEntity
  8
0
100
AcDbLine
 62
7
  6
CONTINUOUS
 10
5.2177893694
 20
3.9271786319
 11
5.2261227007
 21
3.9314339511
  0
LINE
  5
3B7
100
AcDbEntity
  8
0
100
AcDbLine
 62
7
  6
CONTINUOUS
 10
5.459456044
 20
4.0229233131
 11
5.4511226947
 21
4.0186679944
  0
LINE
  5
3B8
100
AcDbEntity
  8
0
100
AcDbLine
 62
7
  6
CONTINUOUS
 10
5.303206032
 20
3.9271786319
 11
5.3115393694
 21
3.9314339511
  0
LINE
  5
3B9
100
AcDbEntity
  8
0
100
AcDbLine
 62
7
  6
CONTINUOUS
 10
5.4990393694
 20
3.9271786319
 11
5.5073726947
 21
3.9314339511
  0
LINE
  5
3BA
100
AcDbEntity
  8
0
100
AcDbLine
 62
7
  6
CONTINUOUS
 10
5.4011226947
 20
3.9846254393
 11
5.3948726947
 21
3.98249778
  0
LINE
  5
3BB
100
AcDbEntity
  8
0
100
AcDbLine
 62
7
  6
CONTINUOUS
 10
5.3573726858
 20
5.3149445891
 11
5.3490393366
 21
5.3128169298
  0
LINE
  5
3BC
100
AcDbEntity
  8
0
100
AcDbLine
 62
7
  6
CONTINUOUS
 10
5.609456035
 20
5.3851573572
 11
5.6177893366
 21
5.3872850165
  0
LINE
  5
3BD
100
AcDbEntity
  8
0
100
AcDbLine
 62
7
  6
CONTINUOUS
 10
5.2636226858
 20
5.3149445891
 11
5.2552893604
 21
5.3128169298
  0
LINE
  5
3BE
100
AcDbEntity
  8
0
100
AcDbLine
 62
7
  6
CONTINUOUS
 10
5.3365393366
 20
5.4000509724
 11
5.328206035
 21
5.3979233131
  0
LINE
  5
3BF
100
AcDbEntity
  8
0
100
AcDbLine
 62
7
  6
CONTINUOUS
 10
5.2427893604
 20
5.4000509724
 11
5.2344560112
 21
5.3979233131
  0
LINE
  5
3C0
100
AcDbEntity
  8
0
100
AcDbLine
 62
7
  6
CONTINUOUS
 10
5.3490393366
 20
5.3000509724
 11
5.359456035
 21
5.3021786319
  0
LINE
  5
3C1
100
AcDbEntity
  8
0
100
AcDbLine
 62
7
  6
CONTINUOUS
 10
5.2552893604
 20
5.3000509724
 11
5.2657060112
 21
5.3021786319
  0
LINE
  5
3C2
100
AcDbEntity
  8
0
100
AcDbLine
 62
7
  6
CONTINUOUS
 10
5.6177893366
 20
5.4000509724
 11
5.6073726858
 21
5.3979233131
  0
LINE
  5
3C3
100
AcDbEntity
  8
0
100
AcDbLine
 62
7
  6
CONTINUOUS
 10
4.9698726858
 20
5.3000509724
 11
4.9802893545
 21
5.3021786319
  0
LINE
  5
3C4
100
AcDbEntity
  8
0
100
AcDbLine
 62
7
  6
CONTINUOUS
 10
4.9198726858
 20
5.3000509724
 11
4.9698726858
 21
5.3000509724
  0
LINE
  5
3C5
100
AcDbEntity
  8
0
100
AcDbLine
 62
7
  6
CONTINUOUS
 10
5.0136226858
 20
5.3000509724
 11
5.0261226858
 21
5.3000509724
  0
LINE
  5
3C6
100
AcDbEntity
  8
0
100
AcDbLine
 62
7
  6
CONTINUOUS
 10
5.0782060231
 20
5.3000509724
 11
5.0927893485
 21
5.3000509724
  0
LINE
  5
3C7
100
AcDbEntity
  8
0
100
AcDbLine
 62
7
  6
CONTINUOUS
 10
5.1094560231
 20
5.3000509724
 11
5.1219560112
 21
5.3000509724
  0
LINE
  5
3C8
100
AcDbEntity
  8
0
100
AcDbLine
 62
7
  6
CONTINUOUS
 10
5.1802893604
 20
5.3000509724
 11
5.1927893604
 21
5.3000509724
  0
LINE
  5
3C9
100
AcDbEntity
  8
0
100
AcDbLine
 62
7
  6
CONTINUOUS
 10
5.2386226858
 20
5.3000509724
 11
5.2552893604
 21
5.3000509724
  0
LINE
  5
3CA
100
AcDbEntity
  8
0
100
AcDbLine
 62
7
  6
CONTINUOUS
 10
5.3323726858
 20
5.3000509724
 11
5.3490393366
 21
5.3000509724
  0
LINE
  5
3CB
100
AcDbEntity
  8
0
100
AcDbLine
 62
7
  6
CONTINUOUS
 10
5.4302893366
 20
5.3000509724
 11
5.4427893366
 21
5.3000509724
  0
LINE
  5
3CC
100
AcDbEntity
  8
0
100
AcDbLine
 62
7
  6
CONTINUOUS
 10
5.4927893366
 20
5.3000509724
 11
5.5677893366
 21
5.3000509724
  0
LINE
  5
3CD
100
AcDbEntity
  8
0
100
AcDbLine
 62
7
  6
CONTINUOUS
 10
5.6177893366
 20
5.3000509724
 11
5.6365393366
 21
5.3000509724
  0
LINE
  5
3CE
100
AcDbEntity
  8
0
100
AcDbLine
 62
7
  6
CONTINUOUS
 10
5.6823726858
 20
5.3000509724
 11
5.6948726858
 21
5.3000509724
  0
LINE
  5
3CF
100
AcDbEntity
  8
0
100
AcDbLine
 62
7
  6
CONTINUOUS
 10
5.7532059873
 20
5.3000509724
 11
5.7657059873
 21
5.3000509724
  0
LINE
  5
3D0
100
AcDbEntity
  8
0
100
AcDbLine
 62
7
  6
CONTINUOUS
 10
5.6365393366
 20
5.3128169298
 11
5.6177893366
 21
5.3128169298
  0
LINE
  5
3D1
100
AcDbEntity
  8
0
100
AcDbLine
 62
7
  6
CONTINUOUS
 10
5.5677893366
 20
5.3128169298
 11
5.5052893366
 21
5.3128169298
  0
LINE
  5
3D2
100
AcDbEntity
  8
0
100
AcDbLine
 62
7
  6
CONTINUOUS
 10
5.3490393366
 20
5.3128169298
 11
5.3323726858
 21
5.3128169298
  0
LINE
  5
3D3
100
AcDbEntity
  8
0
100
AcDbLine
 62
7
  6
CONTINUOUS
 10
5.2552893604
 20
5.3128169298
 11
5.2386226858
 21
5.3128169298
  0
LINE
  5
3D4
100
AcDbEntity
  8
0
100
AcDbLine
 62
7
  6
CONTINUOUS
 10
4.9719560171
 20
5.3128169298
 11
4.9323726858
 21
5.3128169298
  0
LINE
  5
3D5
100
AcDbEntity
  8
0
100
AcDbLine
 62
7
  6
CONTINUOUS
 10
5.665706035
 20
5.3255828872
 11
5.653206035
 21
5.3255828872
  0
LINE
  5
3D6
100
AcDbEntity
  8
0
100
AcDbLine
 62
7
  6
CONTINUOUS
 10
5.1302893604
 20
5.3255828872
 11
5.1719560112
 21
5.3255828872
  0
LINE
  5
3D7
100
AcDbEntity
  8
0
100
AcDbLine
 62
7
  6
CONTINUOUS
 10
5.3157060112
 20
5.3277105465
 11
5.3032060112
 21
5.3277105465
  0
LINE
  5
3D8
100
AcDbEntity
  8
0
100
AcDbLine
 62
7
  6
CONTINUOUS
 10
5.2219560112
 20
5.3277105465
 11
5.2094560112
 21
5.3277105465
  0
LINE
  5
3D9
100
AcDbEntity
  8
0
100
AcDbLine
 62
7
  6
CONTINUOUS
 10
5.1698726858
 20
5.3340935245
 11
5.1323726858
 21
5.3340935245
  0
LINE
  5
3DA
100
AcDbEntity
  8
0
100
AcDbLine
 62
7
  6
CONTINUOUS
 10
4.9323726858
 20
5.3447318241
 11
4.9719560171
 21
5.3447318241
  0
LINE
  5
3DB
100
AcDbEntity
  8
0
100
AcDbLine
 62
7
  6
CONTINUOUS
 10
5.0261226858
 20
5.3447318241
 11
5.0615393485
 21
5.3447318241
  0
LINE
  5
3DC
100
AcDbEntity
  8
0
100
AcDbLine
 62
7
  6
CONTINUOUS
 10
5.2427893604
 20
5.3447318241
 11
5.2552893604
 21
5.3447318241
  0
LINE
  5
3DD
100
AcDbEntity
  8
0
100
AcDbLine
 62
7
  6
CONTINUOUS
 10
5.3365393366
 20
5.3447318241
 11
5.3490393366
 21
5.3447318241
  0
LINE
  5
3DE
100
AcDbEntity
  8
0
100
AcDbLine
 62
7
  6
CONTINUOUS
 10
5.5052893366
 20
5.3468594834
 11
5.559456035
 21
5.3468594834
  0
LINE
  5
3DF
100
AcDbEntity
  8
0
100
AcDbLine
 62
7
  6
CONTINUOUS
 10
5.6948726858
 20
5.3468594834
 11
5.7532059873
 21
5.3468594834
  0
LINE
  5
3E0
100
AcDbEntity
  8
0
100
AcDbLine
 62
7
  6
CONTINUOUS
 10
5.3490393366
 20
5.35749778
 11
5.3365393366
 21
5.35749778
  0
LINE
  5
3E1
100
AcDbEntity
  8
0
100
AcDbLine
 62
7
  6
CONTINUOUS
 10
5.2552893604
 20
5.35749778
 11
5.2427893604
 21
5.35749778
  0
LINE
  5
3E2
100
AcDbEntity
  8
0
100
AcDbLine
 62
7
  6
CONTINUOUS
 10
5.0657060231
 20
5.35749778
 11
5.0261226858
 21
5.35749778
  0
LINE
  5
3E3
100
AcDbEntity
  8
0
100
AcDbLine
 62
7
  6
CONTINUOUS
 10
4.9719560171
 20
5.35749778
 11
4.9323726858
 21
5.35749778
  0
LINE
  5
3E4
100
AcDbEntity
  8
0
100
AcDbLine
 62
7
  6
CONTINUOUS
 10
5.7532059873
 20
5.3596254393
 11
5.6948726858
 21
5.3596254393
  0
LINE
  5
3E5
100
AcDbEntity
  8
0
100
AcDbLine
 62
7
  6
CONTINUOUS
 10
5.559456035
 20
5.3596254393
 11
5.5052893366
 21
5.3596254393
  0
LINE
  5
3E6
100
AcDbEntity
  8
0
100
AcDbLine
 62
7
  6
CONTINUOUS
 10
5.653206035
 20
5.3745190546
 11
5.665706035
 21
5.3745190546
  0
LINE
  5
3E7
100
AcDbEntity
  8
0
100
AcDbLine
 62
7
  6
CONTINUOUS
 10
5.2677893604
 20
5.3766467199
 11
5.2802893604
 21
5.3766467199
  0
LINE
  5
3E8
100
AcDbEntity
  8
0
100
AcDbLine
 62
7
  6
CONTINUOUS
 10
5.3615393366
 20
5.3766467199
 11
5.3740393366
 21
5.3766467199
  0
LINE
  5
3E9
100
AcDbEntity
  8
0
100
AcDbLine
 62
7
  6
CONTINUOUS
 10
4.9323726858
 20
5.3872850165
 11
4.9719560171
 21
5.3872850165
  0
LINE
  5
3EA
100
AcDbEntity
  8
0
100
AcDbLine
 62
7
  6
CONTINUOUS
 10
5.2427893604
 20
5.3872850165
 11
5.2552893604
 21
5.3872850165
  0
LINE
  5
3EB
100
AcDbEntity
  8
0
100
AcDbLine
 62
7
  6
CONTINUOUS
 10
5.3365393366
 20
5.3872850165
 11
5.3490393366
 21
5.3872850165
  0
LINE
  5
3EC
100
AcDbEntity
  8
0
100
AcDbLine
 62
7
  6
CONTINUOUS
 10
5.5052893366
 20
5.3872850165
 11
5.5677893366
 21
5.3872850165
  0
LINE
  5
3ED
100
AcDbEntity
  8
0
100
AcDbLine
 62
7
  6
CONTINUOUS
 10
5.6177893366
 20
5.3872850165
 11
5.6365393366
 21
5.3872850165
  0
LINE
  5
3EE
100
AcDbEntity
  8
0
100
AcDbLine
 62
7
  6
CONTINUOUS
 10
5.0261226858
 20
5.3894126758
 11
5.0657060231
 21
5.3894126758
  0
LINE
  5
3EF
100
AcDbEntity
  8
0
100
AcDbLine
 62
7
  6
CONTINUOUS
 10
5.396956035
 20
5.3894126758
 11
5.4302893366
 21
5.3894126758
  0
LINE
  5
3F0
100
AcDbEntity
  8
0
100
AcDbLine
 62
7
  6
CONTINUOUS
 10
5.4427893366
 20
5.3894126758
 11
5.4761226858
 21
5.3894126758
  0
LINE
  5
3F1
100
AcDbEntity
  8
0
100
AcDbLine
 62
7
  6
CONTINUOUS
 10
5.7657059873
 20
5.4000509724
 11
5.7532059873
 21
5.4000509724
  0
LINE
  5
3F2
100
AcDbEntity
  8
0
100
AcDbLine
 62
7
  6
CONTINUOUS
 10
5.6948726858
 20
5.4000509724
 11
5.6823726858
 21
5.4000509724
  0
LINE
  5
3F3
100
AcDbEntity
  8
0
100
AcDbLine
 62
7
  6
CONTINUOUS
 10
5.6365393366
 20
5.4000509724
 11
5.6177893366
 21
5.4000509724
  0
LINE
  5
3F4
100
AcDbEntity
  8
0
100
AcDbLine
 62
7
  6
CONTINUOUS
 10
5.5677893366
 20
5.4000509724
 11
5.4927893366
 21
5.4000509724
  0
LINE
  5
3F5
100
AcDbEntity
  8
0
100
AcDbLine
 62
7
  6
CONTINUOUS
 10
5.4761226858
 20
5.4000509724
 11
5.396956035
 21
5.4000509724
  0
LINE
  5
3F6
100
AcDbEntity
  8
0
100
AcDbLine
 62
7
  6
CONTINUOUS
 10
5.346956035
 20
5.4000509724
 11
5.3365393366
 21
5.4000509724
  0
LINE
  5
3F7
100
AcDbEntity
  8
0
100
AcDbLine
 62
7
  6
CONTINUOUS
 10
5.2532060112
 20
5.4000509724
 11
5.2427893604
 21
5.4000509724
  0
LINE
  5
3F8
100
AcDbEntity
  8
0
100
AcDbLine
 62
7
  6
CONTINUOUS
 10
5.1594560112
 20
5.4000509724
 11
5.1427893604
 21
5.4000509724
  0
LINE
  5
3F9
100
AcDbEntity
  8
0
100
AcDbLine
 62
7
  6
CONTINUOUS
 10
5.0636226858
 20
5.4000509724
 11
5.0136226858
 21
5.4000509724
  0
LINE
  5
3FA
100
AcDbEntity
  8
0
100
AcDbLine
 62
7
  6
CONTINUOUS
 10
4.9698726858
 20
5.4000509724
 11
4.9198726858
 21
5.4000509724
  0
LINE
  5
3FB
100
AcDbEntity
  8
0
100
AcDbLine
 62
7
  6
CONTINUOUS
 10
5.321956035
 20
5.3021786319
 11
5.3323726858
 21
5.3000509724
  0
LINE
  5
3FC
100
AcDbEntity
  8
0
100
AcDbLine
 62
7
  6
CONTINUOUS
 10
4.9802893545
 20
5.3979233131
 11
4.9698726858
 21
5.4000509724
  0
LINE
  5
3FD
100
AcDbEntity
  8
0
100
AcDbLine
 62
7
  6
CONTINUOUS
 10
5.2657060112
 20
5.3553701207
 11
5.2552893604
 21
5.35749778
  0
LINE
  5
3FE
100
AcDbEntity
  8
0
100
AcDbLine
 62
7
  6
CONTINUOUS
 10
5.0740393485
 20
5.3979233131
 11
5.0636226858
 21
5.4000509724
  0
LINE
  5
3FF
100
AcDbEntity
  8
0
100
AcDbLine
 62
7
  6
CONTINUOUS
 10
5.6073726858
 20
5.3021786319
 11
5.6177893366
 21
5.3000509724
  0
LINE
  5
400
100
AcDbEntity
  8
0
100
AcDbLine
 62
7
  6
CONTINUOUS
 10
5.359456035
 20
5.3553701207
 11
5.3490393366
 21
5.35749778
  0
LINE
  5
401
100
AcDbEntity
  8
0
100
AcDbLine
 62
7
  6
CONTINUOUS
 10
5.2636226858
 20
5.3979233131
 11
5.2532060112
 21
5.4000509724
  0
LINE
  5
402
100
AcDbEntity
  8
0
100
AcDbLine
 62
7
  6
CONTINUOUS
 10
5.3573726858
 20
5.3979233131
 11
5.346956035
 21
5.4000509724
  0
LINE
  5
403
100
AcDbEntity
  8
0
100
AcDbLine
 62
7
  6
CONTINUOUS
 10
5.646956035
 20
5.3979233131
 11
5.6365393366
 21
5.4000509724
  0
LINE
  5
404
100
AcDbEntity
  8
0
100
AcDbLine
 62
7
  6
CONTINUOUS
 10
5.3323726858
 20
5.3128169298
 11
5.3240393366
 21
5.3149445891
  0
LINE
  5
405
100
AcDbEntity
  8
0
100
AcDbLine
 62
7
  6
CONTINUOUS
 10
5.2344560112
 20
5.3468594834
 11
5.2427893604
 21
5.3447318241
  0
LINE
  5
406
100
AcDbEntity
  8
0
100
AcDbLine
 62
7
  6
CONTINUOUS
 10
5.2552893604
 20
5.3447318241
 11
5.2636226858
 21
5.3426041648
  0
LINE
  5
407
100
AcDbEntity
  8
0
100
AcDbLine
 62
7
  6
CONTINUOUS
 10
5.328206035
 20
5.3468594834
 11
5.3365393366
 21
5.3447318241
  0
LINE
  5
408
100
AcDbEntity
  8
0
100
AcDbLine
 62
7
  6
CONTINUOUS
 10
5.3490393366
 20
5.3447318241
 11
5.3573726858
 21
5.3426041648
  0
LINE
  5
409
100
AcDbEntity
  8
0
100
AcDbLine
 62
7
  6
CONTINUOUS
 10
5.6177893366
 20
5.3128169298
 11
5.609456035
 21
5.3149445891
  0
LINE
  5
40A
100
AcDbEntity
  8
0
100
AcDbLine
 62
7
  6
CONTINUOUS
 10
5.6365393366
 20
5.3872850165
 11
5.6448726858
 21
5.3851573572
  0
LINE
  5
40B
100
AcDbEntity
  8
0
100
AcDbLine
 62
7
  6
CONTINUOUS
 10
5.2427893604
 20
5.35749778
 11
5.2365393604
 21
5.3596254393
  0
LINE
  5
40C
100
AcDbEntity
  8
0
100
AcDbLine
 62
7
  6
CONTINUOUS
 10
5.3365393366
 20
5.35749778
 11
5.3302893366
 21
5.3596254393
  0
LINE
  5
40D
100
AcDbEntity
  8
0
100
AcDbLine
 62
7
  6
CONTINUOUS
 10
5.2552893604
 20
5.3872850165
 11
5.2615393604
 21
5.3851573572
  0
LINE
  5
40E
100
AcDbEntity
  8
0
100
AcDbLine
 62
7
  6
CONTINUOUS
 10
5.3490393366
 20
5.3872850165
 11
5.3552893366
 21
5.3851573572
  0
LINE
  5
40F
100
AcDbEntity
  8
0
100
AcDbLine
 62
7
  6
CONTINUOUS
 10
5.3677893366
 20
5.3511148021
 11
5.359456035
 21
5.3553701207
  0
LINE
  5
410
100
AcDbEntity
  8
0
100
AcDbLine
 62
7
  6
CONTINUOUS
 10
5.5990393366
 20
5.3064339511
 11
5.6073726858
 21
5.3021786319
  0
LINE
  5
411
100
AcDbEntity
  8
0
100
AcDbLine
 62
7
  6
CONTINUOUS
 10
5.6552893366
 20
5.3936679944
 11
5.646956035
 21
5.3979233131
  0
LINE
  5
412
100
AcDbEntity
  8
0
100
AcDbLine
 62
7
  6
CONTINUOUS
 10
5.609456035
 20
5.3149445891
 11
5.603206035
 21
5.3191999093
  0
LINE
  5
413
100
AcDbEntity
  8
0
100
AcDbLine
 62
7
  6
CONTINUOUS
 10
5.6448726858
 20
5.3851573572
 11
5.6511226858
 21
5.3809020385
  0
LINE
  5
414
100
AcDbEntity
  8
0
100
AcDbLine
 62
7
  6
CONTINUOUS
 10
5.590706035
 20
5.3149445891
 11
5.5990393366
 21
5.3064339511
  0
LINE
  5
415
100
AcDbEntity
  8
0
100
AcDbLine
 62
7
  6
CONTINUOUS
 10
5.6636226858
 20
5.3851573572
 11
5.6552893366
 21
5.3936679944
  0
LINE
  5
416
100
AcDbEntity
  8
0
100
AcDbLine
 62
7
  6
CONTINUOUS
 10
6.1555393664
 20
3.6625509724
 11
6.1555393664
 21
3.6875509724
  0
LINE
  5
417
100
AcDbEntity
  8
0
100
AcDbLine
 62
7
  6
CONTINUOUS
 10
6.1555393664
 20
5.6625509724
 11
6.1555393664
 21
5.6875509724
  0
LINE
  5
418
100
AcDbEntity
  8
0
100
AcDbLine
 62
7
  6
CONTINUOUS
 10
6.2177893664
 20
5.1900509724
 11
6.2177893664
 21
5.1750509724
  0
LINE
  5
419
100
AcDbEntity
  8
0
100
AcDbLine
 62
7
  6
CONTINUOUS
 10
6.2177893664
 20
4.1600509724
 11
6.2177893664
 21
4.1750509724
  0
LINE
  5
41A
100
AcDbEntity
  8
0
100
AcDbLine
 62
7
  6
CONTINUOUS
 10
5.6260185341
 20
3.9019658661
 11
5.6306018664
 21
3.9043062913
  0
LINE
  5
41B
100
AcDbEntity
  8
0
100
AcDbLine
 62
7
  6
CONTINUOUS
 10
5.6248726986
 20
3.9078169292
 11
5.6214351986
 21
3.9066467166
  0
LINE
  5
41C
100
AcDbEntity
  8
0
100
AcDbLine
 62
7
  6
CONTINUOUS
 10
3.0805393664
 20
5.6125509724
 11
3.1055393664
 21
5.6125509724
  0
LINE
  5
41D
100
AcDbEntity
  8
0
100
AcDbLine
 62
7
  6
CONTINUOUS
 10
4.5805393664
 20
5.6125509724
 11
4.6055393664
 21
5.6125509724
  0
LINE
  5
41E
100
AcDbEntity
  8
0
100
AcDbLine
 62
7
  6
CONTINUOUS
 10
6.0805393664
 20
5.6125509724
 11
6.1055393664
 21
5.6125509724
  0
LINE
  5
41F
100
AcDbEntity
  8
0
100
AcDbLine
 62
7
  6
CONTINUOUS
 10
7.5805393664
 20
5.6125509724
 11
7.6055393664
 21
5.6125509724
  0
LINE
  5
420
100
AcDbEntity
  8
0
100
AcDbLine
 62
7
  6
CONTINUOUS
 10
6.3427893664
 20
5.0500509724
 11
6.3427893664
 21
4.3000509724
  0
LINE
  5
421
100
AcDbEntity
  8
0
100
AcDbLine
 62
7
  6
CONTINUOUS
 10
6.3577893664
 20
5.0500509724
 11
6.3577893664
 21
4.3000509724
  0
LINE
  5
422
100
AcDbEntity
  8
0
100
AcDbLine
 62
7
  6
CONTINUOUS
 10
7.1052893664
 20
4.9250509724
 11
7.105298364
 21
4.9250603735
  0
LINE
  5
423
100
AcDbEntity
  8
0
100
AcDbLine
 62
7
  6
CONTINUOUS
 10
7.1052893664
 20
4.9250509724
 11
7.1177893664
 21
4.9375509724
  0
LINE
  5
424
100
AcDbEntity
  8
0
100
AcDbLine
 62
7
  6
CONTINUOUS
 10
7.1091288526
 20
4.9288901884
 11
7.1095859771
 21
4.9293473548
  0
LINE
  5
425
100
AcDbEntity
  8
0
100
AcDbLine
 62
7
  6
CONTINUOUS
 10
7.6555393664
 20
5.6625509724
 11
7.5305393664
 21
5.6625509724
  0
LINE
  5
426
100
AcDbEntity
  8
0
100
AcDbLine
 62
7
  6
CONTINUOUS
 10
6.1555393664
 20
5.6625509724
 11
6.0305393664
 21
5.6625509724
  0
LINE
  5
427
100
AcDbEntity
  8
0
100
AcDbLine
 62
7
  6
CONTINUOUS
 10
4.6555393664
 20
5.6625509724
 11
4.5305393664
 21
5.6625509724
  0
LINE
  5
428
100
AcDbEntity
  8
0
100
AcDbLine
 62
7
  6
CONTINUOUS
 10
3.1555393664
 20
5.6625509724
 11
3.0305393664
 21
5.6625509724
  0
LINE
  5
429
100
AcDbEntity
  8
0
100
AcDbLine
 62
7
  6
CONTINUOUS
 10
7.6555393664
 20
5.6875509724
 11
7.5305393664
 21
5.6875509724
  0
LINE
  5
42A
100
AcDbEntity
  8
0
100
AcDbLine
 62
7
  6
CONTINUOUS
 10
6.1555393664
 20
5.6875509724
 11
6.0305393664
 21
5.6875509724
  0
LINE
  5
42B
100
AcDbEntity
  8
0
100
AcDbLine
 62
7
  6
CONTINUOUS
 10
4.6555393664
 20
5.6875509724
 11
4.5305393664
 21
5.6875509724
  0
LINE
  5
42C
100
AcDbEntity
  8
0
100
AcDbLine
 62
7
  6
CONTINUOUS
 10
3.1555393664
 20
5.6875509724
 11
3.0305393664
 21
5.6875509724
  0
LINE
  5
42D
100
AcDbEntity
  8
0
100
AcDbLine
 62
7
  6
CONTINUOUS
 10
3.0805393664
 20
5.7375509724
 11
3.1055393664
 21
5.7375509724
  0
LINE
  5
42E
100
AcDbEntity
  8
0
100
AcDbLine
 62
7
  6
CONTINUOUS
 10
4.5805393664
 20
5.7375509724
 11
4.6055393664
 21
5.7375509724
  0
LINE
  5
42F
100
AcDbEntity
  8
0
100
AcDbLine
 62
7
  6
CONTINUOUS
 10
6.0805393664
 20
5.7375509724
 11
6.1055393664
 21
5.7375509724
  0
LINE
  5
430
100
AcDbEntity
  8
0
100
AcDbLine
 62
7
  6
CONTINUOUS
 10
7.5805393664
 20
5.7375509724
 11
7.6055393664
 21
5.7375509724
  0
LINE
  5
431
100
AcDbEntity
  8
0
100
AcDbLine
 62
7
  6
CONTINUOUS
 10
2.7590393664
 20
5.8000509724
 11
2.7490393664
 21
5.8000509724
  0
LINE
  5
432
100
AcDbEntity
  8
0
100
AcDbLine
 62
7
  6
CONTINUOUS
 10
7.9265393664
 20
5.8000509724
 11
7.9365393664
 21
5.8000509724
  0
LINE
  5
433
100
AcDbEntity
  8
0
100
AcDbLine
 62
7
  6
CONTINUOUS
 10
7.1052893664
 20
4.4250509724
 11
7.1052987674
 21
4.4250419748
  0
LINE
  5
434
100
AcDbEntity
  8
0
100
AcDbLine
 62
7
  6
CONTINUOUS
 10
7.1052893664
 20
4.4250509724
 11
7.1177893664
 21
4.4125509724
  0
LINE
  5
435
100
AcDbEntity
  8
0
100
AcDbLine
 62
7
  6
CONTINUOUS
 10
7.8115393664
 20
5.9150509724
 11
2.8740393664
 21
5.9150509724
  0
LINE
  5
436
100
AcDbEntity
  8
0
100
AcDbLine
 62
7
  6
CONTINUOUS
 10
7.8115393664
 20
5.9250509724
 11
2.8740393664
 21
5.9250509724
  0
LINE
  5
437
100
AcDbEntity
  8
0
100
AcDbLine
 62
7
  6
CONTINUOUS
 10
7.0802893664
 20
4.4250509724
 11
7.0802803687
 21
4.4250415713
  0
LINE
  5
438
100
AcDbEntity
  8
0
100
AcDbLine
 62
7
  6
CONTINUOUS
 10
7.0802893664
 20
4.4250509724
 11
7.0677893664
 21
4.4125509724
  0
LINE
  5
439
100
AcDbEntity
  8
0
100
AcDbLine
 62
7
  6
CONTINUOUS
 10
7.0802893664
 20
4.9250509724
 11
7.0802799653
 21
4.92505997
  0
LINE
  5
43A
100
AcDbEntity
  8
0
100
AcDbLine
 62
7
  6
CONTINUOUS
 10
7.0802893664
 20
4.9250509724
 11
7.0677893664
 21
4.9375509724
  0
LINE
  5
43B
100
AcDbEntity
  8
0
100
AcDbLine
 62
7
  6
CONTINUOUS
 10
6.9990393664
 20
4.1801336732
 11
6.9990393664
 21
4.1980196367
  0
LINE
  5
43C
100
AcDbEntity
  8
0
100
AcDbLine
 62
7
  6
CONTINUOUS
 10
7.0068518664
 20
4.1837373386
 11
7.0068518664
 21
4.1833014449
  0
LINE
  5
43D
100
AcDbEntity
  8
0
100
AcDbLine
 62
7
  6
CONTINUOUS
 10
7.0107581164
 20
4.1831877148
 11
7.0107581164
 21
4.1958653802
  0
LINE
  5
43E
100
AcDbEntity
  8
0
100
AcDbLine
 62
7
  6
CONTINUOUS
 10
7.0211747806
 20
4.1766697929
 11
7.0211747806
 21
4.1808122421
  0
LINE
  5
43F
100
AcDbEntity
  8
0
100
AcDbLine
 62
7
  6
CONTINUOUS
 10
7.0289872806
 20
4.1760424145
 11
7.0289872806
 21
4.1756095416
  0
LINE
  5
440
100
AcDbEntity
  8
0
100
AcDbLine
 62
7
  6
CONTINUOUS
 10
7.0302893664
 20
4.1798351879
 11
7.0302893664
 21
4.1924374053
  0
LINE
  5
441
100
AcDbEntity
  8
0
100
AcDbLine
 62
7
  6
CONTINUOUS
 10
7.0328935306
 20
4.1756753744
 11
7.0328935306
 21
4.1792476482
  0
LINE
  5
442
100
AcDbEntity
  8
0
100
AcDbLine
 62
7
  6
CONTINUOUS
 10
7.0498206164
 20
4.1782489226
 11
7.0498206164
 21
4.1907972742
  0
LINE
  5
443
100
AcDbEntity
  8
0
100
AcDbLine
 62
7
  6
CONTINUOUS
 10
7.0524247806
 20
4.1732295679
 11
7.0524247806
 21
4.1772645034
  0
LINE
  5
444
100
AcDbEntity
  8
0
100
AcDbLine
 62
7
  6
CONTINUOUS
 10
7.0537268664
 20
4.1778101236
 11
7.0537268664
 21
4.1773794213
  0
LINE
  5
445
100
AcDbEntity
  8
0
100
AcDbLine
 62
7
  6
CONTINUOUS
 10
7.0615393664
 20
4.1768278405
 11
7.0615393664
 21
4.1899000729
  0
LINE
  5
446
100
AcDbEntity
  8
0
100
AcDbLine
 62
7
  6
CONTINUOUS
 10
7.0677893664
 20
4.9375509724
 11
7.0677893664
 21
4.4125509724
  0
LINE
  5
447
100
AcDbEntity
  8
0
100
AcDbLine
 62
7
  6
CONTINUOUS
 10
7.0719560306
 20
4.1725278673
 11
7.0719560306
 21
4.1760771942
  0
LINE
  5
448
100
AcDbEntity
  8
0
100
AcDbLine
 62
7
  6
CONTINUOUS
 10
7.0719560306
 20
4.1762836682
 11
7.0719560306
 21
4.1887953245
  0
LINE
  5
449
100
AcDbEntity
  8
0
100
AcDbLine
 62
7
  6
CONTINUOUS
 10
7.0758622806
 20
4.1722650132
 11
7.0758622806
 21
4.1718353896
  0
LINE
  5
44A
100
AcDbEntity
  8
0
100
AcDbLine
 62
7
  6
CONTINUOUS
 10
7.0802893664
 20
4.4250509724
 11
7.0802893664
 21
4.9250509724
  0
LINE
  5
44B
100
AcDbEntity
  8
0
100
AcDbLine
 62
7
  6
CONTINUOUS
 10
7.0836747806
 20
4.1716332797
 11
7.0836747806
 21
4.1757340459
  0
LINE
  5
44C
100
AcDbEntity
  8
0
100
AcDbLine
 62
7
  6
CONTINUOUS
 10
7.0927893664
 20
4.1763941864
 11
7.0927893664
 21
4.1888946624
  0
LINE
  5
44D
100
AcDbEntity
  8
0
100
AcDbLine
 62
7
  6
CONTINUOUS
 10
7.0940914447
 20
4.1715524584
 11
7.0940914447
 21
4.1756510059
  0
LINE
  5
44E
100
AcDbEntity
  8
0
100
AcDbLine
 62
7
  6
CONTINUOUS
 10
7.1019039447
 20
4.1716332796
 11
7.1019039447
 21
4.1757340457
  0
LINE
  5
44F
100
AcDbEntity
  8
0
100
AcDbLine
 62
7
  6
CONTINUOUS
 10
7.1032060306
 20
4.1765029975
 11
7.1032060306
 21
4.1890062719
  0
LINE
  5
450
100
AcDbEntity
  8
0
100
AcDbLine
 62
7
  6
CONTINUOUS
 10
7.1052893664
 20
4.4250509724
 11
7.1052893664
 21
4.9250509724
  0
LINE
  5
451
100
AcDbEntity
  8
0
100
AcDbLine
 62
7
  6
CONTINUOUS
 10
7.1123206164
 20
4.1719297353
 11
7.1123206164
 21
4.176030339
  0
LINE
  5
452
100
AcDbEntity
  8
0
100
AcDbLine
 62
7
  6
CONTINUOUS
 10
7.1177893664
 20
4.4125509724
 11
7.1177893664
 21
4.9375509724
  0
LINE
  5
453
100
AcDbEntity
  8
0
100
AcDbLine
 62
7
  6
CONTINUOUS
 10
7.1201331164
 20
4.1722938061
 11
7.1201331164
 21
4.1727703099
  0
LINE
  5
454
100
AcDbEntity
  8
0
100
AcDbLine
 62
7
  6
CONTINUOUS
 10
7.1240393664
 20
4.1730679682
 11
7.1240393664
 21
4.1766106665
  0
LINE
  5
455
100
AcDbEntity
  8
0
100
AcDbLine
 62
7
  6
CONTINUOUS
 10
7.1240393664
 20
4.1768278405
 11
7.1240393664
 21
4.1893535147
  0
LINE
  5
456
100
AcDbEntity
  8
0
100
AcDbLine
 62
7
  6
CONTINUOUS
 10
7.134456038
 20
4.1775906824
 11
7.134456038
 21
4.1906835022
  0
LINE
  5
457
100
AcDbEntity
  8
0
100
AcDbLine
 62
7
  6
CONTINUOUS
 10
7.142268538
 20
4.1788550416
 11
7.142268538
 21
4.1914191193
  0
LINE
  5
458
100
AcDbEntity
  8
0
100
AcDbLine
 62
7
  6
CONTINUOUS
 10
7.1565914522
 20
4.175691436
 11
7.1565914522
 21
4.1797419688
  0
LINE
  5
459
100
AcDbEntity
  8
0
100
AcDbLine
 62
7
  6
CONTINUOUS
 10
7.1604976947
 20
4.180789785
 11
7.1604976947
 21
4.1934100518
  0
LINE
  5
45A
100
AcDbEntity
  8
0
100
AcDbLine
 62
7
  6
CONTINUOUS
 10
7.1644039522
 20
4.1766697929
 11
7.1644039522
 21
4.1808122421
  0
LINE
  5
45B
100
AcDbEntity
  8
0
100
AcDbLine
 62
7
  6
CONTINUOUS
 10
7.1787268664
 20
4.1838551497
 11
7.1787268664
 21
4.1965504982
  0
LINE
  5
45C
100
AcDbEntity
  8
0
100
AcDbLine
 62
7
  6
CONTINUOUS
 10
7.1865393664
 20
4.1801336732
 11
7.1865393664
 21
4.1980196367
  0
LINE
  5
45D
100
AcDbEntity
  8
0
100
AcDbLine
 62
7
  6
CONTINUOUS
 10
7.5305393664
 20
3.6625509724
 11
7.5305393664
 21
3.6875509724
  0
LINE
  5
45E
100
AcDbEntity
  8
0
100
AcDbLine
 62
7
  6
CONTINUOUS
 10
7.5305393664
 20
5.6625509724
 11
7.5305393664
 21
5.6875509724
  0
LINE
  5
45F
100
AcDbEntity
  8
0
100
AcDbLine
 62
7
  6
CONTINUOUS
 10
7.5805393664
 20
3.6125509724
 11
7.5805393664
 21
3.7375509724
  0
LINE
  5
460
100
AcDbEntity
  8
0
100
AcDbLine
 62
7
  6
CONTINUOUS
 10
7.5805393664
 20
5.6125509724
 11
7.5805393664
 21
5.7375509724
  0
LINE
  5
461
100
AcDbEntity
  8
0
100
AcDbLine
 62
7
  6
CONTINUOUS
 10
7.6055393664
 20
3.6125509724
 11
7.6055393664
 21
3.7375509724
  0
LINE
  5
462
100
AcDbEntity
  8
0
100
AcDbLine
 62
7
  6
CONTINUOUS
 10
7.6055393664
 20
5.6125509724
 11
7.6055393664
 21
5.7375509724
  0
LINE
  5
463
100
AcDbEntity
  8
0
100
AcDbLine
 62
7
  6
CONTINUOUS
 10
7.6555393664
 20
3.6625509724
 11
7.6555393664
 21
3.6875509724
  0
LINE
  5
464
100
AcDbEntity
  8
0
100
AcDbLine
 62
7
  6
CONTINUOUS
 10
7.6555393664
 20
5.6625509724
 11
7.6555393664
 21
5.6875509724
  0
LINE
  5
465
100
AcDbEntity
  8
0
100
AcDbLine
 62
7
  6
CONTINUOUS
 10
7.8115393664
 20
3.4350509724
 11
7.8115393664
 21
3.4250509724
  0
LINE
  5
466
100
AcDbEntity
  8
0
100
AcDbLine
 62
7
  6
CONTINUOUS
 10
7.8115393664
 20
5.9150509724
 11
7.8115393664
 21
5.9250509724
  0
LINE
  5
467
100
AcDbEntity
  8
0
100
AcDbLine
 62
7
  6
CONTINUOUS
 10
7.9265393664
 20
3.5500509724
 11
7.9265393664
 21
5.8000509724
  0
LINE
  5
468
100
AcDbEntity
  8
0
100
AcDbLine
 62
7
  6
CONTINUOUS
 10
7.9365393664
 20
3.5500509724
 11
7.9365393664
 21
5.8000509724
  0
ARC
  5
469
100
AcDbEntity
  8
0
100
AcDbCircle
 62
7
  6
CONTINUOUS
 10
4.9677893664
 20
4.3000509724
 40
0.14
100
AcDbArc
 50
180.0
 51
270.0
  0
ARC
  5
46A
100
AcDbEntity
  8
0
100
AcDbCircle
 62
7
  6
CONTINUOUS
 10
2.8740393664
 20
3.5500509724
 40
0.125
100
AcDbArc
 50
180.0
 51
270.0
  0
ARC
  5
46B
100
AcDbEntity
  8
0
100
AcDbCircle
 62
7
  6
CONTINUOUS
 10
4.9677893664
 20
4.3000509724
 40
0.125
100
AcDbArc
 50
180.0
 51
270.0
  0
CIRCLE
  5
46C
100
AcDbEntity
  8
0
100
AcDbCircle
 62
7
  6
CONTINUOUS
 10
3.0930393664
 20
3.6750509724
 40
0.1225
  0
CIRCLE
  5
46D
100
AcDbEntity
  8
0
100
AcDbCircle
 62
7
  6
CONTINUOUS
 10
4.5930393664
 20
3.6750509724
 40
0.1225
  0
ARC
  5
46E
100
AcDbEntity
  8
0
100
AcDbCircle
 62
7
  6
CONTINUOUS
 10
2.8740393664
 20
3.5500509724
 40
0.115
100
AcDbArc
 50
180.0
 51
270.0
  0
CIRCLE
  5
46F
100
AcDbEntity
  8
0
100
AcDbCircle
 62
7
  6
CONTINUOUS
 10
3.0930393664
 20
3.6750509724
 40
0.093
  0
CIRCLE
  5
470
100
AcDbEntity
  8
0
100
AcDbCircle
 62
7
  6
CONTINUOUS
 10
4.5930393664
 20
3.6750509724
 40
0.093
  0
ARC
  5
471
100
AcDbEntity
  8
0
100
AcDbCircle
 62
7
  6
CONTINUOUS
 10
3.5762893664
 20
4.6750509724
 40
0.5037183693
100
AcDbArc
 50
259.2738009792
 51
280.7261990208
  0
ARC
  5
472
100
AcDbEntity
  8
0
100
AcDbCircle
 62
7
  6
CONTINUOUS
 10
3.5762893664
 20
4.6750509724
 40
0.5036092834
100
AcDbArc
 50
259.2714500603
 51
280.7285499397
  0
ARC
  5
473
100
AcDbEntity
  8
0
100
AcDbCircle
 62
7
  6
CONTINUOUS
 10
3.5762893664
 20
4.6750509724
 40
0.5035001976
100
AcDbArc
 50
272.2231153778
 51
273.1131121716
  0
ARC
  5
474
100
AcDbEntity
  8
0
100
AcDbCircle
 62
7
  6
CONTINUOUS
 10
3.5762893664
 20
4.6750509724
 40
0.5035001976
100
AcDbArc
 50
276.8320222668
 51
278.1771088502
  0
ARC
  5
475
100
AcDbEntity
  8
0
100
AcDbCircle
 62
7
  6
CONTINUOUS
 10
3.5762893664
 20
4.6750509724
 40
0.5035001976
100
AcDbArc
 50
270.148170107
 51
271.0372496401
  0
ARC
  5
476
100
AcDbEntity
  8
0
100
AcDbCircle
 62
7
  6
CONTINUOUS
 10
3.5762893664
 20
4.6750509724
 40
0.5035001976
100
AcDbArc
 50
264.8069246932
 51
265.9961380084
  0
ARC
  5
477
100
AcDbEntity
  8
0
100
AcDbCircle
 62
7
  6
CONTINUOUS
 10
3.5762893664
 20
4.6750509724
 40
0.5035001976
100
AcDbArc
 50
261.8228911498
 51
262.7200729263
  0
ARC
  5
478
100
AcDbEntity
  8
0
100
AcDbCircle
 62
7
  6
CONTINUOUS
 10
3.5762893664
 20
4.6750509724
 40
0.5035001976
100
AcDbArc
 50
268.0734200979
 51
268.9627495119
  0
ARC
  5
479
100
AcDbEntity
  8
0
100
AcDbCircle
 62
7
  6
CONTINUOUS
 10
3.5762893664
 20
4.6750509724
 40
0.5029547683
100
AcDbArc
 50
272.2255274476
 51
273.5622430841
  0
ARC
  5
47A
100
AcDbEntity
  8
0
100
AcDbCircle
 62
7
  6
CONTINUOUS
 10
3.5762893664
 20
4.6750509724
 40
0.5029547683
100
AcDbArc
 50
277.28786462
 51
278.1860373158
  0
ARC
  5
47B
100
AcDbEntity
  8
0
100
AcDbCircle
 62
7
  6
CONTINUOUS
 10
3.5762893664
 20
4.6750509724
 40
0.5029547683
100
AcDbArc
 50
270.1483307904
 51
271.0383746085
  0
ARC
  5
47C
100
AcDbEntity
  8
0
100
AcDbCircle
 62
7
  6
CONTINUOUS
 10
3.5762893664
 20
4.6750509724
 40
0.5029547683
100
AcDbArc
 50
261.8139626842
 51
263.1605333739
  0
ARC
  5
47D
100
AcDbEntity
  8
0
100
AcDbCircle
 62
7
  6
CONTINUOUS
 10
3.5762893664
 20
4.6750509724
 40
0.5029547683
100
AcDbArc
 50
267.6260214703
 51
268.9616245426
  0
ARC
  5
47E
100
AcDbEntity
  8
0
100
AcDbCircle
 62
7
  6
CONTINUOUS
 10
3.5762893664
 20
4.6750509724
 40
0.4994203869
100
AcDbArc
 50
259.1803837672
 51
280.8196162328
  0
ARC
  5
47F
100
AcDbEntity
  8
0
100
AcDbCircle
 62
7
  6
CONTINUOUS
 10
3.5762893664
 20
4.6750509724
 40
0.499311301
100
AcDbArc
 50
259.1779914637
 51
280.8220085363
  0
ARC
  5
480
100
AcDbEntity
  8
0
100
AcDbCircle
 62
7
  6
CONTINUOUS
 10
3.5762893664
 20
4.6750509724
 40
0.4992022152
100
AcDbArc
 50
279.9128293885
 51
280.7231154824
  0
ARC
  5
481
100
AcDbEntity
  8
0
100
AcDbCircle
 62
7
  6
CONTINUOUS
 10
3.5762893664
 20
4.6750509724
 40
0.4992022152
100
AcDbArc
 50
272.6910210495
 51
273.5890557707
  0
ARC
  5
482
100
AcDbEntity
  8
0
100
AcDbCircle
 62
7
  6
CONTINUOUS
 10
3.5762893664
 20
4.6750509724
 40
0.4992022152
100
AcDbArc
 50
267.6081657007
 51
268.5053680967
  0
ARC
  5
483
100
AcDbEntity
  8
0
100
AcDbCircle
 62
7
  6
CONTINUOUS
 10
3.5762893664
 20
4.6750509724
 40
0.4992022152
100
AcDbArc
 50
262.2047705837
 51
263.4098453572
  0
ARC
  5
484
100
AcDbEntity
  8
0
100
AcDbCircle
 62
7
  6
CONTINUOUS
 10
3.5762893664
 20
4.6750509724
 40
0.4992022152
100
AcDbArc
 50
259.1755980956
 51
260.0871706115
  0
ARC
  5
485
100
AcDbEntity
  8
0
100
AcDbCircle
 62
7
  6
CONTINUOUS
 10
3.5762893664
 20
4.6750509724
 40
0.4992022152
100
AcDbArc
 50
265.5120256925
 51
266.4109442293
  0
ARC
  5
486
100
AcDbEntity
  8
0
100
AcDbCircle
 62
7
  6
CONTINUOUS
 10
3.5762893664
 20
4.6750509724
 40
0.4990629567
100
AcDbArc
 50
271.9438918107
 51
272.0932961466
  0
ARC
  5
487
100
AcDbEntity
  8
0
100
AcDbCircle
 62
7
  6
CONTINUOUS
 10
3.5762893664
 20
4.6750509724
 40
0.4990629567
100
AcDbArc
 50
269.103035888
 51
269.252474999
  0
ARC
  5
488
100
AcDbEntity
  8
0
100
AcDbCircle
 62
7
  6
CONTINUOUS
 10
3.5762893664
 20
4.6750509724
 40
0.4990165372
100
AcDbArc
 50
269.2524699873
 51
271.9438968255
  0
ARC
  5
489
100
AcDbEntity
  8
0
100
AcDbCircle
 62
7
  6
CONTINUOUS
 10
3.5762893664
 20
4.6750509724
 40
0.498656786
100
AcDbArc
 50
274.793098733
 51
275.6945387528
  0
ARC
  5
48A
100
AcDbEntity
  8
0
100
AcDbCircle
 62
7
  6
CONTINUOUS
 10
3.5762893664
 20
4.6750509724
 40
0.498656786
100
AcDbArc
 50
279.9237816885
 51
280.8363847397
  0
ARC
  5
48B
100
AcDbEntity
  8
0
100
AcDbCircle
 62
7
  6
CONTINUOUS
 10
3.5762893664
 20
4.6750509724
 40
0.498656786
100
AcDbArc
 50
270.0
 51
271.1969641766
  0
ARC
  5
48C
100
AcDbEntity
  8
0
100
AcDbCircle
 62
7
  6
CONTINUOUS
 10
3.5762893664
 20
4.6750509724
 40
0.498656786
100
AcDbArc
 50
259.1636152603
 51
260.5315530218
  0
ARC
  5
48D
100
AcDbEntity
  8
0
100
AcDbCircle
 62
7
  6
CONTINUOUS
 10
3.5762893664
 20
4.6750509724
 40
0.498656786
100
AcDbArc
 50
265.0567504644
 51
266.4070133801
  0
ARC
  5
48E
100
AcDbEntity
  8
0
100
AcDbCircle
 62
7
  6
CONTINUOUS
 10
3.5762893664
 20
4.6750509724
 40
0.4962642046
100
AcDbArc
 50
280.8895358613
 51
259.1104641387
  0
ARC
  5
48F
100
AcDbEntity
  8
0
100
AcDbCircle
 62
7
  6
CONTINUOUS
 10
3.5762893664
 20
4.6750509724
 40
0.4868108251
100
AcDbArc
 50
273.6812506318
 51
274.9111599531
  0
ARC
  5
490
100
AcDbEntity
  8
0
100
AcDbCircle
 62
7
  6
CONTINUOUS
 10
3.5762893664
 20
4.6750509724
 40
0.4868108251
100
AcDbArc
 50
266.3151896136
 51
267.546827626
  0
CIRCLE
  5
491
100
AcDbEntity
  8
0
100
AcDbCircle
 62
7
  6
CONTINUOUS
 10
3.5762893664
 20
4.6750509724
 40
0.4861424037
  0
CIRCLE
  5
492
100
AcDbEntity
  8
0
100
AcDbCircle
 62
7
  6
CONTINUOUS
 10
3.5762893664
 20
4.6750509724
 40
0.4830267986
  0
CIRCLE
  5
493
100
AcDbEntity
  8
0
100
AcDbCircle
 62
7
  6
CONTINUOUS
 10
3.5762893664
 20
4.6750509724
 40
0.3787330932
  0
CIRCLE
  5
494
100
AcDbEntity
  8
0
100
AcDbCircle
 62
7
  6
CONTINUOUS
 10
3.5762893664
 20
4.6750509724
 40
0.3693491742
  0
ARC
  5
495
100
AcDbEntity
  8
0
100
AcDbCircle
 62
7
  6
CONTINUOUS
 10
2.8740393664
 20
5.8000509724
 40
0.125
100
AcDbArc
 50
90.0
 51
180.0
  0
CIRCLE
  5
496
100
AcDbEntity
  8
0
100
AcDbCircle
 62
7
  6
CONTINUOUS
 10
3.0930393664
 20
5.6750509724
 40
0.1225
  0
ARC
  5
497
100
AcDbEntity
  8
0
100
AcDbCircle
 62
7
  6
CONTINUOUS
 10
2.8740393664
 20
5.8000509724
 40
0.115
100
AcDbArc
 50
90.0
 51
180.0
  0
CIRCLE
  5
498
100
AcDbEntity
  8
0
100
AcDbCircle
 62
7
  6
CONTINUOUS
 10
3.0930393664
 20
5.6750509724
 40
0.093
  0
ARC
  5
499
100
AcDbEntity
  8
0
100
AcDbCircle
 62
7
  6
CONTINUOUS
 10
4.0927893664
 20
4.6750509724
 40
0.33075
100
AcDbArc
 50
247.6522762099
 51
112.3477237939
  0
ARC
  5
49A
100
AcDbEntity
  8
0
100
AcDbCircle
 62
7
  6
CONTINUOUS
 10
4.0927893664
 20
4.6750509724
 40
0.31575
100
AcDbArc
 50
248.3774778945
 51
111.6225221178
  0
ARC
  5
49B
100
AcDbEntity
  8
0
100
AcDbCircle
 62
7
  6
CONTINUOUS
 10
4.9677893664
 20
5.0500509724
 40
0.14
100
AcDbArc
 50
90.0
 51
180.0
  0
ARC
  5
49C
100
AcDbEntity
  8
0
100
AcDbCircle
 62
7
  6
CONTINUOUS
 10
4.9677893664
 20
5.0500509724
 40
0.125
100
AcDbArc
 50
90.0
 51
180.0
  0
CIRCLE
  5
49D
100
AcDbEntity
  8
0
100
AcDbCircle
 62
7
  6
CONTINUOUS
 10
4.5930393664
 20
5.6750509724
 40
0.1225
  0
CIRCLE
  5
49E
100
AcDbEntity
  8
0
100
AcDbCircle
 62
7
  6
CONTINUOUS
 10
4.5930393664
 20
5.6750509724
 40
0.093
  0
ARC
  5
49F
100
AcDbEntity
  8
0
100
AcDbCircle
 62
7
  6
CONTINUOUS
 10
6.2177893664
 20
4.3000509724
 40
0.14
100
AcDbArc
 50
270.0
 51
360.0
  0
ARC
  5
4A0
100
AcDbEntity
  8
0
100
AcDbCircle
 62
7
  6
CONTINUOUS
 10
7.8115393664
 20
3.5500509724
 40
0.125
100
AcDbArc
 50
270.0
 51
360.0
  0
ARC
  5
4A1
100
AcDbEntity
  8
0
100
AcDbCircle
 62
7
  6
CONTINUOUS
 10
6.2177893664
 20
4.3000509724
 40
0.125
100
AcDbArc
 50
270.0
 51
360.0
  0
CIRCLE
  5
4A2
100
AcDbEntity
  8
0
100
AcDbCircle
 62
7
  6
CONTINUOUS
 10
6.0930393664
 20
3.6750509724
 40
0.1225
  0
CIRCLE
  5
4A3
100
AcDbEntity
  8
0
100
AcDbCircle
 62
7
  6
CONTINUOUS
 10
7.5930393664
 20
3.6750509724
 40
0.1225
  0
ARC
  5
4A4
100
AcDbEntity
  8
0
100
AcDbCircle
 62
7
  6
CONTINUOUS
 10
7.8115393664
 20
3.5500509724
 40
0.115
100
AcDbArc
 50
270.0
 51
360.0
  0
CIRCLE
  5
4A5
100
AcDbEntity
  8
0
100
AcDbCircle
 62
7
  6
CONTINUOUS
 10
6.0930393664
 20
3.6750509724
 40
0.093
  0
CIRCLE
  5
4A6
100
AcDbEntity
  8
0
100
AcDbCircle
 62
7
  6
CONTINUOUS
 10
7.5930393664
 20
3.6750509724
 40
0.093
  0
CIRCLE
  5
4A7
100
AcDbEntity
  8
0
100
AcDbCircle
 62
7
  6
CONTINUOUS
 10
5.6132893664
 20
3.9040509724
 40
0.05325
  0
CIRCLE
  5
4A8
100
AcDbEntity
  8
0
100
AcDbCircle
 62
7
  6
CONTINUOUS
 10
5.6132893664
 20
3.9040509724
 40
0.04325
  0
ARC
  5
4A9
100
AcDbEntity
  8
0
100
AcDbCircle
 62
7
  6
CONTINUOUS
 10
6.2177893664
 20
5.0500509724
 40
0.14
100
AcDbArc
 50
0.0
 51
90.0
  0
ARC
  5
4AA
100
AcDbEntity
  8
0
100
AcDbCircle
 62
7
  6
CONTINUOUS
 10
6.2177893664
 20
5.0500509724
 40
0.125
100
AcDbArc
 50
0.0
 51
90.0
  0
CIRCLE
  5
4AB
100
AcDbEntity
  8
0
100
AcDbCircle
 62
7
  6
CONTINUOUS
 10
6.0930393664
 20
5.6750509724
 40
0.1225
  0
CIRCLE
  5
4AC
100
AcDbEntity
  8
0
100
AcDbCircle
 62
7
  6
CONTINUOUS
 10
6.0930393664
 20
5.6750509724
 40
0.093
  0
ARC
  5
4AD
100
AcDbEntity
  8
0
100
AcDbCircle
 62
7
  6
CONTINUOUS
 10
7.0927893664
 20
4.6750509724
 40
0.5037183693
100
AcDbArc
 50
259.2738009792
 51
280.7261990208
  0
ARC
  5
4AE
100
AcDbEntity
  8
0
100
AcDbCircle
 62
7
  6
CONTINUOUS
 10
7.0927893664
 20
4.6750509724
 40
0.5036092834
100
AcDbArc
 50
259.2714500603
 51
280.7285499397
  0
ARC
  5
4AF
100
AcDbEntity
  8
0
100
AcDbCircle
 62
7
  6
CONTINUOUS
 10
7.0927893664
 20
4.6750509724
 40
0.5035001976
100
AcDbArc
 50
272.2231153778
 51
273.1131121716
  0
ARC
  5
4B0
100
AcDbEntity
  8
0
100
AcDbCircle
 62
7
  6
CONTINUOUS
 10
7.0927893664
 20
4.6750509724
 40
0.5035001976
100
AcDbArc
 50
276.8320222668
 51
278.1771088502
  0
ARC
  5
4B1
100
AcDbEntity
  8
0
100
AcDbCircle
 62
7
  6
CONTINUOUS
 10
7.0927893664
 20
4.6750509724
 40
0.5035001976
100
AcDbArc
 50
270.148170107
 51
271.0372496401
  0
ARC
  5
4B2
100
AcDbEntity
  8
0
100
AcDbCircle
 62
7
  6
CONTINUOUS
 10
7.0927893664
 20
4.6750509724
 40
0.5035001976
100
AcDbArc
 50
264.8069246932
 51
265.9961380084
  0
ARC
  5
4B3
100
AcDbEntity
  8
0
100
AcDbCircle
 62
7
  6
CONTINUOUS
 10
7.0927893664
 20
4.6750509724
 40
0.5035001976
100
AcDbArc
 50
261.8228911498
 51
262.7200729263
  0
ARC
  5
4B4
100
AcDbEntity
  8
0
100
AcDbCircle
 62
7
  6
CONTINUOUS
 10
7.0927893664
 20
4.6750509724
 40
0.5035001976
100
AcDbArc
 50
268.0734200979
 51
268.9627495119
  0
ARC
  5
4B5
100
AcDbEntity
  8
0
100
AcDbCircle
 62
7
  6
CONTINUOUS
 10
7.0927893664
 20
4.6750509724
 40
0.5029547683
100
AcDbArc
 50
272.2255274476
 51
273.5622430841
  0
ARC
  5
4B6
100
AcDbEntity
  8
0
100
AcDbCircle
 62
7
  6
CONTINUOUS
 10
7.0927893664
 20
4.6750509724
 40
0.5029547683
100
AcDbArc
 50
277.28786462
 51
278.1860373158
  0
ARC
  5
4B7
100
AcDbEntity
  8
0
100
AcDbCircle
 62
7
  6
CONTINUOUS
 10
7.0927893664
 20
4.6750509724
 40
0.5029547683
100
AcDbArc
 50
270.1483307904
 51
271.0383746085
  0
ARC
  5
4B8
100
AcDbEntity
  8
0
100
AcDbCircle
 62
7
  6
CONTINUOUS
 10
7.0927893664
 20
4.6750509724
 40
0.5029547683
100
AcDbArc
 50
261.8139626842
 51
263.1605333739
  0
ARC
  5
4B9
100
AcDbEntity
  8
0
100
AcDbCircle
 62
7
  6
CONTINUOUS
 10
7.0927893664
 20
4.6750509724
 40
0.5029547683
100
AcDbArc
 50
267.6260214703
 51
268.9616245426
  0
ARC
  5
4BA
100
AcDbEntity
  8
0
100
AcDbCircle
 62
7
  6
CONTINUOUS
 10
7.0927893664
 20
4.6750509724
 40
0.4994203869
100
AcDbArc
 50
259.1803837672
 51
280.8196162328
  0
ARC
  5
4BB
100
AcDbEntity
  8
0
100
AcDbCircle
 62
7
  6
CONTINUOUS
 10
7.0927893664
 20
4.6750509724
 40
0.499311301
100
AcDbArc
 50
259.1779914637
 51
280.8220085363
  0
ARC
  5
4BC
100
AcDbEntity
  8
0
100
AcDbCircle
 62
7
  6
CONTINUOUS
 10
7.0927893664
 20
4.6750509724
 40
0.4992022152
100
AcDbArc
 50
279.9128293885
 51
280.7231154824
  0
ARC
  5
4BD
100
AcDbEntity
  8
0
100
AcDbCircle
 62
7
  6
CONTINUOUS
 10
7.0927893664
 20
4.6750509724
 40
0.4992022152
100
AcDbArc
 50
272.6910210495
 51
273.5890557707
  0
ARC
  5
4BE
100
AcDbEntity
  8
0
100
AcDbCircle
 62
7
  6
CONTINUOUS
 10
7.0927893664
 20
4.6750509724
 40
0.4992022152
100
AcDbArc
 50
267.6081657007
 51
268.5053680967
  0
ARC
  5
4BF
100
AcDbEntity
  8
0
100
AcDbCircle
 62
7
  6
CONTINUOUS
 10
7.0927893664
 20
4.6750509724
 40
0.4992022152
100
AcDbArc
 50
262.2047705837
 51
263.4098453572
  0
ARC
  5
4C0
100
AcDbEntity
  8
0
100
AcDbCircle
 62
7
  6
CONTINUOUS
 10
7.0927893664
 20
4.6750509724
 40
0.4992022152
100
AcDbArc
 50
259.1755980956
 51
260.0871706115
  0
ARC
  5
4C1
100
AcDbEntity
  8
0
100
AcDbCircle
 62
7
  6
CONTINUOUS
 10
7.0927893664
 20
4.6750509724
 40
0.4992022152
100
AcDbArc
 50
265.5120256925
 51
266.4109442293
  0
ARC
  5
4C2
100
AcDbEntity
  8
0
100
AcDbCircle
 62
7
  6
CONTINUOUS
 10
7.0927893664
 20
4.6750509724
 40
0.4990629567
100
AcDbArc
 50
271.9438918107
 51
272.0932961466
  0
ARC
  5
4C3
100
AcDbEntity
  8
0
100
AcDbCircle
 62
7
  6
CONTINUOUS
 10
7.0927893664
 20
4.6750509724
 40
0.4990629567
100
AcDbArc
 50
269.103035888
 51
269.252474999
  0
ARC
  5
4C4
100
AcDbEntity
  8
0
100
AcDbCircle
 62
7
  6
CONTINUOUS
 10
7.0927893664
 20
4.6750509724
 40
0.4990165372
100
AcDbArc
 50
269.2524699873
 51
271.9438968255
  0
ARC
  5
4C5
100
AcDbEntity
  8
0
100
AcDbCircle
 62
7
  6
CONTINUOUS
 10
7.0927893664
 20
4.6750509724
 40
0.498656786
100
AcDbArc
 50
274.793098733
 51
275.6945387528
  0
ARC
  5
4C6
100
AcDbEntity
  8
0
100
AcDbCircle
 62
7
  6
CONTINUOUS
 10
7.0927893664
 20
4.6750509724
 40
0.498656786
100
AcDbArc
 50
279.9237816885
 51
280.8363847397
  0
ARC
  5
4C7
100
AcDbEntity
  8
0
100
AcDbCircle
 62
7
  6
CONTINUOUS
 10
7.0927893664
 20
4.6750509724
 40
0.498656786
100
AcDbArc
 50
270.0
 51
271.1969641766
  0
ARC
  5
4C8
100
AcDbEntity
  8
0
100
AcDbCircle
 62
7
  6
CONTINUOUS
 10
7.0927893664
 20
4.6750509724
 40
0.498656786
100
AcDbArc
 50
259.1636152603
 51
260.5315530218
  0
ARC
  5
4C9
100
AcDbEntity
  8
0
100
AcDbCircle
 62
7
  6
CONTINUOUS
 10
7.0927893664
 20
4.6750509724
 40
0.498656786
100
AcDbArc
 50
265.0567504644
 51
266.4070133801
  0
ARC
  5
4CA
100
AcDbEntity
  8
0
100
AcDbCircle
 62
7
  6
CONTINUOUS
 10
7.0927893664
 20
4.6750509724
 40
0.4962642046
100
AcDbArc
 50
280.8895358613
 51
259.1104641387
  0
ARC
  5
4CB
100
AcDbEntity
  8
0
100
AcDbCircle
 62
7
  6
CONTINUOUS
 10
7.0927893664
 20
4.6750509724
 40
0.4868108251
100
AcDbArc
 50
273.6812506318
 51
274.9111599531
  0
ARC
  5
4CC
100
AcDbEntity
  8
0
100
AcDbCircle
 62
7
  6
CONTINUOUS
 10
7.0927893664
 20
4.6750509724
 40
0.4868108251
100
AcDbArc
 50
266.3151896136
 51
267.546827626
  0
CIRCLE
  5
4CD
100
AcDbEntity
  8
0
100
AcDbCircle
 62
7
  6
CONTINUOUS
 10
7.0927893664
 20
4.6750509724
 40
0.4861424037
  0
CIRCLE
  5
4CE
100
AcDbEntity
  8
0
100
AcDbCircle
 62
7
  6
CONTINUOUS
 10
7.0927893664
 20
4.6750509724
 40
0.4830267986
  0
CIRCLE
  5
4CF
100
AcDbEntity
  8
0
100
AcDbCircle
 62
7
  6
CONTINUOUS
 10
7.0927893664
 20
4.6750509724
 40
0.3787330932
  0
CIRCLE
  5
4D0
100
AcDbEntity
  8
0
100
AcDbCircle
 62
7
  6
CONTINUOUS
 10
7.0927893664
 20
4.6750509724
 40
0.3693491742
  0
ARC
  5
4D1
100
AcDbEntity
  8
0
100
AcDbCircle
 62
7
  6
CONTINUOUS
 10
7.8115393664
 20
5.8000509724
 40
0.125
100
AcDbArc
 50
0.0
 51
90.0
  0
CIRCLE
  5
4D2
100
AcDbEntity
  8
0
100
AcDbCircle
 62
7
  6
CONTINUOUS
 10
7.5930393664
 20
5.6750509724
 40
0.1225
  0
ARC
  5
4D3
100
AcDbEntity
  8
0
100
AcDbCircle
 62
7
  6
CONTINUOUS
 10
7.8115393664
 20
5.8000509724
 40
0.115
100
AcDbArc
 50
0.0
 51
90.0
  0
CIRCLE
  5
4D4
100
AcDbEntity
  8
0
100
AcDbCircle
 62
7
  6
CONTINUOUS
 10
7.5930393664
 20
5.6750509724
 40
0.093
  0
ELLIPSE
  5
4D5
100
AcDbEntity
  8
0
100
AcDbEllipse
 62
7
  6
CONTINUOUS
 10
3.5629419548
 20
4.6750509724
 30
0.0
 11
0.4991993423
 21
0.0
 31
0.0
 40
0.9996424854
 41
-1.5570999724
 42
-1.5336167445
  0
ELLIPSE
  5
4D6
100
AcDbEntity
  8
0
100
AcDbEllipse
 62
7
  6
CONTINUOUS
 10
7.0794419548
 20
4.6750509724
 30
0.0
 11
0.4991993423
 21
0.0
 31
0.0
 40
0.9996424854
 41
-1.5570999724
 42
-1.5336167445
  0
ELLIPSE
  5
4D7
100
AcDbEntity
  8
0
100
AcDbEllipse
 62
7
  6
CONTINUOUS
 10
3.5836375879
 20
4.6750509724
 30
0.0
 11
0.5027321315
 21
-0.0
 31
0.0
 40
0.9998931722
 41
4.7521731973
 42
4.8171043296
  0
ELLIPSE
  5
4D8
100
AcDbEntity
  8
0
100
AcDbEllipse
 62
7
  6
CONTINUOUS
 10
3.5644425609
 20
4.6750509724
 30
0.0
 11
0.5029511532
 21
0.0
 31
0.0
 40
0.9997225523
 41
4.6660270215
 42
4.7022878668
  0
ELLIPSE
  5
4D9
100
AcDbEntity
  8
0
100
AcDbEllipse
 62
7
  6
CONTINUOUS
 10
3.588180988
 20
4.6750509724
 30
0.0
 11
0.5048537511
 21
-0.0
 31
0.0
 40
0.9997225522
 41
4.5618895359
 42
4.5983176186
  0
ELLIPSE
  5
4DA
100
AcDbEntity
  8
0
100
AcDbEllipse
 62
7
  6
CONTINUOUS
 10
3.5823158229
 20
4.6750509724
 30
0.0
 11
0.4982356436
 21
-0.0
 31
0.0
 40
0.9999268456
 41
4.8365080222
 42
4.8734727607
  0
ELLIPSE
  5
4DB
100
AcDbEntity
  8
0
100
AcDbEllipse
 62
7
  6
CONTINUOUS
 10
3.5702430901
 20
4.6750509724
 30
0.0
 11
0.4998738291
 21
0.0
 31
0.0
 40
0.9999268455
 41
4.8236976089
 42
4.8604760819
  0
ELLIPSE
  5
4DC
100
AcDbEntity
  8
0
100
AcDbEllipse
 62
7
  6
CONTINUOUS
 10
3.5822970627
 20
4.6750509724
 30
0.0
 11
0.4982268045
 21
0.0
 31
0.0
 40
0.9999272978
 41
4.798915709
 42
4.8286508646
  0
ELLIPSE
  5
4DD
100
AcDbEntity
  8
0
100
AcDbEllipse
 62
7
  6
CONTINUOUS
 10
3.5702619817
 20
4.6750509724
 30
0.0
 11
0.4998599164
 21
0.0
 31
0.0
 40
0.9999272979
 41
4.8683478918
 42
4.9133495831
  0
ELLIPSE
  5
4DE
100
AcDbEntity
  8
0
100
AcDbEllipse
 62
7
  6
CONTINUOUS
 10
3.5896293257
 20
4.6750509724
 30
0.0
 11
0.4989206259
 21
-0.0
 31
0.0
 40
0.9996424854
 41
4.6960898275
 42
4.7195788162
  0
ELLIPSE
  5
4DF
100
AcDbEntity
  8
0
100
AcDbEllipse
 62
7
  6
CONTINUOUS
 10
3.5896296293
 20
4.6750509724
 30
0.0
 11
0.4989322391
 21
-0.0
 31
0.0
 40
0.9996424858
 41
-1.5609974421
 42
-1.550557253
  0
ELLIPSE
  5
4E0
100
AcDbEntity
  8
0
100
AcDbEllipse
 62
7
  6
CONTINUOUS
 10
3.5629416512
 20
4.6750509724
 30
0.0
 11
0.4992109552
 21
0.0
 31
0.0
 40
0.9996424858
 41
-1.5701415348
 42
-1.5597081715
  0
ELLIPSE
  5
4E1
100
AcDbEntity
  8
0
100
AcDbEllipse
 62
7
  6
CONTINUOUS
 10
3.5645561422
 20
4.6750509724
 30
0.0
 11
0.498129105
 21
0.0
 31
0.0
 40
0.9997225523
 41
4.620801884
 42
4.6574975786
  0
ELLIPSE
  5
4E2
100
AcDbEntity
  8
0
100
AcDbEllipse
 62
7
  6
CONTINUOUS
 10
3.5880919825
 20
4.6750509724
 30
0.0
 11
0.5010750628
 21
-0.0
 31
0.0
 40
0.9997225522
 41
4.5160695123
 42
4.5530346845
  0
ELLIPSE
  5
4E3
100
AcDbEntity
  8
0
100
AcDbEllipse
 62
7
  6
CONTINUOUS
 10
7.1001375879
 20
4.6750509724
 30
0.0
 11
0.5027321315
 21
-0.0
 31
0.0
 40
0.9998931722
 41
4.7521731973
 42
4.8171043296
  0
ELLIPSE
  5
4E4
100
AcDbEntity
  8
0
100
AcDbEllipse
 62
7
  6
CONTINUOUS
 10
7.0809425609
 20
4.6750509724
 30
0.0
 11
0.5029511532
 21
0.0
 31
0.0
 40
0.9997225523
 41
4.6660270215
 42
4.7022878668
  0
ELLIPSE
  5
4E5
100
AcDbEntity
  8
0
100
AcDbEllipse
 62
7
  6
CONTINUOUS
 10
7.104680988
 20
4.6750509724
 30
0.0
 11
0.5048537511
 21
0.0
 31
0.0
 40
0.9997225522
 41
4.5618895359
 42
4.5983176186
  0
ELLIPSE
  5
4E6
100
AcDbEntity
  8
0
100
AcDbEllipse
 62
7
  6
CONTINUOUS
 10
7.0988158229
 20
4.6750509724
 30
0.0
 11
0.4982356436
 21
-0.0
 31
0.0
 40
0.9999268456
 41
4.8365080222
 42
4.8734727607
  0
ELLIPSE
  5
4E7
100
AcDbEntity
  8
0
100
AcDbEllipse
 62
7
  6
CONTINUOUS
 10
7.0867430901
 20
4.6750509724
 30
0.0
 11
0.4998738291
 21
0.0
 31
0.0
 40
0.9999268455
 41
4.8236976089
 42
4.8604760819
  0
ELLIPSE
  5
4E8
100
AcDbEntity
  8
0
100
AcDbEllipse
 62
7
  6
CONTINUOUS
 10
7.0987970627
 20
4.6750509724
 30
0.0
 11
0.4982268045
 21
-0.0
 31
0.0
 40
0.9999272978
 41
4.798915709
 42
4.8286508646
  0
ELLIPSE
  5
4E9
100
AcDbEntity
  8
0
100
AcDbEllipse
 62
7
  6
CONTINUOUS
 10
7.0867619817
 20
4.6750509724
 30
0.0
 11
0.4998599164
 21
0.0
 31
0.0
 40
0.9999272979
 41
4.8683478918
 42
4.9133495831
  0
ELLIPSE
  5
4EA
100
AcDbEntity
  8
0
100
AcDbEllipse
 62
7
  6
CONTINUOUS
 10
7.1061293257
 20
4.6750509724
 30
0.0
 11
0.4989206259
 21
-0.0
 31
0.0
 40
0.9996424854
 41
4.6960898275
 42
4.7195788162
  0
ELLIPSE
  5
4EB
100
AcDbEntity
  8
0
100
AcDbEllipse
 62
7
  6
CONTINUOUS
 10
7.1061296293
 20
4.6750509724
 30
0.0
 11
0.4989322391
 21
-0.0
 31
0.0
 40
0.9996424858
 41
-1.5609974421
 42
-1.550557253
  0
ELLIPSE
  5
4EC
100
AcDbEntity
  8
0
100
AcDbEllipse
 62
7
  6
CONTINUOUS
 10
7.0794416512
 20
4.6750509724
 30
0.0
 11
0.4992109552
 21
0.0
 31
0.0
 40
0.9996424858
 41
-1.5701415348
 42
-1.5597081715
  0
ELLIPSE
  5
4ED
100
AcDbEntity
  8
0
100
AcDbEllipse
 62
7
  6
CONTINUOUS
 10
7.0810561422
 20
4.6750509724
 30
0.0
 11
0.498129105
 21
0.0
 31
0.0
 40
0.9997225523
 41
4.620801884
 42
4.6574975786
  0
ELLIPSE
  5
4EE
100
AcDbEntity
  8
0
100
AcDbEllipse
 62
7
  6
CONTINUOUS
 10
7.1045919825
 20
4.6750509724
 30
0.0
 11
0.5010750628
 21
-0.0
 31
0.0
 40
0.9997225522
 41
4.5160695123
 42
4.5530346845
  0
ELLIPSE
  5
4EF
100
AcDbEntity
  8
0
100
AcDbEllipse
 62
7
  6
CONTINUOUS
 10
3.5700006006
 20
4.6750509724
 30
0.0
 11
0.4998056108
 21
-0.0
 31
0.0
 40
0.9999208382
 41
4.8084849883
 42
4.8530889576
  0
ELLIPSE
  5
4F0
100
AcDbEntity
  8
0
100
AcDbEllipse
 62
7
  6
CONTINUOUS
 10
3.5823145643
 20
4.6750509724
 30
0.0
 11
0.4981311839
 21
-0.0
 31
0.0
 40
0.9999268455
 41
4.7997339954
 42
4.836536731
  0
ELLIPSE
  5
4F1
100
AcDbEntity
  8
0
100
AcDbEllipse
 62
7
  6
CONTINUOUS
 10
3.5702443585
 20
4.6750509724
 30
0.0
 11
0.4997693691
 21
0.0
 31
0.0
 40
0.9999268456
 41
4.8605046967
 42
4.8974941534
  0
ELLIPSE
  5
4F2
100
AcDbEntity
  8
0
100
AcDbEllipse
 62
7
  6
CONTINUOUS
 10
3.5825566857
 20
4.6750509724
 30
0.0
 11
0.4981014718
 21
-0.0
 31
0.0
 40
0.9999208383
 41
4.8439609268
 42
4.8889369416
  0
ELLIPSE
  5
4F3
100
AcDbEntity
  8
0
100
AcDbEllipse
 62
7
  6
CONTINUOUS
 10
3.5893463101
 20
4.6750509724
 30
0.0
 11
0.4987259101
 21
-0.0
 31
0.0
 40
0.9996572293
 41
4.7070949065
 42
4.7488761437
  0
ELLIPSE
  5
4F4
100
AcDbEntity
  8
0
100
AcDbEllipse
 62
7
  6
CONTINUOUS
 10
3.563225278
 20
4.6750509724
 30
0.0
 11
0.4989988116
 21
0.0
 31
0.0
 40
0.9996572293
 41
4.6968186801
 42
4.7385725724
  0
ELLIPSE
  5
4F5
100
AcDbEntity
  8
0
100
AcDbEllipse
 62
7
  6
CONTINUOUS
 10
3.5887922824
 20
4.6750509724
 30
0.0
 11
0.5010158982
 21
-0.0
 31
0.0
 40
0.9996885723
 41
4.5225660972
 42
4.562122446
  0
ELLIPSE
  5
4F6
100
AcDbEntity
  8
0
100
AcDbEllipse
 62
7
  6
CONTINUOUS
 10
3.5638643437
 20
4.6750509724
 30
0.0
 11
0.4978945633
 21
0.0
 31
0.0
 40
0.9996885723
 41
4.6116451968
 42
4.651004664
  0
ELLIPSE
  5
4F7
100
AcDbEntity
  8
0
100
AcDbEllipse
 62
7
  6
CONTINUOUS
 10
7.0986633414
 20
4.6750509724
 30
0.0
 11
0.4856288788
 21
0.0
 31
0.0
 40
0.9999268455
 41
-1.4808840371
 42
-1.443121329
  0
ELLIPSE
  5
4F8
100
AcDbEntity
  8
0
100
AcDbEllipse
 62
7
  6
CONTINUOUS
 10
7.0868955813
 20
4.6750509724
 30
0.0
 11
0.487267064
 21
0.0
 31
0.0
 40
0.9999268456
 41
-1.4191650736
 42
-1.3812005638
  0
ELLIPSE
  5
4F9
100
AcDbEntity
  8
0
100
AcDbEllipse
 62
7
  6
CONTINUOUS
 10
7.1055188156
 20
4.6750509724
 30
0.0
 11
0.4862168601
 21
-0.0
 31
0.0
 40
0.9996572293
 41
-1.5755530392
 42
-1.5326959772
  0
ELLIPSE
  5
4FA
100
AcDbEntity
  8
0
100
AcDbEllipse
 62
7
  6
CONTINUOUS
 10
7.0800527724
 20
4.6750509724
 30
0.0
 11
0.4864897617
 21
-0.0
 31
0.0
 40
0.9996572293
 41
-1.5874402859
 42
-1.5446127348
  0
ELLIPSE
  5
4FB
100
AcDbEntity
  8
0
100
AcDbEllipse
 62
7
  6
CONTINUOUS
 10
7.104980137
 20
4.6750509724
 30
0.0
 11
0.4885076326
 21
0.0
 31
0.0
 40
0.9996885723
 41
-1.7648899679
 42
-1.7242942039
  0
ELLIPSE
  5
4FC
100
AcDbEntity
  8
0
100
AcDbEllipse
 62
7
  6
CONTINUOUS
 10
7.0806764891
 20
4.6750509724
 30
0.0
 11
0.4853862977
 21
-0.0
 31
0.0
 40
0.9996885723
 41
-1.6747919716
 42
-1.6344089436
  0
ELLIPSE
  5
4FD
100
AcDbEntity
  8
0
100
AcDbEllipse
 62
7
  6
CONTINUOUS
 10
7.0999566405
 20
4.6750509724
 30
0.0
 11
0.5026113469
 21
-0.0
 31
0.0
 40
0.99989832
 41
4.7603225391
 42
4.8253099303
  0
ELLIPSE
  5
4FE
100
AcDbEntity
  8
0
100
AcDbEllipse
 62
7
  6
CONTINUOUS
 10
3.5821633414
 20
4.6750509724
 30
0.0
 11
0.4856288788
 21
0.0
 31
0.0
 40
0.9999268455
 41
-1.4808840371
 42
-1.443121329
  0
ELLIPSE
  5
4FF
100
AcDbEntity
  8
0
100
AcDbEllipse
 62
7
  6
CONTINUOUS
 10
3.5703955813
 20
4.6750509724
 30
0.0
 11
0.487267064
 21
-0.0
 31
0.0
 40
0.9999268456
 41
-1.4191650736
 42
-1.3812005638
  0
ELLIPSE
  5
500
100
AcDbEntity
  8
0
100
AcDbEllipse
 62
7
  6
CONTINUOUS
 10
7.1053858123
 20
4.6750509724
 30
0.0
 11
0.5047638225
 21
-0.0
 31
0.0
 40
0.9996885723
 41
4.5682744064
 42
4.6072731103
  0
ELLIPSE
  5
501
100
AcDbEntity
  8
0
100
AcDbEllipse
 62
7
  6
CONTINUOUS
 10
7.0802432265
 20
4.6750509724
 30
0.0
 11
0.5027479603
 21
0.0
 31
0.0
 40
0.9996885723
 41
4.6570279185
 42
4.6959044355
  0
ELLIPSE
  5
502
100
AcDbEntity
  8
0
100
AcDbEllipse
 62
7
  6
CONTINUOUS
 10
3.5890188156
 20
4.6750509724
 30
0.0
 11
0.4862168601
 21
0.0
 31
0.0
 40
0.9996572293
 41
-1.5755530392
 42
-1.5326959772
  0
ELLIPSE
  5
503
100
AcDbEntity
  8
0
100
AcDbEllipse
 62
7
  6
CONTINUOUS
 10
3.5635527724
 20
4.6750509724
 30
0.0
 11
0.4864897617
 21
0.0
 31
0.0
 40
0.9996572293
 41
-1.5874402859
 42
-1.5446127348
  0
ELLIPSE
  5
504
100
AcDbEntity
  8
0
100
AcDbEllipse
 62
7
  6
CONTINUOUS
 10
3.588480137
 20
4.6750509724
 30
0.0
 11
0.4885076326
 21
-0.0
 31
0.0
 40
0.9996885723
 41
-1.7648899679
 42
-1.7242942039
  0
ELLIPSE
  5
505
100
AcDbEntity
  8
0
100
AcDbEllipse
 62
7
  6
CONTINUOUS
 10
3.5641764891
 20
4.6750509724
 30
0.0
 11
0.4853862977
 21
-0.0
 31
0.0
 40
0.9996885723
 41
-1.6747919716
 42
-1.6344089436
  0
ELLIPSE
  5
506
100
AcDbEntity
  8
0
100
AcDbEllipse
 62
7
  6
CONTINUOUS
 10
7.0865006006
 20
4.6750509724
 30
0.0
 11
0.4998056108
 21
0.0
 31
0.0
 40
0.9999208382
 41
4.8084849883
 42
4.8530889576
  0
ELLIPSE
  5
507
100
AcDbEntity
  8
0
100
AcDbEllipse
 62
7
  6
CONTINUOUS
 10
7.0988145643
 20
4.6750509724
 30
0.0
 11
0.4981311839
 21
-0.0
 31
0.0
 40
0.9999268455
 41
4.7997339954
 42
4.836536731
  0
ELLIPSE
  5
508
100
AcDbEntity
  8
0
100
AcDbEllipse
 62
7
  6
CONTINUOUS
 10
7.0867443585
 20
4.6750509724
 30
0.0
 11
0.4997693691
 21
0.0
 31
0.0
 40
0.9999268456
 41
4.8605046967
 42
4.8974941534
  0
ELLIPSE
  5
509
100
AcDbEntity
  8
0
100
AcDbEllipse
 62
7
  6
CONTINUOUS
 10
3.5834566405
 20
4.6750509724
 30
0.0
 11
0.5026113469
 21
-0.0
 31
0.0
 40
0.99989832
 41
4.7603225391
 42
4.8253099303
  0
ELLIPSE
  5
50A
100
AcDbEntity
  8
0
100
AcDbEllipse
 62
7
  6
CONTINUOUS
 10
7.0990566857
 20
4.6750509724
 30
0.0
 11
0.4981014718
 21
0.0
 31
0.0
 40
0.9999208383
 41
4.8439609268
 42
4.8889369416
  0
ELLIPSE
  5
50B
100
AcDbEntity
  8
0
100
AcDbEllipse
 62
7
  6
CONTINUOUS
 10
7.1058463101
 20
4.6750509724
 30
0.0
 11
0.4987259101
 21
-0.0
 31
0.0
 40
0.9996572293
 41
4.7070949065
 42
4.7488761437
  0
ELLIPSE
  5
50C
100
AcDbEntity
  8
0
100
AcDbEllipse
 62
7
  6
CONTINUOUS
 10
7.079725278
 20
4.6750509724
 30
0.0
 11
0.4989988116
 21
-0.0
 31
0.0
 40
0.9996572293
 41
4.6968186801
 42
4.7385725724
  0
ELLIPSE
  5
50D
100
AcDbEntity
  8
0
100
AcDbEllipse
 62
7
  6
CONTINUOUS
 10
7.1052922824
 20
4.6750509724
 30
0.0
 11
0.5010158982
 21
0.0
 31
0.0
 40
0.9996885723
 41
4.5225660972
 42
4.562122446
  0
ELLIPSE
  5
50E
100
AcDbEntity
  8
0
100
AcDbEllipse
 62
7
  6
CONTINUOUS
 10
7.0803643437
 20
4.6750509724
 30
0.0
 11
0.4978945633
 21
0.0
 31
0.0
 40
0.9996885723
 41
4.6116451968
 42
4.651004664
  0
ELLIPSE
  5
50F
100
AcDbEntity
  8
0
100
AcDbEllipse
 62
7
  6
CONTINUOUS
 10
3.5888858123
 20
4.6750509724
 30
0.0
 11
0.5047638225
 21
-0.0
 31
0.0
 40
0.9996885723
 41
4.5682744064
 42
4.6072731103
  0
ELLIPSE
  5
510
100
AcDbEntity
  8
0
100
AcDbEllipse
 62
7
  6
CONTINUOUS
 10
3.5637432265
 20
4.6750509724
 30
0.0
 11
0.5027479603
 21
0.0
 31
0.0
 40
0.9996885723
 41
4.6570279185
 42
4.6959044355
  0
ENDSEC
  0
SECTION
  2
OBJECTS
  0
DICTIONARY
  5
C
100
AcDbDictionary
280
0
281
1
  3
ACAD_GROUP
350
D
  3
ACAD_MLINESTYLE
350
17
  3
ACAD_LAYOUT
350
1A
  3
ACAD_PLOTSETTINGS
350
19
  3
ACAD_PLOTSTYLENAME
350
E
  0
DICTIONARY
  5
D
102
{ACAD_REACTORS
330
C
102
}
100
AcDbDictionary
280
0
281
1
  0
ACDBDICTIONARYWDFLT
  5
E
102
{ACAD_REACTORS
330
C
102
}
100
AcDbDictionary
281
1
  3
Normal
350
F
100
AcDbDictionaryWithDefault
340
F
  0
DICTIONARY
  5
17
102
{ACAD_REACTORS
330
C
102
}
100
AcDbDictionary
280
0
281
1
  3
Standard
350
18
  0
DICTIONARY
  5
19
102
{ACAD_REACTORS
330
C
102
}
100
AcDbDictionary
281
1
  0
DICTIONARY
  5
1A
102
{ACAD_REACTORS
330
C
102
}
100
AcDbDictionary
281
1
  3
Model
350
511
  3
Layout1
350
512
  0
ACDBPLACEHOLDER
  5
F
102
{ACAD_REACTORS
330
E
102
}
  0
MLINESTYLE
  5
18
102
{ACAD_REACTORS
330
17
102
}
100
AcDbMlineStyle
  2
STANDARD
 70
0
  3

 62
256
 51
90.0
 52
90.0
 71
2
 49
0.5
 62
256
  6
BYLAYER
 49
-0.5
 62
256
  6
BYLAYER
  0
LAYOUT
  5
511
102
{ACAD_REACTORS
330
1A
102
}
100
AcDbPlotSettings
  1

  2
none_device
  4
ANSI_A_(11.00_x_8.50_Inches)
  6

 40
0.0
 41
0.0
 42
0.0
 43
0.0
 44
279.4
 45
215.9
 46
0.0
 47
0.0
 48
0.0
 49
0.0
140
0.0
141
0.0
142
1.0
143
1.0
 70
1024
 72
0
 73
0
 74
0
  7

 75
0
147
1.0
148
0.0
149
0.0
100
AcDbLayout
  1
Model
 70
0
 71
0
 10
0.0
 20
0.0
 11
11.0
 21
8.5
 12
0.0
 22
0.0
 32
0.0
 14
0.0
 24
0.0
 34
0.0
 15
0.0
 25
0.0
 35
0.0
146
0.0
 13
0.0
 23
0.0
 33
0.0
 16
1.0
 26
0.0
 36
0.0
 17
0.0
 27
1.0
 37
0.0
 76
0
330
202
345
0
346
0
  0
LAYOUT
  5
512
102
{ACAD_REACTORS
330
1A
102
}
100
AcDbPlotSettings
  1

  2
none_device
  4
ANSI_A_(11.00_x_8.50_Inches)
  6

 40
0.0
 41
0.0
 42
0.0
 43
0.0
 44
279.4
 45
215.9
 46
0.0
 47
0.0
 48
0.0
 49
0.0
140
0.0
141
0.0
142
1.0
143
1.0
 70
0
 72
0
 73
0
 74
0
  7

 75
0
147
1.0
148
0.0
149
0.0
100
AcDbLayout
  1
Layout1
 70
0
 71
1
 10
0.0
 20
0.0
 11
11.0
 21
8.5
 12
0.0
 22
0.0
 32
0.0
 14
0.0
 24
0.0
 34
0.0
 15
0.0
 25
0.0
 35
0.0
146
0.0
 13
0.0
 23
0.0
 33
0.0
 16
1.0
 26
0.0
 36
0.0
 17
0.0
 27
1.0
 37
0.0
 76
0
330
203
345
0
346
0
  0
ENDSEC
  0
EOF
