999
DXF file: E:\BT Custom\CADOUTPUT\_TOP.dxf
999
Pro/ENGINEER 2018400 by Parametric Technology Corporation
  0
SECTION
  2
HEADER
  9
$ACADVER
  1
AC1018
  9
$DWGCODEPAGE
  3
ANSI_1252
  9
$EXTMAX
 10
22.0
 20
17.0
 30
0.0
  9
$EXTMIN
 10
0.0
 20
0.0
 30
0.0
  9
$LIMMIN
 10
0.0
 20
0.0
  9
$LIMMAX
 10
22.0
 20
17.0
  9
$VIEWCTR
 10
11.0
 20
8.5
  9
$VIEWSIZE
 40
17.0
  9
$CLAYER
  8
0
  9
$LTSCALE
 40
1.21
  9
$CELTYPE
  6
BYLAYER
  9
$DIMSCALE
 40
1.0
  9
$DIMASZ
 40
0.1
  9
$DIMEXO
 40
0.0625
  9
$DIMDLI
 40
0.836
  9
$DIMEXE
 40
0.125
  9
$DIMCEN
 40
0.198
  9
$DIMLFAC
 40
1.0
  9
$DIMBLK
  1
_FILLED
  9
$DIMALT
 70
1
  9
$DIMALTD
 70
2
  9
$DIMALTTD
 70
2
  9
$DIMALTF
 40
25.4
  9
$DIMTXT
 40
0.08
  9
$DIMTOL
 70
1
  9
$DIMLIM
 70
0
  9
$DIMTFAC
 40
1.0
  9
$DIMTP
 40
0.001
  9
$DIMTM
 40
0.001
  9
$DIMGAP
 40
0.09
  9
$DIMDSEP
 70
46
  9
$AUNITS
 70
0
  9
$PDMODE
 70
3
  9
$PDSIZE
 40
0.06
  9
$HANDSEED
  5
2CA
  9
$TILEMODE
 70
1
  9
$MEASUREMENT
 70
0
  9
$INSUNITS
 70
1
  0
ENDSEC
  0
SECTION
  2
CLASSES
  0
CLASS
  1
ACDBDICTIONARYWDFLT
  2
AcDbDictionaryWithDefault
  3
AutoCAD 2000
 90
0
 91
1
280
0
281
0
  0
CLASS
  1
ACDBPLACEHOLDER
  2
AcDbPlaceHolder
  3
AutoCAD 2000
 90
0
 91
1
280
0
281
0
  0
CLASS
  1
LAYOUT
  2
AcDbLayout
  3
AutoCAD 2000
 90
0
 91
0
280
0
281
0
  0
ENDSEC
  0
SECTION
  2
TABLES
  0
TABLE
  2
VPORT
  5
8
100
AcDbSymbolTable
 70
2
  0
VPORT
  5
1F4
100
AcDbSymbolTableRecord
100
AcDbViewportTableRecord
  2
*ACTIVE
 70
0
 10
0.0
 20
0.0
 11
1.0
 21
1.0
 12
11.0
 22
8.5
 13
0.0
 23
0.0
 14
1.0
 24
1.0
 15
0.0
 25
0.0
 16
0.0
 26
0.0
 36
1.0
 17
0.0
 27
0.0
 37
0.0
 40
17.0
 41
1.2941176471
 42
50.0
 43
0.0
 44
0.0
 50
0.0
 51
0.0
 71
0
 72
100
 73
1
 74
1
 75
0
 76
0
 77
0
 78
0
  0
ENDTAB
  0
TABLE
  2
LTYPE
  5
5
100
AcDbSymbolTable
 70
6
  0
LTYPE
  5
14
100
AcDbSymbolTableRecord
100
AcDbLinetypeTableRecord
  2
BYBLOCK
 70
0
  3

 72
65
 73
0
 40
0.0
  0
LTYPE
  5
15
100
AcDbSymbolTableRecord
100
AcDbLinetypeTableRecord
  2
BYLAYER
 70
0
  3

 72
65
 73
0
 40
0.0
  0
LTYPE
  5
16
100
AcDbSymbolTableRecord
100
AcDbLinetypeTableRecord
  2
CONTINUOUS
 70
64
  3
Solid line
 72
65
 73
0
 40
0.0
  0
LTYPE
  5
1F5
100
AcDbSymbolTableRecord
100
AcDbLinetypeTableRecord
  2
CENTER
 70
64
  3
____ _ ____ _ ____ _ ____ _ ____ _ ____ _ ____
 72
65
 73
4
 40
0.6
 49
0.375
 74
0
 49
-0.075
 74
0
 49
0.075
 74
0
 49
-0.075
 74
0
  0
LTYPE
  5
1F6
100
AcDbSymbolTableRecord
100
AcDbLinetypeTableRecord
  2
HIDDEN
 70
64
  3
- - - - - - - - - - - - - - - - - - - -
 72
65
 73
2
 40
0.2
 49
0.1
 74
0
 49
-0.1
 74
0
  0
LTYPE
  5
1F7
100
AcDbSymbolTableRecord
100
AcDbLinetypeTableRecord
  2
PHANTOM
 70
64
  3
_____ _ _ _____ _ _ _____ _ _ _____
 72
65
 73
6
 40
0.8
 49
0.45
 74
0
 49
-0.05
 74
0
 49
0.1
 74
0
 49
-0.05
 74
0
 49
0.1
 74
0
 49
-0.05
 74
0
  0
LTYPE
  5
1F8
100
AcDbSymbolTableRecord
100
AcDbLinetypeTableRecord
  2
DOT
 70
64
  3
. . . . . . . . . . . . . . . . . . . .
 72
65
 73
2
 40
0.2
 49
0.1
 74
0
 49
-0.1
 74
0
  0
LTYPE
  5
1F9
100
AcDbSymbolTableRecord
100
AcDbLinetypeTableRecord
  2
DASHED
 70
64
  3
- - - - - - - - - - - - - - - - - - - -
 72
65
 73
2
 40
0.2
 49
0.1
 74
0
 49
-0.1
 74
0
  0
ENDTAB
  0
TABLE
  2
LAYER
  5
2
100
AcDbSymbolTable
 70
36
  0
LAYER
  5
10
100
AcDbSymbolTableRecord
100
AcDbLayerTableRecord
  2
0
 70
0
 62
7
  6
CONTINUOUS
370
-3
390
F
  0
LAYER
  5
1FA
100
AcDbSymbolTableRecord
100
AcDbLayerTableRecord
  2
DEFAULT_1
 70
0
 62
7
  6
CENTER
370
-3
390
F
  0
LAYER
  5
1FB
100
AcDbSymbolTableRecord
100
AcDbLayerTableRecord
  2
DEFAULT_2
 70
0
 62
8
  6
HIDDEN
370
-3
390
F
  0
LAYER
  5
1FC
100
AcDbSymbolTableRecord
100
AcDbLayerTableRecord
  2
DEFAULT_3
 70
0
 62
7
  6
PHANTOM
370
-3
390
F
  0
LAYER
  5
1FD
100
AcDbSymbolTableRecord
100
AcDbLayerTableRecord
  2
ALL_FEATURES
 70
0
 62
7
  6
CONTINUOUS
370
-3
390
F
  0
LAYER
  5
1FE
100
AcDbSymbolTableRecord
100
AcDbLayerTableRecord
  2
AXES_FEATURES
 70
0
 62
7
  6
CONTINUOUS
370
-3
390
F
  0
LAYER
  5
1FF
100
AcDbSymbolTableRecord
100
AcDbLayerTableRecord
  2
DEFAULT_COORDINATE_SYSTEM
 70
0
 62
7
  6
CONTINUOUS
370
-3
390
F
  0
LAYER
  5
200
100
AcDbSymbolTableRecord
100
AcDbLayerTableRecord
  2
DEFAULT_DATUM_AXES
 70
0
 62
7
  6
CONTINUOUS
370
-3
390
F
  0
LAYER
  5
201
100
AcDbSymbolTableRecord
100
AcDbLayerTableRecord
  2
DEFAULT_DATUM_PLANES
 70
0
 62
7
  6
CONTINUOUS
370
-3
390
F
  0
LAYER
  5
202
100
AcDbSymbolTableRecord
100
AcDbLayerTableRecord
  2
DIMENSIONS
 70
0
 62
7
  6
CONTINUOUS
370
-3
390
F
  0
ENDTAB
  0
TABLE
  2
STYLE
  5
3
100
AcDbSymbolTable
 70
1
  0
STYLE
  5
11
100
AcDbSymbolTableRecord
100
AcDbTextStyleTableRecord
  2
STANDARD
 70
0
 40
0.0
 41
0.8
 50
0.0
 71
0
 42
0.2
  3
txt
  4

  0
STYLE
  5
203
100
AcDbSymbolTableRecord
100
AcDbTextStyleTableRecord
  2
TEXTSTYLE_1
 70
0
 40
0.0
 41
0.8
 50
0.0
 71
0
 42
0.2
  3
gdt
  4

  0
ENDTAB
  0
TABLE
  2
VIEW
  5
6
100
AcDbSymbolTable
 70
0
  0
ENDTAB
  0
TABLE
  2
UCS
  5
7
100
AcDbSymbolTable
 70
0
  0
ENDTAB
  0
TABLE
  2
APPID
  5
9
100
AcDbSymbolTable
 70
1
  0
APPID
  5
204
100
AcDbSymbolTableRecord
100
AcDbRegAppTableRecord
  2
ACAD
 70
0
  0
ENDTAB
  0
TABLE
  2
BLOCK_RECORD
  5
1
100
AcDbSymbolTable
 70
0
  0
BLOCK_RECORD
  5
205
100
AcDbSymbolTableRecord
100
AcDbBlockTableRecord
  2
*Model_Space
  0
BLOCK_RECORD
  5
206
100
AcDbSymbolTableRecord
100
AcDbBlockTableRecord
  2
*Paper_Space
  0
BLOCK_RECORD
  5
207
100
AcDbSymbolTableRecord
100
AcDbBlockTableRecord
  2
_FILLED
  0
ENDTAB
  0
TABLE
  2
DIMSTYLE
  5
A
100
AcDbSymbolTable
 70
1
100
AcDbDimStyleTable
 71
0
  0
DIMSTYLE
105
208
100
AcDbSymbolTableRecord
100
AcDbDimStyleTableRecord
  2
STANDARD
 70
0
  3

  4

 40
1.0
 41
0.1
 42
0.0625
 43
0.38
 44
0.125
 45
0.0
 46
0.0
 47
0.001
 48
0.001
140
0.08
141
0.09
142
0.0
143
25.4
144
1.0
145
0.0
146
1.0
147
0.09
 71
1.0
 72
0.0
 73
1
 74
1
 75
0
 76
0
 77
0
 78
4
 79
1
170
1
171
2
172
0
173
0
174
0
175
0
176
0
177
0
178
0
270
2
179
3
271
3
272
3
273
2
274
2
275
0
280
0
281
0
282
0
283
1
284
4
285
0
286
0
287
3
288
0
340
11
278
46
341
207
342
207
343
207
344
207
  0
ENDTAB
  0
ENDSEC
  0
SECTION
  2
BLOCKS
  0
BLOCK
  5
20
100
AcDbEntity
  8
0
100
AcDbBlockBegin
  2
*Model_Space
 70
0
 10
0.0
 20
0.0
 30
0.0
  3
*Model_Space
  1

  0
ENDBLK
  5
21
100
AcDbEntity
  8
0
100
AcDbBlockEnd
  0
BLOCK
  5
1C
100
AcDbEntity
  8
0
100
AcDbBlockBegin
  2
*Paper_Space
 70
0
 10
0.0
 20
0.0
 30
0.0
  3
*Paper_Space
  1

  0
ENDBLK
  5
1D
100
AcDbEntity
  8
0
100
AcDbBlockEnd
  0
BLOCK
  5
209
100
AcDbEntity
  8
0
100
AcDbBlockBegin
  2
_FILLED
 70
64
 10
0.0
 20
0.0
  3
_FILLED
  1

  0
SOLID
  5
20A
100
AcDbEntity
  8
0
  6
BYBLOCK
 62
0
100
AcDbTrace
 10
0.0
 20
0.0
 11
-1.0
 21
0.2
 12
-1.0
 22
-0.2
 13
-1.0
 23
-0.2
  0
ENDBLK
  5
20B
100
AcDbEntity
  8
0
  6
BYBLOCK
 62
0
100
AcDbBlockEnd
  0
ENDSEC
  0
SECTION
  2
ENTITIES
  0
LINE
  5
20C
100
AcDbEntity
  8
0
100
AcDbLine
 62
7
  6
CONTINUOUS
 10
-11.4526816617
 20
8.8572030757
 11
-11.4526816617
 21
8.3772030757
  0
LINE
  5
20D
100
AcDbEntity
  8
0
100
AcDbLine
 62
7
  6
CONTINUOUS
 10
-8.4526816617
 20
8.8572030757
 11
-8.4526816617
 21
8.3772030757
  0
LINE
  5
20E
100
AcDbEntity
  8
0
100
AcDbLine
 62
9
  6
CONTINUOUS
 10
-8.3276816617
 20
7.3572030757
 11
-8.3276816617
 21
6.1072030757
  0
LINE
  5
20F
100
AcDbEntity
  8
0
100
AcDbLine
 62
7
  6
CONTINUOUS
 10
-10.1743054162
 20
8.3551162018
 11
-10.1726074282
 21
8.3572030757
  0
LINE
  5
210
100
AcDbEntity
  8
0
100
AcDbLine
 62
7
  6
CONTINUOUS
 10
9.5473183383
 20
8.8572030757
 11
9.5473183383
 21
8.3772030757
  0
LINE
  5
211
100
AcDbEntity
  8
0
100
AcDbLine
 62
7
  6
CONTINUOUS
 10
-8.3276816617
 20
6.1072030757
 11
30.4223183383
 21
6.1072030757
  0
LINE
  5
212
100
AcDbEntity
  8
0
100
AcDbLine
 62
7
  6
CONTINUOUS
 10
10.6223183383
 20
8.1264606452
 11
10.6223183383
 21
7.3572030757
  0
LINE
  5
213
100
AcDbEntity
  8
0
100
AcDbLine
 62
7
  6
CONTINUOUS
 10
10.8256945829
 20
8.3551162017
 11
10.8273925718
 21
8.3572030757
  0
LINE
  5
214
100
AcDbEntity
  8
0
100
AcDbLine
 62
7
  6
CONTINUOUS
 10
11.6719251024
 20
8.2572030757
 11
11.4723183383
 21
8.1264606452
  0
LINE
  5
215
100
AcDbEntity
  8
0
100
AcDbLine
 62
7
  6
CONTINUOUS
 10
-8.3276816617
 20
7.3572030757
 11
10.6223183383
 21
7.3572030757
  0
LINE
  5
216
100
AcDbEntity
  8
0
100
AcDbLine
 62
7
  6
CONTINUOUS
 10
11.4723183383
 20
7.3572030757
 11
30.4223183383
 21
7.3572030757
  0
LINE
  5
217
100
AcDbEntity
  8
0
100
AcDbLine
 62
7
  6
CONTINUOUS
 10
11.4723183383
 20
8.1264606452
 11
11.4723183383
 21
7.3572030757
  0
LINE
  5
218
100
AcDbEntity
  8
0
100
AcDbLine
 62
7
  6
CONTINUOUS
 10
12.5473183383
 20
8.8572030757
 11
12.5473183383
 21
8.3772030757
  0
LINE
  5
219
100
AcDbEntity
  8
0
100
AcDbLine
 62
7
  6
CONTINUOUS
 10
10.6223183383
 20
8.1264606452
 11
11.4723183383
 21
8.1264606452
  0
LINE
  5
21A
100
AcDbEntity
  8
0
100
AcDbLine
 62
7
  6
CONTINUOUS
 10
32.8623183383
 20
8.2572030757
 11
31.2323183383
 21
8.2572030757
  0
LINE
  5
21B
100
AcDbEntity
  8
0
100
AcDbLine
 62
7
  6
CONTINUOUS
 10
11.8623183383
 20
8.2572030757
 11
10.2323183383
 21
8.2572030757
  0
LINE
  5
21C
100
AcDbEntity
  8
0
100
AcDbLine
 62
7
  6
CONTINUOUS
 10
-9.1376816617
 20
8.2572030757
 11
-10.7676816617
 21
8.2572030757
  0
LINE
  5
21D
100
AcDbEntity
  8
0
100
AcDbLine
 62
9
  6
CONTINUOUS
 10
32.664045167
 20
8.3172030757
 11
32.6570760517
 21
8.3172030757
  0
LINE
  5
21E
100
AcDbEntity
  8
0
100
AcDbLine
 62
9
  6
CONTINUOUS
 10
32.4661758994
 20
8.3172030757
 11
32.4461735368
 21
8.3172030757
  0
LINE
  5
21F
100
AcDbEntity
  8
0
100
AcDbLine
 62
9
  6
CONTINUOUS
 10
32.2561787834
 20
8.3172030757
 11
32.2255465899
 21
8.3172030757
  0
LINE
  5
220
100
AcDbEntity
  8
0
100
AcDbLine
 62
9
  6
CONTINUOUS
 10
32.039670157
 20
8.3172030757
 11
31.9999488799
 21
8.3172030757
  0
LINE
  5
221
100
AcDbEntity
  8
0
100
AcDbLine
 62
9
  6
CONTINUOUS
 10
31.8221154068
 20
8.3172030757
 11
31.7771204375
 21
8.3172030757
  0
LINE
  5
222
100
AcDbEntity
  8
0
100
AcDbLine
 62
9
  6
CONTINUOUS
 10
31.6107819102
 20
8.3172030757
 11
31.5627695181
 21
8.3172030757
  0
LINE
  5
223
100
AcDbEntity
  8
0
100
AcDbLine
 62
9
  6
CONTINUOUS
 10
31.4097368577
 20
8.3172030757
 11
31.3633792556
 21
8.3172030757
  0
LINE
  5
224
100
AcDbEntity
  8
0
100
AcDbLine
 62
9
  6
CONTINUOUS
 10
31.2243003726
 20
8.3172030757
 11
31.184614323
 21
8.3172030757
  0
LINE
  5
225
100
AcDbEntity
  8
0
100
AcDbLine
 62
9
  6
CONTINUOUS
 10
11.664045167
 20
8.3172030757
 11
11.6570760517
 21
8.3172030757
  0
LINE
  5
226
100
AcDbEntity
  8
0
100
AcDbLine
 62
9
  6
CONTINUOUS
 10
11.4661758994
 20
8.3172030757
 11
11.4461735368
 21
8.3172030757
  0
LINE
  5
227
100
AcDbEntity
  8
0
100
AcDbLine
 62
9
  6
CONTINUOUS
 10
11.2561787834
 20
8.3172030757
 11
11.2255465899
 21
8.3172030757
  0
LINE
  5
228
100
AcDbEntity
  8
0
100
AcDbLine
 62
9
  6
CONTINUOUS
 10
11.039670157
 20
8.3172030757
 11
10.9999488799
 21
8.3172030757
  0
LINE
  5
229
100
AcDbEntity
  8
0
100
AcDbLine
 62
9
  6
CONTINUOUS
 10
10.8221154068
 20
8.3172030757
 11
10.7771204375
 21
8.3172030757
  0
LINE
  5
22A
100
AcDbEntity
  8
0
100
AcDbLine
 62
9
  6
CONTINUOUS
 10
10.6107819102
 20
8.3172030757
 11
10.5627695181
 21
8.3172030757
  0
LINE
  5
22B
100
AcDbEntity
  8
0
100
AcDbLine
 62
9
  6
CONTINUOUS
 10
10.4097368577
 20
8.3172030757
 11
10.3633792556
 21
8.3172030757
  0
LINE
  5
22C
100
AcDbEntity
  8
0
100
AcDbLine
 62
9
  6
CONTINUOUS
 10
10.2243003726
 20
8.3172030757
 11
10.184614323
 21
8.3172030757
  0
LINE
  5
22D
100
AcDbEntity
  8
0
100
AcDbLine
 62
9
  6
CONTINUOUS
 10
-9.3359548326
 20
8.3172030757
 11
-9.3429239493
 21
8.3172030757
  0
LINE
  5
22E
100
AcDbEntity
  8
0
100
AcDbLine
 62
9
  6
CONTINUOUS
 10
-9.5338241004
 20
8.3172030757
 11
-9.5538264626
 21
8.3172030757
  0
LINE
  5
22F
100
AcDbEntity
  8
0
100
AcDbLine
 62
9
  6
CONTINUOUS
 10
-9.7438212167
 20
8.3172030757
 11
-9.7744534028
 21
8.3172030757
  0
LINE
  5
230
100
AcDbEntity
  8
0
100
AcDbLine
 62
9
  6
CONTINUOUS
 10
-9.9603298417
 20
8.3172030757
 11
-10.0000511199
 21
8.3172030757
  0
LINE
  5
231
100
AcDbEntity
  8
0
100
AcDbLine
 62
9
  6
CONTINUOUS
 10
-10.177884598
 20
8.3172030757
 11
-10.2228795613
 21
8.3172030757
  0
LINE
  5
232
100
AcDbEntity
  8
0
100
AcDbLine
 62
9
  6
CONTINUOUS
 10
-10.3892180886
 20
8.3172030757
 11
-10.4372304809
 21
8.3172030757
  0
LINE
  5
233
100
AcDbEntity
  8
0
100
AcDbLine
 62
9
  6
CONTINUOUS
 10
-10.5902631433
 20
8.3172030757
 11
-10.6366207461
 21
8.3172030757
  0
LINE
  5
234
100
AcDbEntity
  8
0
100
AcDbLine
 62
9
  6
CONTINUOUS
 10
-10.7756996276
 20
8.3172030757
 11
-10.8153856765
 21
8.3172030757
  0
LINE
  5
235
100
AcDbEntity
  8
0
100
AcDbLine
 62
7
  6
CONTINUOUS
 10
33.5273183383
 20
8.3572030757
 11
30.5673183383
 21
8.3572030757
  0
LINE
  5
236
100
AcDbEntity
  8
0
100
AcDbLine
 62
7
  6
CONTINUOUS
 10
12.5273183383
 20
8.3572030757
 11
9.5673183383
 21
8.3572030757
  0
LINE
  5
237
100
AcDbEntity
  8
0
100
AcDbLine
 62
7
  6
CONTINUOUS
 10
-8.4726816617
 20
8.3572030757
 11
-11.4326816617
 21
8.3572030757
  0
LINE
  5
238
100
AcDbEntity
  8
0
100
AcDbLine
 62
9
  6
CONTINUOUS
 10
33.5473183383
 20
8.3772030757
 11
30.5473183383
 21
8.3772030757
  0
LINE
  5
239
100
AcDbEntity
  8
0
100
AcDbLine
 62
9
  6
CONTINUOUS
 10
12.5473183383
 20
8.3772030757
 11
9.5473183383
 21
8.3772030757
  0
LINE
  5
23A
100
AcDbEntity
  8
0
100
AcDbLine
 62
9
  6
CONTINUOUS
 10
-8.4526816617
 20
8.3772030757
 11
-11.4526816617
 21
8.3772030757
  0
LINE
  5
23B
100
AcDbEntity
  8
0
100
AcDbLine
 62
7
  6
CONTINUOUS
 10
-11.4526816617
 20
8.8572030757
 11
-8.4526816617
 21
8.8572030757
  0
LINE
  5
23C
100
AcDbEntity
  8
0
100
AcDbLine
 62
7
  6
CONTINUOUS
 10
9.5473183383
 20
8.8572030757
 11
12.5473183383
 21
8.8572030757
  0
LINE
  5
23D
100
AcDbEntity
  8
0
100
AcDbLine
 62
7
  6
CONTINUOUS
 10
30.5473183383
 20
8.8572030757
 11
33.5473183383
 21
8.8572030757
  0
LINE
  5
23E
100
AcDbEntity
  8
0
100
AcDbLine
 62
7
  6
CONTINUOUS
 10
10.4293829443
 20
8.8574606452
 11
11.6321867147
 21
8.8574606452
  0
LINE
  5
23F
100
AcDbEntity
  8
0
100
AcDbLine
 62
7
  6
CONTINUOUS
 10
10.4227115742
 20
8.2572030757
 11
10.6223183383
 21
8.1264606452
  0
LINE
  5
240
100
AcDbEntity
  8
0
100
AcDbLine
 62
7
  6
CONTINUOUS
 10
31.8256945829
 20
8.3551162017
 11
31.8273925718
 21
8.3572030757
  0
LINE
  5
241
100
AcDbEntity
  8
0
100
AcDbLine
 62
9
  6
CONTINUOUS
 10
30.4223183383
 20
7.3572030757
 11
30.4223183383
 21
6.1072030757
  0
LINE
  5
242
100
AcDbEntity
  8
0
100
AcDbLine
 62
7
  6
CONTINUOUS
 10
30.5473183383
 20
8.8572030757
 11
30.5473183383
 21
8.3772030757
  0
LINE
  5
243
100
AcDbEntity
  8
0
100
AcDbLine
 62
7
  6
CONTINUOUS
 10
33.5473183383
 20
8.8572030757
 11
33.5473183383
 21
8.3772030757
  0
ARC
  5
244
100
AcDbEntity
  8
0
100
AcDbCircle
 62
7
  6
CONTINUOUS
 10
-8.3276816617
 20
8.3572030757
 40
2.25
100
AcDbArc
 50
182.5473181826
 51
270.0
  0
ARC
  5
245
100
AcDbEntity
  8
0
100
AcDbCircle
 62
7
  6
CONTINUOUS
 10
-8.3276816617
 20
8.3572030757
 40
1.0
100
AcDbArc
 50
185.7391704773
 51
270.0
  0
ARC
  5
246
100
AcDbEntity
  8
0
100
AcDbCircle
 62
7
  6
CONTINUOUS
 10
9.7312039657
 20
8.4188605303
 40
0.1216578013
100
AcDbArc
 50
268.3793955791
 51
280.7477083302
  0
ARC
  5
247
100
AcDbEntity
  8
0
100
AcDbCircle
 62
7
  6
CONTINUOUS
 10
-11.2687960343
 20
8.4188605302
 40
0.1216578012
100
AcDbArc
 50
268.3793970121
 51
280.747708737
  0
ARC
  5
248
100
AcDbEntity
  8
0
100
AcDbCircle
 62
7
  6
CONTINUOUS
 10
10.5066232704
 20
8.4225483294
 40
0.1192066849
100
AcDbArc
 50
310.6603129763
 51
316.4338725992
  0
ARC
  5
249
100
AcDbEntity
  8
0
100
AcDbCircle
 62
7
  6
CONTINUOUS
 10
-10.4933767282
 20
8.422548328
 40
0.1192066829
100
AcDbArc
 50
310.6603151678
 51
316.4338724985
  0
ARC
  5
24A
100
AcDbEntity
  8
0
100
AcDbCircle
 62
7
  6
CONTINUOUS
 10
10.3139858525
 20
8.3994141659
 40
0.0956458122
100
AcDbArc
 50
317.7057481891
 51
318.4032227341
  0
ARC
  5
24B
100
AcDbEntity
  8
0
100
AcDbCircle
 62
7
  6
CONTINUOUS
 10
-10.6860141471
 20
8.3994141656
 40
0.0956458118
100
AcDbArc
 50
317.7057481875
 51
318.4032226979
  0
ARC
  5
24C
100
AcDbEntity
  8
0
100
AcDbCircle
 62
7
  6
CONTINUOUS
 10
-8.6281406628
 20
8.3839070082
 40
0.0867039337
100
AcDbArc
 50
266.6935267786
 51
275.0791490854
  0
ARC
  5
24D
100
AcDbEntity
  8
0
100
AcDbCircle
 62
7
  6
CONTINUOUS
 10
-8.763260341
 20
8.3796150106
 40
0.0824124411
100
AcDbArc
 50
262.9578594631
 51
290.7959558847
  0
ARC
  5
24E
100
AcDbEntity
  8
0
100
AcDbCircle
 62
7
  6
CONTINUOUS
 10
-8.6783207456
 20
8.3774621321
 40
0.0802590319
100
AcDbArc
 50
265.5870979254
 51
283.7689701353
  0
ARC
  5
24F
100
AcDbEntity
  8
0
100
AcDbCircle
 62
7
  6
CONTINUOUS
 10
-11.227058763
 20
8.3773699731
 40
0.0801729879
100
AcDbArc
 50
194.5711364529
 51
301.8040588343
  0
ARC
  5
250
100
AcDbEntity
  8
0
100
AcDbCircle
 62
7
  6
CONTINUOUS
 10
9.772941237
 20
8.3773699731
 40
0.0801729879
100
AcDbArc
 50
194.5711364463
 51
301.8040589454
  0
ARC
  5
251
100
AcDbEntity
  8
0
100
AcDbCircle
 62
7
  6
CONTINUOUS
 10
10.2323183383
 20
8.3172030757
 40
0.06
100
AcDbArc
 50
187.0404532124
 51
270.0
  0
ARC
  5
252
100
AcDbEntity
  8
0
100
AcDbCircle
 62
7
  6
CONTINUOUS
 10
-10.7676816617
 20
8.3172030757
 40
0.06
100
AcDbArc
 50
187.0562583459
 51
270.0
  0
ARC
  5
253
100
AcDbEntity
  8
0
100
AcDbCircle
 62
7
  6
CONTINUOUS
 10
-9.1376816617
 20
8.3172030757
 40
0.06
100
AcDbArc
 50
270.0
 51
341.1749975981
  0
ARC
  5
254
100
AcDbEntity
  8
0
100
AcDbCircle
 62
7
  6
CONTINUOUS
 10
9.5673183383
 20
8.3772030757
 40
0.02
100
AcDbArc
 50
180.0
 51
270.0
  0
ARC
  5
255
100
AcDbEntity
  8
0
100
AcDbCircle
 62
7
  6
CONTINUOUS
 10
-8.4726816617
 20
8.3772030757
 40
0.02
100
AcDbArc
 50
270.0
 51
360.0
  0
ARC
  5
256
100
AcDbEntity
  8
0
100
AcDbCircle
 62
7
  6
CONTINUOUS
 10
-11.4326816617
 20
8.3772030757
 40
0.02
100
AcDbArc
 50
180.0
 51
270.0
  0
ARC
  5
257
100
AcDbEntity
  8
0
100
AcDbCircle
 62
7
  6
CONTINUOUS
 10
-9.4383625003
 20
8.5378383491
 40
0.2406365275
100
AcDbArc
 50
243.989400976
 51
311.352067052
  0
ARC
  5
258
100
AcDbEntity
  8
0
100
AcDbCircle
 62
7
  6
CONTINUOUS
 10
-10.8404652268
 20
8.5167558503
 40
0.2195527654
100
AcDbArc
 50
264.3141084647
 51
274.2108437522
  0
ARC
  5
259
100
AcDbEntity
  8
0
100
AcDbCircle
 62
7
  6
CONTINUOUS
 10
10.1595347731
 20
8.5167558503
 40
0.2195527654
100
AcDbArc
 50
264.3141075863
 51
274.2108745112
  0
ARC
  5
25A
100
AcDbEntity
  8
0
100
AcDbCircle
 62
7
  6
CONTINUOUS
 10
9.7895732868
 20
8.4434115678
 40
0.1462113163
100
AcDbArc
 50
265.9029908258
 51
285.51512585
  0
ARC
  5
25B
100
AcDbEntity
  8
0
100
AcDbCircle
 62
7
  6
CONTINUOUS
 10
-11.2104267132
 20
8.4434115673
 40
0.1462113158
100
AcDbArc
 50
265.9029964285
 51
285.5151267359
  0
ARC
  5
25C
100
AcDbEntity
  8
0
100
AcDbCircle
 62
7
  6
CONTINUOUS
 10
30.4223183383
 20
8.3572030757
 40
2.25
100
AcDbArc
 50
270.0
 51
357.4526818174
  0
ARC
  5
25D
100
AcDbEntity
  8
0
100
AcDbCircle
 62
7
  6
CONTINUOUS
 10
30.4223183383
 20
8.3572030757
 40
1.0
100
AcDbArc
 50
270.0
 51
354.2608295227
  0
ARC
  5
25E
100
AcDbEntity
  8
0
100
AcDbCircle
 62
7
  6
CONTINUOUS
 10
30.7312039657
 20
8.4188605303
 40
0.1216578013
100
AcDbArc
 50
268.3793955791
 51
280.7477083302
  0
ARC
  5
25F
100
AcDbEntity
  8
0
100
AcDbCircle
 62
7
  6
CONTINUOUS
 10
31.5066232704
 20
8.4225483294
 40
0.1192066849
100
AcDbArc
 50
310.6603129763
 51
316.4338725991
  0
ARC
  5
260
100
AcDbEntity
  8
0
100
AcDbCircle
 62
7
  6
CONTINUOUS
 10
31.3139858526
 20
8.3994141658
 40
0.0956458122
100
AcDbArc
 50
317.705748189
 51
318.4032227342
  0
ARC
  5
261
100
AcDbEntity
  8
0
100
AcDbCircle
 62
7
  6
CONTINUOUS
 10
12.3718593372
 20
8.3839070081
 40
0.0867039337
100
AcDbArc
 50
266.6935287994
 51
275.0791475889
  0
ARC
  5
262
100
AcDbEntity
  8
0
100
AcDbCircle
 62
7
  6
CONTINUOUS
 10
33.3718593372
 20
8.3839070081
 40
0.0867039337
100
AcDbArc
 50
266.6935287993
 51
275.079147589
  0
ARC
  5
263
100
AcDbEntity
  8
0
100
AcDbCircle
 62
7
  6
CONTINUOUS
 10
12.236739659
 20
8.3796150106
 40
0.0824124411
100
AcDbArc
 50
262.9578498765
 51
290.7959577607
  0
ARC
  5
264
100
AcDbEntity
  8
0
100
AcDbCircle
 62
7
  6
CONTINUOUS
 10
33.236739659
 20
8.3796150106
 40
0.0824124411
100
AcDbArc
 50
262.9578498765
 51
290.7959577607
  0
ARC
  5
265
100
AcDbEntity
  8
0
100
AcDbCircle
 62
7
  6
CONTINUOUS
 10
12.3216792544
 20
8.3774621321
 40
0.0802590319
100
AcDbArc
 50
265.5871083818
 51
283.7689706952
  0
ARC
  5
266
100
AcDbEntity
  8
0
100
AcDbCircle
 62
7
  6
CONTINUOUS
 10
33.3216792544
 20
8.3774621321
 40
0.0802590319
100
AcDbArc
 50
265.5871083819
 51
283.7689706952
  0
ARC
  5
267
100
AcDbEntity
  8
0
100
AcDbCircle
 62
7
  6
CONTINUOUS
 10
30.772941237
 20
8.3773699731
 40
0.0801729879
100
AcDbArc
 50
194.5711364593
 51
301.8040589343
  0
ARC
  5
268
100
AcDbEntity
  8
0
100
AcDbCircle
 62
7
  6
CONTINUOUS
 10
31.2323183383
 20
8.3172030757
 40
0.06
100
AcDbArc
 50
186.9428185552
 51
270.0
  0
ARC
  5
269
100
AcDbEntity
  8
0
100
AcDbCircle
 62
7
  6
CONTINUOUS
 10
32.8623183383
 20
8.3172030757
 40
0.06
100
AcDbArc
 50
270.0
 51
341.1206200562
  0
ARC
  5
26A
100
AcDbEntity
  8
0
100
AcDbCircle
 62
7
  6
CONTINUOUS
 10
11.8623183383
 20
8.3172030757
 40
0.06
100
AcDbArc
 50
270.0
 51
341.1725046282
  0
ARC
  5
26B
100
AcDbEntity
  8
0
100
AcDbCircle
 62
7
  6
CONTINUOUS
 10
30.5673183383
 20
8.3772030757
 40
0.02
100
AcDbArc
 50
180.0
 51
270.0
  0
ARC
  5
26C
100
AcDbEntity
  8
0
100
AcDbCircle
 62
7
  6
CONTINUOUS
 10
33.5273183383
 20
8.3772030757
 40
0.02
100
AcDbArc
 50
270.0
 51
360.0
  0
ARC
  5
26D
100
AcDbEntity
  8
0
100
AcDbCircle
 62
7
  6
CONTINUOUS
 10
12.5273183383
 20
8.3772030757
 40
0.02
100
AcDbArc
 50
270.0
 51
360.0
  0
ARC
  5
26E
100
AcDbEntity
  8
0
100
AcDbCircle
 62
7
  6
CONTINUOUS
 10
11.5616374997
 20
8.5378383491
 40
0.2406365275
100
AcDbArc
 50
243.9894015604
 51
311.3520670519
  0
ARC
  5
26F
100
AcDbEntity
  8
0
100
AcDbCircle
 62
7
  6
CONTINUOUS
 10
32.5616374997
 20
8.5378383491
 40
0.2406365275
100
AcDbArc
 50
243.9894015604
 51
311.3520670519
  0
ARC
  5
270
100
AcDbEntity
  8
0
100
AcDbCircle
 62
7
  6
CONTINUOUS
 10
31.1595347546
 20
8.5167558442
 40
0.2195527576
100
AcDbArc
 50
264.3141122528
 51
274.276981464
  0
ARC
  5
271
100
AcDbEntity
  8
0
100
AcDbCircle
 62
7
  6
CONTINUOUS
 10
30.7895732868
 20
8.4434115678
 40
0.1462113163
100
AcDbArc
 50
265.9029908258
 51
285.51512585
  0
SPLINE
  5
272
100
AcDbEntity
  8
0
100
AcDbSpline
 62
7
  6
CONTINUOUS
 70
0
 71
3
 72
21
 73
17
 74
0
 42
0.0000001
 43
0.0000001
 44
0.0000000001
 40
0.0
 40
0.0
 40
0.0
 40
0.0
 40
0.1223692527
 40
0.2466603997
 40
0.3092428374
 40
0.3719848417
 40
0.434837058
 40
0.4977611206
 40
0.560725143
 40
0.6237008216
 40
0.6866606949
 40
0.7495759239
 40
0.8124140135
 40
0.8751348275
 40
0.9376867163
 40
1.0
 40
1.0
 40
1.0
 40
1.0
 10
-9.7142979788
 20
8.357203079
 30
0.0
 10
-9.7228235416
 20
8.3491814536
 30
0.0
 10
-9.7413860188
 20
8.3344188583
 30
0.0
 10
-9.7673133754
 20
8.3199025051
 30
0.0
 10
-9.7894116429
 20
8.3107984624
 30
0.0
 10
-9.806567906
 20
8.3052826759
 30
0.0
 10
-9.8241391493
 20
8.3011408992
 30
0.0
 10
-9.8420048228
 20
8.2984029893
 30
0.0
 10
-9.8600429901
 20
8.2970888568
 30
0.0
 10
-9.8781320117
 20
8.2972078027
 30
0.0
 10
-9.8961501046
 20
8.2987590111
 30
0.0
 10
-9.913975592
 20
8.3017314844
 30
0.0
 10
-9.9314867121
 20
8.3061037197
 30
0.0
 10
-9.9485621297
 20
8.3118435397
 30
0.0
 10
-9.9650785342
 20
8.3189058924
 30
0.0
 10
-9.9756639107
 20
8.3244729089
 30
0.0
 10
-9.9808236182
 20
8.3274580208
 30
0.0
  0
SPLINE
  5
273
100
AcDbEntity
  8
0
100
AcDbSpline
 62
7
  6
CONTINUOUS
 70
0
 71
3
 72
21
 73
17
 74
0
 42
0.0000001
 43
0.0000001
 44
0.0000000001
 40
0.0
 40
0.0
 40
0.0
 40
0.0
 40
0.0622162265
 40
0.124554933
 40
0.1869734618
 40
0.2494514646
 40
0.3119703723
 40
0.3745189328
 40
0.4995818336
 40
0.6246777159
 40
0.6872700646
 40
0.7498556903
 40
0.8124290344
 40
0.8749835501
 40
0.9375107048
 40
1.0
 40
1.0
 40
1.0
 40
1.0
 10
-9.4907908814
 20
8.3572030757
 30
0.0
 10
-9.4952503337
 20
8.3532348392
 30
0.0
 10
-9.5044843686
 20
8.3456273976
 30
0.0
 10
-9.5191685703
 20
8.3352939085
 30
0.0
 10
-9.5346157961
 20
8.3260888757
 30
0.0
 10
-9.5507300459
 20
8.3180712185
 30
0.0
 10
-9.5674169396
 20
8.3112899918
 30
0.0
 10
-9.5902871408
 20
8.3039536716
 30
0.0
 10
-9.6198290272
 20
8.2980554813
 30
0.0
 10
-9.6499264803
 20
8.2966762868
 30
0.0
 10
-9.6739036205
 20
8.2982963308
 30
0.0
 10
-9.6917515047
 20
8.3008656826
 30
0.0
 10
-9.7093498912
 20
8.3047743895
 30
0.0
 10
-9.726597987
 20
8.3099994601
 30
0.0
 10
-9.7433935361
 20
8.3165092104
 30
0.0
 10
-9.7542301728
 20
8.321683017
 30
0.0
 10
-9.7595390419
 20
8.3244692342
 30
0.0
  0
SPLINE
  5
274
100
AcDbEntity
  8
0
100
AcDbSpline
 62
7
  6
CONTINUOUS
 70
0
 71
3
 72
21
 73
17
 74
0
 42
0.0000001
 43
0.0000001
 44
0.0000000001
 40
0.0
 40
0.0
 40
0.0
 40
0.0
 40
0.0625250297
 40
0.125132101
 40
0.1877975245
 40
0.2505028967
 40
0.313233077
 40
0.3759747781
 40
0.4387155334
 40
0.5014427936
 40
0.5641429594
 40
0.6268004046
 40
0.6893959217
 40
0.7519049462
 40
0.8764334484
 40
1.0
 40
1.0
 40
1.0
 40
1.0
 10
-9.3394563194
 20
8.3185194066
 30
0.0
 10
-9.3343140212
 20
8.3161549578
 30
0.0
 10
-9.3238454434
 20
8.3117980174
 30
0.0
 10
-9.3077023662
 20
8.3064241677
 30
0.0
 10
-9.2911939306
 20
8.3022366013
 30
0.0
 10
-9.2744137184
 20
8.2992601247
 30
0.0
 10
-9.2574545008
 20
8.2975116395
 30
0.0
 10
-9.2404098494
 20
8.2970011278
 30
0.0
 10
-9.2233734589
 20
8.2977315387
 30
0.0
 10
-9.2064390704
 20
8.2996987682
 30
0.0
 10
-9.1897000595
 20
8.3028915784
 30
0.0
 10
-9.173249634
 20
8.3072914981
 30
0.0
 10
-9.1571792801
 20
8.3128733856
 30
0.0
 10
-9.1364152992
 20
8.3218320712
 30
0.0
 10
-9.1118805384
 20
8.3357771912
 30
0.0
 10
-9.0941187169
 20
8.3496741129
 30
0.0
 10
-9.0858466001
 20
8.3572030765
 30
0.0
  0
SPLINE
  5
275
100
AcDbEntity
  8
0
100
AcDbSpline
 62
7
  6
CONTINUOUS
 70
0
 71
3
 72
15
 73
11
 74
0
 42
0.0000001
 43
0.0000001
 44
0.0000000001
 40
0.0
 40
0.0
 40
0.0
 40
0.0
 40
0.125603262
 40
0.251836138
 40
0.3783157487
 40
0.5047329962
 40
0.6307599168
 40
0.7559469124
 40
0.8795315717
 40
1.0
 40
1.0
 40
1.0
 40
1.0
 10
-9.1520000175
 20
8.3153036486
 30
0.0
 10
-9.1422323728
 20
8.3110433099
 30
0.0
 10
-9.1219790567
 20
8.3039530592
 30
0.0
 10
-9.0903474326
 20
8.2978928328
 30
0.0
 10
-9.0580939022
 20
8.2965183143
 30
0.0
 10
-9.0260048239
 20
8.299870692
 30
0.0
 10
-8.9948581362
 20
8.3078577101
 30
0.0
 10
-8.965445908
 20
8.3202519528
 30
0.0
 10
-8.9386095949
 20
8.3366287012
 30
0.0
 10
-8.9226913267
 20
8.3500218279
 30
0.0
 10
-8.9154186546
 20
8.3572030976
 30
0.0
  0
SPLINE
  5
276
100
AcDbEntity
  8
0
100
AcDbSpline
 62
7
  6
CONTINUOUS
 70
0
 71
3
 72
19
 73
15
 74
0
 42
0.0000001
 43
0.0000001
 44
0.0000000001
 40
0.0
 40
0.0
 40
0.0
 40
0.0
 40
0.0632235248
 40
0.1267929036
 40
0.1906047293
 40
0.2545725933
 40
0.3825916086
 40
0.510373351
 40
0.6372860601
 40
0.7624365472
 40
0.8239655113
 40
0.8843973673
 40
0.9432957324
 40
1.0
 40
1.0
 40
1.0
 40
1.0
 10
-8.9865708367
 20
8.3118146491
 30
0.0
 10
-8.9820359108
 20
8.3099522519
 30
0.0
 10
-8.972793557
 20
8.3065661583
 30
0.0
 10
-8.9585565986
 20
8.3025480978
 30
0.0
 10
-8.9439985729
 20
8.299605449
 30
0.0
 10
-8.9243011345
 20
8.2971464208
 30
0.0
 10
-8.8994059949
 20
8.296857246
 30
0.0
 10
-8.8699045742
 20
8.3009668401
 30
0.0
 10
-8.8415669677
 20
8.3093951743
 30
0.0
 10
-8.8194899575
 20
8.3198393766
 30
0.0
 10
-8.8032400151
 20
8.3300246224
 30
0.0
 10
-8.7919752322
 20
8.3384050251
 30
0.0
 10
-8.7817126224
 20
8.3474271968
 30
0.0
 10
-8.7754921358
 20
8.3538998224
 30
0.0
 10
-8.7725903939
 20
8.3572033047
 30
0.0
  0
SPLINE
  5
277
100
AcDbEntity
  8
0
100
AcDbSpline
 62
7
  6
CONTINUOUS
 70
0
 71
3
 72
20
 73
16
 74
0
 42
0.0000001
 43
0.0000001
 44
0.0000000001
 40
0.0
 40
0.0
 40
0.0
 40
0.0
 40
0.1283879533
 40
0.2578655739
 40
0.3227912293
 40
0.387679862
 40
0.4524334293
 40
0.5169465097
 40
0.644637047
 40
0.76953512
 40
0.8303573893
 40
0.8895179589
 40
0.9463939194
 40
0.9736992377
 40
1.0
 40
1.0
 40
1.0
 40
1.0
 10
-8.8478037102
 20
8.3080705449
 30
0.0
 10
-8.8395213945
 20
8.3049542987
 30
0.0
 10
-8.822357788
 20
8.3000210603
 30
0.0
 10
-8.8001884742
 20
8.2972577048
 30
0.0
 10
-8.7823021547
 20
8.2971103997
 30
0.0
 10
-8.7689097653
 20
8.2980368372
 30
0.0
 10
-8.75565731
 20
8.2999937708
 30
0.0
 10
-8.738376329
 20
8.3039396308
 30
0.0
 10
-8.7176925473
 20
8.3112952628
 30
0.0
 10
-8.6986671691
 20
8.321746897
 30
0.0
 10
-8.6850106194
 20
8.3316964422
 30
0.0
 10
-8.6758082214
 20
8.3397154064
 30
0.0
 10
-8.6689704337
 20
8.3468692454
 30
0.0
 10
-8.6641283464
 20
8.3527498033
 30
0.0
 10
-8.6619252989
 20
8.3557185314
 30
0.0
 10
-8.6608854035
 20
8.3572033912
 30
0.0
  0
SPLINE
  5
278
100
AcDbEntity
  8
0
100
AcDbSpline
 62
7
  6
CONTINUOUS
 70
0
 71
3
 72
17
 73
13
 74
0
 42
0.0000001
 43
0.0000001
 44
0.0000000001
 40
0.0
 40
0.0
 40
0.0
 40
0.0
 40
0.1290879457
 40
0.2589286539
 40
0.3887271589
 40
0.5176721872
 40
0.6448238888
 40
0.768916601
 40
0.8293315836
 40
0.8882320812
 40
0.945243802
 40
1.0
 40
1.0
 40
1.0
 40
1.0
 10
-8.7390460914
 20
8.3040258603
 30
0.0
 10
-8.73173864
 20
8.3016949157
 30
0.0
 10
-8.7166743526
 20
8.2982063088
 30
0.0
 10
-8.6935415386
 20
8.2966016046
 30
0.0
 10
-8.6704451637
 20
8.298636731
 30
0.0
 10
-8.6481126851
 20
8.3042533786
 30
0.0
 10
-8.6272891521
 20
8.3132638541
 30
0.0
 10
-8.6116844102
 20
8.3234288887
 30
0.0
 10
-8.600750626
 20
8.3329239486
 30
0.0
 10
-8.5935262412
 20
8.3405373703
 30
0.0
 10
-8.5873360039
 20
8.3485925985
 30
0.0
 10
-8.5839123579
 20
8.3543077141
 30
0.0
 10
-8.5824384922
 20
8.357208263
 30
0.0
  0
SPLINE
  5
279
100
AcDbEntity
  8
0
100
AcDbSpline
 62
7
  6
CONTINUOUS
 70
0
 71
3
 72
17
 73
13
 74
0
 42
0.0000001
 43
0.0000001
 44
0.0000000001
 40
0.0
 40
0.0
 40
0.0
 40
0.0
 40
0.1264719704
 40
0.253157592
 40
0.3796206587
 40
0.5054251665
 40
0.6301561839
 40
0.7535013696
 40
0.8147605182
 40
0.8758811843
 40
0.937288599
 40
1.0
 40
1.0
 40
1.0
 40
1.0
 10
-8.6645662815
 20
8.3004735673
 30
0.0
 10
-8.6583827795
 20
8.2990045969
 30
0.0
 10
-8.6457487941
 20
8.2970487108
 30
0.0
 10
-8.6265978091
 20
8.2971087163
 30
0.0
 10
-8.6077179477
 20
8.3001500949
 30
0.0
 10
-8.5896493337
 20
8.306116852
 30
0.0
 10
-8.5729382565
 20
8.3148914019
 30
0.0
 10
-8.5605628016
 20
8.3244556775
 30
0.0
 10
-8.5519651067
 20
8.3333435027
 30
0.0
 10
-8.5462467961
 20
8.3406197638
 30
0.0
 10
-8.541340054
 20
8.3485537491
 30
0.0
 10
-8.5387458192
 20
8.3542516448
 30
0.0
 10
-8.5376511774
 20
8.3572068608
 30
0.0
  0
SPLINE
  5
27A
100
AcDbEntity
  8
0
100
AcDbSpline
 62
7
  6
CONTINUOUS
 70
0
 71
3
 72
16
 73
12
 74
0
 42
0.0000001
 43
0.0000001
 44
0.0000000001
 40
0.0
 40
0.0
 40
0.0
 40
0.0
 40
0.1228793349
 40
0.2457743542
 40
0.368744298
 40
0.49193932
 40
0.615665741
 40
0.740604638
 40
0.8679998874
 40
0.9333477451
 40
1.0
 40
1.0
 40
1.0
 40
1.0
 10
-8.6241059035
 20
8.2977003575
 30
0.0
 10
-8.6190600136
 20
8.2971978817
 30
0.0
 10
-8.6088752765
 20
8.296954122
 30
0.0
 10
-8.5937255283
 20
8.2988830221
 30
0.0
 10
-8.5790248204
 20
8.3030894879
 30
0.0
 10
-8.5651216134
 20
8.3095429446
 30
0.0
 10
-8.5523697276
 20
8.3182077955
 30
0.0
 10
-8.5411586049
 20
8.3290526977
 30
0.0
 10
-8.5335392091
 20
8.3398360047
 30
0.0
 10
-8.5287751151
 20
8.3494402219
 30
0.0
 10
-8.5268989545
 20
8.3545694911
 30
0.0
 10
-8.5261054492
 20
8.3572030757
 30
0.0
  0
SPLINE
  5
27B
100
AcDbEntity
  8
0
100
AcDbSpline
 62
7
  6
CONTINUOUS
 70
0
 71
3
 72
11
 73
7
 74
0
 42
0.0000001
 43
0.0000001
 44
0.0000000001
 40
0.0
 40
0.0
 40
0.0
 40
0.0
 40
0.2496102722
 40
0.4992315138
 40
0.7492145316
 40
1.0
 40
1.0
 40
1.0
 40
1.0
 10
-8.8936628024
 20
8.2981172606
 30
0.0
 10
-8.8892663836
 20
8.2974962967
 30
0.0
 10
-8.8803712689
 20
8.296884961
 30
0.0
 10
-8.8670373651
 20
8.2978796219
 30
0.0
 10
-8.8539617848
 20
8.3007762771
 30
0.0
 10
-8.8456017384
 20
8.303960257
 30
0.0
 10
-8.8415624921
 20
8.3058535751
 30
0.0
  0
SPLINE
  5
27C
100
AcDbEntity
  8
0
100
AcDbSpline
 62
7
  6
CONTINUOUS
 70
0
 71
3
 72
11
 73
7
 74
0
 42
0.0000001
 43
0.0000001
 44
0.0000000001
 40
0.0
 40
0.0
 40
0.0
 40
0.0
 40
0.2503404981
 40
0.5006716914
 40
0.7506400707
 40
1.0
 40
1.0
 40
1.0
 40
1.0
 10
-9.0431660222
 20
8.2983464542
 30
0.0
 10
-9.0376703719
 20
8.2975507439
 30
0.0
 10
-9.026541526
 20
8.2967879561
 30
0.0
 10
-9.0098861226
 20
8.2981482375
 30
0.0
 10
-8.9936440565
 20
8.3019904704
 30
0.0
 10
-8.9833360903
 20
8.3061885922
 30
0.0
 10
-8.9783973362
 20
8.308679164
 30
0.0
  0
SPLINE
  5
27D
100
AcDbEntity
  8
0
100
AcDbSpline
 62
7
  6
CONTINUOUS
 70
0
 71
3
 72
11
 73
7
 74
0
 42
0.0000001
 43
0.0000001
 44
0.0000000001
 40
0.0
 40
0.0
 40
0.0
 40
0.0
 40
0.24861585
 40
0.4985976403
 40
0.7492551514
 40
1.0
 40
1.0
 40
1.0
 40
1.0
 10
-10.9268399329
 20
8.3087107714
 30
0.0
 10
-10.9335641479
 20
8.3062972974
 30
0.0
 10
-10.9473304537
 20
8.30220407
 30
0.0
 10
-10.9685563993
 20
8.2983561716
 30
0.0
 10
-10.9901358714
 20
8.2968356675
 30
0.0
 10
-11.0045670476
 20
8.2973914707
 30
0.0
 10
-11.0117413074
 20
8.2980606587
 30
0.0
  0
SPLINE
  5
27E
100
AcDbEntity
  8
0
100
AcDbSpline
 62
7
  6
CONTINUOUS
 70
0
 71
3
 72
9
 73
5
 74
0
 42
0.0000001
 43
0.0000001
 44
0.0000000001
 40
0.0
 40
0.0
 40
0.0
 40
0.0
 40
0.4984555846
 40
1.0
 40
1.0
 40
1.0
 40
1.0
 10
-11.0637785438
 20
8.3058641963
 30
0.0
 10
-11.0746690963
 20
8.3022539179
 30
0.0
 10
-11.0973167131
 20
8.2972453178
 30
0.0
 10
-11.1205031066
 20
8.2968406324
 30
0.0
 10
-11.1320085571
 20
8.29778899
 30
0.0
  0
SPLINE
  5
27F
100
AcDbEntity
  8
0
100
AcDbSpline
 62
7
  6
CONTINUOUS
 70
0
 71
3
 72
16
 73
12
 74
0
 42
0.0000001
 43
0.0000001
 44
0.0000000001
 40
0.0
 40
0.0
 40
0.0
 40
0.0
 40
0.1228154086
 40
0.2456543848
 40
0.3685841283
 40
0.491762644
 40
0.6155105
 40
0.7405153037
 40
0.8679957359
 40
0.9333648179
 40
1.0
 40
1.0
 40
1.0
 40
1.0
 10
-11.284888262
 20
8.2974047801
 30
0.0
 10
-11.2897979638
 20
8.2970941949
 30
0.0
 10
-11.2996788108
 20
8.2971909882
 30
0.0
 10
-11.3143134895
 20
8.2994931894
 30
0.0
 10
-11.3284676271
 20
8.3039343618
 30
0.0
 10
-11.3418215994
 20
8.310484368
 30
0.0
 10
-11.3540496693
 20
8.3191104558
 30
0.0
 10
-11.3647916536
 20
8.3297849516
 30
0.0
 10
-11.3720956079
 20
8.3403191306
 30
0.0
 10
-11.3766762379
 20
8.349666134
 30
0.0
 10
-11.3784886651
 20
8.3546474163
 30
0.0
 10
-11.3792587112
 20
8.3572030756
 30
0.0
  0
SPLINE
  5
280
100
AcDbEntity
  8
0
100
AcDbSpline
 62
7
  6
CONTINUOUS
 70
0
 71
3
 72
23
 73
19
 74
0
 42
0.0000001
 43
0.0000001
 44
0.0000000001
 40
0.0
 40
0.0
 40
0.0
 40
0.0
 40
0.061601471
 40
0.1231072181
 40
0.1845627607
 40
0.2460118736
 40
0.3074984779
 40
0.3690666132
 40
0.4307643784
 40
0.4926416695
 40
0.5547480586
 40
0.6171387912
 40
0.6798712123
 40
0.7429958698
 40
0.806556772
 40
0.8705847379
 40
0.93507764
 40
1.0
 40
1.0
 40
1.0
 40
1.0
 10
-11.2515853484
 20
8.3010878827
 30
0.0
 10
-11.2542142939
 20
8.3002711627
 30
0.0
 10
-11.2595501808
 20
8.2988909866
 30
0.0
 10
-11.267707736
 20
8.2975957007
 30
0.0
 10
-11.2759453652
 20
8.297081912
 30
0.0
 10
-11.284193507
 20
8.2973520876
 30
0.0
 10
-11.2923838096
 20
8.2984050713
 30
0.0
 10
-11.3004474204
 20
8.3002364083
 30
0.0
 10
-11.3083149452
 20
8.3028384211
 30
0.0
 10
-11.3159159546
 20
8.3061995827
 30
0.0
 10
-11.3231785463
 20
8.3103044317
 30
0.0
 10
-11.3300292177
 20
8.3151325293
 30
0.0
 10
-11.3363922631
 20
8.3206577709
 30
0.0
 10
-11.3421899081
 20
8.3268464378
 30
0.0
 10
-11.3473421395
 20
8.3336555093
 30
0.0
 10
-11.3517684518
 20
8.3410299875
 30
0.0
 10
-11.3553892511
 20
8.3488982719
 30
0.0
 10
-11.3572123176
 20
8.3544019879
 30
0.0
 10
-11.3579681962
 20
8.3572030856
 30
0.0
  0
SPLINE
  5
281
100
AcDbEntity
  8
0
100
AcDbSpline
 62
7
  6
CONTINUOUS
 70
0
 71
3
 72
27
 73
23
 74
0
 42
0.0000001
 43
0.0000001
 44
0.0000000001
 40
0.0
 40
0.0
 40
0.0
 40
0.0
 40
0.0626390374
 40
0.0938952398
 40
0.1251031264
 40
0.1873598135
 40
0.2494805992
 40
0.2805194109
 40
0.3115410037
 40
0.3735244695
 40
0.4355096746
 40
0.4975436874
 40
0.5596729291
 40
0.6219410969
 40
0.6843863227
 40
0.715702647
 40
0.7470751005
 40
0.8099597612
 40
0.8730815299
 40
0.9047446802
 40
0.9364615405
 40
1.0
 40
1.0
 40
1.0
 40
1.0
 10
-11.0851790256
 20
8.3201363743
 30
0.0
 10
-11.0877191394
 20
8.3176794948
 30
0.0
 10
-11.0917757351
 20
8.3142418616
 30
0.0
 10
-11.0975836724
 20
8.3102254319
 30
0.0
 10
-11.1036220874
 20
8.3066044421
 30
0.0
 10
-11.1115748624
 20
8.3028290354
 30
0.0
 10
-11.1199366021
 20
8.3001071732
 30
0.0
 10
-11.1267794978
 20
8.2985853297
 30
0.0
 10
-11.1336976383
 20
8.2975033275
 30
0.0
 10
-11.1424518023
 20
8.2969807449
 30
0.0
 10
-11.1529491441
 20
8.2976919755
 30
0.0
 10
-11.163280094
 20
8.299732534
 30
0.0
 10
-11.1732820437
 20
8.303078612
 30
0.0
 10
-11.1827934325
 20
8.3076884816
 30
0.0
 10
-11.190175314
 20
8.3125331931
 30
0.0
 10
-11.1956743714
 20
8.3169672408
 30
0.0
 10
-11.2008894861
 20
8.321768838
 30
0.0
 10
-11.2068141408
 20
8.3284188393
 30
0.0
 10
-11.2118124084
 20
8.3358110324
 30
0.0
 10
-11.2151979802
 20
8.3420993574
 30
0.0
 10
-11.2181615338
 20
8.3486218681
 30
0.0
 10
-11.2198828617
 20
8.3537357741
 30
0.0
 10
-11.2207925108
 20
8.3572030765
 30
0.0
  0
SPLINE
  5
282
100
AcDbEntity
  8
0
100
AcDbSpline
 62
7
  6
CONTINUOUS
 70
0
 71
3
 72
23
 73
19
 74
0
 42
0.0000001
 43
0.0000001
 44
0.0000000001
 40
0.0
 40
0.0
 40
0.0
 40
0.0
 40
0.0633862436
 40
0.1260634657
 40
0.1882400646
 40
0.2500808041
 40
0.3117019944
 40
0.3731943951
 40
0.4346304411
 40
0.4960724087
 40
0.557582919
 40
0.6192377381
 40
0.6811309179
 40
0.7433843101
 40
0.8061723436
 40
0.8697088436
 40
0.9342466271
 40
1.0
 40
1.0
 40
1.0
 40
1.0
 10
-10.9549183259
 20
8.3298992041
 30
0.0
 10
-10.9573631899
 20
8.326837033
 30
0.0
 10
-10.9626736373
 20
8.3210908144
 30
0.0
 10
-10.9717051824
 20
8.313699327
 30
0.0
 10
-10.9815572298
 20
8.3076238378
 30
0.0
 10
-10.9920475736
 20
8.3028952064
 30
0.0
 10
-11.0030072509
 20
8.2995346247
 30
0.0
 10
-11.0142726171
 20
8.2975581475
 30
0.0
 10
-11.0256837159
 20
8.2969751859
 30
0.0
 10
-11.0370818539
 20
8.2977886976
 30
0.0
 10
-11.0483082822
 20
8.2999947064
 30
0.0
 10
-11.059202534
 20
8.3035828514
 30
0.0
 10
-11.0696002308
 20
8.3085362643
 30
0.0
 10
-11.0793304637
 20
8.3148322634
 30
0.0
 10
-11.0882103268
 20
8.3224410969
 30
0.0
 10
-11.0960387593
 20
8.33132348
 30
0.0
 10
-11.1025838512
 20
8.3414113935
 30
0.0
 10
-11.1058869552
 20
8.3488019216
 30
0.0
 10
-11.10724018
 20
8.3526348372
 30
0.0
  0
SPLINE
  5
283
100
AcDbEntity
  8
0
100
AcDbSpline
 62
7
  6
CONTINUOUS
 70
0
 71
3
 72
21
 73
17
 74
0
 42
0.0000001
 43
0.0000001
 44
0.0000000001
 40
0.0
 40
0.0
 40
0.0
 40
0.0
 40
0.0625759636
 40
0.1248740694
 40
0.1871576519
 40
0.2495392985
 40
0.3120412049
 40
0.374652985
 40
0.4998879534
 40
0.6250801511
 40
0.6876457157
 40
0.7500947663
 40
0.8124277882
 40
0.8747038803
 40
0.9371001631
 40
1.0
 40
1.0
 40
1.0
 40
1.0
 10
-10.7970164831
 20
8.3348479977
 30
0.0
 10
-10.7994510264
 20
8.3316980949
 30
0.0
 10
-10.8047661479
 20
8.3257532664
 30
0.0
 10
-10.8138242539
 20
8.3179787476
 30
0.0
 10
-10.8237602961
 20
8.3113868506
 30
0.0
 10
-10.8344104459
 20
8.306003088
 30
0.0
 10
-10.8456216398
 20
8.3018539445
 30
0.0
 10
-10.8611038079
 20
8.2980022281
 30
0.0
 10
-10.8811185819
 20
8.2963801956
 30
0.0
 10
-10.9010163549
 20
8.2990717966
 30
0.0
 10
-10.9162561647
 20
8.303763567
 30
0.0
 10
-10.9272090166
 20
8.3085314814
 30
0.0
 10
-10.9375240171
 20
8.3145206453
 30
0.0
 10
-10.9470452798
 20
8.3217056956
 30
0.0
 10
-10.9556041409
 20
8.3300675518
 30
0.0
 10
-10.9605088293
 20
8.3363932051
 30
0.0
 10
-10.9627163828
 20
8.3397308807
 30
0.0
  0
SPLINE
  5
284
100
AcDbEntity
  8
0
100
AcDbSpline
 62
7
  6
CONTINUOUS
 70
0
 71
3
 72
22
 73
18
 74
0
 42
0.0000001
 43
0.0000001
 44
0.0000000001
 40
0.0
 40
0.0
 40
0.0
 40
0.0
 40
0.0600569094
 40
0.1211601331
 40
0.1831364177
 40
0.2458020251
 40
0.3089875558
 40
0.3725493301
 40
0.4363544367
 40
0.5002772714
 40
0.5641966216
 40
0.6279905265
 40
0.691531218
 40
0.7546830688
 40
0.8173035796
 40
0.8792173294
 40
1.0
 40
1.0
 40
1.0
 40
1.0
 10
-10.615265073
 20
8.3350504349
 30
0.0
 10
-10.6180073583
 20
8.3320360274
 30
0.0
 10
-10.6239305449
 20
8.3263004903
 30
0.0
 10
-10.6338150503
 20
8.3187292161
 30
0.0
 10
-10.644616541
 20
8.3121874453
 30
0.0
 10
-10.6561682555
 20
8.3067502493
 30
0.0
 10
-10.6683118487
 20
8.3024752081
 30
0.0
 10
-10.6808937214
 20
8.2994062361
 30
0.0
 10
-10.6937642637
 20
8.2975733001
 30
0.0
 10
-10.7067758588
 20
8.2969941438
 30
0.0
 10
-10.7197818338
 20
8.2976742232
 30
0.0
 10
-10.732635252
 20
8.2996071622
 30
0.0
 10
-10.7451883708
 20
8.3027745333
 30
0.0
 10
-10.7572901367
 20
8.3071444066
 30
0.0
 10
-10.768790447
 20
8.3126749708
 30
0.0
 10
-10.782969218
 20
8.3214272885
 30
0.0
 10
-10.7924397314
 20
8.329655521
 30
0.0
 10
-10.7978929541
 20
8.3357736371
 30
0.0
  0
SPLINE
  5
285
100
AcDbEntity
  8
0
100
AcDbSpline
 62
7
  6
CONTINUOUS
 70
0
 71
3
 72
17
 73
13
 74
0
 42
0.0000001
 43
0.0000001
 44
0.0000000001
 40
0.0
 40
0.0
 40
0.0
 40
0.0
 40
0.1207360601
 40
0.1828776681
 40
0.2457657757
 40
0.3728730735
 40
0.5009255725
 40
0.6288959866
 40
0.75573741
 40
0.8184045914
 40
0.88023926
 40
1.0
 40
1.0
 40
1.0
 40
1.0
 10
-10.4157048555
 20
8.332119829
 30
0.0
 10
-10.4223174832
 20
8.3264264763
 30
0.0
 10
-10.4332567842
 20
8.3188173729
 30
0.0
 10
-10.4491082544
 20
8.3107693703
 30
0.0
 10
-10.4660583019
 20
8.3040162413
 30
0.0
 10
-10.4884813787
 20
8.2984049492
 30
0.0
 10
-10.5162361201
 20
8.2964195876
 30
0.0
 10
-10.5439005159
 20
8.2992286541
 30
0.0
 10
-10.5661049649
 20
8.305504463
 30
0.0
 10
-10.5827847706
 20
8.3127582486
 30
0.0
 10
-10.5982765925
 20
8.3212546567
 30
0.0
 10
-10.6088851404
 20
8.3291686794
 30
0.0
 10
-10.6152401267
 20
8.3350449089
 30
0.0
  0
SPLINE
  5
286
100
AcDbEntity
  8
0
100
AcDbSpline
 62
7
  6
CONTINUOUS
 70
0
 71
3
 72
21
 73
17
 74
0
 42
0.0000001
 43
0.0000001
 44
0.0000000001
 40
0.0
 40
0.0
 40
0.0
 40
0.0
 40
0.0560243278
 40
0.1149311971
 40
0.1757399296
 40
0.2378486669
 40
0.3008611627
 40
0.3645021297
 40
0.4285678912
 40
0.4928991815
 40
0.6216936172
 40
0.7500133639
 40
0.8137106724
 40
0.8768047301
 40
0.9390277787
 40
1.0
 40
1.0
 40
1.0
 40
1.0
 10
-10.1743059367
 20
8.3551162571
 30
0.0
 10
-10.1774675559
 20
8.3513149756
 30
0.0
 10
-10.184412755
 20
8.3438901357
 30
0.0
 10
-10.1961544537
 20
8.3337183436
 30
0.0
 10
-10.2092987519
 20
8.3244678864
 30
0.0
 10
-10.2235953223
 20
8.3163634291
 30
0.0
 10
-10.238826596
 20
8.3095554344
 30
0.0
 10
-10.254791242
 20
8.3041484488
 30
0.0
 10
-10.2713020806
 20
8.3002155286
 30
0.0
 10
-10.2937978252
 20
8.2970007631
 30
0.0
 10
-10.3223338881
 20
8.2968636343
 30
0.0
 10
-10.3503664404
 20
8.3019085753
 30
0.0
 10
-10.371784328
 20
8.3089362751
 30
0.0
 10
-10.3871021654
 20
8.3156061864
 30
0.0
 10
-10.4015041861
 20
8.3235841619
 30
0.0
 10
-10.4104753639
 20
8.3297633917
 30
0.0
 10
-10.4147455641
 20
8.3330374646
 30
0.0
  0
SPLINE
  5
287
100
AcDbEntity
  8
0
100
AcDbSpline
 62
7
  6
CONTINUOUS
 70
0
 71
3
 72
15
 73
11
 74
0
 42
0.0000001
 43
0.0000001
 44
0.0000000001
 40
0.0
 40
0.0
 40
0.0
 40
0.0
 40
0.1187263249
 40
0.2422879155
 40
0.3681326469
 40
0.4950592119
 40
0.6223519674
 40
0.7494371528
 40
0.8756610539
 40
1.0
 40
1.0
 40
1.0
 40
1.0
 10
-9.943787332
 20
8.3572030949
 30
0.0
 10
-9.9514235699
 20
8.3491905114
 30
0.0
 10
-9.9686216407
 20
8.3343174606
 30
0.0
 10
-9.9982741241
 20
8.316711
 30
0.0
 10
-10.0312393807
 20
8.3041969657
 30
0.0
 10
-10.0661885221
 20
8.2974032379
 30
0.0
 10
-10.1018980524
 20
8.2966045824
 30
0.0
 10
-10.1371683561
 20
8.301835082
 30
0.0
 10
-10.1707712392
 20
8.3128780332
 30
0.0
 10
-10.1915065814
 20
8.3239376479
 30
0.0
 10
-10.2012069409
 20
8.3302838091
 30
0.0
  0
SPLINE
  5
288
100
AcDbEntity
  8
0
100
AcDbSpline
 62
7
  6
CONTINUOUS
 70
0
 71
3
 72
21
 73
17
 74
0
 42
0.0000001
 43
0.0000001
 44
0.0000000001
 40
0.0
 40
0.0
 40
0.0
 40
0.0
 40
0.1223692526
 40
0.2466603996
 40
0.3092428373
 40
0.3719848416
 40
0.4348370579
 40
0.4977611205
 40
0.5607251429
 40
0.6237008215
 40
0.6866606948
 40
0.7495759238
 40
0.8124140134
 40
0.8751348274
 40
0.9376867162
 40
1.0
 40
1.0
 40
1.0
 40
1.0
 10
11.2857020212
 20
8.357203079
 30
0.0
 10
11.2771764585
 20
8.3491814537
 30
0.0
 10
11.2586139815
 20
8.3344188586
 30
0.0
 10
11.2326866252
 20
8.3199025054
 30
0.0
 10
11.210588358
 20
8.3107984627
 30
0.0
 10
11.193432095
 20
8.3052826762
 30
0.0
 10
11.1758608519
 20
8.3011408994
 30
0.0
 10
11.1579951786
 20
8.2984029894
 30
0.0
 10
11.1399570114
 20
8.2970888569
 30
0.0
 10
11.1218679901
 20
8.2972078026
 30
0.0
 10
11.1038498973
 20
8.2987590109
 30
0.0
 10
11.0860244101
 20
8.301731484
 30
0.0
 10
11.0685132901
 20
8.306103719
 30
0.0
 10
11.0514378725
 20
8.3118435388
 30
0.0
 10
11.0349214682
 20
8.3189058913
 30
0.0
 10
11.0243360917
 20
8.3244729076
 30
0.0
 10
11.0191763842
 20
8.3274580195
 30
0.0
  0
SPLINE
  5
289
100
AcDbEntity
  8
0
100
AcDbSpline
 62
7
  6
CONTINUOUS
 70
0
 71
3
 72
21
 73
17
 74
0
 42
0.0000001
 43
0.0000001
 44
0.0000000001
 40
0.0
 40
0.0
 40
0.0
 40
0.0
 40
0.0622162264
 40
0.1245549329
 40
0.1869734617
 40
0.2494514645
 40
0.3119703722
 40
0.3745189327
 40
0.4995818335
 40
0.6246777159
 40
0.6872700645
 40
0.7498556903
 40
0.8124290344
 40
0.8749835501
 40
0.9375107048
 40
1.0
 40
1.0
 40
1.0
 40
1.0
 10
11.5092091186
 20
8.3572030757
 30
0.0
 10
11.5047496663
 20
8.3532348392
 30
0.0
 10
11.4955156316
 20
8.3456273978
 30
0.0
 10
11.4808314301
 20
8.3352939088
 30
0.0
 10
11.4653842046
 20
8.326088876
 30
0.0
 10
11.449269955
 20
8.3180712189
 30
0.0
 10
11.4325830615
 20
8.3112899922
 30
0.0
 10
11.4097128607
 20
8.303953672
 30
0.0
 10
11.3801709747
 20
8.2980554816
 30
0.0
 10
11.350073522
 20
8.2966762868
 30
0.0
 10
11.3260963822
 20
8.2982963305
 30
0.0
 10
11.3082484981
 20
8.3008656821
 30
0.0
 10
11.2906501118
 20
8.3047743887
 30
0.0
 10
11.2734020162
 20
8.309999459
 30
0.0
 10
11.2566064672
 20
8.3165092089
 30
0.0
 10
11.2457698306
 20
8.3216830154
 30
0.0
 10
11.2404609615
 20
8.3244692324
 30
0.0
  0
SPLINE
  5
28A
100
AcDbEntity
  8
0
100
AcDbSpline
 62
7
  6
CONTINUOUS
 70
0
 71
3
 72
21
 73
17
 74
0
 42
0.0000001
 43
0.0000001
 44
0.0000000001
 40
0.0
 40
0.0
 40
0.0
 40
0.0
 40
0.0625250297
 40
0.125132101
 40
0.1877975246
 40
0.2505028968
 40
0.3132330771
 40
0.3759747782
 40
0.4387155335
 40
0.5014427937
 40
0.5641429595
 40
0.6268004047
 40
0.6893959218
 40
0.7519049463
 40
0.8764334485
 40
1.0
 40
1.0
 40
1.0
 40
1.0
 10
11.6605436822
 20
8.3185194058
 30
0.0
 10
11.6656859804
 20
8.3161549571
 30
0.0
 10
11.6761545582
 20
8.3117980168
 30
0.0
 10
11.6922976353
 20
8.3064241673
 30
0.0
 10
11.7088060708
 20
8.302236601
 30
0.0
 10
11.7255862829
 20
8.2992601245
 30
0.0
 10
11.7425455004
 20
8.2975116394
 30
0.0
 10
11.7595901518
 20
8.2970011278
 30
0.0
 10
11.7766265421
 20
8.2977315388
 30
0.0
 10
11.7935609305
 20
8.2996987683
 30
0.0
 10
11.8102999412
 20
8.3028915786
 30
0.0
 10
11.8267503667
 20
8.3072914983
 30
0.0
 10
11.8428207205
 20
8.3128733858
 30
0.0
 10
11.8635847012
 20
8.3218320714
 30
0.0
 10
11.8881194618
 20
8.3357771914
 30
0.0
 10
11.9058812832
 20
8.3496741129
 30
0.0
 10
11.9141533999
 20
8.3572030765
 30
0.0
  0
SPLINE
  5
28B
100
AcDbEntity
  8
0
100
AcDbSpline
 62
7
  6
CONTINUOUS
 70
0
 71
3
 72
15
 73
11
 74
0
 42
0.0000001
 43
0.0000001
 44
0.0000000001
 40
0.0
 40
0.0
 40
0.0
 40
0.0
 40
0.125603262
 40
0.251836138
 40
0.3783157487
 40
0.5047329962
 40
0.6307599169
 40
0.7559469125
 40
0.8795315718
 40
1.0
 40
1.0
 40
1.0
 40
1.0
 10
11.8479999816
 20
8.315303649
 30
0.0
 10
11.8577676263
 20
8.3110433102
 30
0.0
 10
11.8780209425
 20
8.3039530595
 30
0.0
 10
11.9096525667
 20
8.2978928328
 30
0.0
 10
11.9419060972
 20
8.2965183143
 30
0.0
 10
11.9739951756
 20
8.2998706919
 30
0.0
 10
12.0051418635
 20
8.3078577099
 30
0.0
 10
12.0345540918
 20
8.3202519527
 30
0.0
 10
12.061390405
 20
8.3366287011
 30
0.0
 10
12.0773086733
 20
8.3500218279
 30
0.0
 10
12.0845813454
 20
8.3572030976
 30
0.0
  0
SPLINE
  5
28C
100
AcDbEntity
  8
0
100
AcDbSpline
 62
7
  6
CONTINUOUS
 70
0
 71
3
 72
19
 73
15
 74
0
 42
0.0000001
 43
0.0000001
 44
0.0000000001
 40
0.0
 40
0.0
 40
0.0
 40
0.0
 40
0.0632235249
 40
0.1267929037
 40
0.1906047294
 40
0.2545725934
 40
0.3825916087
 40
0.5103733511
 40
0.6372860601
 40
0.7624365472
 40
0.8239655114
 40
0.8843973674
 40
0.9432957324
 40
1.0
 40
1.0
 40
1.0
 40
1.0
 10
12.0134291639
 20
8.3118146488
 30
0.0
 10
12.0179640898
 20
8.3099522517
 30
0.0
 10
12.0272064436
 20
8.3065661582
 30
0.0
 10
12.0414434019
 20
8.3025480977
 30
0.0
 10
12.0560014277
 20
8.2996054489
 30
0.0
 10
12.075698866
 20
8.2971464208
 30
0.0
 10
12.1005940055
 20
8.2968572461
 30
0.0
 10
12.1300954261
 20
8.3009668402
 30
0.0
 10
12.1584330326
 20
8.3093951744
 30
0.0
 10
12.1805100426
 20
8.3198393766
 30
0.0
 10
12.196759985
 20
8.3300246225
 30
0.0
 10
12.2080247679
 20
8.3384050251
 30
0.0
 10
12.2182873776
 20
8.3474271969
 30
0.0
 10
12.2245078642
 20
8.3538998224
 30
0.0
 10
12.2274096061
 20
8.3572033047
 30
0.0
  0
SPLINE
  5
28D
100
AcDbEntity
  8
0
100
AcDbSpline
 62
7
  6
CONTINUOUS
 70
0
 71
3
 72
20
 73
16
 74
0
 42
0.0000001
 43
0.0000001
 44
0.0000000001
 40
0.0
 40
0.0
 40
0.0
 40
0.0
 40
0.1283879534
 40
0.257865574
 40
0.3227912294
 40
0.3876798622
 40
0.4524334295
 40
0.5169465099
 40
0.6446370473
 40
0.7695351202
 40
0.8303573895
 40
0.8895179591
 40
0.9463939198
 40
0.9736992379
 40
1.0
 40
1.0
 40
1.0
 40
1.0
 10
12.1521962904
 20
8.3080705446
 30
0.0
 10
12.1604786061
 20
8.3049542985
 30
0.0
 10
12.1776422127
 20
8.3000210602
 30
0.0
 10
12.1998115264
 20
8.2972577048
 30
0.0
 10
12.2176978458
 20
8.2971103997
 30
0.0
 10
12.2310902351
 20
8.2980368372
 30
0.0
 10
12.2443426904
 20
8.2999937708
 30
0.0
 10
12.2616236714
 20
8.3039396309
 30
0.0
 10
12.282307453
 20
8.311295263
 30
0.0
 10
12.3013328311
 20
8.3217468971
 30
0.0
 10
12.3149893807
 20
8.3316964423
 30
0.0
 10
12.3241917787
 20
8.3397154065
 30
0.0
 10
12.3310295664
 20
8.3468692455
 30
0.0
 10
12.3358716537
 20
8.3527498034
 30
0.0
 10
12.3380747011
 20
8.3557185314
 30
0.0
 10
12.3391145965
 20
8.3572033912
 30
0.0
  0
SPLINE
  5
28E
100
AcDbEntity
  8
0
100
AcDbSpline
 62
7
  6
CONTINUOUS
 70
0
 71
3
 72
17
 73
13
 74
0
 42
0.0000001
 43
0.0000001
 44
0.0000000001
 40
0.0
 40
0.0
 40
0.0
 40
0.0
 40
0.1290879453
 40
0.2589286533
 40
0.3887271583
 40
0.5176721867
 40
0.6448238884
 40
0.7689166008
 40
0.8293315835
 40
0.8882320811
 40
0.945243802
 40
1.0
 40
1.0
 40
1.0
 40
1.0
 10
12.260953903
 20
8.3040258621
 30
0.0
 10
12.2682613545
 20
8.3016949171
 30
0.0
 10
12.2833256423
 20
8.2982063095
 30
0.0
 10
12.3064584569
 20
8.2966016045
 30
0.0
 10
12.3295548326
 20
8.2986367303
 30
0.0
 10
12.3518873121
 20
8.3042533776
 30
0.0
 10
12.372710846
 20
8.313263853
 30
0.0
 10
12.3883155886
 20
8.3234288878
 30
0.0
 10
12.3992493732
 20
8.3329239478
 30
0.0
 10
12.4064737583
 20
8.3405373698
 30
0.0
 10
12.4126639959
 20
8.3485925982
 30
0.0
 10
12.416087642
 20
8.354307714
 30
0.0
 10
12.4175615078
 20
8.357208263
 30
0.0
  0
SPLINE
  5
28F
100
AcDbEntity
  8
0
100
AcDbSpline
 62
7
  6
CONTINUOUS
 70
0
 71
3
 72
17
 73
13
 74
0
 42
0.0000001
 43
0.0000001
 44
0.0000000001
 40
0.0
 40
0.0
 40
0.0
 40
0.0
 40
0.1264719705
 40
0.2531575921
 40
0.3796206588
 40
0.5054251665
 40
0.6301561839
 40
0.7535013696
 40
0.8147605182
 40
0.8758811843
 40
0.937288599
 40
1.0
 40
1.0
 40
1.0
 40
1.0
 10
12.3354337205
 20
8.3004735668
 30
0.0
 10
12.3416172225
 20
8.2990045966
 30
0.0
 10
12.3542512078
 20
8.2970487107
 30
0.0
 10
12.3734021925
 20
8.2971087164
 30
0.0
 10
12.3922820537
 20
8.3001500952
 30
0.0
 10
12.4103506673
 20
8.3061168524
 30
0.0
 10
12.4270617442
 20
8.3148914023
 30
0.0
 10
12.4394371988
 20
8.3244556779
 30
0.0
 10
12.4480348936
 20
8.333343503
 30
0.0
 10
12.4537532041
 20
8.340619764
 30
0.0
 10
12.4586599461
 20
8.3485537493
 30
0.0
 10
12.4612541809
 20
8.3542516448
 30
0.0
 10
12.4623488226
 20
8.3572068608
 30
0.0
  0
SPLINE
  5
290
100
AcDbEntity
  8
0
100
AcDbSpline
 62
7
  6
CONTINUOUS
 70
0
 71
3
 72
16
 73
12
 74
0
 42
0.0000001
 43
0.0000001
 44
0.0000000001
 40
0.0
 40
0.0
 40
0.0
 40
0.0
 40
0.1228793348
 40
0.2457743541
 40
0.3687442978
 40
0.4919393198
 40
0.6156657408
 40
0.7406046379
 40
0.8679998873
 40
0.933347745
 40
1.0
 40
1.0
 40
1.0
 40
1.0
 10
12.3758941003
 20
8.2977003571
 30
0.0
 10
12.3809399901
 20
8.2971978816
 30
0.0
 10
12.3911247268
 20
8.2969541222
 30
0.0
 10
12.4062744745
 20
8.2988830227
 30
0.0
 10
12.4209751819
 20
8.3030894888
 30
0.0
 10
12.4348783882
 20
8.3095429455
 30
0.0
 10
12.4476302735
 20
8.3182077964
 30
0.0
 10
12.4588413958
 20
8.3290526985
 30
0.0
 10
12.4664607911
 20
8.3398360052
 30
0.0
 10
12.471224885
 20
8.3494402221
 30
0.0
 10
12.4731010455
 20
8.3545694912
 30
0.0
 10
12.4738945508
 20
8.3572030757
 30
0.0
  0
SPLINE
  5
291
100
AcDbEntity
  8
0
100
AcDbSpline
 62
7
  6
CONTINUOUS
 70
0
 71
3
 72
11
 73
7
 74
0
 42
0.0000001
 43
0.0000001
 44
0.0000000001
 40
0.0
 40
0.0
 40
0.0
 40
0.0
 40
0.2496102722
 40
0.4992315138
 40
0.7492145315
 40
1.0
 40
1.0
 40
1.0
 40
1.0
 10
12.1063371925
 20
8.2981172614
 30
0.0
 10
12.1107336119
 20
8.2974962971
 30
0.0
 10
12.1196287278
 20
8.2968849609
 30
0.0
 10
12.1329626333
 20
8.2978796216
 30
0.0
 10
12.1460382154
 20
8.3007762771
 30
0.0
 10
12.1543982629
 20
8.3039602574
 30
0.0
 10
12.1584375096
 20
8.3058535759
 30
0.0
  0
SPLINE
  5
292
100
AcDbEntity
  8
0
100
AcDbSpline
 62
7
  6
CONTINUOUS
 70
0
 71
3
 72
11
 73
7
 74
0
 42
0.0000001
 43
0.0000001
 44
0.0000000001
 40
0.0
 40
0.0
 40
0.0
 40
0.0
 40
0.2503404981
 40
0.5006716914
 40
0.7506400707
 40
1.0
 40
1.0
 40
1.0
 40
1.0
 10
11.9568339816
 20
8.2983464536
 30
0.0
 10
11.9623296315
 20
8.2975507436
 30
0.0
 10
11.9734584767
 20
8.2967879562
 30
0.0
 10
11.9901138789
 20
8.2981482378
 30
0.0
 10
12.0063559439
 20
8.3019904706
 30
0.0
 10
12.0166639094
 20
8.3061885921
 30
0.0
 10
12.0216026631
 20
8.3086791637
 30
0.0
  0
SPLINE
  5
293
100
AcDbEntity
  8
0
100
AcDbSpline
 62
7
  6
CONTINUOUS
 70
0
 71
3
 72
11
 73
7
 74
0
 42
0.0000001
 43
0.0000001
 44
0.0000000001
 40
0.0
 40
0.0
 40
0.0
 40
0.0
 40
0.24861585
 40
0.4985976402
 40
0.7492551514
 40
1.0
 40
1.0
 40
1.0
 40
1.0
 10
10.0731600672
 20
8.3087107714
 30
0.0
 10
10.0664358526
 20
8.3062972976
 30
0.0
 10
10.0526695476
 20
8.3022040704
 30
0.0
 10
10.0314436032
 20
8.298356172
 30
0.0
 10
10.0098641324
 20
8.2968356676
 30
0.0
 10
9.995432957
 20
8.2973914704
 30
0.0
 10
9.9882586976
 20
8.2980606583
 30
0.0
  0
SPLINE
  5
294
100
AcDbEntity
  8
0
100
AcDbSpline
 62
7
  6
CONTINUOUS
 70
0
 71
3
 72
9
 73
5
 74
0
 42
0.0000001
 43
0.0000001
 44
0.0000000001
 40
0.0
 40
0.0
 40
0.0
 40
0.0
 40
0.4984555845
 40
1.0
 40
1.0
 40
1.0
 40
1.0
 10
9.9362214552
 20
8.305864196
 30
0.0
 10
9.9253309049
 20
8.3022539184
 30
0.0
 10
9.9026832932
 20
8.297245319
 30
0.0
 10
9.8794969047
 20
8.2968406323
 30
0.0
 10
9.8679914565
 20
8.2977889888
 30
0.0
  0
SPLINE
  5
295
100
AcDbEntity
  8
0
100
AcDbSpline
 62
7
  6
CONTINUOUS
 70
0
 71
3
 72
16
 73
12
 74
0
 42
0.0000001
 43
0.0000001
 44
0.0000000001
 40
0.0
 40
0.0
 40
0.0
 40
0.0
 40
0.1228154086
 40
0.2456543848
 40
0.3685841284
 40
0.4917626441
 40
0.6155105001
 40
0.7405153037
 40
0.8679957358
 40
0.9333648178
 40
1.0
 40
1.0
 40
1.0
 40
1.0
 10
9.7151117403
 20
8.2974047803
 30
0.0
 10
9.7102020384
 20
8.297094195
 30
0.0
 10
9.7003211912
 20
8.297190988
 30
0.0
 10
9.6856865122
 20
8.299493189
 30
0.0
 10
9.6715323742
 20
8.3039343612
 30
0.0
 10
9.6581784016
 20
8.3104843673
 30
0.0
 10
9.6459503314
 20
8.3191104552
 30
0.0
 10
9.6352083468
 20
8.3297849511
 30
0.0
 10
9.6279043922
 20
8.3403191303
 30
0.0
 10
9.6233237622
 20
8.3496661338
 30
0.0
 10
9.6215113349
 20
8.3546474163
 30
0.0
 10
9.6207412888
 20
8.3572030756
 30
0.0
  0
SPLINE
  5
296
100
AcDbEntity
  8
0
100
AcDbSpline
 62
7
  6
CONTINUOUS
 70
0
 71
3
 72
23
 73
19
 74
0
 42
0.0000001
 43
0.0000001
 44
0.0000000001
 40
0.0
 40
0.0
 40
0.0
 40
0.0
 40
0.061601471
 40
0.1231072181
 40
0.1845627607
 40
0.2460118736
 40
0.3074984779
 40
0.3690666132
 40
0.4307643784
 40
0.4926416695
 40
0.5547480586
 40
0.6171387912
 40
0.6798712123
 40
0.7429958698
 40
0.806556772
 40
0.8705847379
 40
0.93507764
 40
1.0
 40
1.0
 40
1.0
 40
1.0
 10
9.7484146515
 20
8.3010878826
 30
0.0
 10
9.745785706
 20
8.3002711627
 30
0.0
 10
9.7404498191
 20
8.2988909866
 30
0.0
 10
9.7322922639
 20
8.2975957006
 30
0.0
 10
9.7240546347
 20
8.297081912
 30
0.0
 10
9.715806493
 20
8.2973520876
 30
0.0
 10
9.7076161904
 20
8.2984050713
 30
0.0
 10
9.6995525795
 20
8.3002364083
 30
0.0
 10
9.6916850548
 20
8.3028384211
 30
0.0
 10
9.6840840453
 20
8.3061995828
 30
0.0
 10
9.6768214536
 20
8.3103044317
 30
0.0
 10
9.6699707822
 20
8.3151325293
 30
0.0
 10
9.6636077368
 20
8.3206577709
 30
0.0
 10
9.6578100919
 20
8.3268464379
 30
0.0
 10
9.6526578605
 20
8.3336555093
 30
0.0
 10
9.6482315482
 20
8.3410299876
 30
0.0
 10
9.6446107489
 20
8.3488982719
 30
0.0
 10
9.6427876824
 20
8.3544019879
 30
0.0
 10
9.6420318038
 20
8.3572030856
 30
0.0
  0
SPLINE
  5
297
100
AcDbEntity
  8
0
100
AcDbSpline
 62
7
  6
CONTINUOUS
 70
0
 71
3
 72
27
 73
23
 74
0
 42
0.0000001
 43
0.0000001
 44
0.0000000001
 40
0.0
 40
0.0
 40
0.0
 40
0.0
 40
0.0626390374
 40
0.0938952398
 40
0.1251031264
 40
0.1873598134
 40
0.2494805992
 40
0.2805194109
 40
0.3115410037
 40
0.3735244695
 40
0.4355096745
 40
0.4975436874
 40
0.5596729291
 40
0.6219410968
 40
0.6843863227
 40
0.715702647
 40
0.7470751005
 40
0.8099597612
 40
0.8730815299
 40
0.9047446802
 40
0.9364615405
 40
1.0
 40
1.0
 40
1.0
 40
1.0
 10
9.9148209742
 20
8.3201363741
 30
0.0
 10
9.9122808604
 20
8.3176794947
 30
0.0
 10
9.9082242647
 20
8.3142418615
 30
0.0
 10
9.9024163274
 20
8.3102254317
 30
0.0
 10
9.8963779124
 20
8.306604442
 30
0.0
 10
9.8884251374
 20
8.3028290353
 30
0.0
 10
9.8800633977
 20
8.3001071732
 30
0.0
 10
9.873220502
 20
8.2985853297
 30
0.0
 10
9.8663023615
 20
8.2975033275
 30
0.0
 10
9.8575481975
 20
8.2969807449
 30
0.0
 10
9.8470508557
 20
8.2976919756
 30
0.0
 10
9.8367199059
 20
8.299732534
 30
0.0
 10
9.8267179562
 20
8.3030786121
 30
0.0
 10
9.8172065675
 20
8.3076884817
 30
0.0
 10
9.8098246859
 20
8.3125331931
 30
0.0
 10
9.8043256285
 20
8.3169672408
 30
0.0
 10
9.7991105139
 20
8.3217688381
 30
0.0
 10
9.7931858592
 20
8.3284188394
 30
0.0
 10
9.7881875916
 20
8.3358110324
 30
0.0
 10
9.7848020198
 20
8.3420993574
 30
0.0
 10
9.7818384662
 20
8.3486218681
 30
0.0
 10
9.7801171383
 20
8.3537357741
 30
0.0
 10
9.7792074892
 20
8.3572030765
 30
0.0
  0
SPLINE
  5
298
100
AcDbEntity
  8
0
100
AcDbSpline
 62
7
  6
CONTINUOUS
 70
0
 71
3
 72
23
 73
19
 74
0
 42
0.0000001
 43
0.0000001
 44
0.0000000001
 40
0.0
 40
0.0
 40
0.0
 40
0.0
 40
0.0633862435
 40
0.1260634657
 40
0.1882400646
 40
0.250080804
 40
0.3117019944
 40
0.3731943951
 40
0.434630441
 40
0.4960724087
 40
0.557582919
 40
0.6192377381
 40
0.6811309179
 40
0.7433843101
 40
0.8061723435
 40
0.8697088436
 40
0.9342466271
 40
1.0
 40
1.0
 40
1.0
 40
1.0
 10
10.0450816739
 20
8.3298992038
 30
0.0
 10
10.0426368099
 20
8.3268370328
 30
0.0
 10
10.0373263625
 20
8.3210908142
 30
0.0
 10
10.0282948174
 20
8.3136993269
 30
0.0
 10
10.01844277
 20
8.3076238377
 30
0.0
 10
10.0079524262
 20
8.3028952063
 30
0.0
 10
9.9969927489
 20
8.2995346246
 30
0.0
 10
9.9857273827
 20
8.2975581475
 30
0.0
 10
9.9743162839
 20
8.2969751859
 30
0.0
 10
9.9629181459
 20
8.2977886976
 30
0.0
 10
9.9516917177
 20
8.2999947064
 30
0.0
 10
9.9407974659
 20
8.3035828514
 30
0.0
 10
9.9303997692
 20
8.3085362644
 30
0.0
 10
9.9206695363
 20
8.3148322635
 30
0.0
 10
9.9117896731
 20
8.322441097
 30
0.0
 10
9.9039612407
 20
8.33132348
 30
0.0
 10
9.8974161488
 20
8.3414113935
 30
0.0
 10
9.8941130448
 20
8.3488019216
 30
0.0
 10
9.89275982
 20
8.3526348372
 30
0.0
  0
SPLINE
  5
299
100
AcDbEntity
  8
0
100
AcDbSpline
 62
7
  6
CONTINUOUS
 70
0
 71
3
 72
21
 73
17
 74
0
 42
0.0000001
 43
0.0000001
 44
0.0000000001
 40
0.0
 40
0.0
 40
0.0
 40
0.0
 40
0.0625759636
 40
0.1248740694
 40
0.1871576519
 40
0.2495392985
 40
0.3120412049
 40
0.374652985
 40
0.4998879534
 40
0.6250801511
 40
0.6876457158
 40
0.7500947663
 40
0.8124277882
 40
0.8747038803
 40
0.9371001631
 40
1.0
 40
1.0
 40
1.0
 40
1.0
 10
10.2029835168
 20
8.3348479976
 30
0.0
 10
10.2005489735
 20
8.3316980948
 30
0.0
 10
10.195233852
 20
8.3257532664
 30
0.0
 10
10.186175746
 20
8.3179787476
 30
0.0
 10
10.1762397038
 20
8.3113868506
 30
0.0
 10
10.165589554
 20
8.306003088
 30
0.0
 10
10.1543783602
 20
8.3018539445
 30
0.0
 10
10.1388961921
 20
8.2980022281
 30
0.0
 10
10.1188814181
 20
8.2963801956
 30
0.0
 10
10.0989836451
 20
8.2990717966
 30
0.0
 10
10.0837438353
 20
8.303763567
 30
0.0
 10
10.0727909834
 20
8.3085314814
 30
0.0
 10
10.0624759828
 20
8.3145206453
 30
0.0
 10
10.0529547202
 20
8.3217056956
 30
0.0
 10
10.0443958591
 20
8.3300675518
 30
0.0
 10
10.0394911707
 20
8.3363932051
 30
0.0
 10
10.0372836172
 20
8.3397308807
 30
0.0
  0
SPLINE
  5
29A
100
AcDbEntity
  8
0
100
AcDbSpline
 62
7
  6
CONTINUOUS
 70
0
 71
3
 72
22
 73
18
 74
0
 42
0.0000001
 43
0.0000001
 44
0.0000000001
 40
0.0
 40
0.0
 40
0.0
 40
0.0
 40
0.0600569094
 40
0.1211601331
 40
0.1831364177
 40
0.2458020251
 40
0.3089875559
 40
0.3725493301
 40
0.4363544368
 40
0.5002772715
 40
0.5641966216
 40
0.6279905265
 40
0.6915312181
 40
0.7546830688
 40
0.8173035796
 40
0.8792173294
 40
1.0
 40
1.0
 40
1.0
 40
1.0
 10
10.384734927
 20
8.3350504349
 30
0.0
 10
10.3819926417
 20
8.3320360274
 30
0.0
 10
10.3760694551
 20
8.3263004903
 30
0.0
 10
10.3661849497
 20
8.3187292161
 30
0.0
 10
10.355383459
 20
8.3121874453
 30
0.0
 10
10.3438317445
 20
8.3067502493
 30
0.0
 10
10.3316881513
 20
8.3024752081
 30
0.0
 10
10.3191062786
 20
8.2994062361
 30
0.0
 10
10.3062357363
 20
8.2975733001
 30
0.0
 10
10.2932241412
 20
8.2969941438
 30
0.0
 10
10.2802181662
 20
8.2976742232
 30
0.0
 10
10.267364748
 20
8.2996071622
 30
0.0
 10
10.2548116292
 20
8.3027745333
 30
0.0
 10
10.2427098633
 20
8.3071444066
 30
0.0
 10
10.231209553
 20
8.3126749708
 30
0.0
 10
10.217030782
 20
8.3214272885
 30
0.0
 10
10.2075602686
 20
8.329655521
 30
0.0
 10
10.2021070459
 20
8.3357736371
 30
0.0
  0
SPLINE
  5
29B
100
AcDbEntity
  8
0
100
AcDbSpline
 62
7
  6
CONTINUOUS
 70
0
 71
3
 72
17
 73
13
 74
0
 42
0.0000001
 43
0.0000001
 44
0.0000000001
 40
0.0
 40
0.0
 40
0.0
 40
0.0
 40
0.1207360609
 40
0.182877669
 40
0.2457657769
 40
0.3728730747
 40
0.5009255736
 40
0.6288959874
 40
0.7557374106
 40
0.8184045918
 40
0.8802392603
 40
1.0
 40
1.0
 40
1.0
 40
1.0
 10
10.584295141
 20
8.3321198259
 30
0.0
 10
10.5776825132
 20
8.3264264736
 30
0.0
 10
10.5667432121
 20
8.3188173707
 30
0.0
 10
10.5508917418
 20
8.3107693686
 30
0.0
 10
10.5339416945
 20
8.3040162402
 30
0.0
 10
10.5115186181
 20
8.2984049487
 30
0.0
 10
10.4837638773
 20
8.2964195877
 30
0.0
 10
10.4560994821
 20
8.2992286545
 30
0.0
 10
10.4338950337
 20
8.3055044635
 30
0.0
 10
10.4172152285
 20
8.3127582491
 30
0.0
 10
10.401723407
 20
8.3212546571
 30
0.0
 10
10.3911148594
 20
8.3291686796
 30
0.0
 10
10.3847598732
 20
8.335044909
 30
0.0
  0
SPLINE
  5
29C
100
AcDbEntity
  8
0
100
AcDbSpline
 62
7
  6
CONTINUOUS
 70
0
 71
3
 72
21
 73
17
 74
0
 42
0.0000001
 43
0.0000001
 44
0.0000000001
 40
0.0
 40
0.0
 40
0.0
 40
0.0
 40
0.0560243281
 40
0.1149311974
 40
0.1757399299
 40
0.2378486672
 40
0.3008611629
 40
0.3645021298
 40
0.4285678913
 40
0.4928991815
 40
0.6216936171
 40
0.7500133637
 40
0.8137106722
 40
0.8768047299
 40
0.9390277786
 40
1.0
 40
1.0
 40
1.0
 40
1.0
 10
10.8256940628
 20
8.3551162565
 30
0.0
 10
10.8225324436
 20
8.351314975
 30
0.0
 10
10.8155872445
 20
8.3438901352
 30
0.0
 10
10.8038455459
 20
8.3337183433
 30
0.0
 10
10.7907012478
 20
8.3244678862
 30
0.0
 10
10.7764046776
 20
8.3163634291
 30
0.0
 10
10.761173404
 20
8.3095554344
 30
0.0
 10
10.7452087582
 20
8.3041484489
 30
0.0
 10
10.7286979199
 20
8.3002155287
 30
0.0
 10
10.7062021755
 20
8.2970007632
 30
0.0
 10
10.677666113
 20
8.2968636342
 30
0.0
 10
10.649633561
 20
8.3019085749
 30
0.0
 10
10.6282156736
 20
8.3089362746
 30
0.0
 10
10.6128978363
 20
8.3156061856
 30
0.0
 10
10.5984958156
 20
8.3235841609
 30
0.0
 10
10.5895246379
 20
8.3297633904
 30
0.0
 10
10.5852544376
 20
8.3330374633
 30
0.0
  0
SPLINE
  5
29D
100
AcDbEntity
  8
0
100
AcDbSpline
 62
7
  6
CONTINUOUS
 70
0
 71
3
 72
15
 73
11
 74
0
 42
0.0000001
 43
0.0000001
 44
0.0000000001
 40
0.0
 40
0.0
 40
0.0
 40
0.0
 40
0.1187263248
 40
0.2422879155
 40
0.368132647
 40
0.4950592121
 40
0.6223519676
 40
0.749437153
 40
0.8756610541
 40
1.0
 40
1.0
 40
1.0
 40
1.0
 10
11.056212668
 20
8.3572030949
 30
0.0
 10
11.04857643
 20
8.3491905114
 30
0.0
 10
11.0313783591
 20
8.3343174604
 30
0.0
 10
11.0017258753
 20
8.3167109997
 30
0.0
 10
10.9687606184
 20
8.3041969654
 30
0.0
 10
10.9338114767
 20
8.2974032378
 30
0.0
 10
10.898101946
 20
8.2966045824
 30
0.0
 10
10.8628316421
 20
8.3018350824
 30
0.0
 10
10.8292287588
 20
8.312878034
 30
0.0
 10
10.8084934166
 20
8.323937649
 30
0.0
 10
10.7987930571
 20
8.3302838104
 30
0.0
  0
SPLINE
  5
29E
100
AcDbEntity
  8
0
100
AcDbSpline
 62
7
  6
CONTINUOUS
 70
0
 71
3
 72
21
 73
17
 74
0
 42
0.0000001
 43
0.0000001
 44
0.0000000001
 40
0.0
 40
0.0
 40
0.0
 40
0.0
 40
0.1223692526
 40
0.2466603996
 40
0.3092428373
 40
0.3719848416
 40
0.4348370579
 40
0.4977611205
 40
0.5607251429
 40
0.6237008215
 40
0.6866606948
 40
0.7495759238
 40
0.8124140134
 40
0.8751348274
 40
0.9376867162
 40
1.0
 40
1.0
 40
1.0
 40
1.0
 10
32.2857020212
 20
8.357203079
 30
0.0
 10
32.2771764585
 20
8.3491814537
 30
0.0
 10
32.2586139815
 20
8.3344188586
 30
0.0
 10
32.2326866252
 20
8.3199025054
 30
0.0
 10
32.210588358
 20
8.3107984627
 30
0.0
 10
32.193432095
 20
8.3052826762
 30
0.0
 10
32.1758608519
 20
8.3011408994
 30
0.0
 10
32.1579951786
 20
8.2984029894
 30
0.0
 10
32.1399570114
 20
8.2970888569
 30
0.0
 10
32.1218679901
 20
8.2972078026
 30
0.0
 10
32.1038498973
 20
8.2987590109
 30
0.0
 10
32.0860244101
 20
8.301731484
 30
0.0
 10
32.0685132901
 20
8.306103719
 30
0.0
 10
32.0514378725
 20
8.3118435388
 30
0.0
 10
32.0349214682
 20
8.3189058913
 30
0.0
 10
32.0243360917
 20
8.3244729076
 30
0.0
 10
32.0191763842
 20
8.3274580195
 30
0.0
  0
SPLINE
  5
29F
100
AcDbEntity
  8
0
100
AcDbSpline
 62
7
  6
CONTINUOUS
 70
0
 71
3
 72
21
 73
17
 74
0
 42
0.0000001
 43
0.0000001
 44
0.0000000001
 40
0.0
 40
0.0
 40
0.0
 40
0.0
 40
0.0622162264
 40
0.1245549329
 40
0.1869734617
 40
0.2494514645
 40
0.3119703722
 40
0.3745189327
 40
0.4995818335
 40
0.6246777159
 40
0.6872700645
 40
0.7498556903
 40
0.8124290344
 40
0.8749835501
 40
0.9375107048
 40
1.0
 40
1.0
 40
1.0
 40
1.0
 10
32.5092091186
 20
8.3572030757
 30
0.0
 10
32.5047496663
 20
8.3532348392
 30
0.0
 10
32.4955156316
 20
8.3456273978
 30
0.0
 10
32.4808314301
 20
8.3352939088
 30
0.0
 10
32.4653842046
 20
8.326088876
 30
0.0
 10
32.449269955
 20
8.3180712189
 30
0.0
 10
32.4325830615
 20
8.3112899922
 30
0.0
 10
32.4097128607
 20
8.303953672
 30
0.0
 10
32.3801709747
 20
8.2980554816
 30
0.0
 10
32.350073522
 20
8.2966762868
 30
0.0
 10
32.3260963822
 20
8.2982963305
 30
0.0
 10
32.3082484981
 20
8.3008656821
 30
0.0
 10
32.2906501118
 20
8.3047743887
 30
0.0
 10
32.2734020162
 20
8.309999459
 30
0.0
 10
32.2566064672
 20
8.3165092089
 30
0.0
 10
32.2457698306
 20
8.3216830154
 30
0.0
 10
32.2404609615
 20
8.3244692324
 30
0.0
  0
SPLINE
  5
2A0
100
AcDbEntity
  8
0
100
AcDbSpline
 62
7
  6
CONTINUOUS
 70
0
 71
3
 72
21
 73
17
 74
0
 42
0.0000001
 43
0.0000001
 44
0.0000000001
 40
0.0
 40
0.0
 40
0.0
 40
0.0
 40
0.0625250297
 40
0.125132101
 40
0.1877975246
 40
0.2505028968
 40
0.3132330771
 40
0.3759747782
 40
0.4387155335
 40
0.5014427937
 40
0.5641429595
 40
0.6268004047
 40
0.6893959218
 40
0.7519049463
 40
0.8764334485
 40
1.0
 40
1.0
 40
1.0
 40
1.0
 10
32.6605436822
 20
8.3185194058
 30
0.0
 10
32.6656859804
 20
8.3161549571
 30
0.0
 10
32.6761545582
 20
8.3117980168
 30
0.0
 10
32.6922976353
 20
8.3064241673
 30
0.0
 10
32.7088060708
 20
8.302236601
 30
0.0
 10
32.7255862829
 20
8.2992601245
 30
0.0
 10
32.7425455004
 20
8.2975116394
 30
0.0
 10
32.7595901518
 20
8.2970011278
 30
0.0
 10
32.7766265421
 20
8.2977315388
 30
0.0
 10
32.7935609305
 20
8.2996987683
 30
0.0
 10
32.8102999412
 20
8.3028915786
 30
0.0
 10
32.8267503667
 20
8.3072914983
 30
0.0
 10
32.8428207205
 20
8.3128733858
 30
0.0
 10
32.8635847012
 20
8.3218320714
 30
0.0
 10
32.8881194618
 20
8.3357771914
 30
0.0
 10
32.9058812832
 20
8.3496741129
 30
0.0
 10
32.9141533999
 20
8.3572030765
 30
0.0
  0
SPLINE
  5
2A1
100
AcDbEntity
  8
0
100
AcDbSpline
 62
7
  6
CONTINUOUS
 70
0
 71
3
 72
15
 73
11
 74
0
 42
0.0000001
 43
0.0000001
 44
0.0000000001
 40
0.0
 40
0.0
 40
0.0
 40
0.0
 40
0.125603262
 40
0.251836138
 40
0.3783157487
 40
0.5047329962
 40
0.6307599169
 40
0.7559469125
 40
0.8795315718
 40
1.0
 40
1.0
 40
1.0
 40
1.0
 10
32.8479999816
 20
8.315303649
 30
0.0
 10
32.8577676263
 20
8.3110433102
 30
0.0
 10
32.8780209425
 20
8.3039530595
 30
0.0
 10
32.9096525667
 20
8.2978928328
 30
0.0
 10
32.9419060972
 20
8.2965183143
 30
0.0
 10
32.9739951756
 20
8.2998706919
 30
0.0
 10
33.0051418635
 20
8.3078577099
 30
0.0
 10
33.0345540918
 20
8.3202519527
 30
0.0
 10
33.061390405
 20
8.3366287011
 30
0.0
 10
33.0773086733
 20
8.3500218279
 30
0.0
 10
33.0845813454
 20
8.3572030976
 30
0.0
  0
SPLINE
  5
2A2
100
AcDbEntity
  8
0
100
AcDbSpline
 62
7
  6
CONTINUOUS
 70
0
 71
3
 72
19
 73
15
 74
0
 42
0.0000001
 43
0.0000001
 44
0.0000000001
 40
0.0
 40
0.0
 40
0.0
 40
0.0
 40
0.0632235249
 40
0.1267929037
 40
0.1906047294
 40
0.2545725934
 40
0.3825916087
 40
0.5103733511
 40
0.6372860601
 40
0.7624365472
 40
0.8239655114
 40
0.8843973674
 40
0.9432957324
 40
1.0
 40
1.0
 40
1.0
 40
1.0
 10
33.0134291639
 20
8.3118146488
 30
0.0
 10
33.0179640898
 20
8.3099522517
 30
0.0
 10
33.0272064436
 20
8.3065661582
 30
0.0
 10
33.0414434019
 20
8.3025480977
 30
0.0
 10
33.0560014277
 20
8.2996054489
 30
0.0
 10
33.075698866
 20
8.2971464208
 30
0.0
 10
33.1005940055
 20
8.2968572461
 30
0.0
 10
33.1300954261
 20
8.3009668402
 30
0.0
 10
33.1584330326
 20
8.3093951744
 30
0.0
 10
33.1805100426
 20
8.3198393766
 30
0.0
 10
33.196759985
 20
8.3300246225
 30
0.0
 10
33.2080247679
 20
8.3384050251
 30
0.0
 10
33.2182873776
 20
8.3474271969
 30
0.0
 10
33.2245078642
 20
8.3538998224
 30
0.0
 10
33.2274096061
 20
8.3572033047
 30
0.0
  0
SPLINE
  5
2A3
100
AcDbEntity
  8
0
100
AcDbSpline
 62
7
  6
CONTINUOUS
 70
0
 71
3
 72
20
 73
16
 74
0
 42
0.0000001
 43
0.0000001
 44
0.0000000001
 40
0.0
 40
0.0
 40
0.0
 40
0.0
 40
0.1283879534
 40
0.257865574
 40
0.3227912294
 40
0.3876798622
 40
0.4524334295
 40
0.5169465099
 40
0.6446370473
 40
0.7695351202
 40
0.8303573895
 40
0.8895179591
 40
0.9463939198
 40
0.9736992379
 40
1.0
 40
1.0
 40
1.0
 40
1.0
 10
33.1521962904
 20
8.3080705446
 30
0.0
 10
33.1604786061
 20
8.3049542985
 30
0.0
 10
33.1776422127
 20
8.3000210602
 30
0.0
 10
33.1998115264
 20
8.2972577048
 30
0.0
 10
33.2176978458
 20
8.2971103997
 30
0.0
 10
33.2310902351
 20
8.2980368372
 30
0.0
 10
33.2443426904
 20
8.2999937708
 30
0.0
 10
33.2616236714
 20
8.3039396309
 30
0.0
 10
33.282307453
 20
8.311295263
 30
0.0
 10
33.3013328311
 20
8.3217468971
 30
0.0
 10
33.3149893807
 20
8.3316964423
 30
0.0
 10
33.3241917787
 20
8.3397154065
 30
0.0
 10
33.3310295664
 20
8.3468692455
 30
0.0
 10
33.3358716537
 20
8.3527498034
 30
0.0
 10
33.3380747011
 20
8.3557185314
 30
0.0
 10
33.3391145965
 20
8.3572033912
 30
0.0
  0
SPLINE
  5
2A4
100
AcDbEntity
  8
0
100
AcDbSpline
 62
7
  6
CONTINUOUS
 70
0
 71
3
 72
17
 73
13
 74
0
 42
0.0000001
 43
0.0000001
 44
0.0000000001
 40
0.0
 40
0.0
 40
0.0
 40
0.0
 40
0.1290879453
 40
0.2589286533
 40
0.3887271583
 40
0.5176721867
 40
0.6448238884
 40
0.7689166008
 40
0.8293315835
 40
0.8882320811
 40
0.945243802
 40
1.0
 40
1.0
 40
1.0
 40
1.0
 10
33.260953903
 20
8.3040258621
 30
0.0
 10
33.2682613545
 20
8.3016949171
 30
0.0
 10
33.2833256423
 20
8.2982063095
 30
0.0
 10
33.3064584569
 20
8.2966016045
 30
0.0
 10
33.3295548326
 20
8.2986367303
 30
0.0
 10
33.3518873121
 20
8.3042533776
 30
0.0
 10
33.372710846
 20
8.313263853
 30
0.0
 10
33.3883155886
 20
8.3234288878
 30
0.0
 10
33.3992493732
 20
8.3329239478
 30
0.0
 10
33.4064737583
 20
8.3405373698
 30
0.0
 10
33.4126639959
 20
8.3485925982
 30
0.0
 10
33.416087642
 20
8.354307714
 30
0.0
 10
33.4175615078
 20
8.357208263
 30
0.0
  0
SPLINE
  5
2A5
100
AcDbEntity
  8
0
100
AcDbSpline
 62
7
  6
CONTINUOUS
 70
0
 71
3
 72
17
 73
13
 74
0
 42
0.0000001
 43
0.0000001
 44
0.0000000001
 40
0.0
 40
0.0
 40
0.0
 40
0.0
 40
0.1264719705
 40
0.2531575921
 40
0.3796206588
 40
0.5054251665
 40
0.6301561839
 40
0.7535013696
 40
0.8147605182
 40
0.8758811843
 40
0.937288599
 40
1.0
 40
1.0
 40
1.0
 40
1.0
 10
33.3354337205
 20
8.3004735668
 30
0.0
 10
33.3416172225
 20
8.2990045966
 30
0.0
 10
33.3542512078
 20
8.2970487107
 30
0.0
 10
33.3734021925
 20
8.2971087164
 30
0.0
 10
33.3922820537
 20
8.3001500952
 30
0.0
 10
33.4103506673
 20
8.3061168524
 30
0.0
 10
33.4270617442
 20
8.3148914023
 30
0.0
 10
33.4394371988
 20
8.3244556779
 30
0.0
 10
33.4480348936
 20
8.333343503
 30
0.0
 10
33.4537532041
 20
8.340619764
 30
0.0
 10
33.4586599461
 20
8.3485537493
 30
0.0
 10
33.4612541809
 20
8.3542516448
 30
0.0
 10
33.4623488226
 20
8.3572068608
 30
0.0
  0
SPLINE
  5
2A6
100
AcDbEntity
  8
0
100
AcDbSpline
 62
7
  6
CONTINUOUS
 70
0
 71
3
 72
16
 73
12
 74
0
 42
0.0000001
 43
0.0000001
 44
0.0000000001
 40
0.0
 40
0.0
 40
0.0
 40
0.0
 40
0.1228793348
 40
0.2457743541
 40
0.3687442978
 40
0.4919393198
 40
0.6156657408
 40
0.7406046379
 40
0.8679998873
 40
0.933347745
 40
1.0
 40
1.0
 40
1.0
 40
1.0
 10
33.3758941003
 20
8.2977003571
 30
0.0
 10
33.3809399901
 20
8.2971978816
 30
0.0
 10
33.3911247268
 20
8.2969541222
 30
0.0
 10
33.4062744745
 20
8.2988830227
 30
0.0
 10
33.4209751819
 20
8.3030894888
 30
0.0
 10
33.4348783882
 20
8.3095429455
 30
0.0
 10
33.4476302735
 20
8.3182077964
 30
0.0
 10
33.4588413958
 20
8.3290526985
 30
0.0
 10
33.4664607911
 20
8.3398360052
 30
0.0
 10
33.471224885
 20
8.3494402221
 30
0.0
 10
33.4731010455
 20
8.3545694912
 30
0.0
 10
33.4738945508
 20
8.3572030757
 30
0.0
  0
SPLINE
  5
2A7
100
AcDbEntity
  8
0
100
AcDbSpline
 62
7
  6
CONTINUOUS
 70
0
 71
3
 72
11
 73
7
 74
0
 42
0.0000001
 43
0.0000001
 44
0.0000000001
 40
0.0
 40
0.0
 40
0.0
 40
0.0
 40
0.2496102722
 40
0.4992315138
 40
0.7492145315
 40
1.0
 40
1.0
 40
1.0
 40
1.0
 10
33.1063371925
 20
8.2981172614
 30
0.0
 10
33.1107336119
 20
8.2974962971
 30
0.0
 10
33.1196287278
 20
8.2968849609
 30
0.0
 10
33.1329626333
 20
8.2978796216
 30
0.0
 10
33.1460382154
 20
8.3007762771
 30
0.0
 10
33.1543982629
 20
8.3039602574
 30
0.0
 10
33.1584375096
 20
8.3058535759
 30
0.0
  0
SPLINE
  5
2A8
100
AcDbEntity
  8
0
100
AcDbSpline
 62
7
  6
CONTINUOUS
 70
0
 71
3
 72
11
 73
7
 74
0
 42
0.0000001
 43
0.0000001
 44
0.0000000001
 40
0.0
 40
0.0
 40
0.0
 40
0.0
 40
0.2503404981
 40
0.5006716914
 40
0.7506400707
 40
1.0
 40
1.0
 40
1.0
 40
1.0
 10
32.9568339816
 20
8.2983464536
 30
0.0
 10
32.9623296315
 20
8.2975507436
 30
0.0
 10
32.9734584767
 20
8.2967879562
 30
0.0
 10
32.9901138789
 20
8.2981482378
 30
0.0
 10
33.0063559439
 20
8.3019904706
 30
0.0
 10
33.0166639094
 20
8.3061885921
 30
0.0
 10
33.0216026631
 20
8.3086791637
 30
0.0
  0
SPLINE
  5
2A9
100
AcDbEntity
  8
0
100
AcDbSpline
 62
7
  6
CONTINUOUS
 70
0
 71
3
 72
11
 73
7
 74
0
 42
0.0000001
 43
0.0000001
 44
0.0000000001
 40
0.0
 40
0.0
 40
0.0
 40
0.0
 40
0.24861585
 40
0.4985976402
 40
0.7492551514
 40
1.0
 40
1.0
 40
1.0
 40
1.0
 10
31.0731600672
 20
8.3087107714
 30
0.0
 10
31.0664358526
 20
8.3062972976
 30
0.0
 10
31.0526695476
 20
8.3022040704
 30
0.0
 10
31.0314436032
 20
8.298356172
 30
0.0
 10
31.0098641324
 20
8.2968356676
 30
0.0
 10
30.995432957
 20
8.2973914704
 30
0.0
 10
30.9882586976
 20
8.2980606583
 30
0.0
  0
SPLINE
  5
2AA
100
AcDbEntity
  8
0
100
AcDbSpline
 62
7
  6
CONTINUOUS
 70
0
 71
3
 72
9
 73
5
 74
0
 42
0.0000001
 43
0.0000001
 44
0.0000000001
 40
0.0
 40
0.0
 40
0.0
 40
0.0
 40
0.4984555845
 40
1.0
 40
1.0
 40
1.0
 40
1.0
 10
30.9362214552
 20
8.305864196
 30
0.0
 10
30.9253309049
 20
8.3022539184
 30
0.0
 10
30.9026832932
 20
8.297245319
 30
0.0
 10
30.8794969047
 20
8.2968406323
 30
0.0
 10
30.8679914565
 20
8.2977889888
 30
0.0
  0
SPLINE
  5
2AB
100
AcDbEntity
  8
0
100
AcDbSpline
 62
7
  6
CONTINUOUS
 70
0
 71
3
 72
16
 73
12
 74
0
 42
0.0000001
 43
0.0000001
 44
0.0000000001
 40
0.0
 40
0.0
 40
0.0
 40
0.0
 40
0.1228154086
 40
0.2456543848
 40
0.3685841284
 40
0.4917626441
 40
0.6155105001
 40
0.7405153037
 40
0.8679957358
 40
0.9333648178
 40
1.0
 40
1.0
 40
1.0
 40
1.0
 10
30.7151117403
 20
8.2974047803
 30
0.0
 10
30.7102020384
 20
8.297094195
 30
0.0
 10
30.7003211912
 20
8.297190988
 30
0.0
 10
30.6856865122
 20
8.299493189
 30
0.0
 10
30.6715323742
 20
8.3039343612
 30
0.0
 10
30.6581784016
 20
8.3104843673
 30
0.0
 10
30.6459503314
 20
8.3191104552
 30
0.0
 10
30.6352083468
 20
8.3297849511
 30
0.0
 10
30.6279043922
 20
8.3403191303
 30
0.0
 10
30.6233237622
 20
8.3496661338
 30
0.0
 10
30.6215113349
 20
8.3546474163
 30
0.0
 10
30.6207412888
 20
8.3572030756
 30
0.0
  0
SPLINE
  5
2AC
100
AcDbEntity
  8
0
100
AcDbSpline
 62
7
  6
CONTINUOUS
 70
0
 71
3
 72
23
 73
19
 74
0
 42
0.0000001
 43
0.0000001
 44
0.0000000001
 40
0.0
 40
0.0
 40
0.0
 40
0.0
 40
0.061601471
 40
0.1231072181
 40
0.1845627607
 40
0.2460118736
 40
0.3074984779
 40
0.3690666132
 40
0.4307643784
 40
0.4926416695
 40
0.5547480586
 40
0.6171387912
 40
0.6798712123
 40
0.7429958698
 40
0.806556772
 40
0.8705847379
 40
0.93507764
 40
1.0
 40
1.0
 40
1.0
 40
1.0
 10
30.7484146515
 20
8.3010878826
 30
0.0
 10
30.745785706
 20
8.3002711627
 30
0.0
 10
30.7404498191
 20
8.2988909866
 30
0.0
 10
30.7322922639
 20
8.2975957006
 30
0.0
 10
30.7240546347
 20
8.297081912
 30
0.0
 10
30.715806493
 20
8.2973520876
 30
0.0
 10
30.7076161904
 20
8.2984050713
 30
0.0
 10
30.6995525795
 20
8.3002364083
 30
0.0
 10
30.6916850548
 20
8.3028384211
 30
0.0
 10
30.6840840453
 20
8.3061995828
 30
0.0
 10
30.6768214536
 20
8.3103044317
 30
0.0
 10
30.6699707822
 20
8.3151325293
 30
0.0
 10
30.6636077368
 20
8.3206577709
 30
0.0
 10
30.6578100919
 20
8.3268464379
 30
0.0
 10
30.6526578605
 20
8.3336555093
 30
0.0
 10
30.6482315482
 20
8.3410299876
 30
0.0
 10
30.6446107489
 20
8.3488982719
 30
0.0
 10
30.6427876824
 20
8.3544019879
 30
0.0
 10
30.6420318038
 20
8.3572030856
 30
0.0
  0
SPLINE
  5
2AD
100
AcDbEntity
  8
0
100
AcDbSpline
 62
7
  6
CONTINUOUS
 70
0
 71
3
 72
27
 73
23
 74
0
 42
0.0000001
 43
0.0000001
 44
0.0000000001
 40
0.0
 40
0.0
 40
0.0
 40
0.0
 40
0.0626390374
 40
0.0938952398
 40
0.1251031264
 40
0.1873598134
 40
0.2494805992
 40
0.2805194109
 40
0.3115410037
 40
0.3735244695
 40
0.4355096745
 40
0.4975436874
 40
0.5596729291
 40
0.6219410968
 40
0.6843863227
 40
0.715702647
 40
0.7470751005
 40
0.8099597612
 40
0.8730815299
 40
0.9047446802
 40
0.9364615405
 40
1.0
 40
1.0
 40
1.0
 40
1.0
 10
30.9148209742
 20
8.3201363741
 30
0.0
 10
30.9122808604
 20
8.3176794947
 30
0.0
 10
30.9082242647
 20
8.3142418615
 30
0.0
 10
30.9024163274
 20
8.3102254317
 30
0.0
 10
30.8963779124
 20
8.306604442
 30
0.0
 10
30.8884251374
 20
8.3028290353
 30
0.0
 10
30.8800633977
 20
8.3001071732
 30
0.0
 10
30.873220502
 20
8.2985853297
 30
0.0
 10
30.8663023615
 20
8.2975033275
 30
0.0
 10
30.8575481975
 20
8.2969807449
 30
0.0
 10
30.8470508557
 20
8.2976919756
 30
0.0
 10
30.8367199059
 20
8.299732534
 30
0.0
 10
30.8267179562
 20
8.3030786121
 30
0.0
 10
30.8172065675
 20
8.3076884817
 30
0.0
 10
30.8098246859
 20
8.3125331931
 30
0.0
 10
30.8043256285
 20
8.3169672408
 30
0.0
 10
30.7991105139
 20
8.3217688381
 30
0.0
 10
30.7931858592
 20
8.3284188394
 30
0.0
 10
30.7881875916
 20
8.3358110324
 30
0.0
 10
30.7848020198
 20
8.3420993574
 30
0.0
 10
30.7818384662
 20
8.3486218681
 30
0.0
 10
30.7801171383
 20
8.3537357741
 30
0.0
 10
30.7792074892
 20
8.3572030765
 30
0.0
  0
SPLINE
  5
2AE
100
AcDbEntity
  8
0
100
AcDbSpline
 62
7
  6
CONTINUOUS
 70
0
 71
3
 72
23
 73
19
 74
0
 42
0.0000001
 43
0.0000001
 44
0.0000000001
 40
0.0
 40
0.0
 40
0.0
 40
0.0
 40
0.0633862435
 40
0.1260634657
 40
0.1882400646
 40
0.250080804
 40
0.3117019944
 40
0.3731943951
 40
0.434630441
 40
0.4960724087
 40
0.557582919
 40
0.6192377381
 40
0.6811309179
 40
0.7433843101
 40
0.8061723435
 40
0.8697088436
 40
0.9342466271
 40
1.0
 40
1.0
 40
1.0
 40
1.0
 10
31.0450816739
 20
8.3298992038
 30
0.0
 10
31.0426368099
 20
8.3268370328
 30
0.0
 10
31.0373263625
 20
8.3210908142
 30
0.0
 10
31.0282948174
 20
8.3136993269
 30
0.0
 10
31.01844277
 20
8.3076238377
 30
0.0
 10
31.0079524262
 20
8.3028952063
 30
0.0
 10
30.9969927489
 20
8.2995346246
 30
0.0
 10
30.9857273827
 20
8.2975581475
 30
0.0
 10
30.9743162839
 20
8.2969751859
 30
0.0
 10
30.9629181459
 20
8.2977886976
 30
0.0
 10
30.9516917177
 20
8.2999947064
 30
0.0
 10
30.9407974659
 20
8.3035828514
 30
0.0
 10
30.9303997692
 20
8.3085362644
 30
0.0
 10
30.9206695363
 20
8.3148322635
 30
0.0
 10
30.9117896731
 20
8.322441097
 30
0.0
 10
30.9039612407
 20
8.33132348
 30
0.0
 10
30.8974161488
 20
8.3414113935
 30
0.0
 10
30.8941130448
 20
8.3488019216
 30
0.0
 10
30.89275982
 20
8.3526348372
 30
0.0
  0
SPLINE
  5
2AF
100
AcDbEntity
  8
0
100
AcDbSpline
 62
7
  6
CONTINUOUS
 70
0
 71
3
 72
21
 73
17
 74
0
 42
0.0000001
 43
0.0000001
 44
0.0000000001
 40
0.0
 40
0.0
 40
0.0
 40
0.0
 40
0.0625759636
 40
0.1248740694
 40
0.1871576519
 40
0.2495392985
 40
0.3120412049
 40
0.374652985
 40
0.4998879534
 40
0.6250801511
 40
0.6876457158
 40
0.7500947663
 40
0.8124277882
 40
0.8747038803
 40
0.9371001631
 40
1.0
 40
1.0
 40
1.0
 40
1.0
 10
31.2029835168
 20
8.3348479976
 30
0.0
 10
31.2005489735
 20
8.3316980948
 30
0.0
 10
31.195233852
 20
8.3257532664
 30
0.0
 10
31.186175746
 20
8.3179787476
 30
0.0
 10
31.1762397038
 20
8.3113868506
 30
0.0
 10
31.165589554
 20
8.306003088
 30
0.0
 10
31.1543783602
 20
8.3018539445
 30
0.0
 10
31.1388961921
 20
8.2980022281
 30
0.0
 10
31.1188814181
 20
8.2963801956
 30
0.0
 10
31.0989836451
 20
8.2990717966
 30
0.0
 10
31.0837438353
 20
8.303763567
 30
0.0
 10
31.0727909834
 20
8.3085314814
 30
0.0
 10
31.0624759828
 20
8.3145206453
 30
0.0
 10
31.0529547202
 20
8.3217056956
 30
0.0
 10
31.0443958591
 20
8.3300675518
 30
0.0
 10
31.0394911707
 20
8.3363932051
 30
0.0
 10
31.0372836172
 20
8.3397308807
 30
0.0
  0
SPLINE
  5
2B0
100
AcDbEntity
  8
0
100
AcDbSpline
 62
7
  6
CONTINUOUS
 70
0
 71
3
 72
22
 73
18
 74
0
 42
0.0000001
 43
0.0000001
 44
0.0000000001
 40
0.0
 40
0.0
 40
0.0
 40
0.0
 40
0.0600569094
 40
0.1211601331
 40
0.1831364177
 40
0.2458020251
 40
0.3089875559
 40
0.3725493301
 40
0.4363544368
 40
0.5002772715
 40
0.5641966216
 40
0.6279905265
 40
0.6915312181
 40
0.7546830688
 40
0.8173035796
 40
0.8792173294
 40
1.0
 40
1.0
 40
1.0
 40
1.0
 10
31.384734927
 20
8.3350504349
 30
0.0
 10
31.3819926417
 20
8.3320360274
 30
0.0
 10
31.3760694551
 20
8.3263004903
 30
0.0
 10
31.3661849497
 20
8.3187292161
 30
0.0
 10
31.355383459
 20
8.3121874453
 30
0.0
 10
31.3438317445
 20
8.3067502493
 30
0.0
 10
31.3316881513
 20
8.3024752081
 30
0.0
 10
31.3191062786
 20
8.2994062361
 30
0.0
 10
31.3062357363
 20
8.2975733001
 30
0.0
 10
31.2932241412
 20
8.2969941438
 30
0.0
 10
31.2802181662
 20
8.2976742232
 30
0.0
 10
31.267364748
 20
8.2996071622
 30
0.0
 10
31.2548116292
 20
8.3027745333
 30
0.0
 10
31.2427098633
 20
8.3071444066
 30
0.0
 10
31.231209553
 20
8.3126749708
 30
0.0
 10
31.217030782
 20
8.3214272885
 30
0.0
 10
31.2075602686
 20
8.329655521
 30
0.0
 10
31.2021070459
 20
8.3357736371
 30
0.0
  0
SPLINE
  5
2B1
100
AcDbEntity
  8
0
100
AcDbSpline
 62
7
  6
CONTINUOUS
 70
0
 71
3
 72
17
 73
13
 74
0
 42
0.0000001
 43
0.0000001
 44
0.0000000001
 40
0.0
 40
0.0
 40
0.0
 40
0.0
 40
0.1207360609
 40
0.182877669
 40
0.2457657769
 40
0.3728730747
 40
0.5009255736
 40
0.6288959874
 40
0.7557374106
 40
0.8184045918
 40
0.8802392603
 40
1.0
 40
1.0
 40
1.0
 40
1.0
 10
31.584295141
 20
8.3321198259
 30
0.0
 10
31.5776825132
 20
8.3264264736
 30
0.0
 10
31.5667432121
 20
8.3188173707
 30
0.0
 10
31.5508917418
 20
8.3107693686
 30
0.0
 10
31.5339416945
 20
8.3040162402
 30
0.0
 10
31.5115186181
 20
8.2984049487
 30
0.0
 10
31.4837638773
 20
8.2964195877
 30
0.0
 10
31.4560994821
 20
8.2992286545
 30
0.0
 10
31.4338950337
 20
8.3055044635
 30
0.0
 10
31.4172152285
 20
8.3127582491
 30
0.0
 10
31.401723407
 20
8.3212546571
 30
0.0
 10
31.3911148594
 20
8.3291686796
 30
0.0
 10
31.3847598732
 20
8.335044909
 30
0.0
  0
SPLINE
  5
2B2
100
AcDbEntity
  8
0
100
AcDbSpline
 62
7
  6
CONTINUOUS
 70
0
 71
3
 72
21
 73
17
 74
0
 42
0.0000001
 43
0.0000001
 44
0.0000000001
 40
0.0
 40
0.0
 40
0.0
 40
0.0
 40
0.0560243281
 40
0.1149311974
 40
0.1757399299
 40
0.2378486672
 40
0.3008611629
 40
0.3645021298
 40
0.4285678913
 40
0.4928991815
 40
0.6216936171
 40
0.7500133637
 40
0.8137106722
 40
0.8768047299
 40
0.9390277786
 40
1.0
 40
1.0
 40
1.0
 40
1.0
 10
31.8256940628
 20
8.3551162565
 30
0.0
 10
31.8225324436
 20
8.351314975
 30
0.0
 10
31.8155872445
 20
8.3438901352
 30
0.0
 10
31.8038455459
 20
8.3337183433
 30
0.0
 10
31.7907012478
 20
8.3244678862
 30
0.0
 10
31.7764046776
 20
8.3163634291
 30
0.0
 10
31.761173404
 20
8.3095554344
 30
0.0
 10
31.7452087582
 20
8.3041484489
 30
0.0
 10
31.7286979199
 20
8.3002155287
 30
0.0
 10
31.7062021755
 20
8.2970007632
 30
0.0
 10
31.677666113
 20
8.2968636342
 30
0.0
 10
31.649633561
 20
8.3019085749
 30
0.0
 10
31.6282156736
 20
8.3089362746
 30
0.0
 10
31.6128978363
 20
8.3156061856
 30
0.0
 10
31.5984958156
 20
8.3235841609
 30
0.0
 10
31.5895246379
 20
8.3297633904
 30
0.0
 10
31.5852544376
 20
8.3330374633
 30
0.0
  0
SPLINE
  5
2B3
100
AcDbEntity
  8
0
100
AcDbSpline
 62
7
  6
CONTINUOUS
 70
0
 71
3
 72
15
 73
11
 74
0
 42
0.0000001
 43
0.0000001
 44
0.0000000001
 40
0.0
 40
0.0
 40
0.0
 40
0.0
 40
0.1187263248
 40
0.2422879155
 40
0.368132647
 40
0.4950592121
 40
0.6223519676
 40
0.749437153
 40
0.8756610541
 40
1.0
 40
1.0
 40
1.0
 40
1.0
 10
32.056212668
 20
8.3572030949
 30
0.0
 10
32.04857643
 20
8.3491905114
 30
0.0
 10
32.0313783591
 20
8.3343174604
 30
0.0
 10
32.0017258753
 20
8.3167109997
 30
0.0
 10
31.9687606184
 20
8.3041969654
 30
0.0
 10
31.9338114767
 20
8.2974032378
 30
0.0
 10
31.898101946
 20
8.2966045824
 30
0.0
 10
31.8628316421
 20
8.3018350824
 30
0.0
 10
31.8292287588
 20
8.312878034
 30
0.0
 10
31.8084934166
 20
8.323937649
 30
0.0
 10
31.7987930571
 20
8.3302838104
 30
0.0
  0
SPLINE
  5
2B4
100
AcDbEntity
  8
0
100
AcDbSpline
 62
7
  6
CONTINUOUS
 70
0
 71
3
 72
11
 73
7
 74
0
 42
0.0000001
 43
0.0000001
 44
0.0000000001
 40
0.0
 40
0.0
 40
0.0
 40
0.0
 40
0.1977339153
 40
0.4286364856
 40
0.6951912162
 40
1.0
 40
1.0
 40
1.0
 40
1.0
 10
31.0372893496
 20
8.3397221732
 30
0.0
 10
31.0366278779
 20
8.3407210874
 30
0.0
 10
31.0354472056
 20
8.343056082
 30
0.0
 10
31.0341925194
 20
8.3470909774
 30
0.0
 10
31.0333735703
 20
8.3518945044
 30
0.0
 10
31.0331667632
 20
8.3553565522
 30
0.0
 10
31.0331326573
 20
8.3572030757
 30
0.0
  0
SPLINE
  5
2B5
100
AcDbEntity
  8
0
100
AcDbSpline
 62
7
  6
CONTINUOUS
 70
0
 71
3
 72
11
 73
7
 74
0
 42
0.0000001
 43
0.0000001
 44
0.0000000001
 40
0.0
 40
0.0
 40
0.0
 40
0.0
 40
0.1732929095
 40
0.3969570706
 40
0.6724280603
 40
1.0
 40
1.0
 40
1.0
 40
1.0
 10
-10.6144835932
 20
8.3359200728
 30
0.0
 10
-10.6143037953
 20
8.3361224471
 30
0.0
 10
-10.6139420598
 20
8.3366294838
 30
0.0
 10
-10.6134172393
 20
8.3375397244
 30
0.0
 10
-10.6128367118
 20
8.3386940091
 30
0.0
 10
-10.6124424197
 20
8.3395496237
 30
0.0
 10
-10.6122326759
 20
8.340016376
 30
0.0
  0
LINE
  5
2B6
100
AcDbEntity
  8
0
100
AcDbLine
 62
7
  6
CONTINUOUS
 10
-10.6122326759
 20
8.340016376
 11
-10.6050858195
 21
8.3572030757
  0
SPLINE
  5
2B7
100
AcDbEntity
  8
0
100
AcDbSpline
 62
7
  6
CONTINUOUS
 70
0
 71
3
 72
18
 73
14
 74
0
 42
0.0000001
 43
0.0000001
 44
0.0000000001
 40
0.0
 40
0.0
 40
0.0
 40
0.0
 40
0.0222088433
 40
0.0491932533
 40
0.08135254
 40
0.1188975232
 40
0.1619357262
 40
0.2105161999
 40
0.3243247096
 40
0.4602791633
 40
0.6182011897
 40
0.7980052151
 40
1.0
 40
1.0
 40
1.0
 40
1.0
 10
31.202102086
 20
8.3357792673
 30
0.0
 10
31.2019949348
 20
8.3358997033
 30
0.0
 10
31.2017927134
 20
8.336197574
 30
0.0
 10
31.2015435398
 20
8.3367344447
 30
0.0
 10
31.2013227494
 20
8.3374019478
 30
0.0
 10
31.2011341001
 20
8.3381990144
 30
0.0
 10
31.2009807882
 20
8.339124536
 30
0.0
 10
31.2008197949
 20
8.3406075276
 30
0.0
 10
31.2007437652
 20
8.3427744941
 30
0.0
 10
31.2008466947
 20
8.345733585
 30
0.0
 10
31.2011639998
 20
8.349158795
 30
0.0
 10
31.2017143372
 20
8.3530387524
 30
0.0
 10
31.2022152645
 20
8.3557650971
 30
0.0
 10
31.2025014216
 20
8.3572030757
 30
0.0
  0
SPLINE
  5
2B8
100
AcDbEntity
  8
0
100
AcDbSpline
 62
7
  6
CONTINUOUS
 70
0
 71
3
 72
18
 73
14
 74
0
 42
0.0000001
 43
0.0000001
 44
0.0000000001
 40
0.0
 40
0.0
 40
0.0
 40
0.0
 40
0.0222088433
 40
0.0491932533
 40
0.08135254
 40
0.1188975232
 40
0.1619357262
 40
0.2105161999
 40
0.3243247096
 40
0.4602791633
 40
0.6182011897
 40
0.7980052151
 40
1.0
 40
1.0
 40
1.0
 40
1.0
 10
10.202102086
 20
8.3357792673
 30
0.0
 10
10.2019949348
 20
8.3358997033
 30
0.0
 10
10.2017927134
 20
8.336197574
 30
0.0
 10
10.2015435398
 20
8.3367344447
 30
0.0
 10
10.2013227494
 20
8.3374019478
 30
0.0
 10
10.2011341001
 20
8.3381990144
 30
0.0
 10
10.2009807882
 20
8.339124536
 30
0.0
 10
10.2008197949
 20
8.3406075276
 30
0.0
 10
10.2007437652
 20
8.3427744941
 30
0.0
 10
10.2008466947
 20
8.345733585
 30
0.0
 10
10.2011639998
 20
8.349158795
 30
0.0
 10
10.2017143372
 20
8.3530387524
 30
0.0
 10
10.2022152645
 20
8.3557650971
 30
0.0
 10
10.2025014216
 20
8.3572030757
 30
0.0
  0
SPLINE
  5
2B9
100
AcDbEntity
  8
0
100
AcDbSpline
 62
7
  6
CONTINUOUS
 70
0
 71
3
 72
11
 73
7
 74
0
 42
0.0000001
 43
0.0000001
 44
0.0000000001
 40
0.0
 40
0.0
 40
0.0
 40
0.0
 40
0.1732868865
 40
0.3969490986
 40
0.672422121
 40
1.0
 40
1.0
 40
1.0
 40
1.0
 10
31.3855164068
 20
8.3359200728
 30
0.0
 10
31.3856962309
 20
8.3361224765
 30
0.0
 10
31.3860580179
 20
8.3366295998
 30
0.0
 10
31.3865829136
 20
8.3375400048
 30
0.0
 10
31.3871635325
 20
8.3386945148
 30
0.0
 10
31.3875578904
 20
8.3395502999
 30
0.0
 10
31.3877676706
 20
8.3400171471
 30
0.0
  0
LINE
  5
2BA
100
AcDbEntity
  8
0
100
AcDbLine
 62
7
  6
CONTINUOUS
 10
31.3877676706
 20
8.3400171471
 11
31.3949141805
 21
8.3572030757
  0
SPLINE
  5
2BB
100
AcDbEntity
  8
0
100
AcDbSpline
 62
7
  6
CONTINUOUS
 70
0
 71
3
 72
11
 73
7
 74
0
 42
0.0000001
 43
0.0000001
 44
0.0000000001
 40
0.0
 40
0.0
 40
0.0
 40
0.0
 40
0.1732868865
 40
0.3969490986
 40
0.672422121
 40
1.0
 40
1.0
 40
1.0
 40
1.0
 10
10.3855164068
 20
8.3359200728
 30
0.0
 10
10.3856962309
 20
8.3361224765
 30
0.0
 10
10.3860580179
 20
8.3366295998
 30
0.0
 10
10.3865829136
 20
8.3375400048
 30
0.0
 10
10.3871635325
 20
8.3386945148
 30
0.0
 10
10.3875578904
 20
8.3395502999
 30
0.0
 10
10.3877676706
 20
8.3400171471
 30
0.0
  0
LINE
  5
2BC
100
AcDbEntity
  8
0
100
AcDbLine
 62
7
  6
CONTINUOUS
 10
10.3877676706
 20
8.3400171471
 11
10.3949141805
 21
8.3572030757
  0
SPLINE
  5
2BD
100
AcDbEntity
  8
0
100
AcDbSpline
 62
7
  6
CONTINUOUS
 70
0
 71
3
 72
11
 73
7
 74
0
 42
0.0000001
 43
0.0000001
 44
0.0000000001
 40
0.0
 40
0.0
 40
0.0
 40
0.0
 40
0.2015120022
 40
0.4354100227
 40
0.7016493957
 40
1.0
 40
1.0
 40
1.0
 40
1.0
 10
31.5929992707
 20
8.3403934464
 30
0.0
 10
31.5939596833
 20
8.341404041
 30
0.0
 10
31.5959190539
 20
8.3436975294
 30
0.0
 10
31.5988322794
 20
8.3475825794
 30
0.0
 10
31.6019503468
 20
8.3521445153
 30
0.0
 10
31.6040451862
 20
8.3554423752
 30
0.0
 10
31.6051225084
 20
8.3572030757
 30
0.0
  0
SPLINE
  5
2BE
100
AcDbEntity
  8
0
100
AcDbSpline
 62
7
  6
CONTINUOUS
 70
0
 71
3
 72
11
 73
7
 74
0
 42
0.0000001
 43
0.0000001
 44
0.0000000001
 40
0.0
 40
0.0
 40
0.0
 40
0.0
 40
0.2015120022
 40
0.4354100227
 40
0.7016493957
 40
1.0
 40
1.0
 40
1.0
 40
1.0
 10
10.5929992707
 20
8.3403934464
 30
0.0
 10
10.5939596833
 20
8.341404041
 30
0.0
 10
10.5959190539
 20
8.3436975294
 30
0.0
 10
10.5988322794
 20
8.3475825794
 30
0.0
 10
10.6019503468
 20
8.3521445153
 30
0.0
 10
10.6040451862
 20
8.3554423752
 30
0.0
 10
10.6051225084
 20
8.3572030757
 30
0.0
  0
SPLINE
  5
2BF
100
AcDbEntity
  8
0
100
AcDbSpline
 62
7
  6
CONTINUOUS
 70
0
 71
3
 72
11
 73
7
 74
0
 42
0.0000001
 43
0.0000001
 44
0.0000000001
 40
0.0
 40
0.0
 40
0.0
 40
0.0
 40
0.2015120223
 40
0.4354100519
 40
0.7016494199
 40
1.0
 40
1.0
 40
1.0
 40
1.0
 10
-10.4070007294
 20
8.3403934462
 30
0.0
 10
-10.4060403167
 20
8.341404041
 30
0.0
 10
-10.404080946
 20
8.3436975296
 30
0.0
 10
-10.4011677204
 20
8.3475825798
 30
0.0
 10
-10.3980496531
 20
8.3521445156
 30
0.0
 10
-10.3959548137
 20
8.3554423753
 30
0.0
 10
-10.3948774916
 20
8.3572030757
 30
0.0
  0
LINE
  5
2C0
100
AcDbEntity
  8
0
100
AcDbLine
 62
7
  6
CONTINUOUS
 10
-11.1072400977
 20
8.3526346006
 11
-11.1085722562
 21
8.3572030757
  0
SPLINE
  5
2C1
100
AcDbEntity
  8
0
100
AcDbSpline
 62
7
  6
CONTINUOUS
 70
0
 71
3
 72
11
 73
7
 74
0
 42
0.0000001
 43
0.0000001
 44
0.0000000001
 40
0.0
 40
0.0
 40
0.0
 40
0.0
 40
0.197733939
 40
0.4286365191
 40
0.6951912437
 40
1.0
 40
1.0
 40
1.0
 40
1.0
 10
-10.9627106504
 20
8.3397221732
 30
0.0
 10
-10.9633721222
 20
8.3407210875
 30
0.0
 10
-10.9645527946
 20
8.3430560823
 30
0.0
 10
-10.9658074807
 20
8.3470909779
 30
0.0
 10
-10.9666264298
 20
8.3518945048
 30
0.0
 10
-10.9668332368
 20
8.3553565523
 30
0.0
 10
-10.9668673427
 20
8.3572030757
 30
0.0
  0
SPLINE
  5
2C2
100
AcDbEntity
  8
0
100
AcDbSpline
 62
7
  6
CONTINUOUS
 70
0
 71
3
 72
22
 73
18
 74
0
 42
0.0000001
 43
0.0000001
 44
0.0000000001
 40
0.0
 40
0.0
 40
0.0
 40
0.0
 40
0.0227493407
 40
0.0881526796
 40
0.1893380515
 40
0.2508907195
 40
0.3185378425
 40
0.3914940239
 40
0.4690774886
 40
0.5506952731
 40
0.6358150906
 40
0.7239213373
 40
0.8144526034
 40
0.8604343219
 40
0.9067585105
 40
0.953320513
 40
1.0
 40
1.0
 40
1.0
 40
1.0
 10
10.6223183383
 20
7.3572030757
 30
0.0
 10
10.6252243023
 20
7.3552270384
 30
0.0
 10
10.6365043789
 20
7.3475987616
 30
0.0
 10
10.6609009118
 20
7.3314650803
 30
0.0
 10
10.6907182405
 20
7.3126685589
 30
0.0
 10
10.7213015337
 20
7.2944654948
 30
0.0
 10
10.7484955954
 20
7.2791076737
 30
0.0
 10
10.7783020066
 20
7.2633627434
 30
0.0
 10
10.8105790274
 20
7.2477131959
 30
0.0
 10
10.8452161875
 20
7.2326907217
 30
0.0
 10
10.8821086688
 20
7.2188945748
 30
0.0
 10
10.9211082936
 20
7.2070005595
 30
0.0
 10
10.9549866185
 20
7.1993222424
 30
0.0
 10
10.982875149
 20
7.194811252
 30
0.0
 10
11.0041891019
 20
7.1923207881
 30
0.0
 10
11.025701975
 20
7.1908012123
 30
0.0
 10
11.0401076058
 20
7.1904606452
 30
0.0
 10
11.0473183384
 20
7.1904606452
 30
0.0
  0
SPLINE
  5
2C3
100
AcDbEntity
  8
0
100
AcDbSpline
 62
7
  6
CONTINUOUS
 70
0
 71
3
 72
22
 73
18
 74
0
 42
0.0000001
 43
0.0000001
 44
0.0000000001
 40
0.0
 40
0.0
 40
0.0
 40
0.0
 40
0.0466794914
 40
0.0932414887
 40
0.1395656679
 40
0.1855473822
 40
0.2760786469
 40
0.3641848904
 40
0.4493047003
 40
0.53092249
 40
0.6085059675
 40
0.6814621556
 40
0.7491092783
 40
0.8106619499
 40
0.9118473238
 40
0.9772506535
 40
1.0
 40
1.0
 40
1.0
 40
1.0
 10
11.0473183384
 20
7.1904606452
 30
0.0
 10
11.0545290718
 20
7.1904606452
 30
0.0
 10
11.0689347023
 20
7.1908012129
 30
0.0
 10
11.090447574
 20
7.1923207874
 30
0.0
 10
11.1117615239
 20
7.1948112517
 30
0.0
 10
11.1396500521
 20
7.1993222414
 30
0.0
 10
11.1735283759
 20
7.2070005576
 30
0.0
 10
11.2125279989
 20
7.2188945718
 30
0.0
 10
11.2494204796
 20
7.2326907179
 30
0.0
 10
11.2840576413
 20
7.2477131923
 30
0.0
 10
11.3163346656
 20
7.2633627412
 30
0.0
 10
11.3461410795
 20
7.2791076728
 30
0.0
 10
11.3733351426
 20
7.2944654946
 30
0.0
 10
11.4039184365
 20
7.3126685591
 30
0.0
 10
11.4337357646
 20
7.3314650803
 30
0.0
 10
11.4581322974
 20
7.3475987614
 30
0.0
 10
11.4694123735
 20
7.3552270379
 30
0.0
 10
11.4723183383
 20
7.3572030757
 30
0.0
  0
LINE
  5
2C4
100
AcDbEntity
  8
0
100
AcDbLine
 62
7
  6
CONTINUOUS
 10
9.8927599023
 20
8.3526346006
 11
9.8914277438
 21
8.3572030757
  0
SPLINE
  5
2C5
100
AcDbEntity
  8
0
100
AcDbSpline
 62
7
  6
CONTINUOUS
 70
0
 71
3
 72
18
 73
14
 74
0
 42
0.0000001
 43
0.0000001
 44
0.0000000001
 40
0.0
 40
0.0
 40
0.0
 40
0.0
 40
0.0222088459
 40
0.0491932563
 40
0.0813525441
 40
0.1188975372
 40
0.1619357502
 40
0.2105162333
 40
0.3243247558
 40
0.4602792146
 40
0.6182012362
 40
0.7980052459
 40
1.0
 40
1.0
 40
1.0
 40
1.0
 10
-10.797897914
 20
8.3357792672
 30
0.0
 10
-10.7980050652
 20
8.3358997032
 30
0.0
 10
-10.7982072863
 20
8.3361975741
 30
0.0
 10
-10.7984564602
 20
8.3367344447
 30
0.0
 10
-10.7986772507
 20
8.3374019478
 30
0.0
 10
-10.7988658999
 20
8.3381990146
 30
0.0
 10
-10.7990192118
 20
8.3391245365
 30
0.0
 10
-10.7991802052
 20
8.3406075283
 30
0.0
 10
-10.7992562348
 20
8.342774495
 30
0.0
 10
-10.7991533052
 20
8.345733586
 30
0.0
 10
-10.7988360001
 20
8.3491587959
 30
0.0
 10
-10.7982856627
 20
8.3530387529
 30
0.0
 10
-10.7977847355
 20
8.3557650973
 30
0.0
 10
-10.7974985784
 20
8.3572030757
 30
0.0
  0
LINE
  5
2C6
100
AcDbEntity
  8
0
100
AcDbLine
 62
7
  6
CONTINUOUS
 10
30.8927599023
 20
8.3526346006
 11
30.8914277438
 21
8.3572030757
  0
SPLINE
  5
2C7
100
AcDbEntity
  8
0
100
AcDbSpline
 62
7
  6
CONTINUOUS
 70
0
 71
3
 72
11
 73
7
 74
0
 42
0.0000001
 43
0.0000001
 44
0.0000000001
 40
0.0
 40
0.0
 40
0.0
 40
0.0
 40
0.1977339153
 40
0.4286364856
 40
0.6951912162
 40
1.0
 40
1.0
 40
1.0
 40
1.0
 10
10.0372893496
 20
8.3397221732
 30
0.0
 10
10.0366278779
 20
8.3407210874
 30
0.0
 10
10.0354472056
 20
8.343056082
 30
0.0
 10
10.0341925194
 20
8.3470909774
 30
0.0
 10
10.0333735703
 20
8.3518945044
 30
0.0
 10
10.0331667632
 20
8.3553565522
 30
0.0
 10
10.0331326573
 20
8.3572030757
 30
0.0
  0
ENDSEC
  0
SECTION
  2
OBJECTS
  0
DICTIONARY
  5
C
100
AcDbDictionary
280
0
281
1
  3
ACAD_GROUP
350
D
  3
ACAD_MLINESTYLE
350
17
  3
ACAD_LAYOUT
350
1A
  3
ACAD_PLOTSETTINGS
350
19
  3
ACAD_PLOTSTYLENAME
350
E
  0
DICTIONARY
  5
D
102
{ACAD_REACTORS
330
C
102
}
100
AcDbDictionary
280
0
281
1
  0
ACDBDICTIONARYWDFLT
  5
E
102
{ACAD_REACTORS
330
C
102
}
100
AcDbDictionary
281
1
  3
Normal
350
F
100
AcDbDictionaryWithDefault
340
F
  0
DICTIONARY
  5
17
102
{ACAD_REACTORS
330
C
102
}
100
AcDbDictionary
280
0
281
1
  3
Standard
350
18
  0
DICTIONARY
  5
19
102
{ACAD_REACTORS
330
C
102
}
100
AcDbDictionary
281
1
  0
DICTIONARY
  5
1A
102
{ACAD_REACTORS
330
C
102
}
100
AcDbDictionary
281
1
  3
Model
350
2C8
  3
Layout1
350
2C9
  0
ACDBPLACEHOLDER
  5
F
102
{ACAD_REACTORS
330
E
102
}
  0
MLINESTYLE
  5
18
102
{ACAD_REACTORS
330
17
102
}
100
AcDbMlineStyle
  2
STANDARD
 70
0
  3

 62
256
 51
90.0
 52
90.0
 71
2
 49
0.5
 62
256
  6
BYLAYER
 49
-0.5
 62
256
  6
BYLAYER
  0
LAYOUT
  5
2C8
102
{ACAD_REACTORS
330
1A
102
}
100
AcDbPlotSettings
  1

  2
none_device
  4
ANSI_C_(22.00_x_17.00_Inches)
  6

 40
0.0
 41
0.0
 42
0.0
 43
0.0
 44
558.8
 45
431.8
 46
0.0
 47
0.0
 48
0.0
 49
0.0
140
0.0
141
0.0
142
1.0
143
1.0
 70
1024
 72
0
 73
0
 74
0
  7

 75
0
147
1.0
148
0.0
149
0.0
100
AcDbLayout
  1
Model
 70
0
 71
0
 10
0.0
 20
0.0
 11
22.0
 21
17.0
 12
0.0
 22
0.0
 32
0.0
 14
0.0
 24
0.0
 34
0.0
 15
0.0
 25
0.0
 35
0.0
146
0.0
 13
0.0
 23
0.0
 33
0.0
 16
1.0
 26
0.0
 36
0.0
 17
0.0
 27
1.0
 37
0.0
 76
0
330
205
345
0
346
0
  0
LAYOUT
  5
2C9
102
{ACAD_REACTORS
330
1A
102
}
100
AcDbPlotSettings
  1

  2
none_device
  4
ANSI_C_(22.00_x_17.00_Inches)
  6

 40
0.0
 41
0.0
 42
0.0
 43
0.0
 44
558.8
 45
431.8
 46
0.0
 47
0.0
 48
0.0
 49
0.0
140
0.0
141
0.0
142
1.0
143
1.0
 70
0
 72
0
 73
0
 74
0
  7

 75
0
147
1.0
148
0.0
149
0.0
100
AcDbLayout
  1
Layout1
 70
0
 71
1
 10
0.0
 20
0.0
 11
22.0
 21
17.0
 12
0.0
 22
0.0
 32
0.0
 14
0.0
 24
0.0
 34
0.0
 15
0.0
 25
0.0
 35
0.0
146
0.0
 13
0.0
 23
0.0
 33
0.0
 16
1.0
 26
0.0
 36
0.0
 17
0.0
 27
1.0
 37
0.0
 76
0
330
206
345
0
346
0
  0
ENDSEC
  0
EOF
