999
DXF file: 1030-5173_TOP.dxf
999
Pro/ENGINEER 2023134 by Parametric Technology Corporation
  0
SECTION
  2
HEADER
  9
$ACADVER
  1
AC1032
  9
$DWGCODEPAGE
  3
ANSI_1252
  9
$EXTMAX
 10
11.0
 20
8.5
 30
0.0
  9
$EXTMIN
 10
0.0
 20
0.0
 30
0.0
  9
$LIMMIN
 10
0.0
 20
0.0
  9
$LIMMAX
 10
11.0
 20
8.5
  9
$VIEWCTR
 10
5.5
 20
4.25
  9
$VIEWSIZE
 40
8.5
  9
$CLAYER
  8
0
  9
$LTSCALE
 40
0.605
  9
$CELTYPE
  6
BYLAYER
  9
$DIMSCALE
 40
1.0
  9
$DIMASZ
 40
0.1
  9
$DIMEXO
 40
0.0625
  9
$DIMDLI
 40
0.418
  9
$DIMEXE
 40
0.125
  9
$DIMCEN
 40
0.099
  9
$DIMLFAC
 40
1.0
  9
$DIMBLK
  1
_FILLED
  9
$DIMALT
 70
1
  9
$DIMALTD
 70
2
  9
$DIMALTTD
 70
2
  9
$DIMALTF
 40
25.4
  9
$DIMTXT
 40
0.08
  9
$DIMTOL
 70
1
  9
$DIMLIM
 70
0
  9
$DIMTFAC
 40
1.0
  9
$DIMTP
 40
0.001
  9
$DIMTM
 40
0.001
  9
$DIMGAP
 40
0.09
  9
$DIMDSEP
 70
46
  9
$AUNITS
 70
0
  9
$PDMODE
 70
3
  9
$PDSIZE
 40
0.3125
  9
$HANDSEED
  5
842
  9
$TILEMODE
 70
1
  9
$MEASUREMENT
 70
0
  9
$INSUNITS
 70
1
  0
ENDSEC
  0
SECTION
  2
CLASSES
  0
CLASS
  1
ACDBDICTIONARYWDFLT
  2
AcDbDictionaryWithDefault
  3
AutoCAD 2000
 90
0
 91
1
280
0
281
0
  0
CLASS
  1
ACDBPLACEHOLDER
  2
AcDbPlaceHolder
  3
AutoCAD 2000
 90
0
 91
1
280
0
281
0
  0
CLASS
  1
LAYOUT
  2
AcDbLayout
  3
AutoCAD 2000
 90
0
 91
0
280
0
281
0
  0
ENDSEC
  0
SECTION
  2
TABLES
  0
TABLE
  2
VPORT
  5
8
100
AcDbSymbolTable
 70
2
  0
VPORT
  5
1F4
100
AcDbSymbolTableRecord
100
AcDbViewportTableRecord
  2
*ACTIVE
 70
0
 10
0.0
 20
0.0
 11
1.0
 21
1.0
 12
5.5
 22
4.25
 13
0.0
 23
0.0
 14
1.0
 24
1.0
 15
0.0
 25
0.0
 16
0.0
 26
0.0
 36
1.0
 17
0.0
 27
0.0
 37
0.0
 40
8.5
 41
1.2941176471
 42
50.0
 43
0.0
 44
0.0
 50
0.0
 51
0.0
 71
0
 72
100
 73
1
 74
1
 75
0
 76
0
 77
0
 78
0
  0
ENDTAB
  0
TABLE
  2
LTYPE
  5
5
100
AcDbSymbolTable
 70
6
  0
LTYPE
  5
14
100
AcDbSymbolTableRecord
100
AcDbLinetypeTableRecord
  2
BYBLOCK
 70
0
  3

 72
65
 73
0
 40
0.0
  0
LTYPE
  5
15
100
AcDbSymbolTableRecord
100
AcDbLinetypeTableRecord
  2
BYLAYER
 70
0
  3

 72
65
 73
0
 40
0.0
  0
LTYPE
  5
16
100
AcDbSymbolTableRecord
100
AcDbLinetypeTableRecord
  2
CONTINUOUS
 70
64
  3
Solid line
 72
65
 73
0
 40
0.0
  0
LTYPE
  5
1F5
100
AcDbSymbolTableRecord
100
AcDbLinetypeTableRecord
  2
CENTER
 70
64
  3
____ _ ____ _ ____ _ ____ _ ____ _ ____ _ ____
 72
65
 73
4
 40
0.6
 49
0.375
 74
0
 49
-0.075
 74
0
 49
0.075
 74
0
 49
-0.075
 74
0
  0
LTYPE
  5
1F6
100
AcDbSymbolTableRecord
100
AcDbLinetypeTableRecord
  2
HIDDEN
 70
64
  3
- - - - - - - - - - - - - - - - - - - -
 72
65
 73
2
 40
0.2
 49
0.1
 74
0
 49
-0.1
 74
0
  0
LTYPE
  5
1F7
100
AcDbSymbolTableRecord
100
AcDbLinetypeTableRecord
  2
PHANTOM
 70
64
  3
_____ _ _ _____ _ _ _____ _ _ _____
 72
65
 73
6
 40
0.8
 49
0.45
 74
0
 49
-0.05
 74
0
 49
0.1
 74
0
 49
-0.05
 74
0
 49
0.1
 74
0
 49
-0.05
 74
0
  0
LTYPE
  5
1F8
100
AcDbSymbolTableRecord
100
AcDbLinetypeTableRecord
  2
DOT
 70
64
  3
. . . . . . . . . . . . . . . . . . . .
 72
65
 73
2
 40
0.2
 49
0.1
 74
0
 49
-0.1
 74
0
  0
LTYPE
  5
1F9
100
AcDbSymbolTableRecord
100
AcDbLinetypeTableRecord
  2
DASHED
 70
64
  3
- - - - - - - - - - - - - - - - - - - -
 72
65
 73
2
 40
0.2
 49
0.1
 74
0
 49
-0.1
 74
0
  0
ENDTAB
  0
TABLE
  2
LAYER
  5
2
100
AcDbSymbolTable
 70
36
  0
LAYER
  5
10
100
AcDbSymbolTableRecord
100
AcDbLayerTableRecord
  2
0
 70
0
 62
7
  6
CONTINUOUS
370
-3
390
F
  0
LAYER
  5
1FA
100
AcDbSymbolTableRecord
100
AcDbLayerTableRecord
  2
DEFAULT_1
 70
0
 62
7
  6
CENTER
370
-3
390
F
  0
LAYER
  5
1FB
100
AcDbSymbolTableRecord
100
AcDbLayerTableRecord
  2
DEFAULT_2
 70
0
 62
8
  6
HIDDEN
370
-3
390
F
  0
LAYER
  5
1FC
100
AcDbSymbolTableRecord
100
AcDbLayerTableRecord
  2
DEFAULT_3
 70
0
 62
7
  6
PHANTOM
370
-3
390
F
  0
ENDTAB
  0
TABLE
  2
STYLE
  5
3
100
AcDbSymbolTable
 70
1
  0
STYLE
  5
11
100
AcDbSymbolTableRecord
100
AcDbTextStyleTableRecord
  2
STANDARD
 70
0
 40
0.0
 41
0.8
 50
0.0
 71
0
 42
0.2
  3
txt
  4

  0
STYLE
  5
1FD
100
AcDbSymbolTableRecord
100
AcDbTextStyleTableRecord
  2
TEXTSTYLE_1
 70
0
 40
0.0
 41
0.8
 50
0.0
 71
0
 42
0.2
  3
gdt
  4

  0
ENDTAB
  0
TABLE
  2
VIEW
  5
6
100
AcDbSymbolTable
 70
0
  0
ENDTAB
  0
TABLE
  2
UCS
  5
7
100
AcDbSymbolTable
 70
0
  0
ENDTAB
  0
TABLE
  2
APPID
  5
9
100
AcDbSymbolTable
 70
1
  0
APPID
  5
1FE
100
AcDbSymbolTableRecord
100
AcDbRegAppTableRecord
  2
ACAD
 70
0
  0
ENDTAB
  0
TABLE
  2
BLOCK_RECORD
  5
1
100
AcDbSymbolTable
 70
0
  0
BLOCK_RECORD
  5
1FF
100
AcDbSymbolTableRecord
100
AcDbBlockTableRecord
  2
*Model_Space
  0
BLOCK_RECORD
  5
200
100
AcDbSymbolTableRecord
100
AcDbBlockTableRecord
  2
*Paper_Space
  0
BLOCK_RECORD
  5
201
100
AcDbSymbolTableRecord
100
AcDbBlockTableRecord
  2
_FILLED
  0
ENDTAB
  0
TABLE
  2
DIMSTYLE
  5
A
100
AcDbSymbolTable
 70
1
100
AcDbDimStyleTable
 71
0
  0
DIMSTYLE
105
202
100
AcDbSymbolTableRecord
100
AcDbDimStyleTableRecord
  2
STANDARD
 70
0
  3

  4

 40
1.0
 41
0.1
 42
0.0625
 43
0.38
 44
0.125
 45
0.0
 46
0.0
 47
0.001
 48
0.001
140
0.08
141
0.09
142
0.0
143
25.4
144
1.0
145
0.0
146
1.0
147
0.09
 71
1
 72
0
 73
1
 74
1
 75
0
 76
0
 77
0
 78
4
 79
1
170
1
171
2
172
0
173
0
174
0
175
0
176
0
177
0
178
0
270
2
179
3
271
3
272
3
273
2
274
2
275
0
280
0
281
0
282
0
283
1
284
4
285
0
286
0
287
3
288
0
340
11
278
46
341
201
342
201
343
201
344
201
  0
ENDTAB
  0
ENDSEC
  0
SECTION
  2
BLOCKS
  0
BLOCK
  5
20
100
AcDbEntity
  8
0
100
AcDbBlockBegin
  2
*Model_Space
 70
0
 10
0.0
 20
0.0
 30
0.0
  3
*Model_Space
  1

  0
ENDBLK
  5
21
100
AcDbEntity
  8
0
100
AcDbBlockEnd
  0
BLOCK
  5
1C
100
AcDbEntity
  8
0
100
AcDbBlockBegin
  2
*Paper_Space
 70
0
 10
0.0
 20
0.0
 30
0.0
  3
*Paper_Space
  1

  0
ENDBLK
  5
1D
100
AcDbEntity
  8
0
100
AcDbBlockEnd
  0
BLOCK
  5
203
100
AcDbEntity
  8
0
100
AcDbBlockBegin
  2
_FILLED
 70
64
 10
0.0
 20
0.0
  3
_FILLED
  1

  0
SOLID
  5
204
100
AcDbEntity
  8
0
  6
BYBLOCK
 62
0
100
AcDbTrace
 10
0.0
 20
0.0
 11
-1.0
 21
0.2
 12
-1.0
 22
-0.2
 13
-1.0
 23
-0.2
  0
ENDBLK
  5
205
100
AcDbEntity
  8
0
  6
BYBLOCK
 62
0
100
AcDbBlockEnd
  0
ENDSEC
  0
SECTION
  2
ENTITIES
  0
LINE
  5
206
100
AcDbEntity
  8
0
100
AcDbLine
 62
7
  6
CONTINUOUS
 10
0.0
 20
0.0
 11
0.0
 21
8.5
  0
LINE
  5
207
100
AcDbEntity
  8
0
100
AcDbLine
 62
7
  6
CONTINUOUS
 10
0.0
 20
0.0
 11
11.0
 21
0.0
  0
LINE
  5
208
100
AcDbEntity
  8
0
100
AcDbLine
 62
7
  6
CONTINUOUS
 10
0.0
 20
8.5
 11
11.0
 21
8.5
  0
LINE
  5
209
100
AcDbEntity
  8
0
100
AcDbLine
 62
7
  6
CONTINUOUS
 10
11.0
 20
0.0
 11
11.0
 21
8.5
  0
LINE
  5
20A
100
AcDbEntity
  8
0
100
AcDbLine
 62
7
  6
CONTINUOUS
 10
5.2822766637
 20
2.353056124
 11
5.2815873022
 21
2.352953848
  0
LINE
  5
20B
100
AcDbEntity
  8
0
100
AcDbLine
 62
7
  6
CONTINUOUS
 10
5.0558893756
 20
2.4224863176
 11
5.0553675396
 21
2.4229701862
  0
LINE
  5
20C
100
AcDbEntity
  8
0
100
AcDbLine
 62
7
  6
CONTINUOUS
 10
6.024083983
 20
5.3992590038
 11
6.0010658237
 21
5.3899586365
  0
LINE
  5
20D
100
AcDbEntity
  8
0
100
AcDbLine
 62
7
  6
CONTINUOUS
 10
4.9798061842
 20
2.5461716811
 11
4.979610722
 21
2.5468536552
  0
LINE
  5
20E
100
AcDbEntity
  8
0
100
AcDbLine
 62
7
  6
CONTINUOUS
 10
5.7912740817
 20
5.0003453248
 11
5.9365912585
 21
5.0602567924
  0
LINE
  5
20F
100
AcDbEntity
  8
0
100
AcDbLine
 62
7
  6
CONTINUOUS
 10
6.172945497
 20
5.0755843638
 11
6.150089298
 21
5.066261015
  0
LINE
  5
210
100
AcDbEntity
  8
0
100
AcDbLine
 62
7
  6
CONTINUOUS
 10
5.4362900554
 20
2.8141105249
 11
5.4393053846
 21
2.8111454722
  0
LINE
  5
211
100
AcDbEntity
  8
0
100
AcDbLine
 62
7
  6
CONTINUOUS
 10
5.4474148143
 20
2.8026981107
 11
5.4502450153
 21
2.799574631
  0
LINE
  5
212
100
AcDbEntity
  8
0
100
AcDbLine
 62
7
  6
CONTINUOUS
 10
5.4675815164
 20
2.778068179
 11
5.4700172403
 21
2.7746613838
  0
LINE
  5
213
100
AcDbEntity
  8
0
100
AcDbLine
 62
7
  6
CONTINUOUS
 10
5.4765563617
 20
2.7649323084
 11
5.4787841596
 21
2.7614012741
  0
LINE
  5
214
100
AcDbEntity
  8
0
100
AcDbLine
 62
7
  6
CONTINUOUS
 10
4.9633587214
 20
2.6154176532
 11
4.9633587214
 21
2.615977689
  0
LINE
  5
215
100
AcDbEntity
  8
0
100
AcDbLine
 62
7
  6
CONTINUOUS
 10
4.9634130666
 20
2.6118740242
 11
4.9634130666
 21
2.6113139884
  0
LINE
  5
216
100
AcDbEntity
  8
0
100
AcDbLine
 62
7
  6
CONTINUOUS
 10
4.9639102697
 20
2.5995875766
 11
4.9639102697
 21
2.6001476124
  0
LINE
  5
217
100
AcDbEntity
  8
0
100
AcDbLine
 62
7
  6
CONTINUOUS
 10
4.9642034979
 20
2.5960538446
 11
4.9642034979
 21
2.5954938088
  0
LINE
  5
218
100
AcDbEntity
  8
0
100
AcDbLine
 62
7
  6
CONTINUOUS
 10
4.9653827534
 20
2.5838151332
 11
4.9653827534
 21
2.584375169
  0
LINE
  5
219
100
AcDbEntity
  8
0
100
AcDbLine
 62
7
  6
CONTINUOUS
 10
4.9659138922
 20
2.5803048746
 11
4.9659138922
 21
2.5797448388
  0
LINE
  5
21A
100
AcDbEntity
  8
0
100
AcDbLine
 62
7
  6
CONTINUOUS
 10
4.967771289
 20
2.5681526302
 11
4.967771289
 21
2.568712666
  0
LINE
  5
21B
100
AcDbEntity
  8
0
100
AcDbLine
 62
7
  6
CONTINUOUS
 10
4.9685385769
 20
2.5646793436
 11
4.9685385769
 21
2.5641193078
  0
LINE
  5
21C
100
AcDbEntity
  8
0
100
AcDbLine
 62
7
  6
CONTINUOUS
 10
4.9710679554
 20
2.5526520103
 11
4.9710679554
 21
2.5532120461
  0
LINE
  5
21D
100
AcDbEntity
  8
0
100
AcDbLine
 62
7
  6
CONTINUOUS
 10
4.9720688478
 20
2.5492290716
 11
4.9720688478
 21
2.5486690358
  0
LINE
  5
21E
100
AcDbEntity
  8
0
100
AcDbLine
 62
7
  6
CONTINUOUS
 10
4.9752618196
 20
2.5373646791
 11
4.9752618196
 21
2.5379247149
  0
LINE
  5
21F
100
AcDbEntity
  8
0
100
AcDbLine
 62
7
  6
CONTINUOUS
 10
4.9764929972
 20
2.5340052974
 11
4.9764929972
 21
2.5334452616
  0
LINE
  5
220
100
AcDbEntity
  8
0
100
AcDbLine
 62
7
  6
CONTINUOUS
 10
4.9803389732
 20
2.522341335
 11
4.9803389732
 21
2.5229013708
  0
LINE
  5
221
100
AcDbEntity
  8
0
100
AcDbLine
 62
7
  6
CONTINUOUS
 10
4.9817963529
 20
2.5190585085
 11
4.9817963529
 21
2.5184984727
  0
LINE
  5
222
100
AcDbEntity
  8
0
100
AcDbLine
 62
7
  6
CONTINUOUS
 10
4.9862825785
 20
2.507631801
 11
4.9862825785
 21
2.5081918368
  0
LINE
  5
223
100
AcDbEntity
  8
0
100
AcDbLine
 62
7
  6
CONTINUOUS
 10
4.9879613271
 20
2.5044382741
 11
4.9879613271
 21
2.5038782383
  0
LINE
  5
224
100
AcDbEntity
  8
0
100
AcDbLine
 62
7
  6
CONTINUOUS
 10
4.9930729243
 20
2.4932848593
 11
4.9930729243
 21
2.4938448951
  0
LINE
  5
225
100
AcDbEntity
  8
0
100
AcDbLine
 62
7
  6
CONTINUOUS
 10
4.9949674745
 20
2.4901930801
 11
4.9949674745
 21
2.4896330443
  0
LINE
  5
226
100
AcDbEntity
  8
0
100
AcDbLine
 62
7
  6
CONTINUOUS
 10
5.0006874913
 20
2.4793480896
 11
5.0006874913
 21
2.4799081254
  0
LINE
  5
227
100
AcDbEntity
  8
0
100
AcDbLine
 62
7
  6
CONTINUOUS
 10
5.0027915601
 20
2.4763701689
 11
5.0027915601
 21
2.4758101331
  0
LINE
  5
228
100
AcDbEntity
  8
0
100
AcDbLine
 62
7
  6
CONTINUOUS
 10
5.0091010269
 20
2.4658677114
 11
5.0091010269
 21
2.4664277472
  0
LINE
  5
229
100
AcDbEntity
  8
0
100
AcDbLine
 62
7
  6
CONTINUOUS
 10
5.0114076363
 20
2.4630153823
 11
5.0114076363
 21
2.4624553465
  0
LINE
  5
22A
100
AcDbEntity
  8
0
100
AcDbLine
 62
7
  6
CONTINUOUS
 10
5.0501490643
 20
2.4179384883
 11
5.0501051047
 21
2.4275209702
  0
LINE
  5
22B
100
AcDbEntity
  8
0
100
AcDbLine
 62
7
  6
CONTINUOUS
 10
5.0182856286
 20
2.4528884304
 11
5.0182856286
 21
2.4534484662
  0
LINE
  5
22C
100
AcDbEntity
  8
0
100
AcDbLine
 62
7
  6
CONTINUOUS
 10
5.0207871292
 20
2.4501730096
 11
5.0207871292
 21
2.4496129738
  0
LINE
  5
22D
100
AcDbEntity
  8
0
100
AcDbLine
 62
7
  6
CONTINUOUS
 10
5.028210837
 20
2.4404532909
 11
5.028210837
 21
2.4410133267
  0
LINE
  5
22E
100
AcDbEntity
  8
0
100
AcDbLine
 62
7
  6
CONTINUOUS
 10
5.0308989328
 20
2.437885641
 11
5.0308989328
 21
2.4373256052
  0
LINE
  5
22F
100
AcDbEntity
  8
0
100
AcDbLine
 62
7
  6
CONTINUOUS
 10
5.0388437364
 20
2.4286035322
 11
5.0388437364
 21
2.429163568
  0
LINE
  5
230
100
AcDbEntity
  8
0
100
AcDbLine
 62
7
  6
CONTINUOUS
 10
5.0417095128
 20
2.4261940258
 11
5.0417095128
 21
2.42563399
  0
LINE
  5
231
100
AcDbEntity
  8
0
100
AcDbLine
 62
7
  6
CONTINUOUS
 10
5.0501490643
 20
2.4173784525
 11
5.0501490643
 21
2.4179384883
  0
LINE
  5
232
100
AcDbEntity
  8
0
100
AcDbLine
 62
7
  6
CONTINUOUS
 10
5.0531830172
 20
2.4151369376
 11
5.0531830172
 21
2.4145769018
  0
LINE
  5
233
100
AcDbEntity
  8
0
100
AcDbLine
 62
7
  6
CONTINUOUS
 10
5.062089328
 20
2.4068152783
 11
5.062089328
 21
2.4073753141
  0
LINE
  5
234
100
AcDbEntity
  8
0
100
AcDbLine
 62
7
  6
CONTINUOUS
 10
5.0652813958
 20
2.404751046
 11
5.0652813958
 21
2.4041910102
  0
LINE
  5
235
100
AcDbEntity
  8
0
100
AcDbLine
 62
7
  6
CONTINUOUS
 10
5.0706042495
 20
5.2327831576
 11
5.0706344222
 21
2.7837212416
  0
LINE
  5
236
100
AcDbEntity
  8
0
100
AcDbLine
 62
7
  6
CONTINUOUS
 10
5.0746249292
 20
2.3969490409
 11
5.0746249292
 21
2.3975090768
  0
LINE
  5
237
100
AcDbEntity
  8
0
100
AcDbLine
 62
7
  6
CONTINUOUS
 10
5.0779645258
 20
2.3950707942
 11
5.0779645258
 21
2.3945107584
  0
LINE
  5
238
100
AcDbEntity
  8
0
100
AcDbLine
 62
7
  6
CONTINUOUS
 10
5.0877142953
 20
2.3878124605
 11
5.0877142953
 21
2.3883724963
  0
LINE
  5
239
100
AcDbEntity
  8
0
100
AcDbLine
 62
7
  6
CONTINUOUS
 10
5.0911903453
 20
2.3861282855
 11
5.0911903453
 21
2.3855682497
  0
LINE
  5
23A
100
AcDbEntity
  8
0
100
AcDbLine
 62
7
  6
CONTINUOUS
 10
5.1013140172
 20
2.3794358372
 11
5.1013140172
 21
2.379995873
  0
LINE
  5
23B
100
AcDbEntity
  8
0
100
AcDbLine
 62
7
  6
CONTINUOUS
 10
5.1049149928
 20
2.3779531767
 11
5.1049149928
 21
2.3773931409
  0
LINE
  5
23C
100
AcDbEntity
  8
0
100
AcDbLine
 62
7
  6
CONTINUOUS
 10
5.1153789931
 20
2.3718469511
 11
5.1153789931
 21
2.3724069869
  0
LINE
  5
23D
100
AcDbEntity
  8
0
100
AcDbLine
 62
7
  6
CONTINUOUS
 10
5.1190929522
 20
2.3705725793
 11
5.1190929522
 21
2.3700125435
  0
LINE
  5
23E
100
AcDbEntity
  8
0
100
AcDbLine
 62
7
  6
CONTINUOUS
 10
5.1298625784
 20
2.3650709695
 11
5.1298625784
 21
2.3656310054
  0
LINE
  5
23F
100
AcDbEntity
  8
0
100
AcDbLine
 62
7
  6
CONTINUOUS
 10
5.0449309195
 20
2.8121593189
 11
5.044929264
 21
2.8120911273
  0
LINE
  5
240
100
AcDbEntity
  8
0
100
AcDbLine
 62
7
  6
CONTINUOUS
 10
5.033930623
 20
2.800645326
 11
5.0339250688
 21
2.8005773603
  0
LINE
  5
241
100
AcDbEntity
  8
0
100
AcDbLine
 62
7
  6
CONTINUOUS
 10
6.2031759323
 20
5.0755618623
 11
6.2090664404
 21
5.0798417106
  0
LINE
  5
242
100
AcDbEntity
  8
0
100
AcDbLine
 62
7
  6
CONTINUOUS
 10
5.1336772041
 20
2.3640109701
 11
5.1336772041
 21
2.3634509343
  0
LINE
  5
243
100
AcDbEntity
  8
0
100
AcDbLine
 62
7
  6
CONTINUOUS
 10
5.1447167404
 20
2.3591303643
 11
5.1447167404
 21
2.3596904001
  0
LINE
  5
244
100
AcDbEntity
  8
0
100
AcDbLine
 62
7
  6
CONTINUOUS
 10
5.148619382
 20
2.3582901098
 11
5.148619382
 21
2.357730074
  0
LINE
  5
245
100
AcDbEntity
  8
0
100
AcDbLine
 62
7
  6
CONTINUOUS
 10
5.1561198664
 20
2.363302546
 11
5.1561198664
 21
2.3607343038
  0
LINE
  5
246
100
AcDbEntity
  8
0
100
AcDbLine
 62
7
  6
CONTINUOUS
 10
5.159892217
 20
2.3540448366
 11
5.159892217
 21
2.3546048724
  0
LINE
  5
247
100
AcDbEntity
  8
0
100
AcDbLine
 62
7
  6
CONTINUOUS
 10
5.163869932
 20
2.3534289709
 11
5.163869932
 21
2.3528689351
  0
LINE
  5
248
100
AcDbEntity
  8
0
100
AcDbLine
 62
7
  6
CONTINUOUS
 10
5.1711408275
 20
2.3588620141
 11
5.1711408275
 21
2.3562937719
  0
LINE
  5
249
100
AcDbEntity
  8
0
100
AcDbLine
 62
7
  6
CONTINUOUS
 10
5.175338681
 20
2.3498312519
 11
5.175338681
 21
2.3503912877
  0
LINE
  5
24A
100
AcDbEntity
  8
0
100
AcDbLine
 62
7
  6
CONTINUOUS
 10
5.1793782777
 20
2.3494436748
 11
5.1793782777
 21
2.348883639
  0
LINE
  5
24B
100
AcDbEntity
  8
0
100
AcDbLine
 62
7
  6
CONTINUOUS
 10
5.1863954714
 20
2.3552835634
 11
5.1863954714
 21
2.3527153213
  0
LINE
  5
24C
100
AcDbEntity
  8
0
100
AcDbLine
 62
7
  6
CONTINUOUS
 10
5.1910049061
 20
2.3465035839
 11
5.1910049061
 21
2.3470636197
  0
LINE
  5
24D
100
AcDbEntity
  8
0
100
AcDbLine
 62
7
  6
CONTINUOUS
 10
5.1950929877
 20
2.346347438
 11
5.1950929877
 21
2.3457874022
  0
LINE
  5
24E
100
AcDbEntity
  8
0
100
AcDbLine
 62
7
  6
CONTINUOUS
 10
5.201833208
 20
2.3525790615
 11
5.201833208
 21
2.3500108193
  0
LINE
  5
24F
100
AcDbEntity
  8
0
100
AcDbLine
 62
7
  6
CONTINUOUS
 10
5.2068389374
 20
2.3440728685
 11
5.2068389374
 21
2.3446329043
  0
LINE
  5
250
100
AcDbEntity
  8
0
100
AcDbLine
 62
7
  6
CONTINUOUS
 10
5.2109619464
 20
2.3441505289
 11
5.2109619464
 21
2.3435904931
  0
LINE
  5
251
100
AcDbEntity
  8
0
100
AcDbLine
 62
7
  6
CONTINUOUS
 10
5.2174028402
 20
2.3507574774
 11
5.2174028402
 21
2.3481892352
  0
LINE
  5
252
100
AcDbEntity
  8
0
100
AcDbLine
 62
7
  6
CONTINUOUS
 10
5.2227882634
 20
2.3425471668
 11
5.2227882634
 21
2.3431072026
  0
LINE
  5
253
100
AcDbEntity
  8
0
100
AcDbLine
 62
7
  6
CONTINUOUS
 10
5.2269325264
 20
2.3428602333
 11
5.2269325264
 21
2.342498579
  0
LINE
  5
254
100
AcDbEntity
  8
0
100
AcDbLine
 62
7
  6
CONTINUOUS
 10
5.2330527334
 20
2.3498248522
 11
5.2330527334
 21
2.34725661
  0
LINE
  5
255
100
AcDbEntity
  8
0
100
AcDbLine
 62
7
  6
CONTINUOUS
 10
5.2387999903
 20
2.3419315386
 11
5.2387999903
 21
2.3424915744
  0
LINE
  5
256
100
AcDbEntity
  8
0
100
AcDbLine
 62
7
  6
CONTINUOUS
 10
5.2429517634
 20
2.3424808301
 11
5.2429517634
 21
2.3419207943
  0
LINE
  5
257
100
AcDbEntity
  8
0
100
AcDbLine
 62
7
  6
CONTINUOUS
 10
5.2487309867
 20
2.3497842788
 11
5.2487309867
 21
2.3472160366
  0
LINE
  5
258
100
AcDbEntity
  8
0
100
AcDbLine
 62
7
  6
CONTINUOUS
 10
5.0236181148
 20
2.7885239104
 11
5.0236096142
 21
2.788456528
  0
LINE
  5
259
100
AcDbEntity
  8
0
100
AcDbLine
 62
7
  6
CONTINUOUS
 10
5.0140276247
 20
2.775835117
 11
5.0140171099
 21
2.7757688274
  0
LINE
  5
25A
100
AcDbEntity
  8
0
100
AcDbLine
 62
7
  6
CONTINUOUS
 10
5.0051910075
 20
2.7626208708
 11
5.0051793682
 21
2.7625563356
  0
LINE
  5
25B
100
AcDbEntity
  8
0
100
AcDbLine
 62
7
  6
CONTINUOUS
 10
4.9971376599
 20
2.7489248779
 11
4.9971256984
 21
2.7488628702
  0
LINE
  5
25C
100
AcDbEntity
  8
0
100
AcDbLine
 62
7
  6
CONTINUOUS
 10
5.2548210174
 20
2.3422280255
 11
5.2548210174
 21
2.3427880613
  0
LINE
  5
25D
100
AcDbEntity
  8
0
100
AcDbLine
 62
7
  6
CONTINUOUS
 10
5.2589665317
 20
2.3430135777
 11
5.2589665317
 21
2.3424535419
  0
LINE
  5
25E
100
AcDbEntity
  8
0
100
AcDbLine
 62
7
  6
CONTINUOUS
 10
5.2643856054
 20
2.3506358918
 11
5.2643856054
 21
2.3480676496
  0
LINE
  5
25F
100
AcDbEntity
  8
0
100
AcDbLine
 62
7
  6
CONTINUOUS
 10
5.270798213
 20
2.3434356442
 11
5.270798213
 21
2.3438472944
  0
LINE
  5
260
100
AcDbEntity
  8
0
100
AcDbLine
 62
7
  6
CONTINUOUS
 10
5.2749237206
 20
2.3444567093
 11
5.2749237206
 21
2.3438966735
  0
LINE
  5
261
100
AcDbEntity
  8
0
100
AcDbLine
 62
7
  6
CONTINUOUS
 10
5.2799646729
 20
2.3523768669
 11
5.2799646729
 21
2.3498086247
  0
LINE
  5
262
100
AcDbEntity
  8
0
100
AcDbLine
 62
7
  6
CONTINUOUS
 10
5.286678591
 20
2.3455503899
 11
5.286678591
 21
2.3461104258
  0
LINE
  5
263
100
AcDbEntity
  8
0
100
AcDbLine
 62
7
  6
CONTINUOUS
 10
5.2907704101
 20
2.3468054389
 11
5.2907704101
 21
2.3462454031
  0
LINE
  5
264
100
AcDbEntity
  8
0
100
AcDbLine
 62
7
  6
CONTINUOUS
 10
5.2954165234
 20
2.3550014304
 11
5.2954165234
 21
2.3524331882
  0
LINE
  5
265
100
AcDbEntity
  8
0
100
AcDbLine
 62
7
  6
CONTINUOUS
 10
5.3024094861
 20
2.3485652493
 11
5.3024094861
 21
2.3491252852
  0
LINE
  5
266
100
AcDbEntity
  8
0
100
AcDbLine
 62
7
  6
CONTINUOUS
 10
5.3064540468
 20
2.3500519773
 11
5.3064540468
 21
2.3494919414
  0
LINE
  5
267
100
AcDbEntity
  8
0
100
AcDbLine
 62
7
  6
CONTINUOUS
 10
5.3106899129
 20
2.3585008782
 11
5.3106899129
 21
2.3559326361
  0
LINE
  5
268
100
AcDbEntity
  8
0
100
AcDbLine
 62
7
  6
CONTINUOUS
 10
5.317938729
 20
2.3524702241
 11
5.317938729
 21
2.3530302599
  0
LINE
  5
269
100
AcDbEntity
  8
0
100
AcDbLine
 62
7
  6
CONTINUOUS
 10
5.321922618
 20
2.3541855577
 11
5.321922618
 21
2.3536255219
  0
LINE
  5
26A
100
AcDbEntity
  8
0
100
AcDbLine
 62
7
  6
CONTINUOUS
 10
5.3257341892
 20
2.362863605
 11
5.3257341892
 21
2.3602953629
  0
LINE
  5
26B
100
AcDbEntity
  8
0
100
AcDbLine
 62
7
  6
CONTINUOUS
 10
5.3332148189
 20
2.3572523638
 11
5.3332148189
 21
2.3578123996
  0
LINE
  5
26C
100
AcDbEntity
  8
0
100
AcDbLine
 62
7
  6
CONTINUOUS
 10
5.3371248243
 20
2.3591924717
 11
5.3371248243
 21
2.3586324359
  0
LINE
  5
26D
100
AcDbEntity
  8
0
100
AcDbLine
 62
7
  6
CONTINUOUS
 10
5.3481870949
 20
2.3628958091
 11
5.3481870949
 21
2.3634558449
  0
LINE
  5
26E
100
AcDbEntity
  8
0
100
AcDbLine
 62
7
  6
CONTINUOUS
 10
5.3520102494
 20
2.3650561145
 11
5.3520102494
 21
2.3644960787
  0
LINE
  5
26F
100
AcDbEntity
  8
0
100
AcDbLine
 62
7
  6
CONTINUOUS
 10
5.3628059032
 20
2.3693818444
 11
5.3628059032
 21
2.3699418802
  0
LINE
  5
270
100
AcDbEntity
  8
0
100
AcDbLine
 62
7
  6
CONTINUOUS
 10
5.366529528
 20
2.3717570402
 11
5.366529528
 21
2.3711970044
  0
LINE
  5
271
100
AcDbEntity
  8
0
100
AcDbLine
 62
7
  6
CONTINUOUS
 10
5.4787942285
 20
2.7613306787
 11
5.4787852536
 21
2.7614054669
  0
LINE
  5
272
100
AcDbEntity
  8
0
100
AcDbLine
 62
7
  6
CONTINUOUS
 10
5.3770227626
 20
2.3766889595
 11
5.3770227626
 21
2.3772489953
  0
LINE
  5
273
100
AcDbEntity
  8
0
100
AcDbLine
 62
7
  6
CONTINUOUS
 10
5.3806345088
 20
2.379273026
 11
5.3806345088
 21
2.3787129902
  0
LINE
  5
274
100
AcDbEntity
  8
0
100
AcDbLine
 62
7
  6
CONTINUOUS
 10
5.3907905247
 20
2.3847929214
 11
5.3907905247
 21
2.3853529572
  0
LINE
  5
275
100
AcDbEntity
  8
0
100
AcDbLine
 62
7
  6
CONTINUOUS
 10
5.3942784145
 20
2.3875791461
 11
5.3942784145
 21
2.3870191103
  0
LINE
  5
276
100
AcDbEntity
  8
0
100
AcDbLine
 62
7
  6
CONTINUOUS
 10
5.4040635306
 20
2.3936668543
 11
5.4040635306
 21
2.3942268901
  0
LINE
  5
277
100
AcDbEntity
  8
0
100
AcDbLine
 62
7
  6
CONTINUOUS
 10
5.4074159968
 20
2.3966478545
 11
5.4074159968
 21
2.3960878186
  0
LINE
  5
278
100
AcDbEntity
  8
0
100
AcDbLine
 62
7
  6
CONTINUOUS
 10
5.4126043755
 20
5.2327831576
 11
5.4125742028
 21
2.7837212416
  0
LINE
  5
279
100
AcDbEntity
  8
0
100
AcDbLine
 62
7
  6
CONTINUOUS
 10
5.4167977622
 20
2.4032813291
 11
5.4167977622
 21
2.4038413649
  0
LINE
  5
27A
100
AcDbEntity
  8
0
100
AcDbLine
 62
7
  6
CONTINUOUS
 10
5.4200036867
 20
2.4064490758
 11
5.4200036867
 21
2.40588904
  0
LINE
  5
27B
100
AcDbEntity
  8
0
100
AcDbLine
 62
7
  6
CONTINUOUS
 10
5.4289509881
 20
2.4136044606
 11
5.4289509881
 21
2.4141644964
  0
LINE
  5
27C
100
AcDbEntity
  8
0
100
AcDbLine
 62
7
  6
CONTINUOUS
 10
5.4319997389
 20
2.4169503058
 11
5.4319997389
 21
2.41639027
  0
LINE
  5
27D
100
AcDbEntity
  8
0
100
AcDbLine
 62
7
  6
CONTINUOUS
 10
5.4404829036
 20
2.4246020135
 11
5.4404829036
 21
2.4251620493
  0
LINE
  5
27E
100
AcDbEntity
  8
0
100
AcDbLine
 62
7
  6
CONTINUOUS
 10
5.4433643701
 20
2.4281167184
 11
5.4433643701
 21
2.4275566826
  0
LINE
  5
27F
100
AcDbEntity
  8
0
100
AcDbLine
 62
7
  6
CONTINUOUS
 10
5.4513552648
 20
2.436237516
 11
5.4513552648
 21
2.4367975518
  0
LINE
  5
280
100
AcDbEntity
  8
0
100
AcDbLine
 62
7
  6
CONTINUOUS
 10
5.4540598909
 20
2.4399112818
 11
5.4540598909
 21
2.439351246
  0
LINE
  5
281
100
AcDbEntity
  8
0
100
AcDbLine
 62
7
  6
CONTINUOUS
 10
5.461532015
 20
2.4484723803
 11
5.461532015
 21
2.4490324161
  0
LINE
  5
282
100
AcDbEntity
  8
0
100
AcDbLine
 62
7
  6
CONTINUOUS
 10
5.4640508311
 20
2.4522948808
 11
5.4640508311
 21
2.451734845
  0
LINE
  5
283
100
AcDbEntity
  8
0
100
AcDbLine
 62
7
  6
CONTINUOUS
 10
5.4709794042
 20
2.4612660313
 11
5.4709794042
 21
2.4618260671
  0
LINE
  5
284
100
AcDbEntity
  8
0
100
AcDbLine
 62
7
  6
CONTINUOUS
 10
5.473304057
 20
2.4652264469
 11
5.473304057
 21
2.4646664111
  0
LINE
  5
285
100
AcDbEntity
  8
0
100
AcDbLine
 62
7
  6
CONTINUOUS
 10
5.4796661014
 20
2.4745760405
 11
5.4796661014
 21
2.4751360763
  0
LINE
  5
286
100
AcDbEntity
  8
0
100
AcDbLine
 62
7
  6
CONTINUOUS
 10
5.4817888816
 20
2.4786630943
 11
5.4817888816
 21
2.4781030585
  0
LINE
  5
287
100
AcDbEntity
  8
0
100
AcDbLine
 62
7
  6
CONTINUOUS
 10
4.9820073413
 20
2.6988263284
 11
4.9822227938
 21
2.6995150154
  0
LINE
  5
288
100
AcDbEntity
  8
0
100
AcDbLine
 62
7
  6
CONTINUOUS
 10
6.1812410533
 20
5.3899615121
 11
6.1770842463
 21
5.3827614458
  0
LINE
  5
289
100
AcDbEntity
  8
0
100
AcDbLine
 62
7
  6
CONTINUOUS
 10
5.4875632985
 20
2.4883582669
 11
5.4875632985
 21
2.4889183028
  0
LINE
  5
28A
100
AcDbEntity
  8
0
100
AcDbLine
 62
7
  6
CONTINUOUS
 10
5.489477166
 20
2.4925602621
 11
5.489477166
 21
2.4920002263
  0
LINE
  5
28B
100
AcDbEntity
  8
0
100
AcDbLine
 62
7
  6
CONTINUOUS
 10
5.4946448053
 20
2.5025670038
 11
5.4946448053
 21
2.5031270396
  0
LINE
  5
28C
100
AcDbEntity
  8
0
100
AcDbLine
 62
7
  6
CONTINUOUS
 10
5.4963434132
 20
2.5068718622
 11
5.4963434132
 21
2.5063118264
  0
LINE
  5
28D
100
AcDbEntity
  8
0
100
AcDbLine
 62
7
  6
CONTINUOUS
 10
5.5008871371
 20
2.5171551297
 11
5.5008871371
 21
2.5177151655
  0
LINE
  5
28E
100
AcDbEntity
  8
0
100
AcDbLine
 62
7
  6
CONTINUOUS
 10
5.5023648521
 20
2.5215504321
 11
5.5023648521
 21
2.5209903963
  0
LINE
  5
28F
100
AcDbEntity
  8
0
100
AcDbLine
 62
7
  6
CONTINUOUS
 10
5.5062695919
 20
2.532074265
 11
5.5062695919
 21
2.5326343008
  0
LINE
  5
290
100
AcDbEntity
  8
0
100
AcDbLine
 62
7
  6
CONTINUOUS
 10
5.5075215134
 20
2.5365472923
 11
5.5075215134
 21
2.5359872565
  0
LINE
  5
291
100
AcDbEntity
  8
0
100
AcDbLine
 62
7
  6
CONTINUOUS
 10
5.5107743196
 20
2.5472749324
 11
5.5107743196
 21
2.5478349682
  0
LINE
  5
292
100
AcDbEntity
  8
0
100
AcDbLine
 62
7
  6
CONTINUOUS
 10
5.5117962957
 20
2.5518127077
 11
5.5117962957
 21
2.5512526719
  0
LINE
  5
293
100
AcDbEntity
  8
0
100
AcDbLine
 62
7
  6
CONTINUOUS
 10
5.5143863808
 20
2.5627067209
 11
5.5143863808
 21
2.5632667567
  0
LINE
  5
294
100
AcDbEntity
  8
0
100
AcDbLine
 62
7
  6
CONTINUOUS
 10
5.5151750223
 20
2.5672960526
 11
5.5151750223
 21
2.5667360168
  0
LINE
  5
295
100
AcDbEntity
  8
0
100
AcDbLine
 62
7
  6
CONTINUOUS
 10
5.5170937967
 20
2.5783184531
 11
5.5170937967
 21
2.5788784889
  0
LINE
  5
296
100
AcDbEntity
  8
0
100
AcDbLine
 62
7
  6
CONTINUOUS
 10
5.5176464881
 20
2.5829459785
 11
5.5176464881
 21
2.5823859427
  0
LINE
  5
297
100
AcDbEntity
  8
0
100
AcDbLine
 62
7
  6
CONTINUOUS
 10
5.5188875883
 20
2.5940583547
 11
5.5188875883
 21
2.5946183905
  0
LINE
  5
298
100
AcDbEntity
  8
0
100
AcDbLine
 62
7
  6
CONTINUOUS
 10
5.5192024968
 20
2.5987105845
 11
5.5192024968
 21
2.5981505487
  0
LINE
  5
299
100
AcDbEntity
  8
0
100
AcDbLine
 62
7
  6
CONTINUOUS
 10
5.5197618069
 20
2.6098742264
 11
5.5197618069
 21
2.6104342622
  0
LINE
  5
29A
100
AcDbEntity
  8
0
100
AcDbLine
 62
7
  6
CONTINUOUS
 10
5.5198378882
 20
2.6145375894
 11
5.5198378882
 21
2.6139775536
  0
LINE
  5
29B
100
AcDbEntity
  8
0
100
AcDbLine
 62
7
  6
CONTINUOUS
 10
6.0010658237
 20
5.3899586365
 11
5.9868848281
 21
5.3463116493
  0
LINE
  5
29C
100
AcDbEntity
  8
0
100
AcDbLine
 62
7
  6
CONTINUOUS
 10
6.1770890346
 20
5.0827614459
 11
6.172945497
 21
5.0755843638
  0
LINE
  5
29D
100
AcDbEntity
  8
0
100
AcDbLine
 62
7
  6
CONTINUOUS
 10
5.6760828513
 20
4.9970292497
 11
5.6760828513
 21
5.4685459761
  0
LINE
  5
29E
100
AcDbEntity
  8
0
100
AcDbLine
 62
7
  6
CONTINUOUS
 10
5.680656533
 20
4.9813501129
 11
5.680656533
 21
5.4842251129
  0
LINE
  5
29F
100
AcDbEntity
  8
0
100
AcDbLine
 62
7
  6
CONTINUOUS
 10
4.9971357647
 20
2.7489308469
 11
4.9991692168
 21
2.7525645383
  0
LINE
  5
2A0
100
AcDbEntity
  8
0
100
AcDbLine
 62
7
  6
CONTINUOUS
 10
5.7318715259
 20
4.9811090415
 11
5.7318715259
 21
5.4844661843
  0
LINE
  5
2A1
100
AcDbEntity
  8
0
100
AcDbLine
 62
7
  6
CONTINUOUS
 10
5.7460154922
 20
5.4742877331
 11
5.7460154922
 21
4.9912902956
  0
LINE
  5
2A2
100
AcDbEntity
  8
0
100
AcDbLine
 62
7
  6
CONTINUOUS
 10
5.7912740817
 20
5.465229901
 11
5.7912740817
 21
5.0003453248
  0
LINE
  5
2A3
100
AcDbEntity
  8
0
100
AcDbLine
 62
7
  6
CONTINUOUS
 10
6.2148887952
 20
5.0977620492
 11
6.2090664404
 21
5.0798417106
  0
LINE
  5
2A4
100
AcDbEntity
  8
0
100
AcDbLine
 62
7
  6
CONTINUOUS
 10
5.0051894049
 20
2.7626271524
 11
5.0074363691
 21
2.7661473804
  0
LINE
  5
2A5
100
AcDbEntity
  8
0
100
AcDbLine
 62
7
  6
CONTINUOUS
 10
5.0140263569
 20
2.775841628
 11
5.0164806534
 21
2.7792365451
  0
LINE
  5
2A6
100
AcDbEntity
  8
0
100
AcDbLine
 62
7
  6
CONTINUOUS
 10
5.9365912585
 20
5.0602567924
 11
5.9365912585
 21
5.4053184334
  0
LINE
  5
2A7
100
AcDbEntity
  8
0
100
AcDbLine
 62
7
  6
CONTINUOUS
 10
5.9403043125
 20
5.0658038527
 11
5.9403043125
 21
5.3997713629
  0
LINE
  5
2A8
100
AcDbEntity
  8
0
100
AcDbLine
 62
7
  6
CONTINUOUS
 10
5.02361721
 20
2.7885305731
 11
5.0262718756
 21
2.7917884776
  0
LINE
  5
2A9
100
AcDbEntity
  8
0
100
AcDbLine
 62
7
  6
CONTINUOUS
 10
5.0339300974
 20
2.8006520704
 11
5.0367774838
 21
2.8037616008
  0
LINE
  5
2AA
100
AcDbEntity
  8
0
100
AcDbLine
 62
7
  6
CONTINUOUS
 10
5.9868848281
 20
5.3463116493
 11
5.9868837121
 21
5.2867411599
  0
LINE
  5
2AB
100
AcDbEntity
  8
0
100
AcDbLine
 62
7
  6
CONTINUOUS
 10
5.9868854359
 20
5.1787367805
 11
5.9868884529
 21
5.119205171
  0
LINE
  5
2AC
100
AcDbEntity
  8
0
100
AcDbLine
 62
7
  6
CONTINUOUS
 10
6.0010658237
 20
5.3899586365
 11
6.0010642782
 21
5.3074390058
  0
LINE
  5
2AD
100
AcDbEntity
  8
0
100
AcDbLine
 62
7
  6
CONTINUOUS
 10
6.0010666631
 20
5.1580393869
 11
6.0010708419
 21
5.0755586366
  0
LINE
  5
2AE
100
AcDbEntity
  8
0
100
AcDbLine
 62
7
  6
CONTINUOUS
 10
6.024083983
 20
5.3992590038
 11
6.0240822926
 21
5.3275831495
  0
LINE
  5
2AF
100
AcDbEntity
  8
0
100
AcDbLine
 62
7
  6
CONTINUOUS
 10
6.0240853206
 20
5.1378959781
 11
6.024089298
 21
5.066259004
  0
LINE
  5
2B0
100
AcDbEntity
  8
0
100
AcDbLine
 62
7
  6
CONTINUOUS
 10
5.0449307794
 20
2.8121660828
 11
5.0479624985
 21
2.8151161944
  0
LINE
  5
2B1
100
AcDbEntity
  8
0
100
AcDbLine
 62
7
  6
CONTINUOUS
 10
6.1500822926
 20
5.3275621426
 11
6.150083983
 21
5.3992610149
  0
LINE
  5
2B2
100
AcDbEntity
  8
0
100
AcDbLine
 62
7
  6
CONTINUOUS
 10
6.150089298
 20
5.066261015
 11
6.1500853199
 21
5.1379210076
  0
LINE
  5
2B3
100
AcDbEntity
  8
0
100
AcDbLine
 62
7
  6
CONTINUOUS
 10
6.1729413229
 20
5.1579061145
 11
6.172945497
 21
5.0755843638
  0
LINE
  5
2B4
100
AcDbEntity
  8
0
100
AcDbLine
 62
7
  6
CONTINUOUS
 10
6.1770827802
 20
5.3023583054
 11
6.1770842463
 21
5.3827614458
  0
LINE
  5
2B5
100
AcDbEntity
  8
0
100
AcDbLine
 62
7
  6
CONTINUOUS
 10
6.1770890346
 20
5.0827614459
 11
6.1770850029
 21
5.1631257068
  0
LINE
  5
2B6
100
AcDbEntity
  8
0
100
AcDbLine
 62
7
  6
CONTINUOUS
 10
6.1812416104
 20
5.1688027999
 11
6.1812460715
 21
5.0755615123
  0
LINE
  5
2B7
100
AcDbEntity
  8
0
100
AcDbLine
 62
7
  6
CONTINUOUS
 10
6.1729404796
 20
5.3899383957
 11
6.1729389336
 21
5.3075777654
  0
LINE
  5
2B8
100
AcDbEntity
  8
0
100
AcDbLine
 62
7
  6
CONTINUOUS
 10
6.1812410533
 20
5.3899615121
 11
6.1812395691
 21
5.296681345
  0
LINE
  5
2B9
100
AcDbEntity
  8
0
100
AcDbLine
 62
7
  6
CONTINUOUS
 10
6.2301525201
 20
5.1037622928
 11
6.2301484023
 21
5.3617622928
  0
LINE
  5
2BA
100
AcDbEntity
  8
0
100
AcDbLine
 62
7
  6
CONTINUOUS
 10
6.2500456585
 20
5.3474788791
 11
6.2500493204
 21
5.1180463416
  0
LINE
  5
2BB
100
AcDbEntity
  8
0
100
AcDbLine
 62
7
  6
CONTINUOUS
 10
6.2031759323
 20
5.0755618623
 11
6.2031709141
 21
5.3899618622
  0
LINE
  5
2BC
100
AcDbEntity
  8
0
100
AcDbLine
 62
7
  6
CONTINUOUS
 10
6.2090664404
 20
5.0798417106
 11
6.2090615589
 21
5.3856822019
  0
LINE
  5
2BD
100
AcDbEntity
  8
0
100
AcDbLine
 62
7
  6
CONTINUOUS
 10
6.2148887952
 20
5.0977620492
 11
6.2148844857
 21
5.3677620491
  0
LINE
  5
2BE
100
AcDbEntity
  8
0
100
AcDbLine
 62
7
  6
CONTINUOUS
 10
5.4738618279
 20
2.4790383156
 11
5.4734837481
 21
2.4784263498
  0
LINE
  5
2BF
100
AcDbEntity
  8
0
100
AcDbLine
 62
7
  6
CONTINUOUS
 10
6.0010708419
 20
5.0755586366
 11
5.9868884529
 21
5.119205171
  0
LINE
  5
2C0
100
AcDbEntity
  8
0
100
AcDbLine
 62
7
  6
CONTINUOUS
 10
5.159857506
 20
2.3540149046
 11
5.159892217
 21
2.3540448366
  0
LINE
  5
2C1
100
AcDbEntity
  8
0
100
AcDbLine
 62
7
  6
CONTINUOUS
 10
5.3178713464
 20
2.3524104081
 11
5.317938729
 21
2.3524702241
  0
LINE
  5
2C2
100
AcDbEntity
  8
0
100
AcDbLine
 62
7
  6
CONTINUOUS
 10
5.4206569739
 20
2.4165330274
 11
5.420112759
 21
2.4160601514
  0
LINE
  5
2C3
100
AcDbEntity
  8
0
100
AcDbLine
 62
7
  6
CONTINUOUS
 10
5.3023428611
 20
2.3485088418
 11
5.3024094861
 21
2.3485652493
  0
LINE
  5
2C4
100
AcDbEntity
  8
0
100
AcDbLine
 62
7
  6
CONTINUOUS
 10
5.2866134107
 20
2.3454975022
 11
5.286678591
 21
2.3455503899
  0
LINE
  5
2C5
100
AcDbEntity
  8
0
100
AcDbLine
 62
7
  6
CONTINUOUS
 10
5.1752990084
 20
2.3497994825
 11
5.175338681
 21
2.3498312519
  0
LINE
  5
2C6
100
AcDbEntity
  8
0
100
AcDbLine
 62
7
  6
CONTINUOUS
 10
5.2707351389
 20
2.3433862988
 11
5.270798213
 21
2.3434356442
  0
LINE
  5
2C7
100
AcDbEntity
  8
0
100
AcDbLine
 62
7
  6
CONTINUOUS
 10
5.1909604257
 20
2.3464696102
 11
5.1910049061
 21
2.3465035839
  0
LINE
  5
2C8
100
AcDbEntity
  8
0
100
AcDbLine
 62
7
  6
CONTINUOUS
 10
5.2547606701
 20
2.3421821606
 11
5.2548210174
 21
2.3422280255
  0
LINE
  5
2C9
100
AcDbEntity
  8
0
100
AcDbLine
 62
7
  6
CONTINUOUS
 10
5.2387429368
 20
2.3418890149
 11
5.2387999903
 21
2.3419315386
  0
LINE
  5
2CA
100
AcDbEntity
  8
0
100
AcDbLine
 62
7
  6
CONTINUOUS
 10
5.2067898979
 20
2.344036343
 11
5.2068389374
 21
2.3440728685
  0
LINE
  5
2CB
100
AcDbEntity
  8
0
100
AcDbLine
 62
7
  6
CONTINUOUS
 10
5.2227350046
 20
2.3425077757
 11
5.2227882634
 21
2.3425471668
  0
LINE
  5
2CC
100
AcDbEntity
  8
0
100
AcDbLine
 62
7
  6
CONTINUOUS
 10
5.6760828513
 20
4.9970292497
 11
5.4126043755
 21
4.9947299078
  0
LINE
  5
2CD
100
AcDbEntity
  8
0
100
AcDbLine
 62
7
  6
CONTINUOUS
 10
6.2148844857
 20
5.3677620491
 11
6.2090615589
 21
5.3856822019
  0
LINE
  5
2CE
100
AcDbEntity
  8
0
100
AcDbLine
 62
7
  6
CONTINUOUS
 10
6.150089298
 20
5.066261015
 11
6.024089298
 21
5.066259004
  0
LINE
  5
2CF
100
AcDbEntity
  8
0
100
AcDbLine
 62
7
  6
CONTINUOUS
 10
6.2031759323
 20
5.0755618623
 11
6.1812460715
 21
5.0755615123
  0
LINE
  5
2D0
100
AcDbEntity
  8
0
100
AcDbLine
 62
7
  6
CONTINUOUS
 10
6.2301525201
 20
5.1037622928
 11
6.2148886994
 21
5.1037620492
  0
LINE
  5
2D1
100
AcDbEntity
  8
0
100
AcDbLine
 62
7
  6
CONTINUOUS
 10
6.1812460715
 20
5.0755615123
 11
6.1770890346
 21
5.0827614459
  0
LINE
  5
2D2
100
AcDbEntity
  8
0
100
AcDbLine
 62
7
  6
CONTINUOUS
 10
5.986888077
 20
5.1427584102
 11
5.9403043125
 21
5.1427576667
  0
LINE
  5
2D3
100
AcDbEntity
  8
0
100
AcDbLine
 62
7
  6
CONTINUOUS
 10
6.024089298
 20
5.066259004
 11
6.0010708419
 21
5.0755586366
  0
LINE
  5
2D4
100
AcDbEntity
  8
0
100
AcDbLine
 62
7
  6
CONTINUOUS
 10
6.1770842463
 20
5.3827614458
 11
6.1729404796
 21
5.3899383957
  0
LINE
  5
2D5
100
AcDbEntity
  8
0
100
AcDbLine
 62
7
  6
CONTINUOUS
 10
5.986885204
 20
5.3227584101
 11
5.9403043125
 21
5.3227576667
  0
LINE
  5
2D6
100
AcDbEntity
  8
0
100
AcDbLine
 62
7
  6
CONTINUOUS
 10
6.2301484023
 20
5.3617622928
 11
6.2148845815
 21
5.3617620491
  0
LINE
  5
2D7
100
AcDbEntity
  8
0
100
AcDbLine
 62
7
  6
CONTINUOUS
 10
6.2031709141
 20
5.3899618622
 11
6.1812410533
 21
5.3899615121
  0
LINE
  5
2D8
100
AcDbEntity
  8
0
100
AcDbLine
 62
7
  6
CONTINUOUS
 10
6.150083983
 20
5.3992610149
 11
6.024083983
 21
5.3992590038
  0
LINE
  5
2D9
100
AcDbEntity
  8
0
100
AcDbLine
 62
7
  6
CONTINUOUS
 10
5.6760828513
 20
5.4685459761
 11
5.3863770475
 21
5.4710742004
  0
LINE
  5
2DA
100
AcDbEntity
  8
0
100
AcDbLine
 62
7
  6
CONTINUOUS
 10
5.7912740817
 20
5.465229901
 11
5.9365912585
 21
5.4053184334
  0
LINE
  5
2DB
100
AcDbEntity
  8
0
100
AcDbLine
 62
7
  6
CONTINUOUS
 10
6.2031709141
 20
5.3899618622
 11
6.2090615589
 21
5.3856822019
  0
LINE
  5
2DC
100
AcDbEntity
  8
0
100
AcDbLine
 62
7
  6
CONTINUOUS
 10
6.1729404796
 20
5.3899383957
 11
6.150083983
 21
5.3992610149
  0
ARC
  5
2DD
100
AcDbEntity
  8
0
100
AcDbCircle
 62
7
  6
CONTINUOUS
 10
3.8703359819
 20
1.9911113333
 40
1.3017700186
100
AcDbArc
 50
17.2146278281
 51
17.3388243929
  0
ARC
  5
2DE
100
AcDbEntity
  8
0
100
AcDbCircle
 62
7
  6
CONTINUOUS
 10
4.1007428757
 20
1.9836233149
 40
1.0973159313
100
AcDbArc
 50
20.5884491287
 51
20.7358953675
  0
ARC
  5
2DF
100
AcDbEntity
  8
0
100
AcDbCircle
 62
7
  6
CONTINUOUS
 10
4.2725495391
 20
1.9768568927
 40
0.9520084953
100
AcDbArc
 50
23.9583379513
 51
24.1284347028
  0
ARC
  5
2E0
100
AcDbEntity
  8
0
100
AcDbCircle
 62
7
  6
CONTINUOUS
 10
3.7453295451
 20
2.3360456773
 40
1.3187162698
100
AcDbArc
 50
3.3396652259
 51
3.4681668903
  0
ARC
  5
2E1
100
AcDbEntity
  8
0
100
AcDbCircle
 62
7
  6
CONTINUOUS
 10
4.3329125033
 20
2.3701649839
 40
0.7301435821
100
AcDbArc
 50
3.1672682163
 51
3.3528777873
  0
ARC
  5
2E2
100
AcDbEntity
  8
0
100
AcDbCircle
 62
7
  6
CONTINUOUS
 10
4.407641567
 20
1.9708381815
 40
0.8439423864
100
AcDbArc
 50
27.3237745371
 51
27.5158367321
  0
ARC
  5
2E3
100
AcDbEntity
  8
0
100
AcDbCircle
 62
7
  6
CONTINUOUS
 10
4.5182612409
 20
1.9655912523
 40
0.7608549232
100
AcDbArc
 50
30.6842923643
 51
30.8975541909
  0
ARC
  5
2E4
100
AcDbEntity
  8
0
100
AcDbCircle
 62
7
  6
CONTINUOUS
 10
4.6117853904
 20
1.9611380353
 40
0.6953484858
100
AcDbArc
 50
34.0394829602
 51
34.2731034501
  0
ARC
  5
2E5
100
AcDbEntity
  8
0
100
AcDbCircle
 62
7
  6
CONTINUOUS
 10
4.6929182905
 20
1.9574979679
 40
0.6426980103
100
AcDbArc
 50
37.3889998533
 51
37.6420686277
  0
ARC
  5
2E6
100
AcDbEntity
  8
0
100
AcDbCircle
 62
7
  6
CONTINUOUS
 10
4.7647972319
 20
1.9546882504
 40
0.5997456648
100
AcDbArc
 50
40.7325614329
 51
41.0041048621
  0
ARC
  5
2E7
100
AcDbEntity
  8
0
100
AcDbCircle
 62
7
  6
CONTINUOUS
 10
4.8295907064
 20
1.9527234076
 40
0.5643031594
100
AcDbArc
 50
44.0699530558
 51
44.3589403252
  0
ARC
  5
2E8
100
AcDbEntity
  8
0
100
AcDbCircle
 62
7
  6
CONTINUOUS
 10
4.8863378586
 20
1.948881766
 40
0.5385155431
100
AcDbArc
 50
47.4017241176
 51
47.570286654
  0
ARC
  5
2E9
100
AcDbEntity
  8
0
100
AcDbCircle
 62
7
  6
CONTINUOUS
 10
4.6258658384
 20
2.1768541209
 40
0.5377712445
100
AcDbArc
 50
50.2845672972
 51
50.4272854338
  0
ARC
  5
2EA
100
AcDbEntity
  8
0
100
AcDbCircle
 62
7
  6
CONTINUOUS
 10
4.8906284772
 20
1.9535757786
 40
0.5321560493
100
AcDbArc
 50
47.5702810837
 51
47.7065751132
  0
ARC
  5
2EB
100
AcDbEntity
  8
0
100
AcDbCircle
 62
7
  6
CONTINUOUS
 10
4.6657801703
 20
2.1613814529
 40
0.5143684042
100
AcDbArc
 50
53.5286512212
 51
53.6906758783
  0
ARC
  5
2EC
100
AcDbEntity
  8
0
100
AcDbCircle
 62
7
  6
CONTINUOUS
 10
4.9412021057
 20
1.9483333292
 40
0.5140380586
100
AcDbArc
 50
50.7264690529
 51
50.8679444111
  0
ARC
  5
2ED
100
AcDbEntity
  8
0
100
AcDbCircle
 62
7
  6
CONTINUOUS
 10
4.9447492164
 20
1.9526951194
 40
0.50841603
100
AcDbArc
 50
50.8677980924
 51
51.0464152358
  0
ARC
  5
2EE
100
AcDbEntity
  8
0
100
AcDbCircle
 62
7
  6
CONTINUOUS
 10
4.7035535821
 20
2.1461062501
 40
0.4943875682
100
AcDbArc
 50
56.7695822641
 51
56.951976668
  0
ARC
  5
2EF
100
AcDbEntity
  8
0
100
AcDbCircle
 62
7
  6
CONTINUOUS
 10
4.7397293381
 20
2.1310858632
 40
0.4773101491
100
AcDbArc
 50
60.0077075112
 51
60.2114452617
  0
ARC
  5
2F0
100
AcDbEntity
  8
0
100
AcDbCircle
 62
7
  6
CONTINUOUS
 10
4.7747382449
 20
2.1163765864
 40
0.4627304945
100
AcDbArc
 50
63.2435137966
 51
63.4693832828
  0
ARC
  5
2F1
100
AcDbEntity
  8
0
100
AcDbCircle
 62
7
  6
CONTINUOUS
 10
4.8089261348
 20
2.1020331222
 40
0.45032931
100
AcDbArc
 50
66.4775225794
 51
66.7261332781
  0
ARC
  5
2F2
100
AcDbEntity
  8
0
100
AcDbCircle
 62
7
  6
CONTINUOUS
 10
4.8425720001
 20
2.0881028853
 40
0.4398602415
100
AcDbArc
 50
69.7102930002
 51
69.9820733868
  0
ARC
  5
2F3
100
AcDbEntity
  8
0
100
AcDbCircle
 62
7
  6
CONTINUOUS
 10
4.8758507068
 20
2.0744477136
 40
0.431321489
100
AcDbArc
 50
73.0659389763
 51
73.2375702749
  0
ARC
  5
2F4
100
AcDbEntity
  8
0
100
AcDbCircle
 62
7
  6
CONTINUOUS
 10
4.909054252
 20
2.0613796769
 40
0.4242767759
100
AcDbArc
 50
76.3187387878
 51
76.4931318058
  0
ARC
  5
2F5
100
AcDbEntity
  8
0
100
AcDbCircle
 62
7
  6
CONTINUOUS
 10
4.9423148243
 20
2.0488492724
 40
0.4187079161
100
AcDbArc
 50
79.5725866205
 51
79.7491958782
  0
ARC
  5
2F6
100
AcDbEntity
  8
0
100
AcDbCircle
 62
7
  6
CONTINUOUS
 10
4.9757660054
 20
2.0368101686
 40
0.4146161803
100
AcDbArc
 50
82.8725852189
 51
83.0062315919
  0
ARC
  5
2F7
100
AcDbEntity
  8
0
100
AcDbCircle
 62
7
  6
CONTINUOUS
 10
4.9759121737
 20
2.037974306
 40
0.4134429026
100
AcDbArc
 50
82.6041455226
 51
82.8726679417
  0
ARC
  5
2F8
100
AcDbEntity
  8
0
100
AcDbCircle
 62
7
  6
CONTINUOUS
 10
4.89980736
 20
2.2936866839
 40
0.2411863604
100
AcDbArc
 50
18.8795298486
 51
19.3624303343
  0
ARC
  5
2F9
100
AcDbEntity
  8
0
100
AcDbCircle
 62
7
  6
CONTINUOUS
 10
4.9495400346
 20
2.2877477079
 40
0.2081807748
100
AcDbArc
 50
21.9828445053
 51
22.5418611125
  0
ARC
  5
2FA
100
AcDbEntity
  8
0
100
AcDbCircle
 62
7
  6
CONTINUOUS
 10
4.9695423575
 20
2.2960291366
 40
0.1865318819
100
AcDbArc
 50
22.5477992327
 51
22.8924222007
  0
ARC
  5
2FB
100
AcDbEntity
  8
0
100
AcDbCircle
 62
7
  6
CONTINUOUS
 10
4.6540502205
 20
2.3673450142
 40
0.8033386892
100
AcDbArc
 50
5.683325359
 51
5.8660271164
  0
ARC
  5
2FC
100
AcDbEntity
  8
0
100
AcDbCircle
 62
7
  6
CONTINUOUS
 10
4.3896125907
 20
2.3261857411
 40
0.688765044
100
AcDbArc
 50
6.401367255
 51
6.6473451209
  0
ARC
  5
2FD
100
AcDbEntity
  8
0
100
AcDbCircle
 62
7
  6
CONTINUOUS
 10
4.9496928874
 20
2.3796719429
 40
0.519528654
100
AcDbArc
 50
8.8119521
 51
9.0920477682
  0
ARC
  5
2FE
100
AcDbEntity
  8
0
100
AcDbCircle
 62
7
  6
CONTINUOUS
 10
4.6265232473
 20
2.3170595865
 40
0.4667452068
100
AcDbArc
 50
9.4637186555
 51
9.8265756977
  0
ARC
  5
2FF
100
AcDbEntity
  8
0
100
AcDbCircle
 62
7
  6
CONTINUOUS
 10
4.6388095376
 20
2.3540794696
 40
0.4380118346
100
AcDbArc
 50
6.194520302
 51
6.4097140048
  0
ARC
  5
300
100
AcDbEntity
  8
0
100
AcDbCircle
 62
7
  6
CONTINUOUS
 10
4.6727517142
 20
2.3250554096
 40
0.4198303457
100
AcDbArc
 50
9.8280956951
 51
9.9813957035
  0
ARC
  5
301
100
AcDbEntity
  8
0
100
AcDbCircle
 62
7
  6
CONTINUOUS
 10
4.7551688283
 20
2.3086978074
 40
0.353508549
100
AcDbArc
 50
12.5270382469
 51
13.0058945233
  0
ARC
  5
302
100
AcDbEntity
  8
0
100
AcDbCircle
 62
7
  6
CONTINUOUS
 10
4.7895002606
 20
2.3166164791
 40
0.3182757166
100
AcDbArc
 50
13.0078387185
 51
13.2100123945
  0
ARC
  5
303
100
AcDbEntity
  8
0
100
AcDbCircle
 62
7
  6
CONTINUOUS
 10
4.794353109
 20
2.3449707217
 40
0.296610297
100
AcDbArc
 50
9.1584545716
 51
9.4760489318
  0
ARC
  5
304
100
AcDbEntity
  8
0
100
AcDbCircle
 62
7
  6
CONTINUOUS
 10
4.8396085029
 20
2.3011283161
 40
0.2849533607
100
AcDbArc
 50
15.5916609038
 51
16.1853519133
  0
ARC
  5
305
100
AcDbEntity
  8
0
100
AcDbCircle
 62
7
  6
CONTINUOUS
 10
4.8483240972
 20
2.3294042693
 40
0.2580797189
100
AcDbArc
 50
12.3351454055
 51
12.5252372714
  0
ARC
  5
306
100
AcDbEntity
  8
0
100
AcDbCircle
 62
7
  6
CONTINUOUS
 10
4.8665904341
 20
2.3089490136
 40
0.2568608742
100
AcDbArc
 50
16.1876651454
 51
16.438110722
  0
ARC
  5
307
100
AcDbEntity
  8
0
100
AcDbCircle
 62
7
  6
CONTINUOUS
 10
4.9158338436
 20
2.2991401829
 40
0.2242574468
100
AcDbArc
 50
18.651657441
 51
18.8861045286
  0
ARC
  5
308
100
AcDbEntity
  8
0
100
AcDbCircle
 62
7
  6
CONTINUOUS
 10
4.9237470167
 20
2.3020787799
 40
0.2158183882
100
AcDbArc
 50
19.3676269543
 51
19.6656021439
  0
ARC
  5
309
100
AcDbEntity
  8
0
100
AcDbCircle
 62
7
  6
CONTINUOUS
 10
4.8406449833
 20
2.644474613
 40
0.1619384565
100
AcDbArc
 50
25.4000256902
 51
25.9556510229
  0
ARC
  5
30A
100
AcDbEntity
  8
0
100
AcDbCircle
 62
7
  6
CONTINUOUS
 10
4.8551325222
 20
2.6295612294
 40
0.1446008887
100
AcDbArc
 50
28.8286618441
 51
29.4520369219
  0
ARC
  5
30B
100
AcDbEntity
  8
0
100
AcDbCircle
 62
7
  6
CONTINUOUS
 10
4.9034545776
 20
2.5552358569
 40
0.0945735066
100
AcDbArc
 50
45.8000226125
 51
46.7658125834
  0
ARC
  5
30C
100
AcDbEntity
  8
0
100
AcDbCircle
 62
7
  6
CONTINUOUS
 10
4.9954633522
 20
1.9527338415
 40
0.4884765968
100
AcDbArc
 50
54.155213375
 51
54.3786655111
  0
ARC
  5
30D
100
AcDbEntity
  8
0
100
AcDbCircle
 62
7
  6
CONTINUOUS
 10
5.043258647
 20
1.9535061058
 40
0.4719389923
100
AcDbArc
 50
57.3559012818
 51
57.7034230456
  0
ARC
  5
30E
100
AcDbEntity
  8
0
100
AcDbCircle
 62
7
  6
CONTINUOUS
 10
5.0888447884
 20
1.955375171
 40
0.4578881335
100
AcDbArc
 50
60.6618161365
 51
61.020520788
  0
ARC
  5
30F
100
AcDbEntity
  8
0
100
AcDbCircle
 62
7
  6
CONTINUOUS
 10
5.132704604
 20
1.9586616217
 40
0.4456120325
100
AcDbArc
 50
63.9614343084
 51
64.330549712
  0
ARC
  5
310
100
AcDbEntity
  8
0
100
AcDbCircle
 62
7
  6
CONTINUOUS
 10
5.174797043
 20
1.9628148193
 40
0.4354517238
100
AcDbArc
 50
67.2552270627
 51
67.6334879635
  0
ARC
  5
311
100
AcDbEntity
  8
0
100
AcDbCircle
 62
7
  6
CONTINUOUS
 10
5.215368098
 20
1.9678251359
 40
0.4271687593
100
AcDbArc
 50
70.5434804903
 51
70.9296072554
  0
ARC
  5
312
100
AcDbEntity
  8
0
100
AcDbCircle
 62
7
  6
CONTINUOUS
 10
5.26350935
 20
1.9704046746
 40
0.4243019976
100
AcDbArc
 50
108.7706260453
 51
108.9002211047
  0
ARC
  5
313
100
AcDbEntity
  8
0
100
AcDbCircle
 62
7
  6
CONTINUOUS
 10
5.2255389298
 20
1.972630682
 40
0.4217420276
100
AcDbArc
 50
105.7008301857
 51
105.8748706934
  0
ARC
  5
314
100
AcDbEntity
  8
0
100
AcDbCircle
 62
7
  6
CONTINUOUS
 10
5.2546193238
 20
1.973679684
 40
0.4205766495
100
AcDbArc
 50
73.8265278209
 51
74.2192304688
  0
ARC
  5
315
100
AcDbEntity
  8
0
100
AcDbCircle
 62
7
  6
CONTINUOUS
 10
5.22471776
 20
1.9755536881
 40
0.4187058649
100
AcDbArc
 50
105.4816989225
 51
105.7008955063
  0
ARC
  5
316
100
AcDbEntity
  8
0
100
AcDbCircle
 62
7
  6
CONTINUOUS
 10
5.1874085777
 20
1.9795185473
 40
0.4166728358
100
AcDbArc
 50
102.4207365439
 51
102.5971004273
  0
ARC
  5
317
100
AcDbEntity
  8
0
100
AcDbCircle
 62
7
  6
CONTINUOUS
 10
5.1868169249
 20
1.9822069709
 40
0.4139200781
100
AcDbArc
 50
102.198763703
 51
102.4207981249
  0
ARC
  5
318
100
AcDbEntity
  8
0
100
AcDbCircle
 62
7
  6
CONTINUOUS
 10
5.1502913636
 20
1.9872150868
 40
0.4130391254
100
AcDbArc
 50
99.1455998928
 51
99.3237128855
  0
ARC
  5
319
100
AcDbEntity
  8
0
100
AcDbCircle
 62
7
  6
CONTINUOUS
 10
5.0095615559
 20
2.0254561304
 40
0.4117844453
100
AcDbArc
 50
86.1302891414
 51
86.2647573901
  0
ARC
  5
31A
100
AcDbEntity
  8
0
100
AcDbCircle
 62
7
  6
CONTINUOUS
 10
5.1140820158
 20
1.9954981912
 40
0.4109622477
100
AcDbArc
 50
95.9198527093
 51
96.0542358203
  0
ARC
  5
31B
100
AcDbEntity
  8
0
100
AcDbCircle
 62
7
  6
CONTINUOUS
 10
5.149897303
 20
1.989665407
 40
0.410557321
100
AcDbArc
 50
98.921510874
 51
99.1456574101
  0
ARC
  5
31C
100
AcDbEntity
  8
0
100
AcDbCircle
 62
7
  6
CONTINUOUS
 10
5.0096575024
 20
2.0268642972
 40
0.4103730138
100
AcDbArc
 50
85.8601041975
 51
86.1303859758
  0
ARC
  5
31D
100
AcDbEntity
  8
0
100
AcDbCircle
 62
7
  6
CONTINUOUS
 10
5.0438066855
 20
2.014762844
 40
0.4102382516
100
AcDbArc
 50
89.3903985941
 51
89.5252655359
  0
ARC
  5
31E
100
AcDbEntity
  8
0
100
AcDbCircle
 62
7
  6
CONTINUOUS
 10
5.078611128
 20
2.0047658868
 40
0.4099620801
100
AcDbArc
 50
92.6534197816
 51
92.7882590919
  0
ARC
  5
31F
100
AcDbEntity
  8
0
100
AcDbCircle
 62
7
  6
CONTINUOUS
 10
5.113861117
 20
1.997638118
 40
0.4088109499
100
AcDbArc
 50
95.6495530582
 51
95.9199907951
  0
ARC
  5
320
100
AcDbEntity
  8
0
100
AcDbCircle
 62
7
  6
CONTINUOUS
 10
5.0438250601
 20
2.016415458
 40
0.4085855357
100
AcDbArc
 50
89.1193172887
 51
89.390509497
  0
ARC
  5
321
100
AcDbEntity
  8
0
100
AcDbCircle
 62
7
  6
CONTINUOUS
 10
5.0785241081
 20
2.0066627628
 40
0.4080632092
100
AcDbArc
 50
92.382298272
 51
92.6535444699
  0
ARC
  5
322
100
AcDbEntity
  8
0
100
AcDbCircle
 62
7
  6
CONTINUOUS
 10
4.9913150383
 20
2.2826658612
 40
0.1834750603
100
AcDbArc
 50
25.0879437456
 51
25.7216504324
  0
ARC
  5
323
100
AcDbEntity
  8
0
100
AcDbCircle
 62
7
  6
CONTINUOUS
 10
5.008287203
 20
2.290820763
 40
0.1646453924
100
AcDbArc
 50
25.7282811175
 51
26.1185344405
  0
ARC
  5
324
100
AcDbEntity
  8
0
100
AcDbCircle
 62
7
  6
CONTINUOUS
 10
5.0278211447
 20
2.2784587134
 40
0.1643332293
100
AcDbArc
 50
28.1951510876
 51
28.9019307145
  0
ARC
  5
325
100
AcDbEntity
  8
0
100
AcDbCircle
 62
7
  6
CONTINUOUS
 10
5.040854426
 20
2.2854079754
 40
0.1495630753
100
AcDbArc
 50
27.8577313938
 51
28.2078805149
  0
ARC
  5
326
100
AcDbEntity
  8
0
100
AcDbCircle
 62
7
  6
CONTINUOUS
 10
5.0606612606
 20
2.2751409974
 40
0.1491043489
100
AcDbArc
 50
31.3048165535
 51
32.0828643116
  0
ARC
  5
327
100
AcDbEntity
  8
0
100
AcDbCircle
 62
7
  6
CONTINUOUS
 10
5.0423741156
 20
2.2864716184
 40
0.1477201256
100
AcDbArc
 50
28.9091994277
 51
29.3439339228
  0
ARC
  5
328
100
AcDbEntity
  8
0
100
AcDbCircle
 62
7
  6
CONTINUOUS
 10
5.0908417216
 20
2.2727245502
 40
0.1367334381
100
AcDbArc
 50
34.4173188106
 51
35.2646457743
  0
ARC
  5
329
100
AcDbEntity
  8
0
100
AcDbCircle
 62
7
  6
CONTINUOUS
 10
5.0722893053
 20
2.2821735367
 40
0.1355151317
100
AcDbArc
 50
30.9330184188
 51
31.3188190643
  0
ARC
  5
32A
100
AcDbEntity
  8
0
100
AcDbCircle
 62
7
  6
CONTINUOUS
 10
5.0732275497
 20
2.2829968733
 40
0.1342845637
100
AcDbArc
 50
32.090711396
 51
32.5686502629
  0
ARC
  5
32B
100
AcDbEntity
  8
0
100
AcDbCircle
 62
7
  6
CONTINUOUS
 10
5.1017400499
 20
2.2804088504
 40
0.123398459
100
AcDbArc
 50
35.2730069735
 51
35.7927501761
  0
ARC
  5
32C
100
AcDbEntity
  8
0
100
AcDbCircle
 62
7
  6
CONTINUOUS
 10
5.122334412
 20
2.2738236388
 40
0.1222984153
100
AcDbArc
 50
37.9675310153
 51
38.4573980801
  0
ARC
  5
32D
100
AcDbEntity
  8
0
100
AcDbCircle
 62
7
  6
CONTINUOUS
 10
5.1284920825
 20
2.2787169736
 40
0.114433199
100
AcDbArc
 50
38.4563106604
 51
39.0163394837
  0
ARC
  5
32E
100
AcDbEntity
  8
0
100
AcDbCircle
 62
7
  6
CONTINUOUS
 10
5.1485108157
 20
2.2731586765
 40
0.1141276349
100
AcDbArc
 50
41.1178044221
 51
41.6420214027
  0
ARC
  5
32F
100
AcDbEntity
  8
0
100
AcDbCircle
 62
7
  6
CONTINUOUS
 10
5.1330253221
 20
2.2819840213
 40
0.1088498413
100
AcDbArc
 50
36.6077560597
 51
38.0432716206
  0
ARC
  5
330
100
AcDbEntity
  8
0
100
AcDbCircle
 62
7
  6
CONTINUOUS
 10
5.1145820268
 20
2.2888646212
 40
0.1080264642
100
AcDbArc
 50
33.5401800352
 51
34.4723602001
  0
ARC
  5
331
100
AcDbEntity
  8
0
100
AcDbCircle
 62
7
  6
CONTINUOUS
 10
5.1538711956
 20
2.2779277233
 40
0.1069528544
100
AcDbArc
 50
41.6408828835
 51
42.2395645625
  0
ARC
  5
332
100
AcDbEntity
  8
0
100
AcDbCircle
 62
7
  6
CONTINUOUS
 10
5.1781405296
 20
2.2780446056
 40
0.1006458809
100
AcDbArc
 50
44.8270208222
 51
45.4626132108
  0
ARC
  5
333
100
AcDbEntity
  8
0
100
AcDbCircle
 62
7
  6
CONTINUOUS
 10
5.2014801661
 20
2.2790681272
 40
0.0952839925
100
AcDbArc
 50
48.0150587384
 51
48.6857149278
  0
ARC
  5
334
100
AcDbEntity
  8
0
100
AcDbCircle
 62
7
  6
CONTINUOUS
 10
5.2240131401
 20
2.2809957826
 40
0.0906963793
100
AcDbArc
 50
51.2053677412
 51
51.9091405959
  0
ARC
  5
335
100
AcDbEntity
  8
0
100
AcDbCircle
 62
7
  6
CONTINUOUS
 10
5.2458223971
 20
2.2838220529
 40
0.0867529893
100
AcDbArc
 50
54.3983549903
 51
55.1332015703
  0
ARC
  5
336
100
AcDbEntity
  8
0
100
AcDbCircle
 62
7
  6
CONTINUOUS
 10
5.5358310023
 20
1.9500286917
 40
0.5098316514
100
AcDbArc
 50
128.6510087785
 51
128.9718102862
  0
ARC
  5
337
100
AcDbEntity
  8
0
100
AcDbCircle
 62
7
  6
CONTINUOUS
 10
5.4846920579
 20
1.9508008996
 40
0.4892623927
100
AcDbArc
 50
125.3193511689
 51
125.6541222383
  0
ARC
  5
338
100
AcDbEntity
  8
0
100
AcDbCircle
 62
7
  6
CONTINUOUS
 10
5.4356019873
 20
1.9538184681
 40
0.4703430526
100
AcDbArc
 50
121.9946381594
 51
122.3433806155
  0
ARC
  5
339
100
AcDbEntity
  8
0
100
AcDbCircle
 62
7
  6
CONTINUOUS
 10
5.3909924034
 20
1.9543784441
 40
0.4581164238
100
AcDbArc
 50
118.7985657008
 51
119.037654645
  0
ARC
  5
33A
100
AcDbEntity
  8
0
100
AcDbCircle
 62
7
  6
CONTINUOUS
 10
5.3889139869
 20
1.9581561838
 40
0.4538046805
100
AcDbArc
 50
118.6777619747
 51
118.7983765318
  0
ARC
  5
33B
100
AcDbEntity
  8
0
100
AcDbCircle
 62
7
  6
CONTINUOUS
 10
5.3471786332
 20
1.9578154347
 40
0.445922727
100
AcDbArc
 50
115.4926232255
 51
115.7385867565
  0
ARC
  5
33C
100
AcDbEntity
  8
0
100
AcDbCircle
 62
7
  6
CONTINUOUS
 10
5.3454771809
 20
1.9613805004
 40
0.4419724571
100
AcDbArc
 50
115.3684034474
 51
115.4924399053
  0
ARC
  5
33D
100
AcDbEntity
  8
0
100
AcDbCircle
 62
7
  6
CONTINUOUS
 10
5.305283872
 20
1.9617265677
 40
0.436255266
100
AcDbArc
 50
112.2354497693
 51
112.4452435913
  0
ARC
  5
33E
100
AcDbEntity
  8
0
100
AcDbCircle
 62
7
  6
CONTINUOUS
 10
5.3038957545
 20
1.9651209881
 40
0.4325879837
100
AcDbArc
 50
112.0661611117
 51
112.2353971007
  0
ARC
  5
33F
100
AcDbEntity
  8
0
100
AcDbCircle
 62
7
  6
CONTINUOUS
 10
5.2645792162
 20
1.9672837454
 40
0.4276012113
100
AcDbArc
 50
108.9003884148
 51
109.1575720972
  0
ARC
  5
340
100
AcDbEntity
  8
0
100
AcDbCircle
 62
7
  6
CONTINUOUS
 10
5.5377631168
 20
2.0482968502
 40
0.4177043041
100
AcDbArc
 50
99.9546175766
 51
100.3533459668
  0
ARC
  5
341
100
AcDbEntity
  8
0
100
AcDbCircle
 62
7
  6
CONTINUOUS
 10
5.2927191037
 20
1.9803623086
 40
0.4155309767
100
AcDbArc
 50
77.1047441646
 51
77.5027260757
  0
ARC
  5
342
100
AcDbEntity
  8
0
100
AcDbCircle
 62
7
  6
CONTINUOUS
 10
5.5042922487
 20
2.0365377549
 40
0.4135131519
100
AcDbArc
 50
96.6974211448
 51
97.0998760077
  0
ARC
  5
343
100
AcDbEntity
  8
0
100
AcDbCircle
 62
7
  6
CONTINUOUS
 10
5.3298114262
 20
1.9878536008
 40
0.4119222239
100
AcDbArc
 50
80.3785409519
 51
80.7805022779
  0
ARC
  5
344
100
AcDbEntity
  8
0
100
AcDbCircle
 62
7
  6
CONTINUOUS
 10
5.4704955339
 20
2.0254053048
 40
0.4106401979
100
AcDbArc
 50
93.4386987682
 51
93.8436197062
  0
ARC
  5
345
100
AcDbEntity
  8
0
100
AcDbCircle
 62
7
  6
CONTINUOUS
 10
5.3660229201
 20
1.9961309196
 40
0.4096706289
100
AcDbArc
 50
83.648360024
 51
84.0530008252
  0
ARC
  5
346
100
AcDbEntity
  8
0
100
AcDbCircle
 62
7
  6
CONTINUOUS
 10
5.4362573444
 20
2.01493723
 40
0.4090482278
100
AcDbArc
 50
90.1779484057
 51
90.5840622495
  0
ARC
  5
347
100
AcDbEntity
  8
0
100
AcDbCircle
 62
7
  6
CONTINUOUS
 10
5.4014686897
 20
2.0051684419
 40
0.4087225768
100
AcDbArc
 50
86.9146676638
 51
87.3206908049
  0
ARC
  5
348
100
AcDbEntity
  8
0
100
AcDbCircle
 62
7
  6
CONTINUOUS
 10
5.3930188388
 20
2.270083528
 40
0.1398336084
100
AcDbArc
 50
143.9487255187
 51
144.6458184819
  0
ARC
  5
349
100
AcDbEntity
  8
0
100
AcDbCircle
 62
7
  6
CONTINUOUS
 10
5.3648615324
 20
2.2684788469
 40
0.1297890286
100
AcDbArc
 50
140.7278580895
 51
141.4687036341
  0
ARC
  5
34A
100
AcDbEntity
  8
0
100
AcDbCircle
 62
7
  6
CONTINUOUS
 10
5.3382892357
 20
2.2677402672
 40
0.1214573991
100
AcDbArc
 50
137.5073051588
 51
138.2735546002
  0
ARC
  5
34B
100
AcDbEntity
  8
0
100
AcDbCircle
 62
7
  6
CONTINUOUS
 10
5.2669621952
 20
2.287538407
 40
0.083353378
100
AcDbArc
 50
57.5944624172
 51
58.358248186
  0
ARC
  5
34C
100
AcDbEntity
  8
0
100
AcDbCircle
 62
7
  6
CONTINUOUS
 10
5.2874660043
 20
2.2921333236
 40
0.0804190692
100
AcDbArc
 50
60.7941647956
 51
61.584667687
  0
ARC
  5
34D
100
AcDbEntity
  8
0
100
AcDbCircle
 62
7
  6
CONTINUOUS
 10
5.3251735457
 20
2.3004316447
 40
0.0794708353
100
AcDbArc
 50
66.4669236738
 51
67.2340780847
  0
ARC
  5
34E
100
AcDbEntity
  8
0
100
AcDbCircle
 62
7
  6
CONTINUOUS
 10
5.3073521139
 20
2.2975923186
 40
0.0778882212
100
AcDbArc
 50
63.9979672956
 51
64.8128816002
  0
ARC
  5
34F
100
AcDbEntity
  8
0
100
AcDbCircle
 62
7
  6
CONTINUOUS
 10
5.3440816321
 20
2.3076211826
 40
0.0774683334
100
AcDbArc
 50
69.6631805689
 51
70.5400444708
  0
ARC
  5
350
100
AcDbEntity
  8
0
100
AcDbCircle
 62
7
  6
CONTINUOUS
 10
5.3266529315
 20
2.3039596869
 40
0.0756451768
100
AcDbArc
 50
67.2332413266
 51
68.0435798682
  0
ARC
  5
351
100
AcDbEntity
  8
0
100
AcDbCircle
 62
7
  6
CONTINUOUS
 10
5.3627410222
 20
2.316884739
 40
0.0744395005
100
AcDbArc
 50
72.8623273755
 51
74.4975618719
  0
ARC
  5
352
100
AcDbEntity
  8
0
100
AcDbCircle
 62
7
  6
CONTINUOUS
 10
5.3453824134
 20
2.311292969
 40
0.0735729468
100
AcDbArc
 50
70.5425563374
 51
71.2775135135
  0
ARC
  5
353
100
AcDbEntity
  8
0
100
AcDbCircle
 62
7
  6
CONTINUOUS
 10
5.3803114378
 20
2.3257182013
 40
0.0729691581
100
AcDbArc
 50
76.0740905245
 51
77.7383115423
  0
ARC
  5
354
100
AcDbEntity
  8
0
100
AcDbCircle
 62
7
  6
CONTINUOUS
 10
5.3972236642
 20
2.3353020312
 40
0.0717495822
100
AcDbArc
 50
79.2951347627
 51
80.9834364293
  0
ARC
  5
355
100
AcDbEntity
  8
0
100
AcDbCircle
 62
7
  6
CONTINUOUS
 10
5.4134645208
 20
2.3456047215
 40
0.0707658367
100
AcDbArc
 50
82.5261355515
 51
84.2334722143
  0
ARC
  5
356
100
AcDbEntity
  8
0
100
AcDbCircle
 62
7
  6
CONTINUOUS
 10
5.4290204965
 20
2.3565922803
 40
0.0700073875
100
AcDbArc
 50
85.7677648174
 51
87.4889561833
  0
ARC
  5
357
100
AcDbEntity
  8
0
100
AcDbCircle
 62
7
  6
CONTINUOUS
 10
5.4438786931
 20
2.3682283408
 40
0.0694677184
100
AcDbArc
 50
89.0206842547
 51
90.7504211924
  0
ARC
  5
358
100
AcDbEntity
  8
0
100
AcDbCircle
 62
7
  6
CONTINUOUS
 10
5.4439634457
 20
2.3705655417
 40
0.0671294253
100
AcDbArc
 50
87.533516783
 51
89.0589165529
  0
ARC
  5
359
100
AcDbEntity
  8
0
100
AcDbCircle
 62
7
  6
CONTINUOUS
 10
5.3924187029
 20
2.3676994125
 40
0.0292735211
100
AcDbArc
 50
71.4378324812
 51
72.7303832557
  0
ARC
  5
35A
100
AcDbEntity
  8
0
100
AcDbCircle
 62
7
  6
CONTINUOUS
 10
5.0955561551
 20
2.3925244688
 40
0.384774044
100
AcDbArc
 50
11.9439716151
 51
12.3177012069
  0
ARC
  5
35B
100
AcDbEntity
  8
0
100
AcDbCircle
 62
7
  6
CONTINUOUS
 10
5.1292695623
 20
2.4644204615
 40
0.170860204
100
AcDbArc
 50
152.0597004193
 51
152.368253053
  0
ARC
  5
35C
100
AcDbEntity
  8
0
100
AcDbCircle
 62
7
  6
CONTINUOUS
 10
5.1212566177
 20
2.4686735262
 40
0.161788499
100
AcDbArc
 50
151.6685179079
 51
152.0607047585
  0
ARC
  5
35D
100
AcDbEntity
  8
0
100
AcDbCircle
 62
7
  6
CONTINUOUS
 10
5.1066281292
 20
2.4798968025
 40
0.1543484957
100
AcDbArc
 50
148.8903360849
 51
149.2591438656
  0
ARC
  5
35E
100
AcDbEntity
  8
0
100
AcDbCircle
 62
7
  6
CONTINUOUS
 10
5.1113242724
 20
2.4740305861
 40
0.1505035723
100
AcDbArc
 50
151.2424501861
 51
151.6691884834
  0
ARC
  5
35F
100
AcDbEntity
  8
0
100
AcDbCircle
 62
7
  6
CONTINUOUS
 10
5.0997097924
 20
2.48407354
 40
0.1462671272
100
AcDbArc
 50
148.4867855169
 51
148.8909190346
  0
ARC
  5
360
100
AcDbEntity
  8
0
100
AcDbCircle
 62
7
  6
CONTINUOUS
 10
5.0991947653
 20
2.458101481
 40
0.1009533347
100
AcDbArc
 50
165.7503999732
 51
166.118947014
  0
ARC
  5
361
100
AcDbEntity
  8
0
100
AcDbCircle
 62
7
  6
CONTINUOUS
 10
5.0740213408
 20
2.4720962218
 40
0.0838927158
100
AcDbArc
 50
162.8412350187
 51
163.2838933994
  0
ARC
  5
362
100
AcDbEntity
  8
0
100
AcDbCircle
 62
7
  6
CONTINUOUS
 10
5.0546152533
 20
2.4865118328
 40
0.0717752238
100
AcDbArc
 50
159.9284243752
 51
160.4446586108
  0
ARC
  5
363
100
AcDbEntity
  8
0
100
AcDbCircle
 62
7
  6
CONTINUOUS
 10
5.0476180358
 20
2.4777626502
 40
0.0527772468
100
AcDbArc
 50
268.1330626773
 51
269.55241089
  0
ARC
  5
364
100
AcDbEntity
  8
0
100
AcDbCircle
 62
7
  6
CONTINUOUS
 10
5.039604619
 20
2.4865563978
 40
0.0502935475
100
AcDbArc
 50
264.1639765309
 51
266.3327085331
  0
ARC
  5
365
100
AcDbEntity
  8
0
100
AcDbCircle
 62
7
  6
CONTINUOUS
 10
5.0752429444
 20
2.443922792
 40
0.0497937039
100
AcDbArc
 50
277.2239078735
 51
279.3981603397
  0
ARC
  5
366
100
AcDbEntity
  8
0
100
AcDbCircle
 62
7
  6
CONTINUOUS
 10
5.0561870935
 20
2.4639136429
 40
0.0497329615
100
AcDbArc
 50
270.6745563544
 51
272.8599185463
  0
ARC
  5
367
100
AcDbEntity
  8
0
100
AcDbCircle
 62
7
  6
CONTINUOUS
 10
5.071905045
 20
2.5218038202
 40
0.1440771817
100
AcDbArc
 50
135.7416805519
 51
136.0672192781
  0
ARC
  5
368
100
AcDbEntity
  8
0
100
AcDbCircle
 62
7
  6
CONTINUOUS
 10
5.087987562
 20
2.4955994201
 40
0.1409577453
100
AcDbArc
 50
145.7114357059
 51
146.1473582542
  0
ARC
  5
369
100
AcDbEntity
  8
0
100
AcDbCircle
 62
7
  6
CONTINUOUS
 10
5.0913974101
 20
2.4891728404
 40
0.1365152781
100
AcDbArc
 50
148.0176134833
 51
148.487797592
  0
ARC
  5
36A
100
AcDbEntity
  8
0
100
AcDbCircle
 62
7
  6
CONTINUOUS
 10
5.0819851267
 20
2.4996923506
 40
0.1336926707
100
AcDbArc
 50
145.3042681919
 51
145.71147182
  0
ARC
  5
36B
100
AcDbEntity
  8
0
100
AcDbCircle
 62
7
  6
CONTINUOUS
 10
5.075020363
 20
2.5045179141
 40
0.1252195374
100
AcDbArc
 50
144.7934081953
 51
145.3056601577
  0
ARC
  5
36C
100
AcDbEntity
  8
0
100
AcDbCircle
 62
7
  6
CONTINUOUS
 10
5.067350103
 20
2.5154800764
 40
0.1233243962
100
AcDbArc
 50
142.1207564163
 51
142.5212017729
  0
ARC
  5
36D
100
AcDbEntity
  8
0
100
AcDbCircle
 62
7
  6
CONTINUOUS
 10
5.0615253552
 20
2.5200157499
 40
0.1159419843
100
AcDbArc
 50
141.5697357342
 51
142.1225580652
  0
ARC
  5
36E
100
AcDbEntity
  8
0
100
AcDbCircle
 62
7
  6
CONTINUOUS
 10
5.0559484166
 20
2.5308235643
 40
0.1155107579
100
AcDbArc
 50
138.937107709
 51
139.4551820302
  0
ARC
  5
36F
100
AcDbEntity
  8
0
100
AcDbCircle
 62
7
  6
CONTINUOUS
 10
5.0504510147
 20
2.5356158175
 40
0.1082178083
100
AcDbArc
 50
138.3464571798
 51
138.9382375065
  0
ARC
  5
370
100
AcDbEntity
  8
0
100
AcDbCircle
 62
7
  6
CONTINUOUS
 10
5.0407266158
 20
2.5516521425
 40
0.1009148122
100
AcDbArc
 50
135.9896441914
 51
137.2684958548
  0
ARC
  5
371
100
AcDbEntity
  8
0
100
AcDbCircle
 62
7
  6
CONTINUOUS
 10
5.037974423
 20
2.5548975909
 40
0.0966800925
100
AcDbArc
 50
135.1875195366
 51
135.7545915109
  0
ARC
  5
372
100
AcDbEntity
  8
0
100
AcDbCircle
 62
7
  6
CONTINUOUS
 10
5.0343292717
 20
2.5669190861
 40
0.0961969077
100
AcDbArc
 50
131.9003191787
 51
132.5647420796
  0
ARC
  5
373
100
AcDbEntity
  8
0
100
AcDbCircle
 62
7
  6
CONTINUOUS
 10
5.0288514575
 20
2.5825202602
 40
0.0914792097
100
AcDbArc
 50
128.6769744005
 51
129.3748752522
  0
ARC
  5
374
100
AcDbEntity
  8
0
100
AcDbCircle
 62
7
  6
CONTINUOUS
 10
5.0391246966
 20
2.5013005898
 40
0.0627265876
100
AcDbArc
 50
157.0112947835
 51
157.6004716753
  0
ARC
  5
375
100
AcDbEntity
  8
0
100
AcDbCircle
 62
7
  6
CONTINUOUS
 10
5.0102940675
 20
2.570229647
 40
0.0593343357
100
AcDbArc
 50
245.467825234
 51
246.7405378511
  0
ARC
  5
376
100
AcDbEntity
  8
0
100
AcDbCircle
 62
7
  6
CONTINUOUS
 10
5.0071917426
 20
2.5820970091
 40
0.0577790267
100
AcDbArc
 50
241.6138337329
 51
243.5199094767
  0
ARC
  5
377
100
AcDbEntity
  8
0
100
AcDbCircle
 62
7
  6
CONTINUOUS
 10
5.0265364724
 20
2.5164136301
 40
0.0557139639
100
AcDbArc
 50
154.0891519153
 51
154.7505404432
  0
ARC
  5
378
100
AcDbEntity
  8
0
100
AcDbCircle
 62
7
  6
CONTINUOUS
 10
5.0209870688
 20
2.5274639711
 40
0.0550597747
100
AcDbArc
 50
255.1491136855
 51
256.5166213085
  0
ARC
  5
379
100
AcDbEntity
  8
0
100
AcDbCircle
 62
7
  6
CONTINUOUS
 10
5.0264540646
 20
2.5142382822
 40
0.0542258492
100
AcDbArc
 50
258.3867408412
 51
259.7736788117
  0
ARC
  5
37A
100
AcDbEntity
  8
0
100
AcDbCircle
 62
7
  6
CONTINUOUS
 10
5.0327497402
 20
2.5015184589
 40
0.0535728258
100
AcDbArc
 50
261.6295680231
 51
263.0316710917
  0
ARC
  5
37B
100
AcDbEntity
  8
0
100
AcDbCircle
 62
7
  6
CONTINUOUS
 10
5.0162515112
 20
2.531801033
 40
0.0501215383
100
AcDbArc
 50
151.1612743381
 51
151.8940428323
  0
ARC
  5
37C
100
AcDbEntity
  8
0
100
AcDbCircle
 62
7
  6
CONTINUOUS
 10
5.0078936861
 20
2.5474119821
 40
0.0455593998
100
AcDbArc
 50
148.2269106799
 51
149.0301234295
  0
ARC
  5
37D
100
AcDbEntity
  8
0
100
AcDbCircle
 62
7
  6
CONTINUOUS
 10
5.0230090645
 20
2.5079241741
 40
0.0453028952
100
AcDbArc
 50
157.5786704139
 51
158.2981801094
  0
ARC
  5
37E
100
AcDbEntity
  8
0
100
AcDbCircle
 62
7
  6
CONTINUOUS
 10
5.0124769658
 20
2.5230252799
 40
0.0401774512
100
AcDbArc
 50
154.7259282366
 51
155.534442592
  0
ARC
  5
37F
100
AcDbEntity
  8
0
100
AcDbCircle
 62
7
  6
CONTINUOUS
 10
4.9960444284
 20
2.5790977726
 40
0.0385709474
100
AcDbArc
 50
142.3355545418
 51
143.2764117075
  0
ARC
  5
380
100
AcDbEntity
  8
0
100
AcDbCircle
 62
7
  6
CONTINUOUS
 10
5.0038606044
 20
2.5383992245
 40
0.0360833657
100
AcDbArc
 50
151.8666012402
 51
152.7633928203
  0
ARC
  5
381
100
AcDbEntity
  8
0
100
AcDbCircle
 62
7
  6
CONTINUOUS
 10
4.9968907377
 20
2.5539951645
 40
0.0327374364
100
AcDbArc
 50
148.9998325481
 51
149.9840768798
  0
ARC
  5
382
100
AcDbEntity
  8
0
100
AcDbCircle
 62
7
  6
CONTINUOUS
 10
5.1844301182
 20
2.4058633266
 40
0.3062584946
100
AcDbArc
 50
15.0804485412
 51
15.5428768202
  0
ARC
  5
383
100
AcDbEntity
  8
0
100
AcDbCircle
 62
7
  6
CONTINUOUS
 10
5.1746695605
 20
2.409226538
 40
0.3039168322
100
AcDbArc
 50
11.3010522111
 51
11.950088177
  0
ARC
  5
384
100
AcDbEntity
  8
0
100
AcDbCircle
 62
7
  6
CONTINUOUS
 10
5.2590566938
 20
2.4164655927
 40
0.2661473486
100
AcDbArc
 50
164.1487734009
 51
164.3904939329
  0
ARC
  5
385
100
AcDbEntity
  8
0
100
AcDbCircle
 62
7
  6
CONTINUOUS
 10
5.2264486088
 20
2.4171948814
 40
0.2627388716
100
AcDbArc
 50
14.6004325607
 51
15.0784531203
  0
ARC
  5
386
100
AcDbEntity
  8
0
100
AcDbCircle
 62
7
  6
CONTINUOUS
 10
5.2452563623
 20
2.4196344799
 40
0.2550185746
100
AcDbArc
 50
18.2224305355
 51
18.7674913884
  0
ARC
  5
387
100
AcDbEntity
  8
0
100
AcDbCircle
 62
7
  6
CONTINUOUS
 10
5.2251297155
 20
2.4237733056
 40
0.2425424008
100
AcDbArc
 50
161.2116450672
 51
161.5167727587
  0
ARC
  5
388
100
AcDbEntity
  8
0
100
AcDbCircle
 62
7
  6
CONTINUOUS
 10
5.2396672426
 20
2.4237846275
 40
0.2234030992
100
AcDbArc
 50
171.3816247652
 51
171.5659807193
  0
ARC
  5
389
100
AcDbEntity
  8
0
100
AcDbCircle
 62
7
  6
CONTINUOUS
 10
5.2058997045
 20
2.4303109333
 40
0.2222314708
100
AcDbArc
 50
160.9211660795
 51
161.2105610834
  0
ARC
  5
38A
100
AcDbEntity
  8
0
100
AcDbCircle
 62
7
  6
CONTINUOUS
 10
5.1918802508
 20
2.4343587821
 40
0.2186183539
100
AcDbArc
 50
158.371848941
 51
158.5798749405
  0
ARC
  5
38B
100
AcDbEntity
  8
0
100
AcDbCircle
 62
7
  6
CONTINUOUS
 10
5.2100159899
 20
2.4293547025
 40
0.2154432278
100
AcDbArc
 50
164.9678263059
 51
165.1953629409
  0
ARC
  5
38C
100
AcDbEntity
  8
0
100
AcDbCircle
 62
7
  6
CONTINUOUS
 10
5.1808405693
 20
2.4387416241
 40
0.206740482
100
AcDbArc
 50
158.0302838393
 51
158.3733038299
  0
ARC
  5
38D
100
AcDbEntity
  8
0
100
AcDbCircle
 62
7
  6
CONTINUOUS
 10
5.2098584079
 20
2.4292950546
 40
0.204226657
100
AcDbArc
 50
167.9827062445
 51
168.6451291915
  0
ARC
  5
38E
100
AcDbEntity
  8
0
100
AcDbCircle
 62
7
  6
CONTINUOUS
 10
5.1570733386
 20
2.4492239575
 40
0.1916650994
100
AcDbArc
 50
155.2199514588
 51
155.4750517809
  0
ARC
  5
38F
100
AcDbEntity
  8
0
100
AcDbCircle
 62
7
  6
CONTINUOUS
 10
5.1664401552
 20
2.4445514563
 40
0.1912122472
100
AcDbArc
 50
157.6942203752
 51
158.030433684
  0
ARC
  5
390
100
AcDbEntity
  8
0
100
AcDbCircle
 62
7
  6
CONTINUOUS
 10
5.1477212783
 20
2.4535457769
 40
0.1813627144
100
AcDbArc
 50
154.8496360161
 51
155.2212456564
  0
ARC
  5
391
100
AcDbEntity
  8
0
100
AcDbCircle
 62
7
  6
CONTINUOUS
 10
5.1871295675
 20
2.4315576891
 40
0.1702935198
100
AcDbArc
 50
171.5603546636
 51
171.7794321412
  0
ARC
  5
392
100
AcDbEntity
  8
0
100
AcDbCircle
 62
7
  6
CONTINUOUS
 10
5.1358075681
 20
2.4591405767
 40
0.1682007132
100
AcDbArc
 50
154.4679781072
 51
154.8500166736
  0
ARC
  5
393
100
AcDbEntity
  8
0
100
AcDbCircle
 62
7
  6
CONTINUOUS
 10
5.143709836
 20
2.4467971726
 40
0.14688131
100
AcDbArc
 50
165.1643956738
 51
165.7506829991
  0
ARC
  5
394
100
AcDbEntity
  8
0
100
AcDbCircle
 62
7
  6
CONTINUOUS
 10
5.2644999452
 20
2.4207774358
 40
0.1458390238
100
AcDbArc
 50
200.5863664024
 51
200.9773270507
  0
ARC
  5
395
100
AcDbEntity
  8
0
100
AcDbCircle
 62
7
  6
CONTINUOUS
 10
5.1339042537
 20
2.4445736419
 40
0.1267510625
100
AcDbArc
 50
168.6565595793
 51
168.9505467257
  0
ARC
  5
396
100
AcDbEntity
  8
0
100
AcDbCircle
 62
7
  6
CONTINUOUS
 10
5.2581916828
 20
2.4148287833
 40
0.1265599135
100
AcDbArc
 50
203.9559496572
 51
204.4069141285
  0
ARC
  5
397
100
AcDbEntity
  8
0
100
AcDbCircle
 62
7
  6
CONTINUOUS
 10
5.2571304251
 20
2.4097326601
 40
0.1122268892
100
AcDbArc
 50
207.321096279
 51
207.8302253684
  0
ARC
  5
398
100
AcDbEntity
  8
0
100
AcDbCircle
 62
7
  6
CONTINUOUS
 10
5.2596342526
 20
2.4055054152
 40
0.1012114393
100
AcDbArc
 50
210.68134132
 51
211.2465800644
  0
ARC
  5
399
100
AcDbEntity
  8
0
100
AcDbCircle
 62
7
  6
CONTINUOUS
 10
5.2646663663
 20
2.4021604667
 40
0.0925311712
100
AcDbArc
 50
214.0362776759
 51
214.6553705996
  0
ARC
  5
39A
100
AcDbEntity
  8
0
100
AcDbCircle
 62
7
  6
CONTINUOUS
 10
5.2221236915
 20
2.3990392941
 40
0.0868028308
100
AcDbArc
 50
324.839508074
 51
325.6773540141
  0
ARC
  5
39B
100
AcDbEntity
  8
0
100
AcDbCircle
 62
7
  6
CONTINUOUS
 10
5.2666802142
 20
2.3959658034
 40
0.0794216425
100
AcDbArc
 50
217.3707970386
 51
218.7389778402
  0
ARC
  5
39C
100
AcDbEntity
  8
0
100
AcDbCircle
 62
7
  6
CONTINUOUS
 10
5.2190453233
 20
2.393195205
 40
0.0747269639
100
AcDbArc
 50
320.9563511051
 51
322.3662022605
  0
ARC
  5
39D
100
AcDbEntity
  8
0
100
AcDbCircle
 62
7
  6
CONTINUOUS
 10
5.2097147314
 20
2.3917826389
 40
0.0699316797
100
AcDbArc
 50
317.517297589
 51
319.0266428112
  0
ARC
  5
39E
100
AcDbEntity
  8
0
100
AcDbCircle
 62
7
  6
CONTINUOUS
 10
5.1995137058
 20
2.3912793581
 40
0.0659881025
100
AcDbArc
 50
314.0901855408
 51
315.6928687805
  0
ARC
  5
39F
100
AcDbEntity
  8
0
100
AcDbCircle
 62
7
  6
CONTINUOUS
 10
5.0248873377
 20
2.5980199247
 40
0.0874269098
100
AcDbArc
 50
125.4530538758
 51
126.1824068217
  0
ARC
  5
3A0
100
AcDbEntity
  8
0
100
AcDbCircle
 62
7
  6
CONTINUOUS
 10
5.0223185048
 20
2.6133675281
 40
0.0839348286
100
AcDbArc
 50
122.2282142211
 51
122.9869010791
  0
ARC
  5
3A1
100
AcDbEntity
  8
0
100
AcDbCircle
 62
7
  6
CONTINUOUS
 10
5.0231298048
 20
2.6391090536
 40
0.0831236996
100
AcDbArc
 50
116.5297664723
 51
118.562983217
  0
ARC
  5
3A2
100
AcDbEntity
  8
0
100
AcDbCircle
 62
7
  6
CONTINUOUS
 10
5.0210461999
 20
2.6285129833
 40
0.0809209479
100
AcDbArc
 50
119.0020747238
 51
119.7878890572
  0
ARC
  5
3A3
100
AcDbEntity
  8
0
100
AcDbCircle
 62
7
  6
CONTINUOUS
 10
5.0237899117
 20
2.6539855762
 40
0.0804540694
100
AcDbArc
 50
113.2261183598
 51
115.4144616379
  0
ARC
  5
3A4
100
AcDbEntity
  8
0
100
AcDbCircle
 62
7
  6
CONTINUOUS
 10
5.0209202728
 20
2.6435404989
 40
0.0781719593
100
AcDbArc
 50
115.7737319898
 51
116.5315897527
  0
ARC
  5
3A5
100
AcDbEntity
  8
0
100
AcDbCircle
 62
7
  6
CONTINUOUS
 10
5.0288235756
 20
2.6813163837
 40
0.0775423021
100
AcDbArc
 50
106.9551424719
 51
108.4106259801
  0
ARC
  5
3A6
100
AcDbEntity
  8
0
100
AcDbCircle
 62
7
  6
CONTINUOUS
 10
5.0250065583
 20
2.6700250037
 40
0.0765280708
100
AcDbArc
 50
109.3274959229
 51
110.9223464188
  0
ARC
  5
3A7
100
AcDbEntity
  8
0
100
AcDbCircle
 62
7
  6
CONTINUOUS
 10
5.0247794449
 20
2.6704988301
 40
0.0760043953
100
AcDbArc
 50
110.8899805092
 51
112.2711522545
  0
ARC
  5
3A8
100
AcDbEntity
  8
0
100
AcDbCircle
 62
7
  6
CONTINUOUS
 10
5.0219112064
 20
2.6583580531
 40
0.0756950692
100
AcDbArc
 50
112.5429342196
 51
113.2245188781
  0
ARC
  5
3A9
100
AcDbEntity
  8
0
100
AcDbCircle
 62
7
  6
CONTINUOUS
 10
5.0273546373
 20
2.6860965294
 40
0.0725415581
100
AcDbArc
 50
106.0757539922
 51
106.9463843933
  0
ARC
  5
3AA
100
AcDbEntity
  8
0
100
AcDbCircle
 62
7
  6
CONTINUOUS
 10
5.0259375141
 20
2.6898889912
 40
0.0684969791
100
AcDbArc
 50
108.3847775982
 51
109.119866155
  0
ARC
  5
3AB
100
AcDbEntity
  8
0
100
AcDbCircle
 62
7
  6
CONTINUOUS
 10
5.0081805861
 20
2.6000738911
 40
0.0630747548
100
AcDbArc
 50
239.0252542992
 51
240.2243197396
  0
ARC
  5
3AC
100
AcDbEntity
  8
0
100
AcDbCircle
 62
7
  6
CONTINUOUS
 10
5.0069737719
 20
2.6125653953
 40
0.0620726411
100
AcDbArc
 50
235.2192718749
 51
236.9969117359
  0
ARC
  5
3AD
100
AcDbEntity
  8
0
100
AcDbCircle
 62
7
  6
CONTINUOUS
 10
5.0113612099
 20
2.6607497501
 40
0.0584899949
100
AcDbArc
 50
118.5734493206
 51
119.3791793182
  0
ARC
  5
3AE
100
AcDbEntity
  8
0
100
AcDbCircle
 62
7
  6
CONTINUOUS
 10
5.0134574875
 20
2.6757590329
 40
0.0563534012
100
AcDbArc
 50
115.4264998917
 51
116.25916795
  0
ARC
  5
3AF
100
AcDbEntity
  8
0
100
AcDbCircle
 62
7
  6
CONTINUOUS
 10
5.0022456873
 20
2.5902301977
 40
0.0515803775
100
AcDbArc
 50
237.7461733023
 51
239.0501260311
  0
ARC
  5
3B0
100
AcDbEntity
  8
0
100
AcDbCircle
 62
7
  6
CONTINUOUS
 10
4.9978276538
 20
2.5994424571
 40
0.0460769525
100
AcDbArc
 50
233.8756839281
 51
235.2519368123
  0
ARC
  5
3B1
100
AcDbEntity
  8
0
100
AcDbCircle
 62
7
  6
CONTINUOUS
 10
5.0046493001
 20
2.6726361747
 40
0.0448394847
100
AcDbArc
 50
119.3569731232
 51
120.3150929589
  0
ARC
  5
3B2
100
AcDbEntity
  8
0
100
AcDbCircle
 62
7
  6
CONTINUOUS
 10
4.9949160896
 20
2.6248323792
 40
0.0426283662
100
AcDbArc
 50
226.9064474971
 51
228.29785296
  0
ARC
  5
3B3
100
AcDbEntity
  8
0
100
AcDbCircle
 62
7
  6
CONTINUOUS
 10
4.9958107268
 20
2.6193130605
 40
0.0420311034
100
AcDbArc
 50
132.515543007
 51
133.4603614852
  0
ARC
  5
3B4
100
AcDbEntity
  8
0
100
AcDbCircle
 62
7
  6
CONTINUOUS
 10
4.995309144
 20
2.6509116432
 40
0.0376872054
100
AcDbArc
 50
126.4264000182
 51
127.4695503684
  0
ARC
  5
3B5
100
AcDbEntity
  8
0
100
AcDbCircle
 62
7
  6
CONTINUOUS
 10
4.9897695513
 20
2.6110529106
 40
0.0334801915
100
AcDbArc
 50
136.4083811462
 51
137.4817770154
  0
ARC
  5
3B6
100
AcDbEntity
  8
0
100
AcDbCircle
 62
7
  6
CONTINUOUS
 10
4.9885028426
 20
2.6269997153
 40
0.0314249994
100
AcDbArc
 50
133.4291010503
 51
134.5665351056
  0
ARC
  5
3B7
100
AcDbEntity
  8
0
100
AcDbCircle
 62
7
  6
CONTINUOUS
 10
5.1235719338
 20
2.7827101212
 40
0.1311058606
100
AcDbArc
 50
196.3221917927
 51
197.3031595802
  0
ARC
  5
3B8
100
AcDbEntity
  8
0
100
AcDbCircle
 62
7
  6
CONTINUOUS
 10
5.0327951198
 20
2.6941217575
 40
0.0767318235
100
AcDbArc
 50
104.5074909218
 51
105.2119177981
  0
ARC
  5
3B9
100
AcDbEntity
  8
0
100
AcDbCircle
 62
7
  6
CONTINUOUS
 10
5.0369915837
 20
2.7093077995
 40
0.0732403528
100
AcDbArc
 50
99.6224855838
 51
102.0125215598
  0
ARC
  5
3BA
100
AcDbEntity
  8
0
100
AcDbCircle
 62
7
  6
CONTINUOUS
 10
5.0319184839
 20
2.6975251683
 40
0.0732173278
100
AcDbArc
 50
102.851225489
 51
104.5105369581
  0
ARC
  5
3BB
100
AcDbEntity
  8
0
100
AcDbCircle
 62
7
  6
CONTINUOUS
 10
5.042525191
 20
2.7223937646
 40
0.0716351138
100
AcDbArc
 50
96.3648399992
 51
99.4951419672
  0
ARC
  5
3BC
100
AcDbEntity
  8
0
100
AcDbCircle
 62
7
  6
CONTINUOUS
 10
5.0489354333
 20
2.7345302076
 40
0.0706510328
100
AcDbArc
 50
93.1078120458
 51
96.2709902614
  0
ARC
  5
3BD
100
AcDbEntity
  8
0
100
AcDbCircle
 62
7
  6
CONTINUOUS
 10
5.0301522465
 20
2.7037356392
 40
0.066761336
100
AcDbArc
 50
105.1881565542
 51
105.9392322205
  0
ARC
  5
3BE
100
AcDbEntity
  8
0
100
AcDbCircle
 62
7
  6
CONTINUOUS
 10
5.0388064197
 20
2.7447354945
 40
0.0489860146
100
AcDbArc
 50
99.5159124141
 51
100.4506587191
  0
ARC
  5
3BF
100
AcDbEntity
  8
0
100
AcDbCircle
 62
7
  6
CONTINUOUS
 10
5.0464849143
 20
2.7569981691
 40
0.0480498416
100
AcDbArc
 50
96.2928626399
 51
97.2406901191
  0
ARC
  5
3C0
100
AcDbEntity
  8
0
100
AcDbCircle
 62
7
  6
CONTINUOUS
 10
5.1537183998
 20
2.6198184117
 40
0.1840311186
100
AcDbArc
 50
179.0952003036
 51
179.4102300193
  0
ARC
  5
3C1
100
AcDbEntity
  8
0
100
AcDbCircle
 62
7
  6
CONTINUOUS
 10
5.2456803269
 20
2.6100132802
 40
0.2794787409
100
AcDbArc
 50
133.631906966
 51
134.1680580573
  0
ARC
  5
3C2
100
AcDbEntity
  8
0
100
AcDbCircle
 62
7
  6
CONTINUOUS
 10
5.2456517261
 20
2.6107649526
 40
0.2789291756
100
AcDbArc
 50
136.9324903213
 51
137.4693386541
  0
ARC
  5
3C3
100
AcDbEntity
  8
0
100
AcDbCircle
 62
7
  6
CONTINUOUS
 10
5.2455848337
 20
2.6115096254
 40
0.27838605
100
AcDbArc
 50
140.2374575672
 51
140.7749963383
  0
ARC
  5
3C4
100
AcDbEntity
  8
0
100
AcDbCircle
 62
7
  6
CONTINUOUS
 10
5.2454860382
 20
2.6122409576
 40
0.277856624
100
AcDbArc
 50
143.5467413518
 51
144.0849531433
  0
ARC
  5
3C5
100
AcDbEntity
  8
0
100
AcDbCircle
 62
7
  6
CONTINUOUS
 10
5.2433192633
 20
2.614853668
 40
0.2773808577
100
AcDbArc
 50
48.3362332869
 51
48.5720917537
  0
ARC
  5
3C6
100
AcDbEntity
  8
0
100
AcDbCircle
 62
7
  6
CONTINUOUS
 10
5.2453624039
 20
2.6129537849
 40
0.2773479644
100
AcDbArc
 50
146.8602145731
 51
147.3990713017
  0
ARC
  5
3C7
100
AcDbEntity
  8
0
100
AcDbCircle
 62
7
  6
CONTINUOUS
 10
5.2452214469
 20
2.6136442201
 40
0.2768668535
100
AcDbArc
 50
150.1776920271
 51
150.7171550753
  0
ARC
  5
3C8
100
AcDbEntity
  8
0
100
AcDbCircle
 62
7
  6
CONTINUOUS
 10
5.2450709014
 20
2.6143097101
 40
0.276419705
100
AcDbArc
 50
153.4989330928
 51
154.0389536495
  0
ARC
  5
3C9
100
AcDbEntity
  8
0
100
AcDbCircle
 62
7
  6
CONTINUOUS
 10
5.2449184702
 20
2.6149490579
 40
0.2760124738
100
AcDbArc
 50
156.8236453937
 51
157.3641650685
  0
ARC
  5
3CA
100
AcDbEntity
  8
0
100
AcDbCircle
 62
7
  6
CONTINUOUS
 10
5.2447715908
 20
2.6155623938
 40
0.2756505883
100
AcDbArc
 50
160.151489585
 51
160.6924412685
  0
ARC
  5
3CB
100
AcDbEntity
  8
0
100
AcDbCircle
 62
7
  6
CONTINUOUS
 10
5.2446372011
 20
2.6161511115
 40
0.2753388785
100
AcDbArc
 50
163.4820849277
 51
164.0233939379
  0
ARC
  5
3CC
100
AcDbEntity
  8
0
100
AcDbCircle
 62
7
  6
CONTINUOUS
 10
5.2445215248
 20
2.6167177616
 40
0.2750815174
100
AcDbArc
 50
166.8150155493
 51
167.3566010313
  0
ARC
  5
3CD
100
AcDbEntity
  8
0
100
AcDbCircle
 62
7
  6
CONTINUOUS
 10
5.2425848703
 20
2.6132588564
 40
0.2749936974
100
AcDbArc
 50
133.1598564217
 51
133.6317127454
  0
ARC
  5
3CE
100
AcDbEntity
  8
0
100
AcDbCircle
 62
7
  6
CONTINUOUS
 10
5.2444298774
 20
2.6172659115
 40
0.274881968
100
AcDbArc
 50
170.1498370644
 51
170.6916136215
  0
ARC
  5
3CF
100
AcDbEntity
  8
0
100
AcDbCircle
 62
7
  6
CONTINUOUS
 10
5.2452487609
 20
2.6180806021
 40
0.2748547472
100
AcDbArc
 50
325.5940215854
 51
326.0710373596
  0
ARC
  5
3D0
100
AcDbEntity
  8
0
100
AcDbCircle
 62
7
  6
CONTINUOUS
 10
5.2379480631
 20
2.6180725337
 40
0.2748404518
100
AcDbArc
 50
213.6276458514
 51
214.4863012338
  0
ARC
  5
3D1
100
AcDbEntity
  8
0
100
AcDbCircle
 62
7
  6
CONTINUOUS
 10
5.2443665032
 20
2.6177999724
 40
0.2747429429
100
AcDbArc
 50
173.4860832286
 51
174.0279626684
  0
ARC
  5
3D2
100
AcDbEntity
  8
0
100
AcDbCircle
 62
7
  6
CONTINUOUS
 10
5.2454236427
 20
2.6167301258
 40
0.2745600418
100
AcDbArc
 50
38.4339106158
 51
39.310656172
  0
ARC
  5
3D3
100
AcDbEntity
  8
0
100
AcDbCircle
 62
7
  6
CONTINUOUS
 10
5.2456744434
 20
2.6178093379
 40
0.2743499088
100
AcDbArc
 50
329.0055895286
 51
329.3876703379
  0
ARC
  5
3D4
100
AcDbEntity
  8
0
100
AcDbCircle
 62
7
  6
CONTINUOUS
 10
5.2375290751
 20
2.6178062213
 40
0.2743439266
100
AcDbArc
 50
210.3106539608
 51
211.1703450541
  0
ARC
  5
3D5
100
AcDbEntity
  8
0
100
AcDbCircle
 62
7
  6
CONTINUOUS
 10
5.2410137892
 20
2.6138272109
 40
0.2743146013
100
AcDbArc
 50
44.3438171869
 51
44.9000313924
  0
ARC
  5
3D6
100
AcDbEntity
  8
0
100
AcDbCircle
 62
7
  6
CONTINUOUS
 10
5.2459033633
 20
2.6168143334
 40
0.2740858234
100
AcDbArc
 50
28.4997460328
 51
29.3599767431
  0
ARC
  5
3D7
100
AcDbEntity
  8
0
100
AcDbCircle
 62
7
  6
CONTINUOUS
 10
5.2371226098
 20
2.6175797201
 40
0.2738785523
100
AcDbArc
 50
206.9898104717
 51
207.8504751379
  0
ARC
  5
3D8
100
AcDbEntity
  8
0
100
AcDbCircle
 62
7
  6
CONTINUOUS
 10
5.2460872629
 20
2.617579146
 40
0.2738771806
100
AcDbArc
 50
332.4212849783
 51
332.7081753173
  0
ARC
  5
3D9
100
AcDbEntity
  8
0
100
AcDbCircle
 62
7
  6
CONTINUOUS
 10
5.2370853124
 20
2.6181205844
 40
0.2738366164
100
AcDbArc
 50
206.9897776616
 51
207.2766963318
  0
ARC
  5
3DA
100
AcDbEntity
  8
0
100
AcDbCircle
 62
7
  6
CONTINUOUS
 10
5.2369443259
 20
2.6170019666
 40
0.2736789868
100
AcDbArc
 50
153.6597822096
 51
154.5208652161
  0
ARC
  5
3DB
100
AcDbEntity
  8
0
100
AcDbCircle
 62
7
  6
CONTINUOUS
 10
5.2462993616
 20
2.617018908
 40
0.2736400464
100
AcDbArc
 50
25.1769133514
 51
26.0380780462
  0
ARC
  5
3DC
100
AcDbEntity
  8
0
100
AcDbCircle
 62
7
  6
CONTINUOUS
 10
5.2464374199
 20
2.6174086272
 40
0.2734876681
100
AcDbArc
 50
335.1707674421
 51
336.0322519791
  0
ARC
  5
3DD
100
AcDbEntity
  8
0
100
AcDbCircle
 62
7
  6
CONTINUOUS
 10
5.24643742
 20
2.617968663
 40
0.2734876681
100
AcDbArc
 50
335.1707674421
 51
336.0322519792
  0
ARC
  5
3DE
100
AcDbEntity
  8
0
100
AcDbCircle
 62
7
  6
CONTINUOUS
 10
5.2367372694
 20
2.6173933196
 40
0.27345044
100
AcDbArc
 50
203.66538804
 51
204.5269507639
  0
ARC
  5
3DF
100
AcDbEntity
  8
0
100
AcDbCircle
 62
7
  6
CONTINUOUS
 10
5.2367372694
 20
2.6179533554
 40
0.27345044
100
AcDbArc
 50
203.66538804
 51
204.5269507639
  0
ARC
  5
3E0
100
AcDbEntity
  8
0
100
AcDbCircle
 62
7
  6
CONTINUOUS
 10
5.2365713711
 20
2.6171704208
 40
0.2732696999
100
AcDbArc
 50
156.9848682372
 51
157.8468108062
  0
ARC
  5
3E1
100
AcDbEntity
  8
0
100
AcDbCircle
 62
7
  6
CONTINUOUS
 10
5.2466696354
 20
2.6171838114
 40
0.2732346593
100
AcDbArc
 50
21.850671508
 51
22.7126877672
  0
ARC
  5
3E2
100
AcDbEntity
  8
0
100
AcDbCircle
 62
7
  6
CONTINUOUS
 10
5.2467963023
 20
2.6172577643
 40
0.2730983153
100
AcDbArc
 50
338.4973466306
 51
339.3596497704
  0
ARC
  5
3E3
100
AcDbEntity
  8
0
100
AcDbCircle
 62
7
  6
CONTINUOUS
 10
5.2467963023
 20
2.6178178001
 40
0.2730983153
100
AcDbArc
 50
338.4973466306
 51
339.3596497704
  0
ARC
  5
3E4
100
AcDbEntity
  8
0
100
AcDbCircle
 62
7
  6
CONTINUOUS
 10
5.2363813998
 20
2.6172459214
 40
0.2730652024
100
AcDbArc
 50
200.3377086942
 51
201.2000815426
  0
ARC
  5
3E5
100
AcDbEntity
  8
0
100
AcDbCircle
 62
7
  6
CONTINUOUS
 10
5.2363440137
 20
2.6177919502
 40
0.2730252787
100
AcDbArc
 50
200.337679277
 51
201.2000750993
  0
ARC
  5
3E6
100
AcDbEntity
  8
0
100
AcDbCircle
 62
7
  6
CONTINUOUS
 10
5.2362315308
 20
2.6173008174
 40
0.2729056542
100
AcDbArc
 50
160.3131427903
 51
161.1758517138
  0
ARC
  5
3E7
100
AcDbEntity
  8
0
100
AcDbCircle
 62
7
  6
CONTINUOUS
 10
5.2470269021
 20
2.6173179597
 40
0.2728529793
100
AcDbArc
 50
18.521346787
 51
19.3841286095
  0
ARC
  5
3E8
100
AcDbEntity
  8
0
100
AcDbCircle
 62
7
  6
CONTINUOUS
 10
5.2471185501
 20
2.617703782
 40
0.2727564465
100
AcDbArc
 50
341.8269488609
 51
342.6899723747
  0
ARC
  5
3E9
100
AcDbEntity
  8
0
100
AcDbCircle
 62
7
  6
CONTINUOUS
 10
5.2471185501
 20
2.6171437461
 40
0.2727564465
100
AcDbArc
 50
341.8269488608
 51
342.6899723747
  0
ARC
  5
3EA
100
AcDbEntity
  8
0
100
AcDbCircle
 62
7
  6
CONTINUOUS
 10
5.2360628519
 20
2.617135094
 40
0.2727278818
100
AcDbArc
 50
197.0071396641
 51
197.8702234366
  0
ARC
  5
3EB
100
AcDbEntity
  8
0
100
AcDbCircle
 62
7
  6
CONTINUOUS
 10
5.2360295587
 20
2.617684816
 40
0.2726930279
100
AcDbArc
 50
197.0071134448
 51
197.8702183426
  0
ARC
  5
3EC
100
AcDbEntity
  8
0
100
AcDbCircle
 62
7
  6
CONTINUOUS
 10
5.2359011545
 20
2.6174049351
 40
0.2725592018
100
AcDbArc
 50
163.6442347922
 51
164.5076264044
  0
ARC
  5
3ED
100
AcDbEntity
  8
0
100
AcDbCircle
 62
7
  6
CONTINUOUS
 10
5.2473237837
 20
2.617409464
 40
0.2725422717
100
AcDbArc
 50
15.1893707857
 51
16.0528067652
  0
ARC
  5
3EE
100
AcDbEntity
  8
0
100
AcDbCircle
 62
7
  6
CONTINUOUS
 10
5.2357887573
 20
2.6170571678
 40
0.2724428881
100
AcDbArc
 50
193.6740885
 51
194.5377740579
  0
ARC
  5
3EF
100
AcDbEntity
  8
0
100
AcDbCircle
 62
7
  6
CONTINUOUS
 10
5.2474259348
 20
2.6176157209
 40
0.2724366427
100
AcDbArc
 50
345.1591838611
 51
346.0228387509
  0
ARC
  5
3F0
100
AcDbEntity
  8
0
100
AcDbCircle
 62
7
  6
CONTINUOUS
 10
5.247425935
 20
2.6170556851
 40
0.2724366425
100
AcDbArc
 50
345.159183861
 51
346.022838751
  0
ARC
  5
3F1
100
AcDbEntity
  8
0
100
AcDbCircle
 62
7
  6
CONTINUOUS
 10
5.235764008
 20
2.6176110768
 40
0.2724173919
100
AcDbArc
 50
193.6740669488
 51
194.537768714
  0
ARC
  5
3F2
100
AcDbEntity
  8
0
100
AcDbCircle
 62
7
  6
CONTINUOUS
 10
5.2356544339
 20
2.6174663899
 40
0.2723049069
100
AcDbArc
 50
166.9777190411
 51
167.8416578548
  0
ARC
  5
3F3
100
AcDbEntity
  8
0
100
AcDbCircle
 62
7
  6
CONTINUOUS
 10
5.2475563109
 20
2.6174668716
 40
0.2723027333
100
AcDbArc
 50
11.8551618886
 51
12.7191273139
  0
ARC
  5
3F4
100
AcDbEntity
  8
0
100
AcDbCircle
 62
7
  6
CONTINUOUS
 10
5.2355653237
 20
2.6170073675
 40
0.2722139422
100
AcDbArc
 50
190.3389975492
 51
191.2031673036
  0
ARC
  5
3F5
100
AcDbEntity
  8
0
100
AcDbCircle
 62
7
  6
CONTINUOUS
 10
5.2476458254
 20
2.6170069171
 40
0.2722113786
100
AcDbArc
 50
349.0696991122
 51
349.3577586794
  0
ARC
  5
3F6
100
AcDbEntity
  8
0
100
AcDbCircle
 62
7
  6
CONTINUOUS
 10
5.2476488944
 20
2.6175663716
 40
0.2722082551
100
AcDbArc
 50
348.4936117093
 51
349.357759643
  0
ARC
  5
3F7
100
AcDbEntity
  8
0
100
AcDbCircle
 62
7
  6
CONTINUOUS
 10
5.2355481627
 20
2.6175641922
 40
0.2721964836
100
AcDbArc
 50
190.3389808885
 51
191.2031630119
  0
ARC
  5
3F8
100
AcDbEntity
  8
0
100
AcDbCircle
 62
7
  6
CONTINUOUS
 10
5.2354613695
 20
2.6175027843
 40
0.2721084148
100
AcDbArc
 50
170.3131529487
 51
171.1775179346
  0
ARC
  5
3F9
100
AcDbEntity
  8
0
100
AcDbCircle
 62
7
  6
CONTINUOUS
 10
5.247761983
 20
2.6175050574
 40
0.2720935129
100
AcDbArc
 50
8.519147867
 51
9.3835453728
  0
ARC
  5
3FA
100
AcDbEntity
  8
0
100
AcDbCircle
 62
7
  6
CONTINUOUS
 10
5.2478137925
 20
2.6175396662
 40
0.272041186
100
AcDbArc
 50
351.8297763959
 51
352.6942922053
  0
ARC
  5
3FB
100
AcDbEntity
  8
0
100
AcDbCircle
 62
7
  6
CONTINUOUS
 10
5.2478137926
 20
2.6169796303
 40
0.2720411859
100
AcDbArc
 50
352.406112508
 51
352.6942922053
  0
ARC
  5
3FC
100
AcDbEntity
  8
0
100
AcDbCircle
 62
7
  6
CONTINUOUS
 10
5.2353846405
 20
2.6175383514
 40
0.2720309094
100
AcDbArc
 50
187.0023245042
 51
187.8668659723
  0
ARC
  5
3FD
100
AcDbEntity
  8
0
100
AcDbCircle
 62
7
  6
CONTINUOUS
 10
5.2353803121
 20
2.6169777756
 40
0.2720265475
100
AcDbArc
 50
187.0023227637
 51
187.8668669729
  0
ARC
  5
3FE
100
AcDbEntity
  8
0
100
AcDbCircle
 62
7
  6
CONTINUOUS
 10
5.2419431911
 20
2.6166855299
 40
0.2719733318
100
AcDbArc
 50
21.1329993463
 51
22.7811558258
  0
ARC
  5
3FF
100
AcDbEntity
  8
0
100
AcDbCircle
 62
7
  6
CONTINUOUS
 10
5.235326388
 20
2.6175202744
 40
0.271972286
100
AcDbArc
 50
173.6500610523
 51
174.5147247369
  0
ARC
  5
400
100
AcDbEntity
  8
0
100
AcDbCircle
 62
7
  6
CONTINUOUS
 10
5.2478898263
 20
2.6175210023
 40
0.271964662
100
AcDbArc
 50
5.1818437875
 51
6.046528044
  0
ARC
  5
401
100
AcDbEntity
  8
0
100
AcDbCircle
 62
7
  6
CONTINUOUS
 10
5.2479207693
 20
2.6175284606
 40
0.2719336098
100
AcDbArc
 50
355.1671901309
 51
356.0319459823
  0
ARC
  5
402
100
AcDbEntity
  8
0
100
AcDbCircle
 62
7
  6
CONTINUOUS
 10
5.2479234983
 20
2.6169682299
 40
0.2719308739
100
AcDbArc
 50
355.6476055269
 51
356.0319471494
  0
ARC
  5
403
100
AcDbEntity
  8
0
100
AcDbCircle
 62
7
  6
CONTINUOUS
 10
5.2352796907
 20
2.6175278886
 40
0.2719254248
100
AcDbArc
 50
183.664592018
 51
184.529363896
  0
ARC
  5
404
100
AcDbEntity
  8
0
100
AcDbCircle
 62
7
  6
CONTINUOUS
 10
5.2352784127
 20
2.6169677689
 40
0.2719241441
100
AcDbArc
 50
183.6645915952
 51
184.5293637356
  0
ARC
  5
405
100
AcDbEntity
  8
0
100
AcDbCircle
 62
7
  6
CONTINUOUS
 10
5.2352534701
 20
2.6175256098
 40
0.2718991639
100
AcDbArc
 50
176.9879447706
 51
177.8527770175
  0
ARC
  5
406
100
AcDbEntity
  8
0
100
AcDbCircle
 62
7
  6
CONTINUOUS
 10
5.2479580448
 20
2.6175257227
 40
0.2718962719
100
AcDbArc
 50
1.843739843
 51
2.7085806658
  0
ARC
  5
407
100
AcDbEntity
  8
0
100
AcDbCircle
 62
7
  6
CONTINUOUS
 10
5.2479678974
 20
2.6175260585
 40
0.2718864153
100
AcDbArc
 50
358.5053494859
 51
359.370214545
  0
ARC
  5
408
100
AcDbEntity
  8
0
100
AcDbCircle
 62
7
  6
CONTINUOUS
 10
5.2479688173
 20
2.61696601
 40
0.2718854953
100
AcDbArc
 50
358.9858289727
 51
359.3702150707
  0
ARC
  5
409
100
AcDbEntity
  8
0
100
AcDbCircle
 62
7
  6
CONTINUOUS
 10
5.2352395714
 20
2.6175260406
 40
0.2718852589
100
AcDbArc
 50
180.326293863
 51
180.9028739864
  0
ARC
  5
40A
100
AcDbEntity
  8
0
100
AcDbCircle
 62
7
  6
CONTINUOUS
 10
5.2352391893
 20
2.6169660011
 40
0.2718848768
100
AcDbArc
 50
180.3262935511
 51
180.9989701599
  0
ARC
  5
40B
100
AcDbEntity
  8
0
100
AcDbCircle
 62
7
  6
CONTINUOUS
 10
5.2403652765
 20
2.6157225063
 40
0.271681849
100
AcDbArc
 50
135.8077558361
 51
136.9349864595
  0
ARC
  5
40C
100
AcDbEntity
  8
0
100
AcDbCircle
 62
7
  6
CONTINUOUS
 10
5.2421716548
 20
2.6170794348
 40
0.2716252416
100
AcDbArc
 50
17.8032836628
 51
19.4529564716
  0
ARC
  5
40D
100
AcDbEntity
  8
0
100
AcDbCircle
 62
7
  6
CONTINUOUS
 10
5.2423743284
 20
2.6174448814
 40
0.2713275836
100
AcDbArc
 50
14.471075609
 51
16.1221174683
  0
ARC
  5
40E
100
AcDbEntity
  8
0
100
AcDbCircle
 62
7
  6
CONTINUOUS
 10
5.2404698692
 20
2.6168536865
 40
0.271173294
100
AcDbArc
 50
156.2653777454
 51
156.8236703642
  0
ARC
  5
40F
100
AcDbEntity
  8
0
100
AcDbCircle
 62
7
  6
CONTINUOUS
 10
5.240025361
 20
2.6161508537
 40
0.27114391
100
AcDbArc
 50
139.1112575888
 51
140.2399598094
  0
ARC
  5
410
100
AcDbEntity
  8
0
100
AcDbCircle
 62
7
  6
CONTINUOUS
 10
5.2425452463
 20
2.6177853543
 40
0.2710840727
100
AcDbArc
 50
11.1368850681
 51
12.7891774735
  0
ARC
  5
411
100
AcDbEntity
  8
0
100
AcDbCircle
 62
7
  6
CONTINUOUS
 10
5.2426797431
 20
2.618105298
 40
0.2708973945
100
AcDbArc
 50
7.8013571139
 51
9.4548774144
  0
ARC
  5
412
100
AcDbEntity
  8
0
100
AcDbCircle
 62
7
  6
CONTINUOUS
 10
5.2396701406
 20
2.6165518905
 40
0.2706172412
100
AcDbArc
 50
142.4191172292
 51
143.5492503678
  0
ARC
  5
413
100
AcDbEntity
  8
0
100
AcDbCircle
 62
7
  6
CONTINUOUS
 10
5.2393072639
 20
2.6169212424
 40
0.2701088143
100
AcDbArc
 50
145.731238647
 51
146.8627309217
  0
ARC
  5
414
100
AcDbEntity
  8
0
100
AcDbCircle
 62
7
  6
CONTINUOUS
 10
5.2389448276
 20
2.6172558111
 40
0.2696253486
100
AcDbArc
 50
149.0474682533
 51
150.1802161416
  0
ARC
  5
415
100
AcDbEntity
  8
0
100
AcDbCircle
 62
7
  6
CONTINUOUS
 10
5.2445579754
 20
2.6172909199
 40
0.2693589443
100
AcDbArc
 50
43.7678155274
 51
44.3438495956
  0
ARC
  5
416
100
AcDbEntity
  8
0
100
AcDbCircle
 62
7
  6
CONTINUOUS
 10
5.2385911258
 20
2.6175538505
 40
0.2691732029
100
AcDbArc
 50
152.3675965835
 51
153.5014652795
  0
ARC
  5
417
100
AcDbEntity
  8
0
100
AcDbCircle
 62
7
  6
CONTINUOUS
 10
5.244984329
 20
2.6176168709
 40
0.2688224755
100
AcDbArc
 50
40.4637650381
 51
41.0411449325
  0
ARC
  5
418
100
AcDbEntity
  8
0
100
AcDbCircle
 62
7
  6
CONTINUOUS
 10
5.238284863
 20
2.6180432677
 40
0.2687107273
100
AcDbArc
 50
162.5042598671
 51
163.4837913007
  0
ARC
  5
419
100
AcDbEntity
  8
0
100
AcDbCircle
 62
7
  6
CONTINUOUS
 10
5.2379428288
 20
2.6180401251
 40
0.2683862234
100
AcDbArc
 50
159.0184482297
 51
160.1540382605
  0
ARC
  5
41A
100
AcDbEntity
  8
0
100
AcDbCircle
 62
7
  6
CONTINUOUS
 10
5.2454206793
 20
2.6179111532
 40
0.2682964081
100
AcDbArc
 50
37.1553653137
 51
37.7333640716
  0
ARC
  5
41B
100
AcDbEntity
  8
0
100
AcDbCircle
 62
7
  6
CONTINUOUS
 10
5.244771417
 20
2.6174349213
 40
0.2667567609
100
AcDbArc
 50
292.6495191953
 51
293.7517638486
  0
ARC
  5
41C
100
AcDbEntity
  8
0
100
AcDbCircle
 62
7
  6
CONTINUOUS
 10
5.2452925609
 20
2.6172389399
 40
0.2663549129
100
AcDbArc
 50
295.9244004953
 51
297.0277913353
  0
ARC
  5
41D
100
AcDbEntity
  8
0
100
AcDbCircle
 62
7
  6
CONTINUOUS
 10
5.2458404598
 20
2.6170413199
 40
0.265917326
100
AcDbArc
 50
299.2027281537
 51
300.3073608513
  0
ARC
  5
41E
100
AcDbEntity
  8
0
100
AcDbCircle
 62
7
  6
CONTINUOUS
 10
5.2464138441
 20
2.6168496673
 40
0.265449935
100
AcDbArc
 50
302.4847939213
 51
303.5907475052
  0
ARC
  5
41F
100
AcDbEntity
  8
0
100
AcDbCircle
 62
7
  6
CONTINUOUS
 10
5.2470102259
 20
2.6166714791
 40
0.2649589646
100
AcDbArc
 50
305.7708402466
 51
306.8781768336
  0
ARC
  5
420
100
AcDbEntity
  8
0
100
AcDbCircle
 62
7
  6
CONTINUOUS
 10
5.2476258229
 20
2.6165140764
 40
0.2644510378
100
AcDbArc
 50
309.0610573397
 51
310.1698214735
  0
ARC
  5
421
100
AcDbEntity
  8
0
100
AcDbCircle
 62
7
  6
CONTINUOUS
 10
5.2482556649
 20
2.6163842991
 40
0.2639329974
100
AcDbArc
 50
312.3555794957
 51
313.4657982123
  0
ARC
  5
422
100
AcDbEntity
  8
0
100
AcDbCircle
 62
7
  6
CONTINUOUS
 10
5.2488936821
 20
2.6162883062
 40
0.2634118328
100
AcDbArc
 50
315.6544827778
 51
316.7661659201
  0
ARC
  5
423
100
AcDbEntity
  8
0
100
AcDbCircle
 62
7
  6
CONTINUOUS
 10
5.2382453012
 20
2.6094834336
 40
0.2590946996
100
AcDbArc
 50
257.2813745775
 51
257.8445827632
  0
ARC
  5
424
100
AcDbEntity
  8
0
100
AcDbCircle
 62
7
  6
CONTINUOUS
 10
5.2373257997
 20
2.6094594869
 40
0.2588510273
100
AcDbArc
 50
254.0148454419
 51
254.5783270916
  0
ARC
  5
425
100
AcDbEntity
  8
0
100
AcDbCircle
 62
7
  6
CONTINUOUS
 10
5.2363920085
 20
2.6094405943
 40
0.2585578102
100
AcDbArc
 50
250.746037551
 51
251.3098555093
  0
ARC
  5
426
100
AcDbEntity
  8
0
100
AcDbCircle
 62
7
  6
CONTINUOUS
 10
5.2354430037
 20
2.6094320973
 40
0.258218922
100
AcDbArc
 50
247.4745465934
 51
248.0387572687
  0
ARC
  5
427
100
AcDbEntity
  8
0
100
AcDbCircle
 62
7
  6
CONTINUOUS
 10
5.2242781598
 20
2.6124821058
 40
0.2529613138
100
AcDbArc
 50
207.3473910157
 51
209.0587717094
  0
ARC
  5
428
100
AcDbEntity
  8
0
100
AcDbCircle
 62
7
  6
CONTINUOUS
 10
5.2591551211
 20
2.6127309043
 40
0.2528773481
100
AcDbArc
 50
332.1982829093
 51
333.9169053382
  0
ARC
  5
429
100
AcDbEntity
  8
0
100
AcDbCircle
 62
7
  6
CONTINUOUS
 10
5.2235469692
 20
2.6130742764
 40
0.2525717614
100
AcDbArc
 50
204.0234455015
 51
205.7364856903
  0
ARC
  5
42A
100
AcDbEntity
  8
0
100
AcDbCircle
 62
7
  6
CONTINUOUS
 10
5.2598557497
 20
2.613342192
 40
0.2525048385
100
AcDbArc
 50
335.5217318915
 51
337.242204522
  0
ARC
  5
42B
100
AcDbEntity
  8
0
100
AcDbCircle
 62
7
  6
CONTINUOUS
 10
5.2228872815
 20
2.6137218589
 40
0.2522207513
100
AcDbArc
 50
200.696226752
 51
202.410734149
  0
ARC
  5
42C
100
AcDbEntity
  8
0
100
AcDbCircle
 62
7
  6
CONTINUOUS
 10
5.2604808021
 20
2.6140071806
 40
0.2521737057
100
AcDbArc
 50
338.8484507758
 51
340.5706639792
  0
ARC
  5
42D
100
AcDbEntity
  8
0
100
AcDbCircle
 62
7
  6
CONTINUOUS
 10
5.2223073171
 20
2.6144201519
 40
0.2519129106
100
AcDbArc
 50
197.366108746
 51
199.081857055
  0
ARC
  5
42E
100
AcDbEntity
  8
0
100
AcDbCircle
 62
7
  6
CONTINUOUS
 10
5.261022117
 20
2.6147206014
 40
0.2518885708
100
AcDbArc
 50
342.1780726149
 51
343.9019050049
  0
ARC
  5
42F
100
AcDbEntity
  8
0
100
AcDbCircle
 62
7
  6
CONTINUOUS
 10
5.2614724411
 20
2.6154759901
 40
0.2516534242
100
AcDbArc
 50
345.5101926966
 51
347.2355100348
  0
ARC
  5
430
100
AcDbEntity
  8
0
100
AcDbCircle
 62
7
  6
CONTINUOUS
 10
5.2218143977
 20
2.615163242
 40
0.251652181
100
AcDbArc
 50
194.0335177408
 51
195.7502378873
  0
ARC
  5
431
100
AcDbEntity
  8
0
100
AcDbCircle
 62
7
  6
CONTINUOUS
 10
5.2214145985
 20
2.6159441289
 40
0.251441613
100
AcDbArc
 50
190.6989419665
 51
192.416298613
  0
ARC
  5
432
100
AcDbEntity
  8
0
100
AcDbCircle
 62
7
  6
CONTINUOUS
 10
5.221112055
 20
2.616754878
 40
0.2512828004
100
AcDbArc
 50
187.3629771914
 51
189.0804941779
  0
ARC
  5
433
100
AcDbEntity
  8
0
100
AcDbCircle
 62
7
  6
CONTINUOUS
 10
5.2209096418
 20
2.6175871151
 40
0.2511766809
100
AcDbArc
 50
184.0262370511
 51
185.7433058254
  0
ARC
  5
434
100
AcDbEntity
  8
0
100
AcDbCircle
 62
7
  6
CONTINUOUS
 10
5.2311222834
 20
2.602408833
 40
0.2500477345
100
AcDbArc
 50
244.1912608609
 51
245.346079057
  0
ARC
  5
435
100
AcDbEntity
  8
0
100
AcDbCircle
 62
7
  6
CONTINUOUS
 10
5.2297569377
 20
2.602659578
 40
0.2496507296
100
AcDbArc
 50
240.913339303
 51
242.0690233602
  0
ARC
  5
436
100
AcDbEntity
  8
0
100
AcDbCircle
 62
7
  6
CONTINUOUS
 10
5.2283940791
 20
2.6029615336
 40
0.249223744
100
AcDbArc
 50
237.6317565374
 51
238.7883494853
  0
ARC
  5
437
100
AcDbEntity
  8
0
100
AcDbCircle
 62
7
  6
CONTINUOUS
 10
5.227038246
 20
2.6033199574
 40
0.2487722688
100
AcDbArc
 50
234.3462828489
 51
235.5037968828
  0
ARC
  5
438
100
AcDbEntity
  8
0
100
AcDbCircle
 62
7
  6
CONTINUOUS
 10
5.2256949476
 20
2.6037397546
 40
0.248302016
100
AcDbArc
 50
231.0567446721
 51
232.2151547802
  0
ARC
  5
439
100
AcDbEntity
  8
0
100
AcDbCircle
 62
7
  6
CONTINUOUS
 10
5.2243705625
 20
2.6042252616
 40
0.2478187916
100
AcDbArc
 50
227.7630301454
 51
228.9222653375
  0
ARC
  5
43A
100
AcDbEntity
  8
0
100
AcDbCircle
 62
7
  6
CONTINUOUS
 10
5.2230720726
 20
2.6047799303
 40
0.2473281926
100
AcDbArc
 50
224.4651032175
 51
225.6250261568
  0
ARC
  5
43B
100
AcDbEntity
  8
0
100
AcDbCircle
 62
7
  6
CONTINUOUS
 10
5.2218246332
 20
2.6054223391
 40
0.2468594902
100
AcDbArc
 50
221.1616720756
 51
222.3233812645
  0
ARC
  5
43C
100
AcDbEntity
  8
0
100
AcDbCircle
 62
7
  6
CONTINUOUS
 10
5.2618995613
 20
2.6057781939
 40
0.2467020456
100
AcDbArc
 50
319.5006084121
 51
320.6685696612
  0
ARC
  5
43D
100
AcDbEntity
  8
0
100
AcDbCircle
 62
7
  6
CONTINUOUS
 10
5.2206181785
 20
2.6061343202
 40
0.2463914079
100
AcDbArc
 50
217.854306935
 51
219.0173556966
  0
ARC
  5
43E
100
AcDbEntity
  8
0
100
AcDbCircle
 62
7
  6
CONTINUOUS
 10
5.2630765094
 20
2.6065244387
 40
0.2462435101
100
AcDbArc
 50
322.8089776848
 51
323.9783838168
  0
ARC
  5
43F
100
AcDbEntity
  8
0
100
AcDbCircle
 62
7
  6
CONTINUOUS
 10
5.2194687763
 20
2.6069227356
 40
0.2459392811
100
AcDbArc
 50
214.5425997769
 51
215.7070163403
  0
ARC
  5
440
100
AcDbEntity
  8
0
100
AcDbCircle
 62
7
  6
CONTINUOUS
 10
5.2641920908
 20
2.6073462652
 40
0.2458034039
100
AcDbArc
 50
326.1215766077
 51
327.29239144
  0
ARC
  5
441
100
AcDbEntity
  8
0
100
AcDbCircle
 62
7
  6
CONTINUOUS
 10
5.2183851604
 20
2.6077859425
 40
0.2455077638
100
AcDbArc
 50
211.226783027
 51
212.3924927964
  0
ARC
  5
442
100
AcDbEntity
  8
0
100
AcDbCircle
 62
7
  6
CONTINUOUS
 10
5.2652362413
 20
2.608242317
 40
0.2453878754
100
AcDbArc
 50
329.4382332325
 51
330.6104127821
  0
ARC
  5
443
100
AcDbEntity
  8
0
100
AcDbCircle
 62
7
  6
CONTINUOUS
 10
5.2420676091
 20
2.5941132396
 40
0.2440793887
100
AcDbArc
 50
270.8966168067
 51
271.4855183784
  0
ARC
  5
444
100
AcDbEntity
  8
0
100
AcDbCircle
 62
7
  6
CONTINUOUS
 10
5.2403023132
 20
2.5941266858
 40
0.2440689576
100
AcDbArc
 50
267.6346426422
 51
268.2234694683
  0
ARC
  5
445
100
AcDbEntity
  8
0
100
AcDbCircle
 62
7
  6
CONTINUOUS
 10
5.2438332175
 20
2.5941465537
 40
0.244036048
100
AcDbArc
 50
274.158732854
 51
274.7477876098
  0
ARC
  5
446
100
AcDbEntity
  8
0
100
AcDbCircle
 62
7
  6
CONTINUOUS
 10
5.2385371655
 20
2.5941869465
 40
0.2440047907
100
AcDbArc
 50
264.3723181985
 51
264.9611464685
  0
ARC
  5
447
100
AcDbEntity
  8
0
100
AcDbCircle
 62
7
  6
CONTINUOUS
 10
5.2455992213
 20
2.5942274753
 40
0.2439396323
100
AcDbArc
 50
277.4214814564
 51
278.0107688024
  0
ARC
  5
448
100
AcDbEntity
  8
0
100
AcDbCircle
 62
7
  6
CONTINUOUS
 10
5.2367721047
 20
2.5942949819
 40
0.2438876641
100
AcDbArc
 50
261.1091556768
 51
261.6980583035
  0
ARC
  5
449
100
AcDbEntity
  8
0
100
AcDbCircle
 62
7
  6
CONTINUOUS
 10
5.247365445
 20
2.594357712
 40
0.2437915541
100
AcDbArc
 50
280.6853459792
 51
281.2749447509
  0
ARC
  5
44A
100
AcDbEntity
  8
0
100
AcDbCircle
 62
7
  6
CONTINUOUS
 10
5.2350073537
 20
2.5944526272
 40
0.2437190875
100
AcDbArc
 50
257.8446775615
 51
258.4337233148
  0
ARC
  5
44B
100
AcDbEntity
  8
0
100
AcDbCircle
 62
7
  6
CONTINUOUS
 10
5.2491312869
 20
2.5945397601
 40
0.2435939152
100
AcDbArc
 50
283.9507966766
 51
284.5407834106
  0
ARC
  5
44C
100
AcDbEntity
  8
0
100
AcDbCircle
 62
7
  6
CONTINUOUS
 10
5.233243592
 20
2.594662518
 40
0.2435012812
100
AcDbArc
 50
254.5784225857
 51
255.1676752375
  0
ARC
  5
44D
100
AcDbEntity
  8
0
100
AcDbCircle
 62
7
  6
CONTINUOUS
 10
5.2508955681
 20
2.5947768034
 40
0.2433494725
100
AcDbArc
 50
287.2182848967
 51
287.8087320324
  0
ARC
  5
44E
100
AcDbEntity
  8
0
100
AcDbCircle
 62
7
  6
CONTINUOUS
 10
5.2314821112
 20
2.5949279824
 40
0.2432371381
100
AcDbArc
 50
251.3099517629
 51
251.8994690482
  0
ARC
  5
44F
100
AcDbEntity
  8
0
100
AcDbCircle
 62
7
  6
CONTINUOUS
 10
5.2526563983
 20
2.5950725929
 40
0.2430616039
100
AcDbArc
 50
290.4882373872
 51
291.0792115377
  0
ARC
  5
450
100
AcDbEntity
  8
0
100
AcDbCircle
 62
7
  6
CONTINUOUS
 10
5.2297249441
 20
2.5952528944
 40
0.242930168
100
AcDbArc
 50
248.0388543508
 51
248.6286865809
  0
ARC
  5
451
100
AcDbEntity
  8
0
100
AcDbCircle
 62
7
  6
CONTINUOUS
 10
5.2544110652
 20
2.5954313019
 40
0.2427342634
100
AcDbArc
 50
293.7610506791
 51
294.3526111233
  0
ARC
  5
452
100
AcDbEntity
  8
0
100
AcDbCircle
 62
7
  6
CONTINUOUS
 10
5.256155948
 20
2.5958573633
 40
0.2423719335
100
AcDbArc
 50
297.0370856823
 51
297.6292831819
  0
ARC
  5
453
100
AcDbEntity
  8
0
100
AcDbCircle
 62
7
  6
CONTINUOUS
 10
5.2578864986
 20
2.5963552262
 40
0.2419794935
100
AcDbArc
 50
300.3166626638
 51
300.9095388812
  0
ARC
  5
454
100
AcDbEntity
  8
0
100
AcDbCircle
 62
7
  6
CONTINUOUS
 10
5.2595970029
 20
2.5969295261
 40
0.2415625741
100
AcDbArc
 50
303.6000565014
 51
304.1936428365
  0
ARC
  5
455
100
AcDbEntity
  8
0
100
AcDbCircle
 62
7
  6
CONTINUOUS
 10
5.2612810042
 20
2.5975841721
 40
0.2411266606
100
AcDbArc
 50
306.8874926647
 51
307.4818115423
  0
ARC
  5
456
100
AcDbEntity
  8
0
100
AcDbCircle
 62
7
  6
CONTINUOUS
 10
5.2629309186
 20
2.5983228736
 40
0.240677857
100
AcDbArc
 50
310.1791435968
 51
310.7742080864
  0
ARC
  5
457
100
AcDbEntity
  8
0
100
AcDbCircle
 62
7
  6
CONTINUOUS
 10
5.2645383174
 20
2.5991485882
 40
0.2402223917
100
AcDbArc
 50
313.4751259112
 51
314.0709406878
  0
ARC
  5
458
100
AcDbEntity
  8
0
100
AcDbCircle
 62
7
  6
CONTINUOUS
 10
5.2660939895
 20
2.6000634146
 40
0.2397666217
100
AcDbArc
 50
316.7754982951
 51
317.3720606384
  0
ARC
  5
459
100
AcDbEntity
  8
0
100
AcDbCircle
 62
7
  6
CONTINUOUS
 10
5.2459488243
 20
2.6330161111
 40
0.284057241
100
AcDbArc
 50
243.4382892261
 51
243.6657416893
  0
ARC
  5
45A
100
AcDbEntity
  8
0
100
AcDbCircle
 62
7
  6
CONTINUOUS
 10
5.2463143014
 20
2.6323760632
 40
0.283668825
100
AcDbArc
 50
240.1773479349
 51
240.3872390045
  0
ARC
  5
45B
100
AcDbEntity
  8
0
100
AcDbCircle
 62
7
  6
CONTINUOUS
 10
5.2466278897
 20
2.6316838235
 40
0.2832451649
100
AcDbArc
 50
236.9122717939
 51
237.1050395048
  0
ARC
  5
45C
100
AcDbEntity
  8
0
100
AcDbCircle
 62
7
  6
CONTINUOUS
 10
5.2468882478
 20
2.630948642
 40
0.2827925911
100
AcDbArc
 50
233.6427798114
 51
233.818922788
  0
ARC
  5
45D
100
AcDbEntity
  8
0
100
AcDbCircle
 62
7
  6
CONTINUOUS
 10
5.2470953874
 20
2.6301797908
 40
0.2823177494
100
AcDbArc
 50
230.3686393737
 51
230.5287256206
  0
ARC
  5
45E
100
AcDbEntity
  8
0
100
AcDbCircle
 62
7
  6
CONTINUOUS
 10
5.2416043138
 20
2.6239664121
 40
0.2814888071
100
AcDbArc
 50
269.4291831309
 51
270.274268464
  0
ARC
  5
45F
100
AcDbEntity
  8
0
100
AcDbCircle
 62
7
  6
CONTINUOUS
 10
5.2416057214
 20
2.6239311311
 40
0.2814534944
100
AcDbArc
 50
272.691259262
 51
273.5364031045
  0
ARC
  5
460
100
AcDbEntity
  8
0
100
AcDbCircle
 62
7
  6
CONTINUOUS
 10
5.2416026677
 20
2.6239272584
 40
0.2814496146
100
AcDbArc
 50
266.1670210658
 51
267.0121756818
  0
ARC
  5
461
100
AcDbEntity
  8
0
100
AcDbCircle
 62
7
  6
CONTINUOUS
 10
5.2416043
 20
2.6232994931
 40
0.2814337014
100
AcDbArc
 50
269.4190799492
 51
270.2843705027
  0
ARC
  5
462
100
AcDbEntity
  8
0
100
AcDbCircle
 62
7
  6
CONTINUOUS
 10
5.2416055036
 20
2.6232707082
 40
0.2814048913
100
AcDbArc
 50
272.6811767316
 51
273.5464657699
  0
ARC
  5
463
100
AcDbEntity
  8
0
100
AcDbCircle
 62
7
  6
CONTINUOUS
 10
5.2416027655
 20
2.623264739
 40
0.2813989115
100
AcDbArc
 50
266.1569641455
 51
267.0222530254
  0
ARC
  5
464
100
AcDbEntity
  8
0
100
AcDbCircle
 62
7
  6
CONTINUOUS
 10
5.2416145187
 20
2.6238345525
 40
0.2813565037
100
AcDbArc
 50
275.9537432996
 51
276.799072079
  0
ARC
  5
465
100
AcDbEntity
  8
0
100
AcDbCircle
 62
7
  6
CONTINUOUS
 10
5.243157076
 20
2.6311934067
 40
0.2813532747
100
AcDbArc
 50
255.6727286043
 51
256.7519862165
  0
ARC
  5
466
100
AcDbEntity
  8
0
100
AcDbCircle
 62
7
  6
CONTINUOUS
 10
5.241592943
 20
2.6238247328
 40
0.2813466154
100
AcDbArc
 50
262.9042791603
 51
263.7496314038
  0
ARC
  5
467
100
AcDbEntity
  8
0
100
AcDbCircle
 62
7
  6
CONTINUOUS
 10
5.2416146696
 20
2.6231697248
 40
0.2813034786
100
AcDbArc
 50
275.9437450857
 51
276.8090366196
  0
ARC
  5
468
100
AcDbEntity
  8
0
100
AcDbCircle
 62
7
  6
CONTINUOUS
 10
5.2415934542
 20
2.6231654812
 40
0.2812992055
100
AcDbArc
 50
262.8943305804
 51
263.7596174647
  0
ARC
  5
469
100
AcDbEntity
  8
0
100
AcDbCircle
 62
7
  6
CONTINUOUS
 10
5.241637392
 20
2.6236787825
 40
0.2811990432
100
AcDbArc
 50
279.2171215243
 51
280.0627618487
  0
ARC
  5
46A
100
AcDbEntity
  8
0
100
AcDbCircle
 62
7
  6
CONTINUOUS
 10
5.2415681871
 20
2.6236615274
 40
0.2811815213
100
AcDbArc
 50
259.6404718177
 51
260.4861465209
  0
ARC
  5
46B
100
AcDbEntity
  8
0
100
AcDbCircle
 62
7
  6
CONTINUOUS
 10
5.2416378353
 20
2.6230136128
 40
0.2811456369
100
AcDbArc
 50
279.2072730787
 51
280.0725633995
  0
ARC
  5
46C
100
AcDbEntity
  8
0
100
AcDbCircle
 62
7
  6
CONTINUOUS
 10
5.2415695302
 20
2.623006453
 40
0.2811383672
100
AcDbArc
 50
259.6306940539
 51
260.495978392
  0
ARC
  5
46D
100
AcDbEntity
  8
0
100
AcDbCircle
 62
7
  6
CONTINUOUS
 10
5.2434536998
 20
2.6308096338
 40
0.2810630874
100
AcDbArc
 50
252.4050343367
 51
253.4851353573
  0
ARC
  5
46E
100
AcDbEntity
  8
0
100
AcDbCircle
 62
7
  6
CONTINUOUS
 10
5.2416805291
 20
2.6234674981
 40
0.2809833725
100
AcDbArc
 50
282.4818768395
 51
283.3279461473
  0
ARC
  5
46F
100
AcDbEntity
  8
0
100
AcDbCircle
 62
7
  6
CONTINUOUS
 10
5.2415228846
 20
2.6234453257
 40
0.280960596
100
AcDbArc
 50
256.3751286575
 51
257.2212430485
  0
ARC
  5
470
100
AcDbEntity
  8
0
100
AcDbCircle
 62
7
  6
CONTINUOUS
 10
5.2416816765
 20
2.6228011848
 40
0.2809287038
100
AcDbArc
 50
282.4722369441
 51
283.3375252901
  0
ARC
  5
471
100
AcDbEntity
  8
0
100
AcDbCircle
 62
7
  6
CONTINUOUS
 10
5.2415246276
 20
2.6227913151
 40
0.2809185649
100
AcDbArc
 50
256.365579885
 51
257.2308609463
  0
ARC
  5
472
100
AcDbEntity
  8
0
100
AcDbCircle
 62
7
  6
CONTINUOUS
 10
5.2437106986
 20
2.6303593575
 40
0.2807197944
100
AcDbArc
 50
249.134844995
 51
250.2159390993
  0
ARC
  5
473
100
AcDbEntity
  8
0
100
AcDbCircle
 62
7
  6
CONTINUOUS
 10
5.2417495076
 20
2.623205278
 40
0.2807121971
100
AcDbArc
 50
285.7484682285
 51
286.5950803501
  0
ARC
  5
474
100
AcDbEntity
  8
0
100
AcDbCircle
 62
7
  6
CONTINUOUS
 10
5.2414498643
 20
2.6231740039
 40
0.2806795828
100
AcDbArc
 50
253.1077919182
 51
253.954464131
  0
ARC
  5
475
100
AcDbEntity
  8
0
100
AcDbCircle
 62
7
  6
CONTINUOUS
 10
5.2417478085
 20
2.6225511635
 40
0.2806700536
100
AcDbArc
 50
285.7390951431
 51
286.6043723913
  0
ARC
  5
476
100
AcDbEntity
  8
0
100
AcDbCircle
 62
7
  6
CONTINUOUS
 10
5.2414530782
 20
2.6225249881
 40
0.2806427585
100
AcDbArc
 50
253.0985317556
 51
253.9638085707
  0
ARC
  5
477
100
AcDbEntity
  8
0
100
AcDbCircle
 62
7
  6
CONTINUOUS
 10
5.2394059729
 20
2.6300969043
 40
0.2805084286
100
AcDbArc
 50
291.5842050714
 51
292.6649623932
  0
ARC
  5
478
100
AcDbEntity
  8
0
100
AcDbCircle
 62
7
  6
CONTINUOUS
 10
5.2418490153
 20
2.6228980084
 40
0.2803891757
100
AcDbArc
 50
289.0173333473
 51
289.8645953988
  0
ARC
  5
479
100
AcDbEntity
  8
0
100
AcDbCircle
 62
7
  6
CONTINUOUS
 10
5.2418528026
 20
2.6223273671
 40
0.2803779144
100
AcDbArc
 50
289.0173303107
 51
289.8646039287
  0
ARC
  5
47A
100
AcDbEntity
  8
0
100
AcDbCircle
 62
7
  6
CONTINUOUS
 10
5.2413448455
 20
2.622856859
 40
0.2803454579
100
AcDbArc
 50
249.838034673
 51
250.6853731289
  0
ARC
  5
47B
100
AcDbEntity
  8
0
100
AcDbCircle
 62
7
  6
CONTINUOUS
 10
5.2413448455
 20
2.6222968231
 40
0.2803454579
100
AcDbArc
 50
249.8380346729
 51
250.6853731289
  0
ARC
  5
47C
100
AcDbEntity
  8
0
100
AcDbCircle
 62
7
  6
CONTINUOUS
 10
5.2439231623
 20
2.6298502766
 40
0.2803279876
100
AcDbArc
 50
245.8617711884
 51
246.9439986004
  0
ARC
  5
47D
100
AcDbEntity
  8
0
100
AcDbCircle
 62
7
  6
CONTINUOUS
 10
5.2392190639
 20
2.6295605067
 40
0.2800918321
100
AcDbArc
 50
294.8580596617
 51
295.9398507625
  0
ARC
  5
47E
100
AcDbEntity
  8
0
100
AcDbCircle
 62
7
  6
CONTINUOUS
 10
5.2419877874
 20
2.6219804468
 40
0.2800056106
100
AcDbArc
 50
292.5715271828
 51
293.136904132
  0
ARC
  5
47F
100
AcDbEntity
  8
0
100
AcDbCircle
 62
7
  6
CONTINUOUS
 10
5.2419973369
 20
2.6225179868
 40
0.2799811719
100
AcDbArc
 50
292.2888791502
 51
293.1369159717
  0
ARC
  5
480
100
AcDbEntity
  8
0
100
AcDbCircle
 62
7
  6
CONTINUOUS
 10
5.2412065365
 20
2.6225067746
 40
0.2799689944
100
AcDbArc
 50
246.5654626579
 51
247.4135611362
  0
ARC
  5
481
100
AcDbEntity
  8
0
100
AcDbCircle
 62
7
  6
CONTINUOUS
 10
5.2411991923
 20
2.6219296702
 40
0.2799504129
100
AcDbArc
 50
246.5654524584
 51
247.4135685016
  0
ARC
  5
482
100
AcDbEntity
  8
0
100
AcDbCircle
 62
7
  6
CONTINUOUS
 10
5.2375717281
 20
2.6280067562
 40
0.279719829
100
AcDbArc
 50
311.7581267042
 51
312.3688524378
  0
ARC
  5
483
100
AcDbEntity
  8
0
100
AcDbCircle
 62
7
  6
CONTINUOUS
 10
5.239081703
 20
2.6289787118
 40
0.2796350775
100
AcDbArc
 50
298.1352488406
 51
299.2181860198
  0
ARC
  5
484
100
AcDbEntity
  8
0
100
AcDbCircle
 62
7
  6
CONTINUOUS
 10
5.2421627652
 20
2.6215965906
 40
0.2795836985
100
AcDbArc
 50
295.8464133116
 51
296.4123589121
  0
ARC
  5
485
100
AcDbEntity
  8
0
100
AcDbCircle
 62
7
  6
CONTINUOUS
 10
5.2421687762
 20
2.6221444327
 40
0.2795701037
100
AcDbArc
 50
295.5634806162
 51
296.4123672156
  0
ARC
  5
486
100
AcDbEntity
  8
0
100
AcDbCircle
 62
7
  6
CONTINUOUS
 10
5.2410280036
 20
2.6221204434
 40
0.2795433495
100
AcDbArc
 50
243.2897046075
 51
244.1386592236
  0
ARC
  5
487
100
AcDbEntity
  8
0
100
AcDbCircle
 62
7
  6
CONTINUOUS
 10
5.2410189079
 20
2.6215422102
 40
0.2795230055
100
AcDbArc
 50
243.2896934877
 51
244.1386675071
  0
ARC
  5
488
100
AcDbEntity
  8
0
100
AcDbCircle
 62
7
  6
CONTINUOUS
 10
5.2454681949
 20
2.627471617
 40
0.2792115585
100
AcDbArc
 50
226.6987268681
 51
227.0900488875
  0
ARC
  5
489
100
AcDbEntity
  8
0
100
AcDbCircle
 62
7
  6
CONTINUOUS
 10
5.2421330672
 20
2.6291856525
 40
0.2791871533
100
AcDbArc
 50
262.1998502094
 51
262.7480356053
  0
ARC
  5
48A
100
AcDbEntity
  8
0
100
AcDbCircle
 62
7
  6
CONTINUOUS
 10
5.2418938436
 20
2.6291930683
 40
0.279170807
100
AcDbArc
 50
265.4348297078
 51
266.010759569
  0
ARC
  5
48B
100
AcDbEntity
  8
0
100
AcDbCircle
 62
7
  6
CONTINUOUS
 10
5.2389954415
 20
2.6283607556
 40
0.2791441838
100
AcDbArc
 50
301.4160777834
 51
302.5002595814
  0
ARC
  5
48C
100
AcDbEntity
  8
0
100
AcDbCircle
 62
7
  6
CONTINUOUS
 10
5.2409605951
 20
2.6291070071
 40
0.2791256125
100
AcDbArc
 50
278.5121783559
 51
279.0602126122
  0
ARC
  5
48D
100
AcDbEntity
  8
0
100
AcDbCircle
 62
7
  6
CONTINUOUS
 10
5.242377262
 20
2.6211893767
 40
0.2791233855
100
AcDbArc
 50
299.1247235746
 51
299.6912912168
  0
ARC
  5
48E
100
AcDbEntity
  8
0
100
AcDbCircle
 62
7
  6
CONTINUOUS
 10
5.2408212227
 20
2.6211713421
 40
0.2791026957
100
AcDbArc
 50
240.0104630808
 51
240.8603543208
  0
ARC
  5
48F
100
AcDbEntity
  8
0
100
AcDbCircle
 62
7
  6
CONTINUOUS
 10
5.2423914935
 20
2.6217243164
 40
0.2790945351
100
AcDbArc
 50
298.8414834036
 51
299.6913051155
  0
ARC
  5
490
100
AcDbEntity
  8
0
100
AcDbCircle
 62
7
  6
CONTINUOUS
 10
5.2416589926
 20
2.6291186151
 40
0.279086471
100
AcDbArc
 50
268.6679448973
 51
269.2729010582
  0
ARC
  5
491
100
AcDbEntity
  8
0
100
AcDbCircle
 62
7
  6
CONTINUOUS
 10
5.2408098917
 20
2.6217115331
 40
0.279079844
100
AcDbArc
 50
240.0104414566
 51
240.8603318755
  0
ARC
  5
492
100
AcDbEntity
  8
0
100
AcDbCircle
 62
7
  6
CONTINUOUS
 10
5.2376439845
 20
2.6271930651
 40
0.2790791708
100
AcDbArc
 50
315.0400370937
 51
315.6678173214
  0
ARC
  5
493
100
AcDbEntity
  8
0
100
AcDbCircle
 62
7
  6
CONTINUOUS
 10
5.2423447026
 20
2.6289742712
 40
0.2790112377
100
AcDbArc
 50
258.9358509439
 51
259.4843266265
  0
ARC
  5
494
100
AcDbEntity
  8
0
100
AcDbCircle
 62
7
  6
CONTINUOUS
 10
5.2414371365
 20
2.628967769
 40
0.2789388786
100
AcDbArc
 50
271.9008002172
 51
272.5349462498
  0
ARC
  5
495
100
AcDbEntity
  8
0
100
AcDbCircle
 62
7
  6
CONTINUOUS
 10
5.2407583257
 20
2.628866183
 40
0.2789261973
100
AcDbArc
 50
281.776525415
 51
282.3247814122
  0
ARC
  5
496
100
AcDbEntity
  8
0
100
AcDbCircle
 62
7
  6
CONTINUOUS
 10
5.2435817429
 20
2.6283023089
 40
0.2787824978
100
AcDbArc
 50
242.5841736776
 51
243.440223813
  0
ARC
  5
497
100
AcDbEntity
  8
0
100
AcDbCircle
 62
7
  6
CONTINUOUS
 10
5.2412361287
 20
2.6287426081
 40
0.2787286697
100
AcDbArc
 50
275.1339539794
 51
275.7973861539
  0
ARC
  5
498
100
AcDbEntity
  8
0
100
AcDbCircle
 62
7
  6
CONTINUOUS
 10
5.2405839543
 20
2.6285578501
 40
0.2786687188
100
AcDbArc
 50
285.0426116753
 51
285.5911672806
  0
ARC
  5
499
100
AcDbEntity
  8
0
100
AcDbCircle
 62
7
  6
CONTINUOUS
 10
5.2426313103
 20
2.6207674705
 40
0.2786308312
100
AcDbArc
 50
302.406748462
 51
302.9739836112
  0
ARC
  5
49A
100
AcDbEntity
  8
0
100
AcDbCircle
 62
7
  6
CONTINUOUS
 10
5.238960342
 20
2.627716172
 40
0.2786257304
100
AcDbArc
 50
304.7008048884
 51
305.7863138473
  0
ARC
  5
49B
100
AcDbEntity
  8
0
100
AcDbCircle
 62
7
  6
CONTINUOUS
 10
5.2405654212
 20
2.6207488959
 40
0.2786087752
100
AcDbArc
 50
236.7274176085
 51
237.5783130067
  0
ARC
  5
49C
100
AcDbEntity
  8
0
100
AcDbCircle
 62
7
  6
CONTINUOUS
 10
5.2426437646
 20
2.6213081974
 40
0.2786078542
100
AcDbArc
 50
302.1231736623
 51
302.9739961368
  0
ARC
  5
49D
100
AcDbEntity
  8
0
100
AcDbCircle
 62
7
  6
CONTINUOUS
 10
5.2405522941
 20
2.6212887252
 40
0.2785846793
100
AcDbArc
 50
236.7273948585
 51
237.5782888205
  0
ARC
  5
49E
100
AcDbEntity
  8
0
100
AcDbCircle
 62
7
  6
CONTINUOUS
 10
5.2377626899
 20
2.6263919465
 40
0.2784435276
100
AcDbArc
 50
318.3269506634
 51
318.9711774383
  0
ARC
  5
49F
100
AcDbEntity
  8
0
100
AcDbCircle
 62
7
  6
CONTINUOUS
 10
5.2436841876
 20
2.6278078612
 40
0.2783975948
100
AcDbArc
 50
239.304404849
 51
240.1793978409
  0
ARC
  5
4A0
100
AcDbEntity
  8
0
100
AcDbCircle
 62
7
  6
CONTINUOUS
 10
5.240443503
 20
2.6281878951
 40
0.2783566318
100
AcDbArc
 50
288.3108813416
 51
288.8598106341
  0
ARC
  5
4A1
100
AcDbEntity
  8
0
100
AcDbCircle
 62
7
  6
CONTINUOUS
 10
5.2429088783
 20
2.6209198471
 40
0.2781375895
100
AcDbArc
 50
305.4087908892
 51
306.2606469943
  0
ARC
  5
4A2
100
AcDbEntity
  8
0
100
AcDbCircle
 62
7
  6
CONTINUOUS
 10
5.242923557
 20
2.6203396064
 40
0.2781126158
100
AcDbArc
 50
305.692731003
 51
306.2606705613
  0
ARC
  5
4A3
100
AcDbEntity
  8
0
100
AcDbCircle
 62
7
  6
CONTINUOUS
 10
5.2389750793
 20
2.6270543679
 40
0.2780865701
100
AcDbArc
 50
307.9896375616
 51
309.0765387561
  0
ARC
  5
4A4
100
AcDbEntity
  8
0
100
AcDbCircle
 62
7
  6
CONTINUOUS
 10
5.2402615866
 20
2.6203073708
 40
0.2780727347
100
AcDbArc
 50
233.4403415794
 51
234.1030005727
  0
ARC
  5
4A5
100
AcDbEntity
  8
0
100
AcDbCircle
 62
7
  6
CONTINUOUS
 10
5.2402566895
 20
2.6208607483
 40
0.2780644695
100
AcDbArc
 50
233.4403348956
 51
234.2922872631
  0
ARC
  5
4A6
100
AcDbEntity
  8
0
100
AcDbCircle
 62
7
  6
CONTINUOUS
 10
5.2437444631
 20
2.6272778018
 40
0.2779795154
100
AcDbArc
 50
236.0208280927
 51
236.9144341859
  0
ARC
  5
4A7
100
AcDbEntity
  8
0
100
AcDbCircle
 62
7
  6
CONTINUOUS
 10
5.2379207313
 20
2.6256107626
 40
0.2778205094
100
AcDbArc
 50
321.6189068055
 51
322.2788879289
  0
ARC
  5
4A8
100
AcDbEntity
  8
0
100
AcDbCircle
 62
7
  6
CONTINUOUS
 10
5.2432350412
 20
2.6204942282
 40
0.2776012992
100
AcDbArc
 50
308.6985579809
 51
309.5515108412
  0
ARC
  5
4A9
100
AcDbEntity
  8
0
100
AcDbCircle
 62
7
  6
CONTINUOUS
 10
5.2432512834
 20
2.6199143407
 40
0.2775756499
100
AcDbArc
 50
308.9828633012
 51
309.5515350675
  0
ARC
  5
4AA
100
AcDbEntity
  8
0
100
AcDbCircle
 62
7
  6
CONTINUOUS
 10
5.2437623234
 20
2.6267206672
 40
0.2775345448
100
AcDbArc
 50
232.7332324747
 51
233.64505132
  0
ARC
  5
4AB
100
AcDbEntity
  8
0
100
AcDbCircle
 62
7
  6
CONTINUOUS
 10
5.2399259183
 20
2.6198760947
 40
0.2775261507
100
AcDbArc
 50
230.1490833928
 51
231.0021353465
  0
ARC
  5
4AC
100
AcDbEntity
  8
0
100
AcDbCircle
 62
7
  6
CONTINUOUS
 10
5.2399259182
 20
2.6204361305
 40
0.2775261506
100
AcDbArc
 50
230.1490833927
 51
231.0021353464
  0
ARC
  5
4AD
100
AcDbEntity
  8
0
100
AcDbCircle
 62
7
  6
CONTINUOUS
 10
5.2377375135
 20
2.624486895
 40
0.2773264883
100
AcDbArc
 50
328.3676340187
 51
328.9063752572
  0
ARC
  5
4AE
100
AcDbEntity
  8
0
100
AcDbCircle
 62
7
  6
CONTINUOUS
 10
5.2381101513
 20
2.6248556366
 40
0.2772175924
100
AcDbArc
 50
324.9158886195
 51
325.5908436337
  0
ARC
  5
4AF
100
AcDbEntity
  8
0
100
AcDbCircle
 62
7
  6
CONTINUOUS
 10
5.2437388015
 20
2.6261449127
 40
0.2770692471
100
AcDbArc
 50
229.4414626558
 51
230.3710160542
  0
ARC
  5
4B0
100
AcDbEntity
  8
0
100
AcDbCircle
 62
7
  6
CONTINUOUS
 10
5.2435928636
 20
2.6200789992
 40
0.2770530938
100
AcDbArc
 50
311.9926036374
 51
312.8466812762
  0
ARC
  5
4B1
100
AcDbEntity
  8
0
100
AcDbCircle
 62
7
  6
CONTINUOUS
 10
5.2436104661
 20
2.6194998103
 40
0.2770270808
100
AcDbArc
 50
312.2772836624
 51
312.8467059008
  0
ARC
  5
4B2
100
AcDbEntity
  8
0
100
AcDbCircle
 62
7
  6
CONTINUOUS
 10
5.2395818323
 20
2.6194819966
 40
0.2770029172
100
AcDbArc
 50
226.8535412713
 51
227.707722045
  0
ARC
  5
4B3
100
AcDbEntity
  8
0
100
AcDbCircle
 62
7
  6
CONTINUOUS
 10
5.2395641179
 20
2.6200229589
 40
0.2769768867
100
AcDbArc
 50
226.8535166236
 51
227.7076950211
  0
ARC
  5
4B4
100
AcDbEntity
  8
0
100
AcDbCircle
 62
7
  6
CONTINUOUS
 10
5.2378958861
 20
2.6237878158
 40
0.2768396876
100
AcDbArc
 50
331.6868593148
 51
332.22622463
  0
ARC
  5
4B5
100
AcDbEntity
  8
0
100
AcDbCircle
 62
7
  6
CONTINUOUS
 10
5.2421452811
 20
2.6267607745
 40
0.2768067393
100
AcDbArc
 50
256.7455813232
 51
257.2812815302
  0
ARC
  5
4B6
100
AcDbEntity
  8
0
100
AcDbCircle
 62
7
  6
CONTINUOUS
 10
5.2453176504
 20
2.6235141477
 40
0.2767173601
100
AcDbArc
 50
206.8348698331
 51
207.3751074982
  0
ARC
  5
4B7
100
AcDbEntity
  8
0
100
AcDbCircle
 62
7
  6
CONTINUOUS
 10
5.2421960406
 20
2.6264590163
 40
0.2765344447
100
AcDbArc
 50
253.4787230447
 51
254.0147516773
  0
ARC
  5
4B8
100
AcDbEntity
  8
0
100
AcDbCircle
 62
7
  6
CONTINUOUS
 10
5.2439771682
 20
2.619681683
 40
0.2765002567
100
AcDbArc
 50
315.2910150581
 51
316.146230741
  0
ARC
  5
4B9
100
AcDbEntity
  8
0
100
AcDbCircle
 62
7
  6
CONTINUOUS
 10
5.243995878
 20
2.6191035058
 40
0.2764741961
100
AcDbArc
 50
315.576074371
 51
316.1462554956
  0
ARC
  5
4BA
100
AcDbEntity
  8
0
100
AcDbCircle
 62
7
  6
CONTINUOUS
 10
5.2391954153
 20
2.6190866541
 40
0.2764500225
100
AcDbArc
 50
223.5535921089
 51
224.4089113894
  0
ARC
  5
4BB
100
AcDbEntity
  8
0
100
AcDbCircle
 62
7
  6
CONTINUOUS
 10
5.2391766189
 20
2.6196286546
 40
0.2764239733
100
AcDbArc
 50
223.5535673559
 51
224.1238175414
  0
ARC
  5
4BC
100
AcDbEntity
  8
0
100
AcDbCircle
 62
7
  6
CONTINUOUS
 10
5.2380624072
 20
2.6231159693
 40
0.2763891412
100
AcDbArc
 50
335.0097246394
 51
335.5496623898
  0
ARC
  5
4BD
100
AcDbEntity
  8
0
100
AcDbCircle
 62
7
  6
CONTINUOUS
 10
5.2451456724
 20
2.6228475978
 40
0.2762784156
100
AcDbArc
 50
203.5103471197
 51
204.0511703999
  0
ARC
  5
4BE
100
AcDbEntity
  8
0
100
AcDbCircle
 62
7
  6
CONTINUOUS
 10
5.2422130163
 20
2.6261043157
 40
0.2762089785
100
AcDbArc
 50
250.2095192231
 51
250.7459430045
  0
ARC
  5
4BF
100
AcDbEntity
  8
0
100
AcDbCircle
 62
7
  6
CONTINUOUS
 10
5.2382292982
 20
2.6224721586
 40
0.2759806114
100
AcDbArc
 50
338.3359161221
 51
338.8763654174
  0
ARC
  5
4C0
100
AcDbEntity
  8
0
100
AcDbCircle
 62
7
  6
CONTINUOUS
 10
5.2443817048
 20
2.6193089576
 40
0.2759501183
100
AcDbArc
 50
318.5938219929
 51
319.4501739352
  0
ARC
  5
4C1
100
AcDbEntity
  8
0
100
AcDbCircle
 62
7
  6
CONTINUOUS
 10
5.2444075401
 20
2.6187266255
 40
0.2759159926
100
AcDbArc
 50
318.9744123823
 51
319.4502042227
  0
ARC
  5
4C2
100
AcDbEntity
  8
0
100
AcDbCircle
 62
7
  6
CONTINUOUS
 10
5.238789382
 20
2.6187164611
 40
0.275900492
100
AcDbArc
 50
220.2492507726
 51
221.105705399
  0
ARC
  5
4C3
100
AcDbEntity
  8
0
100
AcDbCircle
 62
7
  6
CONTINUOUS
 10
5.2449754014
 20
2.6222093393
 40
0.2758830855
100
AcDbArc
 50
200.1826019832
 51
200.7239577043
  0
ARC
  5
4C4
100
AcDbEntity
  8
0
100
AcDbCircle
 62
7
  6
CONTINUOUS
 10
5.2387634709
 20
2.6192543713
 40
0.2758664199
100
AcDbArc
 50
220.2492205184
 51
221.1056815361
  0
ARC
  5
4C5
100
AcDbEntity
  8
0
100
AcDbCircle
 62
7
  6
CONTINUOUS
 10
5.2421919078
 20
2.6257037432
 40
0.2758346583
100
AcDbArc
 50
246.937571114
 51
247.474451195
  0
ARC
  5
4C6
100
AcDbEntity
  8
0
100
AcDbCircle
 62
7
  6
CONTINUOUS
 10
5.2433871758
 20
2.6247675527
 40
0.2758274452
100
AcDbArc
 50
223.39436008
 51
224.4722685216
  0
ARC
  5
4C7
100
AcDbEntity
  8
0
100
AcDbCircle
 62
7
  6
CONTINUOUS
 10
5.245367433
 20
2.618798174
 40
0.2756858089
100
AcDbArc
 50
179.3942650179
 51
179.9942244509
  0
ARC
  5
4C8
100
AcDbEntity
  8
0
100
AcDbCircle
 62
7
  6
CONTINUOUS
 10
5.2383891073
 20
2.6218558743
 40
0.275619327
100
AcDbArc
 50
341.6650751074
 51
342.2059667172
  0
ARC
  5
4C9
100
AcDbEntity
  8
0
100
AcDbCircle
 62
7
  6
CONTINUOUS
 10
5.2414408389
 20
2.6256103216
 40
0.2755995706
100
AcDbArc
 50
281.6020018641
 51
281.7757682581
  0
ARC
  5
4CA
100
AcDbEntity
  8
0
100
AcDbCircle
 62
7
  6
CONTINUOUS
 10
5.2448141821
 20
2.6215985021
 40
0.2755364459
100
AcDbArc
 50
196.852013787
 51
197.3938429277
  0
ARC
  5
4CB
100
AcDbEntity
  8
0
100
AcDbCircle
 62
7
  6
CONTINUOUS
 10
5.2421295945
 20
2.625265156
 40
0.2754164324
100
AcDbArc
 50
243.6625164013
 51
244.1999073882
  0
ARC
  5
4CC
100
AcDbEntity
  8
0
100
AcDbCircle
 62
7
  6
CONTINUOUS
 10
5.2447993192
 20
2.618966474
 40
0.2754099588
100
AcDbArc
 50
321.9009958907
 51
322.7584671612
  0
ARC
  5
4CD
100
AcDbEntity
  8
0
100
AcDbCircle
 62
7
  6
CONTINUOUS
 10
5.2448257805
 20
2.618386143
 40
0.275376611
100
AcDbArc
 50
322.282084002
 51
322.7584969286
  0
ARC
  5
4CE
100
AcDbEntity
  8
0
100
AcDbCircle
 62
7
  6
CONTINUOUS
 10
5.2383709596
 20
2.6183769674
 40
0.2753615964
100
AcDbArc
 50
216.9405662749
 51
217.7981379413
  0
ARC
  5
4CF
100
AcDbEntity
  8
0
100
AcDbCircle
 62
7
  6
CONTINUOUS
 10
5.2383444646
 20
2.6189169023
 40
0.2753283397
100
AcDbArc
 50
216.9405365716
 51
217.7981147785
  0
ARC
  5
4D0
100
AcDbEntity
  8
0
100
AcDbCircle
 62
7
  6
CONTINUOUS
 10
5.2385349615
 20
2.6212653614
 40
0.2753098904
100
AcDbArc
 50
344.9968040087
 51
345.5380615769
  0
ARC
  5
4D1
100
AcDbEntity
  8
0
100
AcDbCircle
 62
7
  6
CONTINUOUS
 10
5.2431948842
 20
2.6241511209
 40
0.2752752223
100
AcDbArc
 50
220.0894904542
 51
221.1688454475
  0
ARC
  5
4D2
100
AcDbEntity
  8
0
100
AcDbCircle
 62
7
  6
CONTINUOUS
 10
5.2414815348
 20
2.625231418
 40
0.2752233177
100
AcDbArc
 50
284.8392584193
 51
285.0418851622
  0
ARC
  5
4D3
100
AcDbEntity
  8
0
100
AcDbCircle
 62
7
  6
CONTINUOUS
 10
5.2386607753
 20
2.620697739
 40
0.2750562213
100
AcDbArc
 50
348.3306726863
 51
348.8722141812
  0
ARC
  5
4D4
100
AcDbEntity
  8
0
100
AcDbCircle
 62
7
  6
CONTINUOUS
 10
5.2420242337
 20
2.6247969759
 40
0.2749598065
100
AcDbArc
 50
240.3840349359
 51
240.9219838804
  0
ARC
  5
4D5
100
AcDbEntity
  8
0
100
AcDbCircle
 62
7
  6
CONTINUOUS
 10
5.24522215
 20
2.6186587064
 40
0.2748869123
100
AcDbArc
 50
325.2124498179
 51
326.071008447
  0
ARC
  5
4D6
100
AcDbEntity
  8
0
100
AcDbCircle
 62
7
  6
CONTINUOUS
 10
5.2387614374
 20
2.6201491548
 40
0.274861507
100
AcDbArc
 50
351.6662251037
 51
352.207964469
  0
ARC
  5
4D7
100
AcDbEntity
  8
0
100
AcDbCircle
 62
7
  6
CONTINUOUS
 10
5.2379214631
 20
2.618614712
 40
0.2748084138
100
AcDbArc
 50
213.6276170328
 51
214.4862791572
  0
ARC
  5
4D8
100
AcDbEntity
  8
0
100
AcDbCircle
 62
7
  6
CONTINUOUS
 10
5.2415654922
 20
2.624808038
 40
0.2747954125
100
AcDbArc
 50
288.0789628878
 51
288.3101892841
  0
ARC
  5
4D9
100
AcDbEntity
  8
0
100
AcDbCircle
 62
7
  6
CONTINUOUS
 10
5.2429741608
 20
2.6235529365
 40
0.2747321397
100
AcDbArc
 50
216.7806976406
 51
217.8614822142
  0
ARC
  5
4DA
100
AcDbEntity
  8
0
100
AcDbCircle
 62
7
  6
CONTINUOUS
 10
5.2408976409
 20
2.6242845211
 40
0.2747281634
100
AcDbArc
 50
311.2800684552
 51
311.7577000791
  0
ARC
  5
4DB
100
AcDbEntity
  8
0
100
AcDbCircle
 62
7
  6
CONTINUOUS
 10
5.241875321
 20
2.6243079564
 40
0.2744707655
100
AcDbArc
 50
237.1018540523
 51
237.6403994246
  0
ARC
  5
4DC
100
AcDbEntity
  8
0
100
AcDbCircle
 62
7
  6
CONTINUOUS
 10
5.2456418475
 20
2.6183888376
 40
0.2743878733
100
AcDbArc
 50
328.5280391756
 51
329.3876384736
  0
ARC
  5
4DD
100
AcDbEntity
  8
0
100
AcDbCircle
 62
7
  6
CONTINUOUS
 10
5.241696232
 20
2.6243481478
 40
0.2743202737
100
AcDbArc
 50
291.3216044869
 51
291.5810979044
  0
ARC
  5
4DE
100
AcDbEntity
  8
0
100
AcDbCircle
 62
7
  6
CONTINUOUS
 10
5.2374965513
 20
2.6183470677
 40
0.2743061641
100
AcDbArc
 50
210.3106222394
 51
211.1703275732
  0
ARC
  5
4DF
100
AcDbEntity
  8
0
100
AcDbCircle
 62
7
  6
CONTINUOUS
 10
5.2427334358
 20
2.6229792774
 40
0.2742068572
100
AcDbArc
 50
213.4676054549
 51
214.5497774982
  0
ARC
  5
4E0
100
AcDbEntity
  8
0
100
AcDbCircle
 62
7
  6
CONTINUOUS
 10
5.241165648
 20
2.6236798629
 40
0.2741047666
100
AcDbArc
 50
314.577473068
 51
315.0395130616
  0
ARC
  5
4E1
100
AcDbEntity
  8
0
100
AcDbCircle
 62
7
  6
CONTINUOUS
 10
5.2414343062
 20
2.6240856865
 40
0.2740395403
100
AcDbArc
 50
261.6328521831
 51
262.1998790032
  0
ARC
  5
4E2
100
AcDbEntity
  8
0
100
AcDbCircle
 62
7
  6
CONTINUOUS
 10
5.2414857605
 20
2.6240735321
 40
0.2740350323
100
AcDbArc
 50
264.895866232
 51
265.4346852975
  0
ARC
  5
4E3
100
AcDbEntity
  8
0
100
AcDbCircle
 62
7
  6
CONTINUOUS
 10
5.2415414702
 20
2.6239978459
 40
0.2739643537
100
AcDbArc
 50
268.1581112517
 51
268.6676207172
  0
ARC
  5
4E4
100
AcDbEntity
  8
0
100
AcDbCircle
 62
7
  6
CONTINUOUS
 10
5.2416836965
 20
2.6238069241
 40
0.2739556657
100
AcDbArc
 50
233.8157533981
 51
234.3549240888
  0
ARC
  5
4E5
100
AcDbEntity
  8
0
100
AcDbCircle
 62
7
  6
CONTINUOUS
 10
5.2460498087
 20
2.6181586842
 40
0.2739194077
100
AcDbArc
 50
331.8475632277
 51
332.708142313
  0
ARC
  5
4E6
100
AcDbEntity
  8
0
100
AcDbCircle
 62
7
  6
CONTINUOUS
 10
5.2371377642
 20
2.6181476954
 40
0.2738956605
100
AcDbArc
 50
207.2767085507
 51
207.8504626392
  0
ARC
  5
4E7
100
AcDbEntity
  8
0
100
AcDbCircle
 62
7
  6
CONTINUOUS
 10
5.2413555143
 20
2.6239163064
 40
0.2738574526
100
AcDbArc
 50
258.3685008805
 51
258.9358799569
  0
ARC
  5
4E8
100
AcDbEntity
  8
0
100
AcDbCircle
 62
7
  6
CONTINUOUS
 10
5.2416089341
 20
2.6238637325
 40
0.2738319523
100
AcDbArc
 50
271.4200817328
 51
271.9002966791
  0
ARC
  5
4E9
100
AcDbEntity
  8
0
100
AcDbCircle
 62
7
  6
CONTINUOUS
 10
5.2418760108
 20
2.6238604434
 40
0.2738029635
100
AcDbArc
 50
294.5676429528
 51
294.8549960202
  0
ARC
  5
4EA
100
AcDbEntity
  8
0
100
AcDbCircle
 62
7
  6
CONTINUOUS
 10
5.2424802964
 20
2.6224339817
 40
0.2737059832
100
AcDbArc
 50
210.1504626182
 51
211.2339624819
  0
ARC
  5
4EB
100
AcDbEntity
  8
0
100
AcDbCircle
 62
7
  6
CONTINUOUS
 10
5.2407082784
 20
2.6222766559
 40
0.2736470175
100
AcDbArc
 50
331.5232897438
 51
331.6861239356
  0
ARC
  5
4EC
100
AcDbEntity
  8
0
100
AcDbCircle
 62
7
  6
CONTINUOUS
 10
5.2416948814
 20
2.6236729629
 40
0.2736383116
100
AcDbArc
 50
274.6822722486
 51
275.1332719248
  0
ARC
  5
4ED
100
AcDbEntity
  8
0
100
AcDbCircle
 62
7
  6
CONTINUOUS
 10
5.2412543694
 20
2.6236958579
 40
0.2736180704
100
AcDbArc
 50
255.1024317584
 51
255.6702542552
  0
ARC
  5
4EE
100
AcDbEntity
  8
0
100
AcDbCircle
 62
7
  6
CONTINUOUS
 10
5.2416811801
 20
2.6235591673
 40
0.2735277681
100
AcDbArc
 50
269.253475953
 51
270.8810330423
  0
ARC
  5
4EF
100
AcDbEntity
  8
0
100
AcDbCircle
 62
7
  6
CONTINUOUS
 10
5.2415911462
 20
2.6235270764
 40
0.2734975003
100
AcDbArc
 50
265.9914413639
 51
267.6190699408
  0
ARC
  5
4F0
100
AcDbEntity
  8
0
100
AcDbCircle
 62
7
  6
CONTINUOUS
 10
5.2417710456
 20
2.6235342162
 40
0.2734958905
100
AcDbArc
 50
272.5154081471
 51
274.1431365933
  0
ARC
  5
4F1
100
AcDbEntity
  8
0
100
AcDbCircle
 62
7
  6
CONTINUOUS
 10
5.241468223
 20
2.6230975094
 40
0.2734852737
100
AcDbArc
 50
317.8792740651
 51
318.326332978
  0
ARC
  5
4F2
100
AcDbEntity
  8
0
100
AcDbCircle
 62
7
  6
CONTINUOUS
 10
5.2414515248
 20
2.6233025495
 40
0.2734211546
100
AcDbArc
 50
230.5255697971
 51
231.0653840259
  0
ARC
  5
4F3
100
AcDbEntity
  8
0
100
AcDbCircle
 62
7
  6
CONTINUOUS
 10
5.2414942115
 20
2.6234386229
 40
0.2734054671
100
AcDbArc
 50
262.7288145661
 51
264.3567549341
  0
ARC
  5
4F4
100
AcDbEntity
  8
0
100
AcDbCircle
 62
7
  6
CONTINUOUS
 10
5.241867467
 20
2.6234529632
 40
0.2734023237
100
AcDbArc
 50
275.7777294378
 51
277.4058714818
  0
ARC
  5
4F5
100
AcDbEntity
  8
0
100
AcDbCircle
 62
7
  6
CONTINUOUS
 10
5.2418057262
 20
2.6234286851
 40
0.2733847313
100
AcDbArc
 50
277.945174657
 51
278.3671021638
  0
ARC
  5
4F6
100
AcDbEntity
  8
0
100
AcDbCircle
 62
7
  6
CONTINUOUS
 10
5.2411257416
 20
2.6234296113
 40
0.2733246136
100
AcDbArc
 50
251.8342002236
 51
252.402554759
  0
ARC
  5
4F7
100
AcDbEntity
  8
0
100
AcDbCircle
 62
7
  6
CONTINUOUS
 10
5.2413838673
 20
2.6232958886
 40
0.2732528821
100
AcDbArc
 50
259.4651131453
 51
261.09360006
  0
ARC
  5
4F8
100
AcDbEntity
  8
0
100
AcDbCircle
 62
7
  6
CONTINUOUS
 10
5.2421057193
 20
2.6233541292
 40
0.2732491248
100
AcDbArc
 50
297.8175037997
 51
298.1322310451
  0
ARC
  5
4F9
100
AcDbEntity
  8
0
100
AcDbCircle
 62
7
  6
CONTINUOUS
 10
5.2419769294
 20
2.6233175421
 40
0.2732483514
100
AcDbArc
 50
279.0409272916
 51
280.6697213047
  0
ARC
  5
4FA
100
AcDbEntity
  8
0
100
AcDbCircle
 62
7
  6
CONTINUOUS
 10
5.2409990271
 20
2.6217510258
 40
0.2731508091
100
AcDbArc
 50
334.8346536166
 51
335.008998724
  0
ARC
  5
4FB
100
AcDbEntity
  8
0
100
AcDbCircle
 62
7
  6
CONTINUOUS
 10
5.2419473473
 20
2.623135358
 40
0.27307331
100
AcDbArc
 50
281.2092720225
 51
281.6023345732
  0
ARC
  5
4FC
100
AcDbEntity
  8
0
100
AcDbCircle
 62
7
  6
CONTINUOUS
 10
5.2421054566
 20
2.6231314173
 40
0.2730360651
100
AcDbArc
 50
282.3054794085
 51
283.9351565578
  0
ARC
  5
4FD
100
AcDbEntity
  8
0
100
AcDbCircle
 62
7
  6
CONTINUOUS
 10
5.2409654464
 20
2.6231238758
 40
0.2729810309
100
AcDbArc
 50
248.5633886426
 51
249.132360342
  0
ARC
  5
4FE
100
AcDbEntity
  8
0
100
AcDbCircle
 62
7
  6
CONTINUOUS
 10
5.2417979149
 20
2.6225441241
 40
0.2728771488
100
AcDbArc
 50
321.1854503332
 51
321.6181995863
  0
ARC
  5
4FF
100
AcDbEntity
  8
0
100
AcDbCircle
 62
7
  6
CONTINUOUS
 10
5.2411822066
 20
2.62280309
 40
0.2728740415
100
AcDbArc
 50
227.2312029009
 51
227.7716669946
  0
ARC
  5
500
100
AcDbEntity
  8
0
100
AcDbCircle
 62
7
  6
CONTINUOUS
 10
5.2422584024
 20
2.6228992806
 40
0.2727683338
100
AcDbArc
 50
285.5718479099
 51
287.2026288357
  0
ARC
  5
501
100
AcDbEntity
  8
0
100
AcDbCircle
 62
7
  6
CONTINUOUS
 10
5.2421248824
 20
2.6227986496
 40
0.2727069201
100
AcDbArc
 50
284.4750326215
 51
284.8395023564
  0
ARC
  5
502
100
AcDbEntity
  8
0
100
AcDbCircle
 62
7
  6
CONTINUOUS
 10
5.242205077
 20
2.6204083734
 40
0.2727062079
100
AcDbArc
 50
192.9596084872
 51
194.0637849206
  0
ARC
  5
503
100
AcDbEntity
  8
0
100
AcDbCircle
 62
7
  6
CONTINUOUS
 10
5.2412789667
 20
2.6212644333
 40
0.2727005097
100
AcDbArc
 50
338.1504268826
 51
338.3351992497
  0
ARC
  5
504
100
AcDbEntity
  8
0
100
AcDbCircle
 62
7
  6
CONTINUOUS
 10
5.2423848139
 20
2.6228386898
 40
0.2726649206
100
AcDbArc
 50
301.0715737508
 51
301.4131077889
  0
ARC
  5
505
100
AcDbEntity
  8
0
100
AcDbCircle
 62
7
  6
CONTINUOUS
 10
5.2407703932
 20
2.6227858077
 40
0.2725919338
100
AcDbArc
 50
245.289611697
 51
245.8592816875
  0
ARC
  5
506
100
AcDbEntity
  8
0
100
AcDbCircle
 62
7
  6
CONTINUOUS
 10
5.2420601582
 20
2.6199911903
 40
0.2724796437
100
AcDbArc
 50
189.6242804372
 51
190.7291988364
  0
ARC
  5
507
100
AcDbEntity
  8
0
100
AcDbCircle
 62
7
  6
CONTINUOUS
 10
5.2424402626
 20
2.6226269145
 40
0.2724487628
100
AcDbArc
 50
288.8404734953
 51
290.4725651366
  0
ARC
  5
508
100
AcDbEntity
  8
0
100
AcDbCircle
 62
7
  6
CONTINUOUS
 10
5.2419500689
 20
2.6195924969
 40
0.2723126801
100
AcDbArc
 50
186.2876175739
 51
187.3932184787
  0
ARC
  5
509
100
AcDbEntity
  8
0
100
AcDbCircle
 62
7
  6
CONTINUOUS
 10
5.2415395113
 20
2.6208153942
 40
0.2723015518
100
AcDbArc
 50
341.4703261188
 51
341.6643666278
  0
ARC
  5
50A
100
AcDbEntity
  8
0
100
AcDbCircle
 62
7
  6
CONTINUOUS
 10
5.2423425375
 20
2.6224253085
 40
0.2722891806
100
AcDbArc
 50
287.7429040888
 51
288.0791194168
  0
ARC
  5
50B
100
AcDbEntity
  8
0
100
AcDbCircle
 62
7
  6
CONTINUOUS
 10
5.2421464642
 20
2.6220251412
 40
0.2722877331
100
AcDbArc
 50
324.4959212574
 51
324.9150963764
  0
ARC
  5
50C
100
AcDbEntity
  8
0
100
AcDbCircle
 62
7
  6
CONTINUOUS
 10
5.2418784094
 20
2.6192069701
 40
0.2722074708
100
AcDbArc
 50
182.9501858242
 51
184.0564567674
  0
ARC
  5
50D
100
AcDbEntity
  8
0
100
AcDbCircle
 62
7
  6
CONTINUOUS
 10
5.2405387083
 20
2.6224232168
 40
0.2721625469
100
AcDbArc
 50
242.0125214007
 51
242.5829668498
  0
ARC
  5
50E
100
AcDbEntity
  8
0
100
AcDbCircle
 62
7
  6
CONTINUOUS
 10
5.2406089169
 20
2.622336658
 40
0.2721418932
100
AcDbArc
 50
225.5709949887
 51
226.7018099375
  0
ARC
  5
50F
100
AcDbEntity
  8
0
100
AcDbCircle
 62
7
  6
CONTINUOUS
 10
5.2427113138
 20
2.6223236041
 40
0.2720569116
100
AcDbArc
 50
304.3301967325
 51
304.6978841886
  0
ARC
  5
510
100
AcDbEntity
  8
0
100
AcDbCircle
 62
7
  6
CONTINUOUS
 10
5.241772738
 20
2.6204010528
 40
0.2719587392
100
AcDbArc
 50
344.794022517
 51
344.9961030554
  0
ARC
  5
511
100
AcDbEntity
  8
0
100
AcDbCircle
 62
7
  6
CONTINUOUS
 10
5.2426034256
 20
2.6220229842
 40
0.2718243999
100
AcDbArc
 50
291.0133077712
 51
291.3216751648
  0
ARC
  5
512
100
AcDbEntity
  8
0
100
AcDbCircle
 62
7
  6
CONTINUOUS
 10
5.2427888911
 20
2.6220450593
 40
0.2717984009
100
AcDbArc
 50
318.9669213149
 51
319.509398774
  0
ARC
  5
513
100
AcDbEntity
  8
0
100
AcDbCircle
 62
7
  6
CONTINUOUS
 10
5.2425050111
 20
2.6215446484
 40
0.2717241696
100
AcDbArc
 50
327.810547498
 51
328.2169505938
  0
ARC
  5
514
100
AcDbEntity
  8
0
100
AcDbCircle
 62
7
  6
CONTINUOUS
 10
5.2402698135
 20
2.6220443317
 40
0.2716986259
100
AcDbArc
 50
238.7318117437
 51
239.3031064907
  0
ARC
  5
515
100
AcDbEntity
  8
0
100
AcDbCircle
 62
7
  6
CONTINUOUS
 10
5.2419716126
 20
2.6200173084
 40
0.2716761891
100
AcDbArc
 50
348.1211461526
 51
348.3299781959
  0
ARC
  5
516
100
AcDbEntity
  8
0
100
AcDbCircle
 62
7
  6
CONTINUOUS
 10
5.2402871456
 20
2.6218891823
 40
0.2715973484
100
AcDbArc
 50
222.2693320714
 51
223.4024239045
  0
ARC
  5
517
100
AcDbEntity
  8
0
100
AcDbCircle
 62
7
  6
CONTINUOUS
 10
5.2421301871
 20
2.6196589795
 40
0.2714572838
100
AcDbArc
 50
351.4512908847
 51
351.6655358437
  0
ARC
  5
518
100
AcDbEntity
  8
0
100
AcDbCircle
 62
7
  6
CONTINUOUS
 10
5.2430817929
 20
2.621818146
 40
0.2714320283
100
AcDbArc
 50
307.5936699702
 51
307.9867672138
  0
ARC
  5
519
100
AcDbEntity
  8
0
100
AcDbCircle
 62
7
  6
CONTINUOUS
 10
5.2429094312
 20
2.6216000382
 40
0.271317528
100
AcDbArc
 50
294.2866333396
 51
294.5676295254
  0
ARC
  5
51A
100
AcDbEntity
  8
0
100
AcDbCircle
 62
7
  6
CONTINUOUS
 10
5.2431184713
 20
2.6216162352
 40
0.2712651814
100
AcDbArc
 50
322.2745769995
 51
322.8177693892
  0
ARC
  5
51B
100
AcDbEntity
  8
0
100
AcDbCircle
 62
7
  6
CONTINUOUS
 10
5.2422944528
 20
2.6183717155
 40
0.2712506502
100
AcDbArc
 50
5.0276062948
 51
6.1177550375
  0
ARC
  5
51C
100
AcDbEntity
  8
0
100
AcDbCircle
 62
7
  6
CONTINUOUS
 10
5.239964456
 20
2.6216575462
 40
0.2712063565
100
AcDbArc
 50
235.447222808
 51
236.0194386287
  0
ARC
  5
51D
100
AcDbEntity
  8
0
100
AcDbCircle
 62
7
  6
CONTINUOUS
 10
5.2428643771
 20
2.621105271
 40
0.271193265
100
AcDbArc
 50
331.1291326116
 51
331.5236339331
  0
ARC
  5
51E
100
AcDbEntity
  8
0
100
AcDbCircle
 62
7
  6
CONTINUOUS
 10
5.239944283
 20
2.6214647425
 40
0.2710584037
100
AcDbArc
 50
218.963283531
 51
220.0975539366
  0
ARC
  5
51F
100
AcDbEntity
  8
0
100
AcDbCircle
 62
7
  6
CONTINUOUS
 10
5.2402499918
 20
2.6204725159
 40
0.2708485993
100
AcDbArc
 50
199.6216077959
 51
200.1826337329
  0
ARC
  5
520
100
AcDbEntity
  8
0
100
AcDbCircle
 62
7
  6
CONTINUOUS
 10
5.2434914577
 20
2.6213311062
 40
0.2707974454
100
AcDbArc
 50
310.8622406874
 51
311.2799097362
  0
ARC
  5
521
100
AcDbEntity
  8
0
100
AcDbCircle
 62
7
  6
CONTINUOUS
 10
5.2432611109
 20
2.621165324
 40
0.2707740899
100
AcDbArc
 50
297.5632337236
 51
297.817408202
  0
ARC
  5
522
100
AcDbEntity
  8
0
100
AcDbCircle
 62
7
  6
CONTINUOUS
 10
5.2434582404
 20
2.6212174623
 40
0.2707493674
100
AcDbArc
 50
325.5864798639
 51
326.1303684122
  0
ARC
  5
523
100
AcDbEntity
  8
0
100
AcDbCircle
 62
7
  6
CONTINUOUS
 10
5.2432152506
 20
2.6207081663
 40
0.2707014825
100
AcDbArc
 50
334.4514259161
 51
334.8349640863
  0
ARC
  5
524
100
AcDbEntity
  8
0
100
AcDbCircle
 62
7
  6
CONTINUOUS
 10
5.2428325221
 20
2.6187045127
 40
0.2706955815
100
AcDbArc
 50
1.1309057599
 51
2.788388532
  0
ARC
  5
525
100
AcDbEntity
  8
0
100
AcDbCircle
 62
7
  6
CONTINUOUS
 10
5.2396247401
 20
2.6212712288
 40
0.2706923285
100
AcDbArc
 50
232.1585445366
 51
232.7317529172
  0
ARC
  5
526
100
AcDbEntity
  8
0
100
AcDbCircle
 62
7
  6
CONTINUOUS
 10
5.2395876068
 20
2.6210688041
 40
0.2705323554
100
AcDbArc
 50
215.6529277393
 51
216.7887643143
  0
ARC
  5
527
100
AcDbEntity
  8
0
100
AcDbCircle
 62
7
  6
CONTINUOUS
 10
5.2400154148
 20
2.6201450703
 40
0.2705224025
100
AcDbArc
 50
196.2905273088
 51
196.8520454502
  0
ARC
  5
528
100
AcDbEntity
  8
0
100
AcDbCircle
 62
7
  6
CONTINUOUS
 10
5.2438000892
 20
2.6208521681
 40
0.2702578452
100
AcDbArc
 50
328.9024661392
 51
329.4470239482
  0
ARC
  5
529
100
AcDbEntity
  8
0
100
AcDbCircle
 62
7
  6
CONTINUOUS
 10
5.2435485116
 20
2.6203529789
 40
0.2702547826
100
AcDbArc
 50
337.7771258757
 51
338.1507068157
  0
ARC
  5
52A
100
AcDbEntity
  8
0
100
AcDbCircle
 62
7
  6
CONTINUOUS
 10
5.2436576036
 20
2.6207279985
 40
0.2702001669
100
AcDbArc
 50
300.8434204343
 51
301.0713981092
  0
ARC
  5
52B
100
AcDbEntity
  8
0
100
AcDbCircle
 62
7
  6
CONTINUOUS
 10
5.2392540532
 20
2.6208934268
 40
0.270163379
100
AcDbArc
 50
228.865619712
 51
229.4398946717
  0
ARC
  5
52C
100
AcDbEntity
  8
0
100
AcDbCircle
 62
7
  6
CONTINUOUS
 10
5.2392248614
 20
2.6207054372
 40
0.2700260708
100
AcDbArc
 50
212.3383922269
 51
213.4756738604
  0
ARC
  5
52D
100
AcDbEntity
  8
0
100
AcDbCircle
 62
7
  6
CONTINUOUS
 10
5.2438554483
 20
2.6200379029
 40
0.2698585915
100
AcDbArc
 50
341.1058846868
 51
341.4705788904
  0
ARC
  5
52E
100
AcDbEntity
  8
0
100
AcDbCircle
 62
7
  6
CONTINUOUS
 10
5.2395057479
 20
2.6183550952
 40
0.2698505914
100
AcDbArc
 50
172.9268292413
 51
173.4861072072
  0
ARC
  5
52F
100
AcDbEntity
  8
0
100
AcDbCircle
 62
7
  6
CONTINUOUS
 10
5.2437321668
 20
2.6184724452
 40
0.2698096414
100
AcDbArc
 50
4.4680985254
 51
5.0330538617
  0
ARC
  5
530
100
AcDbEntity
  8
0
100
AcDbCircle
 62
7
  6
CONTINUOUS
 10
5.2443224742
 20
2.620474241
 40
0.2696057043
100
AcDbArc
 50
314.005408206
 51
314.577754816
  0
ARC
  5
531
100
AcDbEntity
  8
0
100
AcDbCircle
 62
7
  6
CONTINUOUS
 10
5.244096668
 20
2.6202971621
 40
0.2696021871
100
AcDbArc
 50
304.1274593378
 51
304.3299433672
  0
ARC
  5
532
100
AcDbEntity
  8
0
100
AcDbCircle
 62
7
  6
CONTINUOUS
 10
5.2388642343
 20
2.6203774684
 40
0.2695462129
100
AcDbArc
 50
209.0198636698
 51
210.1585320098
  0
ARC
  5
533
100
AcDbEntity
  8
0
100
AcDbCircle
 62
7
  6
CONTINUOUS
 10
5.2441280172
 20
2.6197597566
 40
0.269517715
100
AcDbArc
 50
344.4373135398
 51
344.7942516828
  0
ARC
  5
534
100
AcDbEntity
  8
0
100
AcDbCircle
 62
7
  6
CONTINUOUS
 10
5.244059209
 20
2.6188708469
 40
0.2694677942
100
AcDbArc
 50
358.6438307168
 51
359.9904566925
  0
ARC
  5
535
100
AcDbEntity
  8
0
100
AcDbCircle
 62
7
  6
CONTINUOUS
 10
5.2442579224
 20
2.6190261405
 40
0.2692745295
100
AcDbArc
 50
356.7778399606
 51
357.3310323888
  0
ARC
  5
536
100
AcDbEntity
  8
0
100
AcDbCircle
 62
7
  6
CONTINUOUS
 10
5.2389292865
 20
2.6187394022
 40
0.2692485515
100
AcDbArc
 50
178.5984087512
 51
179.1519530715
  0
ARC
  5
537
100
AcDbEntity
  8
0
100
AcDbCircle
 62
7
  6
CONTINUOUS
 10
5.2443590664
 20
2.6195141082
 40
0.2692362823
100
AcDbArc
 50
347.770988484
 51
348.1213554328
  0
ARC
  5
538
100
AcDbEntity
  8
0
100
AcDbCircle
 62
7
  6
CONTINUOUS
 10
5.2385140604
 20
2.6200863583
 40
0.2690990654
100
AcDbArc
 50
205.6975828166
 51
206.8375581602
  0
ARC
  5
539
100
AcDbEntity
  8
0
100
AcDbCircle
 62
7
  6
CONTINUOUS
 10
5.2447432813
 20
2.6201340853
 40
0.2690685002
100
AcDbArc
 50
317.30649763
 51
317.8795945707
  0
ARC
  5
53A
100
AcDbEntity
  8
0
100
AcDbCircle
 62
7
  6
CONTINUOUS
 10
5.2444695375
 20
2.6188016295
 40
0.269055949
100
AcDbArc
 50
358.2222405468
 51
358.6564984444
  0
ARC
  5
53B
100
AcDbEntity
  8
0
100
AcDbCircle
 62
7
  6
CONTINUOUS
 10
5.244542533
 20
2.6192954376
 40
0.2690176989
100
AcDbArc
 50
351.1064566953
 51
351.4514841403
  0
ARC
  5
53C
100
AcDbEntity
  8
0
100
AcDbCircle
 62
7
  6
CONTINUOUS
 10
5.2445746274
 20
2.6198817463
 40
0.2689869932
100
AcDbArc
 50
307.4155669219
 51
307.5933414028
  0
ARC
  5
53D
100
AcDbEntity
  8
0
100
AcDbCircle
 62
7
  6
CONTINUOUS
 10
5.2381826125
 20
2.6198322062
 40
0.2686904893
100
AcDbArc
 50
202.371842072
 51
203.513031544
  0
ARC
  5
53E
100
AcDbEntity
  8
0
100
AcDbCircle
 62
7
  6
CONTINUOUS
 10
5.2383382936
 20
2.6186269312
 40
0.2686632897
100
AcDbArc
 50
175.6863830591
 51
175.8613749169
  0
ARC
  5
53F
100
AcDbEntity
  8
0
100
AcDbCircle
 62
7
  6
CONTINUOUS
 10
5.245177841
 20
2.619823037
 40
0.268538
100
AcDbArc
 50
320.6119715266
 51
321.1858066558
  0
ARC
  5
540
100
AcDbEntity
  8
0
100
AcDbCircle
 62
7
  6
CONTINUOUS
 10
5.2380900214
 20
2.6182325141
 40
0.2684740483
100
AcDbArc
 50
165.8451915014
 51
166.8166851551
  0
ARC
  5
541
100
AcDbEntity
  8
0
100
AcDbCircle
 62
7
  6
CONTINUOUS
 10
5.2379319256
 20
2.6184019656
 40
0.2682854586
100
AcDbArc
 50
169.1863774647
 51
170.151478992
  0
ARC
  5
542
100
AcDbEntity
  8
0
100
AcDbCircle
 62
7
  6
CONTINUOUS
 10
5.2454387167
 20
2.6193831438
 40
0.2681519974
100
AcDbArc
 50
348.8683151168
 51
349.4159276784
  0
ARC
  5
543
100
AcDbEntity
  8
0
100
AcDbCircle
 62
7
  6
CONTINUOUS
 10
5.2454179805
 20
2.6190596098
 40
0.2681202978
100
AcDbArc
 50
353.8655091775
 51
354.4588821033
  0
ARC
  5
544
100
AcDbEntity
  8
0
100
AcDbCircle
 62
7
  6
CONTINUOUS
 10
5.2456186644
 20
2.6195458354
 40
0.2680212207
100
AcDbArc
 50
323.9217656754
 51
324.4963104729
  0
ARC
  5
545
100
AcDbEntity
  8
0
100
AcDbCircle
 62
7
  6
CONTINUOUS
 10
5.2455768031
 20
2.6192349177
 40
0.26798512
100
AcDbArc
 50
352.2040696461
 51
352.7519752708
  0
ARC
  5
546
100
AcDbEntity
  8
0
100
AcDbCircle
 62
7
  6
CONTINUOUS
 10
5.237485679
 20
2.6186880199
 40
0.2678084896
100
AcDbArc
 50
175.8612457662
 51
176.2794083899
  0
ARC
  5
547
100
AcDbEntity
  8
0
100
AcDbCircle
 62
7
  6
CONTINUOUS
 10
5.2458594678
 20
2.618169801
 40
0.2677873728
100
AcDbArc
 50
33.8427219928
 51
34.4215391075
  0
ARC
  5
548
100
AcDbEntity
  8
0
100
AcDbCircle
 62
7
  6
CONTINUOUS
 10
5.2460576986
 20
2.619306002
 40
0.2675249885
100
AcDbArc
 50
327.2357578178
 51
327.8109666995
  0
ARC
  5
549
100
AcDbEntity
  8
0
100
AcDbCircle
 62
7
  6
CONTINUOUS
 10
5.2462923815
 20
2.6183898734
 40
0.2673021489
100
AcDbArc
 50
30.5259952825
 51
31.1055805607
  0
ARC
  5
54A
100
AcDbEntity
  8
0
100
AcDbCircle
 62
7
  6
CONTINUOUS
 10
5.2463823317
 20
2.6188024252
 40
0.2671446689
100
AcDbArc
 50
0.005048427
 51
0.2146607475
  0
ARC
  5
54B
100
AcDbEntity
  8
0
100
AcDbCircle
 62
7
  6
CONTINUOUS
 10
5.2464198288
 20
2.61890437
 40
0.2671091963
100
AcDbArc
 50
356.212590651
 51
356.7778533164
  0
ARC
  5
54C
100
AcDbEntity
  8
0
100
AcDbCircle
 62
7
  6
CONTINUOUS
 10
5.2367600511
 20
2.6187925363
 40
0.2670786655
100
AcDbArc
 50
178.0329249755
 51
178.5984213695
  0
ARC
  5
54D
100
AcDbEntity
  8
0
100
AcDbCircle
 62
7
  6
CONTINUOUS
 10
5.2464865272
 20
2.6191057636
 40
0.2670558749
100
AcDbArc
 50
330.5537688589
 51
331.1295789045
  0
ARC
  5
54E
100
AcDbEntity
  8
0
100
AcDbCircle
 62
7
  6
CONTINUOUS
 10
5.2467109595
 20
2.6185698257
 40
0.2668470939
100
AcDbArc
 50
27.2054015869
 51
27.7857337769
  0
ARC
  5
54F
100
AcDbEntity
  8
0
100
AcDbCircle
 62
7
  6
CONTINUOUS
 10
5.2468966735
 20
2.6189459582
 40
0.266620031
100
AcDbArc
 50
333.8755649238
 51
334.4518964283
  0
ARC
  5
550
100
AcDbEntity
  8
0
100
AcDbCircle
 62
7
  6
CONTINUOUS
 10
5.2471067206
 20
2.6187094643
 40
0.2664281956
100
AcDbArc
 50
23.881210196
 51
24.4622631086
  0
ARC
  5
551
100
AcDbEntity
  8
0
100
AcDbCircle
 62
7
  6
CONTINUOUS
 10
5.2361096453
 20
2.6187709592
 40
0.2664101557
100
AcDbArc
 50
155.6888491664
 51
156.2654023507
  0
ARC
  5
552
100
AcDbEntity
  8
0
100
AcDbCircle
 62
7
  6
CONTINUOUS
 10
5.2471368464
 20
2.6188928366
 40
0.2663933603
100
AcDbArc
 50
354.4588864196
 51
355.0484931728
  0
ARC
  5
553
100
AcDbEntity
  8
0
100
AcDbCircle
 62
7
  6
CONTINUOUS
 10
5.2360290192
 20
2.6187820161
 40
0.2663488005
100
AcDbArc
 50
176.279252245
 51
176.8687370923
  0
ARC
  5
554
100
AcDbEntity
  8
0
100
AcDbCircle
 62
7
  6
CONTINUOUS
 10
5.2472797684
 20
2.6188260743
 40
0.2662231936
100
AcDbArc
 50
337.2008601583
 51
337.7776177534
  0
ARC
  5
555
100
AcDbEntity
  8
0
100
AcDbCircle
 62
7
  6
CONTINUOUS
 10
5.2358883431
 20
2.6189371436
 40
0.2662221926
100
AcDbArc
 50
195.8624367966
 51
196.2901498692
  0
ARC
  5
556
100
AcDbEntity
  8
0
100
AcDbCircle
 62
7
  6
CONTINUOUS
 10
5.2474714831
 20
2.6188099761
 40
0.2660509043
100
AcDbArc
 50
20.5537400494
 51
21.1354907761
  0
ARC
  5
557
100
AcDbEntity
  8
0
100
AcDbCircle
 62
7
  6
CONTINUOUS
 10
5.2356750931
 20
2.6188917613
 40
0.2660024318
100
AcDbArc
 50
192.5372930027
 51
192.9566918983
  0
ARC
  5
558
100
AcDbEntity
  8
0
100
AcDbCircle
 62
7
  6
CONTINUOUS
 10
5.2355709727
 20
2.6188045596
 40
0.2658811757
100
AcDbArc
 50
199.0403440425
 51
199.6216394603
  0
ARC
  5
559
100
AcDbEntity
  8
0
100
AcDbCircle
 62
7
  6
CONTINUOUS
 10
5.2476278144
 20
2.6187442628
 40
0.2658705787
100
AcDbArc
 50
340.5293203586
 51
341.106395098
  0
ARC
  5
55A
100
AcDbEntity
  8
0
100
AcDbCircle
 62
7
  6
CONTINUOUS
 10
5.2355071352
 20
2.6188662118
 40
0.2658307717
100
AcDbArc
 50
189.2084669034
 51
189.6213562201
  0
ARC
  5
55B
100
AcDbEntity
  8
0
100
AcDbCircle
 62
7
  6
CONTINUOUS
 10
5.2354510302
 20
2.6188562441
 40
0.2657650214
100
AcDbArc
 50
172.5252898565
 51
172.9264088592
  0
ARC
  5
55C
100
AcDbEntity
  8
0
100
AcDbCircle
 62
7
  6
CONTINUOUS
 10
5.2477975199
 20
2.6188738358
 40
0.265720151
100
AcDbArc
 50
17.2233555803
 51
17.8057928849
  0
ARC
  5
55D
100
AcDbEntity
  8
0
100
AcDbCircle
 62
7
  6
CONTINUOUS
 10
5.2353882805
 20
2.6188558486
 40
0.2657096861
100
AcDbArc
 50
185.8763957655
 51
186.2846907193
  0
ARC
  5
55E
100
AcDbEntity
  8
0
100
AcDbCircle
 62
7
  6
CONTINUOUS
 10
5.2353212656
 20
2.6188554633
 40
0.2656409266
100
AcDbArc
 50
182.5415460616
 51
182.9472611328
  0
ARC
  5
55F
100
AcDbEntity
  8
0
100
AcDbCircle
 62
7
  6
CONTINUOUS
 10
5.2479334196
 20
2.6186974086
 40
0.2655668081
100
AcDbArc
 50
343.8605673365
 51
344.4378396786
  0
ARC
  5
560
100
AcDbEntity
  8
0
100
AcDbCircle
 62
7
  6
CONTINUOUS
 10
5.2480778202
 20
2.6189047341
 40
0.2654402372
100
AcDbArc
 50
13.8904619177
 51
14.4736043692
  0
ARC
  5
561
100
AcDbEntity
  8
0
100
AcDbCircle
 62
7
  6
CONTINUOUS
 10
5.2481900033
 20
2.6186812453
 40
0.2653158574
100
AcDbArc
 50
347.1941839733
 51
347.7715275734
  0
ARC
  5
562
100
AcDbEntity
  8
0
100
AcDbCircle
 62
7
  6
CONTINUOUS
 10
5.248306301
 20
2.618907447
 40
0.2652147712
100
AcDbArc
 50
10.5554994529
 51
11.1394357367
  0
ARC
  5
563
100
AcDbEntity
  8
0
100
AcDbCircle
 62
7
  6
CONTINUOUS
 10
5.2483919742
 20
2.6186905029
 40
0.265121016
100
AcDbArc
 50
350.529719896
 51
351.1070059909
  0
ARC
  5
564
100
AcDbEntity
  8
0
100
AcDbCircle
 62
7
  6
CONTINUOUS
 10
5.2484779912
 20
2.618887668
 40
0.2650466134
100
AcDbArc
 50
7.2189379352
 51
7.8039338298
  0
ARC
  5
565
100
AcDbEntity
  8
0
100
AcDbCircle
 62
7
  6
CONTINUOUS
 10
5.248589301
 20
2.6188518156
 40
0.2649377142
100
AcDbArc
 50
3.8812705446
 51
4.4681358828
  0
ARC
  5
566
100
AcDbEntity
  8
0
100
AcDbCircle
 62
7
  6
CONTINUOUS
 10
5.2475731037
 20
2.6205503148
 40
0.2649227626
100
AcDbArc
 50
44.8714392699
 51
46.8345789835
  0
ARC
  5
567
100
AcDbEntity
  8
0
100
AcDbCircle
 62
7
  6
CONTINUOUS
 10
5.2486381623
 20
2.6188067747
 40
0.2648890541
100
AcDbArc
 50
0.5430072402
 51
1.1335754228
  0
ARC
  5
568
100
AcDbEntity
  8
0
100
AcDbCircle
 62
7
  6
CONTINUOUS
 10
5.2487279775
 20
2.6187526285
 40
0.2647960654
100
AcDbArc
 50
355.0490017001
 51
356.2123626145
  0
ARC
  5
569
100
AcDbEntity
  8
0
100
AcDbCircle
 62
7
  6
CONTINUOUS
 10
5.2344461395
 20
2.6188709626
 40
0.2647634254
100
AcDbArc
 50
176.8692458466
 51
178.0326987512
  0
ARC
  5
56A
100
AcDbEntity
  8
0
100
AcDbCircle
 62
7
  6
CONTINUOUS
 10
5.2334959579
 20
2.6193796293
 40
0.2637389489
100
AcDbArc
 50
165.6777855971
 51
165.8427676037
  0
ARC
  5
56B
100
AcDbEntity
  8
0
100
AcDbCircle
 62
7
  6
CONTINUOUS
 10
5.2487960964
 20
2.6211852698
 40
0.2636045485
100
AcDbArc
 50
41.0001488525
 51
43.7937605888
  0
ARC
  5
56C
100
AcDbEntity
  8
0
100
AcDbCircle
 62
7
  6
CONTINUOUS
 10
5.2332953224
 20
2.6183606788
 40
0.2635641222
100
AcDbArc
 50
192.3740204207
 51
192.536895181
  0
ARC
  5
56D
100
AcDbEntity
  8
0
100
AcDbCircle
 62
7
  6
CONTINUOUS
 10
5.2332677083
 20
2.6192816555
 40
0.2635390226
100
AcDbArc
 50
169.0125238191
 51
169.1839843438
  0
ARC
  5
56E
100
AcDbEntity
  8
0
100
AcDbCircle
 62
7
  6
CONTINUOUS
 10
5.233109298
 20
2.6184757321
 40
0.263401349
100
AcDbArc
 50
189.0382643045
 51
189.2080908826
  0
ARC
  5
56F
100
AcDbEntity
  8
0
100
AcDbCircle
 62
7
  6
CONTINUOUS
 10
5.2330947128
 20
2.6191638206
 40
0.2633887149
100
AcDbArc
 50
172.3489226984
 51
172.5249489492
  0
ARC
  5
570
100
AcDbEntity
  8
0
100
AcDbCircle
 62
7
  6
CONTINUOUS
 10
5.2329801671
 20
2.6186063334
 40
0.2632886811
100
AcDbArc
 50
185.7011281035
 51
185.8760356426
  0
ARC
  5
571
100
AcDbEntity
  8
0
100
AcDbCircle
 62
7
  6
CONTINUOUS
 10
5.2329104273
 20
2.6187468413
 40
0.2632276431
100
AcDbArc
 50
182.3631115946
 51
182.5411957517
  0
ARC
  5
572
100
AcDbEntity
  8
0
100
AcDbCircle
 62
7
  6
CONTINUOUS
 10
5.2494316679
 20
2.6212535081
 40
0.2630788361
100
AcDbArc
 50
37.6922707955
 51
40.4897609339
  0
ARC
  5
573
100
AcDbEntity
  8
0
100
AcDbCircle
 62
7
  6
CONTINUOUS
 10
5.2500600639
 20
2.6212772004
 40
0.2625658227
100
AcDbArc
 50
34.3803409993
 51
37.1814084704
  0
ARC
  5
574
100
AcDbEntity
  8
0
100
AcDbCircle
 62
7
  6
CONTINUOUS
 10
5.250672408
 20
2.6212533271
 40
0.2620726567
100
AcDbArc
 50
31.0642729808
 51
33.8688076221
  0
ARC
  5
575
100
AcDbEntity
  8
0
100
AcDbCircle
 62
7
  6
CONTINUOUS
 10
5.2313660353
 20
2.6188310507
 40
0.2616844098
100
AcDbArc
 50
180.0011137905
 51
180.4231944129
  0
ARC
  5
576
100
AcDbEntity
  8
0
100
AcDbCircle
 62
7
  6
CONTINUOUS
 10
5.2512599221
 20
2.6211805468
 40
0.261605678
100
AcDbArc
 50
27.744312635
 51
30.55211869
  0
ARC
  5
577
100
AcDbEntity
  8
0
100
AcDbCircle
 62
7
  6
CONTINUOUS
 10
5.2518136502
 20
2.6210588047
 40
0.2611710086
100
AcDbArc
 50
24.4207257367
 51
27.2315573703
  0
ARC
  5
578
100
AcDbEntity
  8
0
100
AcDbCircle
 62
7
  6
CONTINUOUS
 10
5.2264636263
 20
2.6186058275
 40
0.2567805405
100
AcDbArc
 50
180.3810209052
 51
182.3909858489
  0
ARC
  5
579
100
AcDbEntity
  8
0
100
AcDbCircle
 62
7
  6
CONTINUOUS
 10
5.2290963493
 20
2.6269121469
 40
0.2558020862
100
AcDbArc
 50
134.1409270181
 51
135.8453447027
  0
ARC
  5
57A
100
AcDbEntity
  8
0
100
AcDbCircle
 62
7
  6
CONTINUOUS
 10
5.2281423034
 20
2.6266622268
 40
0.2552799225
100
AcDbArc
 50
137.4421473457
 51
139.1489307898
  0
ARC
  5
57B
100
AcDbEntity
  8
0
100
AcDbCircle
 62
7
  6
CONTINUOUS
 10
5.2272097097
 20
2.626352953
 40
0.2547650105
100
AcDbArc
 50
140.7477456114
 51
142.4568768898
  0
ARC
  5
57C
100
AcDbEntity
  8
0
100
AcDbCircle
 62
7
  6
CONTINUOUS
 10
5.2263076652
 20
2.625981824
 40
0.2542641389
100
AcDbArc
 50
144.0576443262
 51
145.7690860862
  0
ARC
  5
57D
100
AcDbEntity
  8
0
100
AcDbCircle
 62
7
  6
CONTINUOUS
 10
5.2254456855
 20
2.6255476334
 40
0.2537839106
100
AcDbArc
 50
147.3717061699
 51
149.0854039714
  0
ARC
  5
57E
100
AcDbEntity
  8
0
100
AcDbCircle
 62
7
  6
CONTINUOUS
 10
5.2246334788
 20
2.6250505505
 40
0.2533306529
100
AcDbArc
 50
150.6897358132
 51
152.4056203099
  0
ARC
  5
57F
100
AcDbEntity
  8
0
100
AcDbCircle
 62
7
  6
CONTINUOUS
 10
5.2238807067
 20
2.6244921619
 40
0.2529103322
100
AcDbArc
 50
154.011482797
 51
155.7294714901
  0
ARC
  5
580
100
AcDbEntity
  8
0
100
AcDbCircle
 62
7
  6
CONTINUOUS
 10
5.2231967323
 20
2.6238754743
 40
0.2525284637
100
AcDbArc
 50
157.336645496
 51
159.0566438438
  0
ARC
  5
581
100
AcDbEntity
  8
0
100
AcDbCircle
 62
7
  6
CONTINUOUS
 10
5.260084756
 20
2.6243104908
 40
0.2522945012
100
AcDbArc
 50
22.7799059701
 51
23.3509121497
  0
ARC
  5
582
100
AcDbEntity
  8
0
100
AcDbCircle
 62
7
  6
CONTINUOUS
 10
5.222590379
 20
2.6232048692
 40
0.2521900363
100
AcDbArc
 50
160.6648761271
 51
162.3867776675
  0
ARC
  5
583
100
AcDbEntity
  8
0
100
AcDbCircle
 62
7
  6
CONTINUOUS
 10
5.2607408557
 20
2.6236437613
 40
0.2519299229
100
AcDbArc
 50
19.4517167643
 51
20.0231618454
  0
ARC
  5
584
100
AcDbEntity
  8
0
100
AcDbCircle
 62
7
  6
CONTINUOUS
 10
5.2220696896
 20
2.6224860191
 40
0.2518994347
100
AcDbArc
 50
163.9957866264
 51
165.7194720023
  0
ARC
  5
585
100
AcDbEntity
  8
0
100
AcDbCircle
 62
7
  6
CONTINUOUS
 10
5.2216417061
 20
2.6217257597
 40
0.2516603725
100
AcDbArc
 50
167.3289551603
 51
169.0542900309
  0
ARC
  5
586
100
AcDbEntity
  8
0
100
AcDbCircle
 62
7
  6
CONTINUOUS
 10
5.2213122766
 20
2.6209319246
 40
0.2514758366
100
AcDbArc
 50
170.663932989
 51
172.3907651232
  0
ARC
  5
587
100
AcDbEntity
  8
0
100
AcDbCircle
 62
7
  6
CONTINUOUS
 10
5.2210858984
 20
2.6201131465
 40
0.2513480465
100
AcDbArc
 50
174.0002512258
 51
175.7284072831
  0
ARC
  5
588
100
AcDbEntity
  8
0
100
AcDbCircle
 62
7
  6
CONTINUOUS
 10
5.2659843303
 20
2.6181343197
 40
0.24753081
100
AcDbArc
 50
357.7584335339
 51
358.2221340658
  0
ARC
  5
589
100
AcDbEntity
  8
0
100
AcDbCircle
 62
7
  6
CONTINUOUS
 10
5.2448813551
 20
2.6370821514
 40
0.1905229718
100
AcDbArc
 50
0.0222951304
 51
12.8552183121
  0
ARC
  5
58A
100
AcDbEntity
  8
0
100
AcDbCircle
 62
7
  6
CONTINUOUS
 10
5.2381595005
 20
2.6371151615
 40
0.1903520611
100
AcDbArc
 50
167.1351766506
 51
170.6914384452
  0
ARC
  5
58B
100
AcDbEntity
  8
0
100
AcDbCircle
 62
7
  6
CONTINUOUS
 10
5.2377772233
 20
2.637126979
 40
0.189972913
100
AcDbArc
 50
170.6763065863
 51
179.9911603004
  0
ARC
  5
58C
100
AcDbEntity
  8
0
100
AcDbCircle
 62
7
  6
CONTINUOUS
 10
5.2442095534
 20
2.6421213166
 40
0.1687671419
100
AcDbArc
 50
333.6752962138
 51
338.120390853
  0
ARC
  5
58D
100
AcDbEntity
  8
0
100
AcDbCircle
 62
7
  6
CONTINUOUS
 10
5.244428423
 20
2.6420340293
 40
0.1685315644
100
AcDbArc
 50
338.1209460371
 51
339.5894878584
  0
ARC
  5
58E
100
AcDbEntity
  8
0
100
AcDbCircle
 62
7
  6
CONTINUOUS
 10
5.2444912457
 20
2.6419787959
 40
0.1684514605
100
AcDbArc
 50
329.3671794682
 51
333.676256064
  0
ARC
  5
58F
100
AcDbEntity
  8
0
100
AcDbCircle
 62
7
  6
CONTINUOUS
 10
5.2449007517
 20
2.6418609171
 40
0.1680285176
100
AcDbArc
 50
339.5886428949
 51
342.713460077
  0
ARC
  5
590
100
AcDbEntity
  8
0
100
AcDbCircle
 62
7
  6
CONTINUOUS
 10
5.2451269047
 20
2.6417350734
 40
0.1677770981
100
AcDbArc
 50
347.4584397411
 51
351.1546501927
  0
ARC
  5
591
100
AcDbEntity
  8
0
100
AcDbCircle
 62
7
  6
CONTINUOUS
 10
5.2457149332
 20
2.6416045276
 40
0.167174926
100
AcDbArc
 50
342.7144451039
 51
347.4587656983
  0
ARC
  5
592
100
AcDbEntity
  8
0
100
AcDbCircle
 62
7
  6
CONTINUOUS
 10
5.2444711463
 20
2.7790750249
 40
0.1876584282
100
AcDbArc
 50
9.8787962027
 51
26.27358383
  0
ARC
  5
593
100
AcDbEntity
  8
0
100
AcDbCircle
 62
7
  6
CONTINUOUS
 10
5.2380055364
 20
2.7793001227
 40
0.1868986322
100
AcDbArc
 50
153.6613382007
 51
189.8502953256
  0
ARC
  5
594
100
AcDbEntity
  8
0
100
AcDbCircle
 62
7
  6
CONTINUOUS
 10
5.2378380883
 20
2.7026210694
 40
0.1867334365
100
AcDbArc
 50
168.1338494577
 51
189.8590474579
  0
ARC
  5
595
100
AcDbEntity
  8
0
100
AcDbCircle
 62
7
  6
CONTINUOUS
 10
5.2463032005
 20
2.7027853801
 40
0.1857867634
100
AcDbArc
 50
9.8574560238
 51
11.8566199988
  0
ARC
  5
596
100
AcDbEntity
  8
0
100
AcDbCircle
 62
7
  6
CONTINUOUS
 10
5.1730528217
 20
2.7979293242
 40
0.1828741661
100
AcDbArc
 50
197.244718648
 51
197.65988096
  0
ARC
  5
597
100
AcDbEntity
  8
0
100
AcDbCircle
 62
7
  6
CONTINUOUS
 10
5.2411334288
 20
2.7862280182
 40
0.1714186409
100
AcDbArc
 50
225.9788964611
 51
246.7641237176
  0
ARC
  5
598
100
AcDbEntity
  8
0
100
AcDbCircle
 62
7
  6
CONTINUOUS
 10
5.2423483953
 20
2.7858095643
 40
0.1709240596
100
AcDbArc
 50
297.2063199698
 51
319.1064049527
  0
ARC
  5
599
100
AcDbEntity
  8
0
100
AcDbCircle
 62
7
  6
CONTINUOUS
 10
5.2399521857
 20
2.784884367
 40
0.1696315906
100
AcDbArc
 50
215.821197886
 51
225.9504154716
  0
ARC
  5
59A
100
AcDbEntity
  8
0
100
AcDbCircle
 62
7
  6
CONTINUOUS
 10
5.2392749031
 20
2.7843686581
 40
0.1687805966
100
AcDbArc
 50
209.7215988897
 51
215.813805527
  0
ARC
  5
59B
100
AcDbEntity
  8
0
100
AcDbCircle
 62
7
  6
CONTINUOUS
 10
5.2447640432
 20
2.7838550201
 40
0.1678136748
100
AcDbArc
 50
319.0709226673
 51
359.9543235785
  0
ARC
  5
59C
100
AcDbEntity
  8
0
100
AcDbCircle
 62
7
  6
CONTINUOUS
 10
5.2383235789
 20
2.7838636723
 40
0.1677040625
100
AcDbArc
 50
190.0955787306
 51
209.732907796
  0
ARC
  5
59D
100
AcDbEntity
  8
0
100
AcDbCircle
 62
7
  6
CONTINUOUS
 10
5.2377639759
 20
2.7063334073
 40
0.1671530264
100
AcDbArc
 50
183.683713
 51
189.8434573633
  0
ARC
  5
59E
100
AcDbEntity
  8
0
100
AcDbCircle
 62
7
  6
CONTINUOUS
 10
5.2376367906
 20
2.7837169336
 40
0.1670021878
100
AcDbArc
 50
179.9984482968
 51
190.0873175815
  0
ARC
  5
59F
100
AcDbEntity
  8
0
100
AcDbCircle
 62
7
  6
CONTINUOUS
 10
5.3670512779
 20
2.396175421
 40
0.3648703912
100
AcDbArc
 50
167.5712951077
 51
167.7874137187
  0
ARC
  5
5A0
100
AcDbEntity
  8
0
100
AcDbCircle
 62
7
  6
CONTINUOUS
 10
5.361452178
 20
2.3973482413
 40
0.3591499063
100
AcDbArc
 50
167.7813272573
 51
168.0331468527
  0
ARC
  5
5A1
100
AcDbEntity
  8
0
100
AcDbCircle
 62
7
  6
CONTINUOUS
 10
5.3671399657
 20
2.4113222592
 40
0.3402553584
100
AcDbArc
 50
174.3449605706
 51
174.4660904801
  0
ARC
  5
5A2
100
AcDbEntity
  8
0
100
AcDbCircle
 62
7
  6
CONTINUOUS
 10
5.3357819123
 20
2.4030609471
 40
0.3328519019
100
AcDbArc
 50
167.3769732045
 51
167.5703008251
  0
ARC
  5
5A3
100
AcDbEntity
  8
0
100
AcDbCircle
 62
7
  6
CONTINUOUS
 10
5.3303075005
 20
2.4100408277
 40
0.3150794231
100
AcDbArc
 50
171.0815284808
 51
171.3805434683
  0
ARC
  5
5A4
100
AcDbEntity
  8
0
100
AcDbCircle
 62
7
  6
CONTINUOUS
 10
5.2831556418
 20
2.4097384688
 40
0.2911676097
100
AcDbArc
 50
164.391580542
 51
164.6548434946
  0
ARC
  5
5A5
100
AcDbEntity
  8
0
100
AcDbCircle
 62
7
  6
CONTINUOUS
 10
5.2794476834
 20
2.4107171425
 40
0.287332856
100
AcDbArc
 50
164.647372659
 51
164.9694440363
  0
ARC
  5
5A6
100
AcDbEntity
  8
0
100
AcDbCircle
 62
7
  6
CONTINUOUS
 10
5.2867246816
 20
2.4190966157
 40
0.2594651477
100
AcDbArc
 50
174.4623999108
 51
174.6063066914
  0
ARC
  5
5A7
100
AcDbEntity
  8
0
100
AcDbCircle
 62
7
  6
CONTINUOUS
 10
5.2900355637
 20
2.4338022014
 40
0.2190317918
100
AcDbArc
 50
21.3708872576
 51
21.9914718309
  0
ARC
  5
5A8
100
AcDbEntity
  8
0
100
AcDbCircle
 62
7
  6
CONTINUOUS
 10
5.279668168
 20
2.4309711898
 40
0.2187874651
100
AcDbArc
 50
17.6347992326
 51
18.2205017899
  0
ARC
  5
5A9
100
AcDbEntity
  8
0
100
AcDbCircle
 62
7
  6
CONTINUOUS
 10
5.3245910939
 20
2.4483163859
 40
0.192457587
100
AcDbArc
 50
24.5267353923
 51
25.2147810695
  0
ARC
  5
5AA
100
AcDbEntity
  8
0
100
AcDbCircle
 62
7
  6
CONTINUOUS
 10
5.2947031105
 20
2.4350055079
 40
0.1921988533
100
AcDbArc
 50
14.2089138164
 51
14.5914578997
  0
ARC
  5
5AB
100
AcDbEntity
  8
0
100
AcDbCircle
 62
7
  6
CONTINUOUS
 10
5.3189643825
 20
2.4451280457
 40
0.1879649079
100
AcDbArc
 50
20.6723018489
 51
21.3692642889
  0
ARC
  5
5AC
100
AcDbEntity
  8
0
100
AcDbCircle
 62
7
  6
CONTINUOUS
 10
5.279016588
 20
2.4275593843
 40
0.1729733325
100
AcDbArc
 50
197.2128645
 51
197.5422120459
  0
ARC
  5
5AD
100
AcDbEntity
  8
0
100
AcDbCircle
 62
7
  6
CONTINUOUS
 10
5.3521050346
 20
2.4631289294
 40
0.1720992135
100
AcDbArc
 50
27.6908536442
 51
28.4374105574
  0
ARC
  5
5AE
100
AcDbEntity
  8
0
100
AcDbCircle
 62
7
  6
CONTINUOUS
 10
5.3493799418
 20
2.4596306049
 40
0.1652087609
100
AcDbArc
 50
23.7129901085
 51
24.5256885666
  0
ARC
  5
5AF
100
AcDbEntity
  8
0
100
AcDbCircle
 62
7
  6
CONTINUOUS
 10
5.3362502986
 20
2.4489915951
 40
0.1594050511
100
AcDbArc
 50
17.1627469888
 51
17.6232674792
  0
ARC
  5
5B0
100
AcDbEntity
  8
0
100
AcDbCircle
 62
7
  6
CONTINUOUS
 10
5.3744594324
 20
2.4781908314
 40
0.1560629853
100
AcDbArc
 50
30.8640351652
 51
31.6593860225
  0
ARC
  5
5B1
100
AcDbEntity
  8
0
100
AcDbCircle
 62
7
  6
CONTINUOUS
 10
5.3669241973
 20
2.4709250597
 40
0.1553544556
100
AcDbArc
 50
27.3118406664
 51
27.6846771821
  0
ARC
  5
5B2
100
AcDbEntity
  8
0
100
AcDbCircle
 62
7
  6
CONTINUOUS
 10
5.3813711235
 20
2.4783821462
 40
0.1390964789
100
AcDbArc
 50
26.7379274743
 51
27.3130519056
  0
ARC
  5
5B3
100
AcDbEntity
  8
0
100
AcDbCircle
 62
7
  6
CONTINUOUS
 10
5.360291528
 20
2.4260917014
 40
0.0830998134
100
AcDbArc
 50
1.6132417511
 51
1.9735247015
  0
ARC
  5
5B4
100
AcDbEntity
  8
0
100
AcDbCircle
 62
7
  6
CONTINUOUS
 10
5.2755153631
 20
2.3944474051
 40
0.0742136283
100
AcDbArc
 50
220.7132779704
 51
222.1802392967
  0
ARC
  5
5B5
100
AcDbEntity
  8
0
100
AcDbCircle
 62
7
  6
CONTINUOUS
 10
5.3764372086
 20
2.4237353914
 40
0.0563572693
100
AcDbArc
 50
250.5318976097
 51
251.567043036
  0
ARC
  5
5B6
100
AcDbEntity
  8
0
100
AcDbCircle
 62
7
  6
CONTINUOUS
 10
5.3872512401
 20
2.4309518024
 40
0.0555420504
100
AcDbArc
 50
253.8149952204
 51
254.8670724495
  0
ARC
  5
5B7
100
AcDbEntity
  8
0
100
AcDbCircle
 62
7
  6
CONTINUOUS
 10
5.3977223204
 20
2.4389558139
 40
0.0549301582
100
AcDbArc
 50
257.0933095407
 51
258.1588171926
  0
ARC
  5
5B8
100
AcDbEntity
  8
0
100
AcDbCircle
 62
7
  6
CONTINUOUS
 10
5.4055195398
 20
2.4316010145
 40
0.0382295634
100
AcDbArc
 50
262.5870456224
 51
263.835277557
  0
ARC
  5
5B9
100
AcDbEntity
  8
0
100
AcDbCircle
 62
7
  6
CONTINUOUS
 10
5.3928385094
 20
2.4934523165
 40
0.1431561548
100
AcDbArc
 50
34.0469820363
 51
34.8807702118
  0
ARC
  5
5BA
100
AcDbEntity
  8
0
100
AcDbCircle
 62
7
  6
CONTINUOUS
 10
5.3865149762
 20
2.4854173112
 40
0.1420074609
100
AcDbArc
 50
30.4192196965
 51
30.8565336766
  0
ARC
  5
5BB
100
AcDbEntity
  8
0
100
AcDbCircle
 62
7
  6
CONTINUOUS
 10
5.4080249911
 20
2.5088628196
 40
0.1325907245
100
AcDbArc
 50
37.2403525336
 51
38.101664823
  0
ARC
  5
5BC
100
AcDbEntity
  8
0
100
AcDbCircle
 62
7
  6
CONTINUOUS
 10
5.4034677661
 20
2.500654198
 40
0.1303168439
100
AcDbArc
 50
33.5282420066
 51
34.0398166752
  0
ARC
  5
5BD
100
AcDbEntity
  8
0
100
AcDbCircle
 62
7
  6
CONTINUOUS
 10
5.4006679769
 20
2.4937293625
 40
0.1255941242
100
AcDbArc
 50
29.7825488107
 51
30.4183730584
  0
ARC
  5
5BE
100
AcDbEntity
  8
0
100
AcDbCircle
 62
7
  6
CONTINUOUS
 10
5.5026416909
 20
2.3831297273
 40
0.4895020175
100
AcDbArc
 50
170.7508525119
 51
170.9155142202
  0
ARC
  5
5BF
100
AcDbEntity
  8
0
100
AcDbCircle
 62
7
  6
CONTINUOUS
 10
5.4940585571
 20
2.3844629904
 40
0.4808160372
100
AcDbArc
 50
170.9109076469
 51
171.0955354607
  0
ARC
  5
5C0
100
AcDbEntity
  8
0
100
AcDbCircle
 62
7
  6
CONTINUOUS
 10
5.5058629211
 20
2.3975798175
 40
0.4796573421
100
AcDbArc
 50
174.1477232299
 51
174.344249349
  0
ARC
  5
5C1
100
AcDbEntity
  8
0
100
AcDbCircle
 62
7
  6
CONTINUOUS
 10
5.4595478097
 20
2.3901408979
 40
0.4458415197
100
AcDbArc
 50
170.6056730083
 51
170.750033701
  0
ARC
  5
5C2
100
AcDbEntity
  8
0
100
AcDbCircle
 62
7
  6
CONTINUOUS
 10
5.537090813
 20
2.4793457396
 40
0.0738498151
100
AcDbArc
 50
115.5213393007
 51
116.2812425357
  0
ARC
  5
5C3
100
AcDbEntity
  8
0
100
AcDbCircle
 62
7
  6
CONTINUOUS
 10
5.5367508779
 20
2.4800346454
 40
0.0730816048
100
AcDbArc
 50
116.2814272939
 51
117.1180916101
  0
ARC
  5
5C4
100
AcDbEntity
  8
0
100
AcDbCircle
 62
7
  6
CONTINUOUS
 10
5.5280003905
 20
2.4638296257
 40
0.072642825
100
AcDbArc
 50
111.4484386114
 51
112.934427261
  0
ARC
  5
5C5
100
AcDbEntity
  8
0
100
AcDbCircle
 62
7
  6
CONTINUOUS
 10
5.5182265665
 20
2.4485350956
 40
0.0718156049
100
AcDbArc
 50
108.0886832421
 51
108.8107093391
  0
ARC
  5
5C6
100
AcDbEntity
  8
0
100
AcDbCircle
 62
7
  6
CONTINUOUS
 10
5.5275673791
 20
2.4648577574
 40
0.0715272309
100
AcDbArc
 50
112.9359149978
 51
113.7931032925
  0
ARC
  5
5C7
100
AcDbEntity
  8
0
100
AcDbCircle
 62
7
  6
CONTINUOUS
 10
5.5180899864
 20
2.4489357023
 40
0.0713923558
100
AcDbArc
 50
108.8106190119
 51
109.6023354771
  0
ARC
  5
5C8
100
AcDbEntity
  8
0
100
AcDbCircle
 62
7
  6
CONTINUOUS
 10
5.4581134964
 20
2.3783985014
 40
0.0712216667
100
AcDbArc
 50
91.544067955
 51
92.2879183785
  0
ARC
  5
5C9
100
AcDbEntity
  8
0
100
AcDbCircle
 62
7
  6
CONTINUOUS
 10
5.4716383503
 20
2.3914697143
 40
0.0708661276
100
AcDbArc
 50
94.8207065184
 51
95.5651670738
  0
ARC
  5
5CA
100
AcDbEntity
  8
0
100
AcDbCircle
 62
7
  6
CONTINUOUS
 10
5.5075427638
 20
2.4342105586
 40
0.0706120708
100
AcDbArc
 50
105.4778890956
 51
106.281226414
  0
ARC
  5
5CB
100
AcDbEntity
  8
0
100
AcDbCircle
 62
7
  6
CONTINUOUS
 10
5.5177217067
 20
2.4499715945
 40
0.0702929458
100
AcDbArc
 50
109.6028211133
 51
110.4774484238
  0
ARC
  5
5CC
100
AcDbEntity
  8
0
100
AcDbCircle
 62
7
  6
CONTINUOUS
 10
5.4962728029
 20
2.4198716594
 40
0.0700957829
100
AcDbArc
 50
102.1597763304
 51
102.9719147415
  0
ARC
  5
5CD
100
AcDbEntity
  8
0
100
AcDbCircle
 62
7
  6
CONTINUOUS
 10
5.5071885309
 20
2.4354261926
 40
0.0693458771
100
AcDbArc
 50
106.2818695837
 51
107.1708536433
  0
ARC
  5
5CE
100
AcDbEntity
  8
0
100
AcDbCircle
 62
7
  6
CONTINUOUS
 10
5.4841647195
 20
2.4066308034
 40
0.0691530831
100
AcDbArc
 50
98.8534930473
 51
100.5758312434
  0
ARC
  5
5CF
100
AcDbEntity
  8
0
100
AcDbCircle
 62
7
  6
CONTINUOUS
 10
5.4580276882
 20
2.3804742796
 40
0.0691441176
100
AcDbArc
 50
92.2855381556
 51
94.0183893867
  0
ARC
  5
5D0
100
AcDbEntity
  8
0
100
AcDbCircle
 62
7
  6
CONTINUOUS
 10
5.4714583613
 20
2.3932893474
 40
0.0690376164
100
AcDbArc
 50
95.5629457171
 51
97.2933657007
  0
ARC
  5
5D1
100
AcDbEntity
  8
0
100
AcDbCircle
 62
7
  6
CONTINUOUS
 10
5.495951591
 20
2.4212703841
 40
0.0686606498
100
AcDbArc
 50
102.9727173939
 51
103.8729889438
  0
ARC
  5
5D2
100
AcDbEntity
  8
0
100
AcDbCircle
 62
7
  6
CONTINUOUS
 10
5.5063912312
 20
2.4385352826
 40
0.0661368987
100
AcDbArc
 50
104.0032383633
 51
105.5163133071
  0
ARC
  5
5D3
100
AcDbEntity
  8
0
100
AcDbCircle
 62
7
  6
CONTINUOUS
 10
5.4954305991
 20
2.423987762
 40
0.0658946431
100
AcDbArc
 50
100.6719589898
 51
102.1977753224
  0
ARC
  5
5D4
100
AcDbEntity
  8
0
100
AcDbCircle
 62
7
  6
CONTINUOUS
 10
5.4837063633
 20
2.4098706433
 40
0.0658813166
100
AcDbArc
 50
97.3599979018
 51
98.8932755374
  0
ARC
  5
5D5
100
AcDbEntity
  8
0
100
AcDbCircle
 62
7
  6
CONTINUOUS
 10
5.4448259145
 20
2.3905342939
 40
0.0471420566
100
AcDbArc
 50
86.5765695799
 51
87.536330859
  0
ARC
  5
5D6
100
AcDbEntity
  8
0
100
AcDbCircle
 62
7
  6
CONTINUOUS
 10
5.4160507985
 20
2.441318739
 40
0.0383117554
100
AcDbArc
 50
265.8677187154
 51
267.1180258844
  0
ARC
  5
5D7
100
AcDbEntity
  8
0
100
AcDbCircle
 62
7
  6
CONTINUOUS
 10
5.4212517674
 20
2.5308516223
 40
0.1296639477
100
AcDbArc
 50
43.3399819093
 51
43.6450851593
  0
ARC
  5
5D8
100
AcDbEntity
  8
0
100
AcDbCircle
 62
7
  6
CONTINUOUS
 10
5.4174411562
 20
2.5160379431
 40
0.120752382
100
AcDbArc
 50
36.6407679287
 51
37.2337770962
  0
ARC
  5
5D9
100
AcDbEntity
  8
0
100
AcDbCircle
 62
7
  6
CONTINUOUS
 10
5.4253958034
 20
2.5285080024
 40
0.1174609247
100
AcDbArc
 50
40.4391014327
 51
41.3649238235
  0
ARC
  5
5DA
100
AcDbEntity
  8
0
100
AcDbCircle
 62
7
  6
CONTINUOUS
 10
5.4391050947
 20
2.5554778752
 40
0.1102632584
100
AcDbArc
 50
46.8877887527
 51
47.763050245
  0
ARC
  5
5DB
100
AcDbEntity
  8
0
100
AcDbCircle
 62
7
  6
CONTINUOUS
 10
5.4309018354
 20
2.5332080193
 40
0.1102216904
100
AcDbArc
 50
39.7384735686
 51
40.4361209589
  0
ARC
  5
5DC
100
AcDbEntity
  8
0
100
AcDbCircle
 62
7
  6
CONTINUOUS
 10
5.4367564884
 20
2.5458504088
 40
0.1080923896
100
AcDbArc
 50
43.5643214314
 51
44.5106234713
  0
ARC
  5
5DD
100
AcDbEntity
  8
0
100
AcDbCircle
 62
7
  6
CONTINUOUS
 10
5.4456214879
 20
2.5709764389
 40
0.104975227
100
AcDbArc
 50
50.1256861724
 51
50.9838440164
  0
ARC
  5
5DE
100
AcDbEntity
  8
0
100
AcDbCircle
 62
7
  6
CONTINUOUS
 10
5.4402651174
 20
2.5487884574
 40
0.1035251353
100
AcDbArc
 50
42.8415041593
 51
43.3421981862
  0
ARC
  5
5DF
100
AcDbEntity
  8
0
100
AcDbCircle
 62
7
  6
CONTINUOUS
 10
5.44572726
 20
2.5625600251
 40
0.100567389
100
AcDbArc
 50
46.0043555074
 51
46.8844510738
  0
ARC
  5
5E0
100
AcDbEntity
  8
0
100
AcDbCircle
 62
7
  6
CONTINUOUS
 10
5.4510875178
 20
2.5871177808
 40
0.099530017
100
AcDbArc
 50
53.3716876105
 51
54.2091582508
  0
ARC
  5
5E1
100
AcDbEntity
  8
0
100
AcDbCircle
 62
7
  6
CONTINUOUS
 10
5.4488920309
 20
2.556800098
 40
0.0917518629
100
AcDbArc
 50
42.3036088189
 51
42.8362772452
  0
ARC
  5
5E2
100
AcDbEntity
  8
0
100
AcDbCircle
 62
7
  6
CONTINUOUS
 10
5.5456061496
 20
2.4949283379
 40
0.0755998304
100
AcDbArc
 50
118.899834025
 51
119.6395143199
  0
ARC
  5
5E3
100
AcDbEntity
  8
0
100
AcDbCircle
 62
7
  6
CONTINUOUS
 10
5.5453087177
 20
2.4954511935
 40
0.074998296
100
AcDbArc
 50
119.6395598644
 51
120.4526240894
  0
ARC
  5
5E4
100
AcDbEntity
  8
0
100
AcDbCircle
 62
7
  6
CONTINUOUS
 10
5.2684420995
 20
2.6250236054
 40
0.2441805067
100
AcDbArc
 50
16.1122563201
 51
17.2793904682
  0
ARC
  5
5E5
100
AcDbEntity
  8
0
100
AcDbCircle
 62
7
  6
CONTINUOUS
 10
5.2690466891
 20
2.6238441199
 40
0.2438989085
100
AcDbArc
 50
12.7793153414
 51
13.9466024346
  0
ARC
  5
5E6
100
AcDbEntity
  8
0
100
AcDbCircle
 62
7
  6
CONTINUOUS
 10
5.2694706899
 20
2.6149305115
 40
0.2437110452
100
AcDbArc
 50
349.4071656349
 51
350.5862700746
  0
ARC
  5
5E7
100
AcDbEntity
  8
0
100
AcDbCircle
 62
7
  6
CONTINUOUS
 10
5.2695422379
 20
2.6226212761
 40
0.2436579794
100
AcDbArc
 50
9.4450233339
 51
10.6117428637
  0
ARC
  5
5E8
100
AcDbEntity
  8
0
100
AcDbCircle
 62
7
  6
CONTINUOUS
 10
5.269766215
 20
2.6161960033
 40
0.2436055973
100
AcDbArc
 50
352.7432211116
 51
353.9232017767
  0
ARC
  5
5E9
100
AcDbEntity
  8
0
100
AcDbCircle
 62
7
  6
CONTINUOUS
 10
5.2699388475
 20
2.6213646734
 40
0.243444727
100
AcDbArc
 50
6.1107440393
 51
7.2752877001
  0
ARC
  5
5EA
100
AcDbEntity
  8
0
100
AcDbCircle
 62
7
  6
CONTINUOUS
 10
5.2702622174
 20
2.6200819261
 40
0.2432313585
100
AcDbArc
 50
2.7786361904
 51
3.9377420638
  0
ARC
  5
5EB
100
AcDbEntity
  8
0
100
AcDbCircle
 62
7
  6
CONTINUOUS
 10
5.2734550436
 20
2.6300822293
 40
0.2377316184
100
AcDbArc
 50
23.3510242531
 51
23.9457515924
  0
ARC
  5
5EC
100
AcDbEntity
  8
0
100
AcDbCircle
 62
7
  6
CONTINUOUS
 10
5.2744248597
 20
2.628630098
 40
0.2373657368
100
AcDbArc
 50
20.0232749859
 51
20.618416289
  0
ARC
  5
5ED
100
AcDbEntity
  8
0
100
AcDbCircle
 62
7
  6
CONTINUOUS
 10
5.2840337922
 20
2.6174282431
 40
0.2294675428
100
AcDbArc
 50
357.267107621
 51
357.7583267964
  0
ARC
  5
5EE
100
AcDbEntity
  8
0
100
AcDbCircle
 62
7
  6
CONTINUOUS
 10
5.2976950609
 20
2.6191623672
 40
0.2158310164
100
AcDbArc
 50
0.1701434425
 51
0.5720337361
  0
ARC
  5
5EF
100
AcDbEntity
  8
0
100
AcDbCircle
 62
7
  6
CONTINUOUS
 10
5.3222775335
 20
2.793995852
 40
0.1711482748
100
AcDbArc
 50
342.0299213099
 51
342.6994461649
  0
ARC
  5
5F0
100
AcDbEntity
  8
0
100
AcDbCircle
 62
7
  6
CONTINUOUS
 10
5.3563599454
 20
2.7798872017
 40
0.1454883834
100
AcDbArc
 50
338.7395846834
 51
339.5270485495
  0
ARC
  5
5F1
100
AcDbEntity
  8
0
100
AcDbCircle
 62
7
  6
CONTINUOUS
 10
5.3826093328
 20
2.7654023141
 40
0.126842541
100
AcDbArc
 50
335.4512244588
 51
336.3542424172
  0
ARC
  5
5F2
100
AcDbEntity
  8
0
100
AcDbCircle
 62
7
  6
CONTINUOUS
 10
5.3970872229
 20
2.7539243432
 40
0.1199472496
100
AcDbArc
 50
332.1850644018
 51
332.6813123106
  0
ARC
  5
5F3
100
AcDbEntity
  8
0
100
AcDbCircle
 62
7
  6
CONTINUOUS
 10
5.4147397065
 20
2.738882482
 40
0.1083239518
100
AcDbArc
 50
328.9037517241
 51
329.4531961828
  0
ARC
  5
5F4
100
AcDbEntity
  8
0
100
AcDbCircle
 62
7
  6
CONTINUOUS
 10
5.429192815
 20
2.7236149488
 40
0.0990415674
100
AcDbArc
 50
325.6249602854
 51
326.2258404291
  0
ARC
  5
5F5
100
AcDbEntity
  8
0
100
AcDbCircle
 62
7
  6
CONTINUOUS
 10
5.4542552166
 20
2.6020063295
 40
0.0961121021
100
AcDbArc
 50
56.6355164102
 51
57.4297073262
  0
ARC
  5
5F6
100
AcDbEntity
  8
0
100
AcDbCircle
 62
7
  6
CONTINUOUS
 10
5.4563033196
 20
2.6169879684
 40
0.0928711559
100
AcDbArc
 50
59.9098142573
 51
60.653208107
  0
ARC
  5
5F7
100
AcDbEntity
  8
0
100
AcDbCircle
 62
7
  6
CONTINUOUS
 10
5.4571065212
 20
2.6317108203
 40
0.090109022
100
AcDbArc
 50
63.1960037908
 51
63.8785266173
  0
ARC
  5
5F8
100
AcDbEntity
  8
0
100
AcDbCircle
 62
7
  6
CONTINUOUS
 10
5.4567493931
 20
2.6461262341
 40
0.087768212
100
AcDbArc
 50
66.4938417286
 51
67.1061318558
  0
ARC
  5
5F9
100
AcDbEntity
  8
0
100
AcDbCircle
 62
7
  6
CONTINUOUS
 10
5.4553084279
 20
2.6601865292
 40
0.0858033652
100
AcDbArc
 50
69.803000151
 51
70.3365209113
  0
ARC
  5
5FA
100
AcDbEntity
  8
0
100
AcDbCircle
 62
7
  6
CONTINUOUS
 10
5.4532767815
 20
2.6752633928
 40
0.0826990896
100
AcDbArc
 50
72.4147246734
 51
73.5728516586
  0
ARC
  5
5FB
100
AcDbEntity
  8
0
100
AcDbCircle
 62
7
  6
CONTINUOUS
 10
5.4565417468
 20
2.6635333817
 40
0.0822365048
100
AcDbArc
 50
69.1933125797
 51
69.8043837407
  0
ARC
  5
5FC
100
AcDbEntity
  8
0
100
AcDbCircle
 62
7
  6
CONTINUOUS
 10
5.449862938
 20
2.6887757287
 40
0.0811003277
100
AcDbArc
 50
75.6318755247
 51
76.8109919858
  0
ARC
  5
5FD
100
AcDbEntity
  8
0
100
AcDbCircle
 62
7
  6
CONTINUOUS
 10
5.4455381134
 20
2.7018123401
 40
0.0797798947
100
AcDbArc
 50
78.8575223235
 51
80.0534395592
  0
ARC
  5
5FE
100
AcDbEntity
  8
0
100
AcDbCircle
 62
7
  6
CONTINUOUS
 10
5.4403641111
 20
2.7143277653
 40
0.0787231964
100
AcDbArc
 50
82.091649462
 51
83.3007497833
  0
ARC
  5
5FF
100
AcDbEntity
  8
0
100
AcDbCircle
 62
7
  6
CONTINUOUS
 10
5.4344032924
 20
2.7262807249
 40
0.0779179574
100
AcDbArc
 50
85.3348887256
 51
86.5534723969
  0
ARC
  5
600
100
AcDbEntity
  8
0
100
AcDbCircle
 62
7
  6
CONTINUOUS
 10
6.0678980525
 20
1.9686145701
 40
0.8391787911
100
AcDbArc
 50
152.1769181424
 51
152.3700859609
  0
ARC
  5
601
100
AcDbEntity
  8
0
100
AcDbCircle
 62
7
  6
CONTINUOUS
 10
5.9586026638
 20
1.9634774581
 40
0.757503795
100
AcDbArc
 50
148.7957772819
 51
149.0100014208
  0
ARC
  5
602
100
AcDbEntity
  8
0
100
AcDbCircle
 62
7
  6
CONTINUOUS
 10
5.7555974608
 20
2.3721008148
 40
0.7306882382
100
AcDbArc
 50
174.0371501297
 51
174.1569541059
  0
ARC
  5
603
100
AcDbEntity
  8
0
100
AcDbCircle
 62
7
  6
CONTINUOUS
 10
5.8659713617
 20
1.9591399799
 40
0.6929735718
100
AcDbArc
 50
145.420839994
 51
145.6552835273
  0
ARC
  5
604
100
AcDbEntity
  8
0
100
AcDbCircle
 62
7
  6
CONTINUOUS
 10
5.7854557854
 20
1.9556212806
 40
0.6410186636
100
AcDbArc
 50
142.0525155572
 51
142.3062732111
  0
ARC
  5
605
100
AcDbEntity
  8
0
100
AcDbCircle
 62
7
  6
CONTINUOUS
 10
5.7140120731
 20
1.952937969
 40
0.5985744941
100
AcDbArc
 50
138.6911421782
 51
138.9632461577
  0
ARC
  5
606
100
AcDbEntity
  8
0
100
AcDbCircle
 62
7
  6
CONTINUOUS
 10
5.6495296578
 20
1.9511044438
 40
0.5635103981
100
AcDbArc
 50
135.3369848718
 51
135.6264110777
  0
ARC
  5
607
100
AcDbEntity
  8
0
100
AcDbCircle
 62
7
  6
CONTINUOUS
 10
5.8535979459
 20
2.1754546332
 40
0.5354684843
100
AcDbArc
 50
129.2759818592
 51
129.4205362412
  0
ARC
  5
608
100
AcDbEntity
  8
0
100
AcDbCircle
 62
7
  6
CONTINUOUS
 10
5.5905029862
 20
1.950131792
 40
0.5343021657
100
AcDbArc
 50
131.990234713
 51
132.2959083019
  0
ARC
  5
609
100
AcDbEntity
  8
0
100
AcDbCircle
 62
7
  6
CONTINUOUS
 10
5.7763316014
 20
2.1446925973
 40
0.4927658811
100
AcDbArc
 50
122.7516751556
 51
122.936166476
  0
ARC
  5
60A
100
AcDbEntity
  8
0
100
AcDbCircle
 62
7
  6
CONTINUOUS
 10
5.7402871113
 20
2.1296775233
 40
0.4759530761
100
AcDbArc
 50
119.4923620586
 51
119.6982533715
  0
ARC
  5
60B
100
AcDbEntity
  8
0
100
AcDbCircle
 62
7
  6
CONTINUOUS
 10
5.7053708351
 20
2.1149810424
 40
0.4616018722
100
AcDbArc
 50
116.2345497747
 51
116.4626012618
  0
ARC
  5
60C
100
AcDbEntity
  8
0
100
AcDbCircle
 62
7
  6
CONTINUOUS
 10
5.6712444375
 20
2.1006573629
 40
0.4494006609
100
AcDbArc
 50
112.9778922037
 51
113.2286964557
  0
ARC
  5
60D
100
AcDbEntity
  8
0
100
AcDbCircle
 62
7
  6
CONTINUOUS
 10
5.6376328804
 20
2.0867582972
 40
0.4391039379
100
AcDbArc
 50
109.7220065056
 51
109.9959763068
  0
ARC
  5
60E
100
AcDbEntity
  8
0
100
AcDbCircle
 62
7
  6
CONTINUOUS
 10
5.6043093049
 20
2.0733343943
 40
0.4305173701
100
AcDbArc
 50
106.4664769396
 51
106.7638217709
  0
ARC
  5
60F
100
AcDbEntity
  8
0
100
AcDbCircle
 62
7
  6
CONTINUOUS
 10
5.5710349326
 20
2.0606421787
 40
0.4232748447
100
AcDbArc
 50
103.2107837318
 51
103.6045403184
  0
ARC
  5
610
100
AcDbEntity
  8
0
100
AcDbCircle
 62
7
  6
CONTINUOUS
 10
6.1027665127
 20
2.7351499566
 40
0.6557326298
100
AcDbArc
 50
174.666274726
 51
174.9813496237
  0
ARC
  5
611
100
AcDbEntity
  8
0
100
AcDbCircle
 62
7
  6
CONTINUOUS
 10
5.8099875756
 20
2.7283465618
 40
0.3545104636
100
AcDbArc
 50
170.8607938017
 51
171.5577558858
  0
ARC
  5
612
100
AcDbEntity
  8
0
100
AcDbCircle
 62
7
  6
CONTINUOUS
 10
5.7165004523
 20
2.7155424203
 40
0.2535634216
100
AcDbArc
 50
167.1456730177
 51
168.1211082598
  0
ARC
  5
613
100
AcDbEntity
  8
0
100
AcDbCircle
 62
7
  6
CONTINUOUS
 10
5.6680065125
 20
2.7021955189
 40
0.1983857089
100
AcDbArc
 50
163.4388199462
 51
164.6872586955
  0
ARC
  5
614
100
AcDbEntity
  8
0
100
AcDbCircle
 62
7
  6
CONTINUOUS
 10
5.6236985785
 20
2.6515807819
 40
0.1408326469
100
AcDbArc
 50
153.5084888991
 51
154.3170630616
  0
ARC
  5
615
100
AcDbEntity
  8
0
100
AcDbCircle
 62
7
  6
CONTINUOUS
 10
5.6125493747
 20
2.6362855065
 40
0.1267383634
100
AcDbArc
 50
150.4196725877
 51
150.8906614385
  0
ARC
  5
616
100
AcDbEntity
  8
0
100
AcDbCircle
 62
7
  6
CONTINUOUS
 10
5.5919193785
 20
2.6080224354
 40
0.1020113827
100
AcDbArc
 50
142.0326527998
 51
144.090853063
  0
ARC
  5
617
100
AcDbEntity
  8
0
100
AcDbCircle
 62
7
  6
CONTINUOUS
 10
5.5853595504
 20
2.5922341569
 40
0.0951907475
100
AcDbArc
 50
138.4777481025
 51
140.6901011082
  0
ARC
  5
618
100
AcDbEntity
  8
0
100
AcDbCircle
 62
7
  6
CONTINUOUS
 10
5.5791200873
 20
2.5763015165
 40
0.0896684185
100
AcDbArc
 50
134.9416022844
 51
137.2977390619
  0
ARC
  5
619
100
AcDbEntity
  8
0
100
AcDbCircle
 62
7
  6
CONTINUOUS
 10
5.5717071288
 20
2.5379518596
 40
0.0896135539
100
AcDbArc
 50
129.7887345651
 51
130.4627621228
  0
ARC
  5
61A
100
AcDbEntity
  8
0
100
AcDbCircle
 62
7
  6
CONTINUOUS
 10
5.5697501104
 20
2.5403075287
 40
0.0865510249
100
AcDbArc
 50
129.1514813151
 51
129.7912100665
  0
ARC
  5
61B
100
AcDbEntity
  8
0
100
AcDbCircle
 62
7
  6
CONTINUOUS
 10
5.572906374
 20
2.5602782501
 40
0.085162546
100
AcDbArc
 50
131.4249737597
 51
133.9141229926
  0
ARC
  5
61C
100
AcDbEntity
  8
0
100
AcDbCircle
 62
7
  6
CONTINUOUS
 10
5.5669672493
 20
2.5437329362
 40
0.0821376691
100
AcDbArc
 50
128.5384928951
 51
129.1547303974
  0
ARC
  5
61D
100
AcDbEntity
  8
0
100
AcDbCircle
 62
7
  6
CONTINUOUS
 10
5.5609212688
 20
2.5265864347
 40
0.0804101124
100
AcDbArc
 50
125.7036650661
 51
126.3942823696
  0
ARC
  5
61E
100
AcDbEntity
  8
0
100
AcDbCircle
 62
7
  6
CONTINUOUS
 10
5.5607672208
 20
2.5267949512
 40
0.0801508638
100
AcDbArc
 50
126.3940817766
 51
127.1508183833
  0
ARC
  5
61F
100
AcDbEntity
  8
0
100
AcDbCircle
 62
7
  6
CONTINUOUS
 10
5.5606679829
 20
2.5269403385
 40
0.0799749103
100
AcDbArc
 50
125.0696889859
 51
125.7042782593
  0
ARC
  5
620
100
AcDbEntity
  8
0
100
AcDbCircle
 62
7
  6
CONTINUOUS
 10
5.5535270638
 20
2.5106929489
 40
0.0777638743
100
AcDbArc
 50
122.2939376754
 51
123.010517043
  0
ARC
  5
621
100
AcDbEntity
  8
0
100
AcDbCircle
 62
7
  6
CONTINUOUS
 10
5.5532913984
 20
2.511055489
 40
0.07733147
100
AcDbArc
 50
123.0104335162
 51
123.7968432414
  0
ARC
  5
622
100
AcDbEntity
  8
0
100
AcDbCircle
 62
7
  6
CONTINUOUS
 10
5.241602692
 20
5.2327831576
 40
0.1709984425
100
AcDbArc
 50
0.0
 51
180.0000006237
  0
ARC
  5
623
100
AcDbEntity
  8
0
100
AcDbCircle
 62
7
  6
CONTINUOUS
 10
5.7063043125
 20
4.9897876129
 40
0.027
100
AcDbArc
 50
198.2099568643
 51
341.250659153
  0
ARC
  5
624
100
AcDbEntity
  8
0
100
AcDbCircle
 62
7
  6
CONTINUOUS
 10
5.6760043125
 20
5.006028907
 40
0.009
100
AcDbArc
 50
270.5000000001
 51
300.0279310109
  0
ARC
  5
625
100
AcDbEntity
  8
0
100
AcDbCircle
 62
7
  6
CONTINUOUS
 10
5.2416043125
 20
5.2327876129
 40
0.33675
100
AcDbArc
 50
300.5320416371
 51
315.1162821491
  0
ARC
  5
626
100
AcDbEntity
  8
0
100
AcDbCircle
 62
7
  6
CONTINUOUS
 10
5.2416043125
 20
5.2327876129
 40
0.33675
100
AcDbArc
 50
44.8833008321
 51
239.4717030014
  0
ARC
  5
627
100
AcDbEntity
  8
0
100
AcDbCircle
 62
7
  6
CONTINUOUS
 10
5.2416043125
 20
5.2327876129
 40
0.2797201646
100
AcDbArc
 50
58.4690888477
 51
232.2937201208
  0
ARC
  5
628
100
AcDbEntity
  8
0
100
AcDbCircle
 62
7
  6
CONTINUOUS
 10
5.2416043125
 20
5.2327876129
 40
0.2789818494
100
AcDbArc
 50
307.8202341205
 51
232.1797658795
  0
ARC
  5
629
100
AcDbEntity
  8
0
100
AcDbCircle
 62
7
  6
CONTINUOUS
 10
5.2416043125
 20
5.2327876129
 40
0.2362318494
100
AcDbArc
 50
316.4225512527
 51
223.5774487473
  0
ARC
  5
62A
100
AcDbEntity
  8
0
100
AcDbCircle
 62
7
  6
CONTINUOUS
 10
5.2416043125
 20
5.2327876129
 40
0.2272318494
100
AcDbArc
 50
318.8223630788
 51
221.160273499
  0
ARC
  5
62B
100
AcDbEntity
  8
0
100
AcDbCircle
 62
7
  6
CONTINUOUS
 10
5.7063043125
 20
5.4757876129
 40
0.027
100
AcDbArc
 50
18.749340847
 51
161.7900431357
  0
ARC
  5
62C
100
AcDbEntity
  8
0
100
AcDbCircle
 62
7
  6
CONTINUOUS
 10
5.6760043125
 20
5.4595463188
 40
0.009
100
AcDbArc
 50
59.9720689891
 51
89.4999999999
  0
ARC
  5
62D
100
AcDbEntity
  8
0
100
AcDbCircle
 62
7
  6
CONTINUOUS
 10
5.7460755333
 20
4.9762876129
 40
0.015
100
AcDbArc
 50
90.2293407908
 51
161.2506591531
  0
ARC
  5
62E
100
AcDbEntity
  8
0
100
AcDbCircle
 62
7
  6
CONTINUOUS
 10
5.9343043125
 20
5.0658038527
 40
0.006
100
AcDbArc
 50
292.4054088834
 51
360.0
  0
ARC
  5
62F
100
AcDbEntity
  8
0
100
AcDbCircle
 62
7
  6
CONTINUOUS
 10
5.9101991406
 20
5.2327571862
 40
0.3586875
100
AcDbArc
 50
341.3487345157
 51
18.6530944264
  0
ARC
  5
630
100
AcDbEntity
  8
0
100
AcDbCircle
 62
7
  6
CONTINUOUS
 10
5.7455351632
 20
5.1112865314
 40
0.12
100
AcDbArc
 50
270.2293407899
 51
292.4054088833
  0
CIRCLE
  5
631
100
AcDbEntity
  8
0
100
AcDbCircle
 62
7
  6
CONTINUOUS
 10
6.0870676444
 20
5.2327405692
 40
0.1139205261
  0
CIRCLE
  5
632
100
AcDbEntity
  8
0
100
AcDbCircle
 62
7
  6
CONTINUOUS
 10
6.087064764
 20
5.2327376215
 40
0.06
  0
CIRCLE
  5
633
100
AcDbEntity
  8
0
100
AcDbCircle
 62
7
  6
CONTINUOUS
 10
6.0870646397
 20
5.2327374942
 40
0.054
  0
CIRCLE
  5
634
100
AcDbEntity
  8
0
100
AcDbCircle
 62
7
  6
CONTINUOUS
 10
6.0870646397
 20
5.2327374942
 40
0.045
  0
ARC
  5
635
100
AcDbEntity
  8
0
100
AcDbCircle
 62
7
  6
CONTINUOUS
 10
6.2301521849
 20
5.1247622928
 40
0.021
100
AcDbArc
 50
270.000914471
 51
341.3487345156
  0
ARC
  5
636
100
AcDbEntity
  8
0
100
AcDbCircle
 62
7
  6
CONTINUOUS
 10
5.7455351632
 20
5.3542886944
 40
0.12
100
AcDbArc
 50
67.5945911167
 51
89.7706592101
  0
ARC
  5
637
100
AcDbEntity
  8
0
100
AcDbCircle
 62
7
  6
CONTINUOUS
 10
6.2301487375
 20
5.3407622928
 40
0.021
100
AcDbArc
 50
18.6530944264
 51
90.000914471
  0
ARC
  5
638
100
AcDbEntity
  8
0
100
AcDbCircle
 62
7
  6
CONTINUOUS
 10
5.7460755333
 20
5.4892876129
 40
0.015
100
AcDbArc
 50
198.7493408469
 51
269.7706592092
  0
ARC
  5
639
100
AcDbEntity
  8
0
100
AcDbCircle
 62
7
  6
CONTINUOUS
 10
5.9343043125
 20
5.3997713731
 40
0.006
100
AcDbArc
 50
0.0
 51
67.5945911166
  0
SPLINE
  5
63A
100
AcDbEntity
  8
0
100
AcDbSpline
 62
7
  6
CONTINUOUS
 70
0
 71
3
 72
31
 73
27
 74
0
 42
0.0000001
 43
0.0000001
 44
0.0000000001
 40
0.0
 40
0.0
 40
0.0
 40
0.0
 40
0.0621700896
 40
0.0933294912
 40
0.1244868705
 40
0.1556585105
 40
0.1868580888
 40
0.218086658
 40
0.2493418572
 40
0.2806249334
 40
0.3119348163
 40
0.374556753
 40
0.4372574093
 40
0.5000003589
 40
0.5627432844
 40
0.6254438678
 40
0.6880656876
 40
0.7193755009
 40
0.7506585051
 40
0.7819136329
 40
0.8131421345
 40
0.8443416568
 40
0.8755132424
 40
0.9066705681
 40
0.9378299294
 40
1.0
 40
1.0
 40
1.0
 40
1.0
 10
5.4354043125
 20
2.6371562884
 30
0.0
 10
5.4354043125
 20
2.6246162957
 30
0.0
 10
5.4335175087
 20
2.6057223691
 30
0.0
 10
5.4273489362
 20
2.5813537228
 30
0.0
 10
5.420921106
 20
2.5635903779
 30
0.0
 10
5.4127707776
 20
2.5465432844
 30
0.0
 10
5.4029663591
 20
2.5303731813
 30
0.0
 10
5.3916149668
 20
2.5152281698
 30
0.0
 10
5.3788163042
 20
2.5012621119
 30
0.0
 10
5.3646966039
 20
2.4886065622
 30
0.0
 10
5.3443076702
 20
2.4736447535
 30
0.0
 10
5.3161825924
 20
2.4587771501
 30
0.0
 10
5.2796226125
 20
2.447814657
 30
0.0
 10
5.2416040962
 20
2.4441116442
 30
0.0
 10
5.2035856028
 20
2.4478147292
 30
0.0
 10
5.1670256826
 20
2.4587772805
 30
0.0
 10
5.1389006961
 20
2.4736449359
 30
0.0
 10
5.1185118074
 20
2.4886067183
 30
0.0
 10
5.1043921723
 20
2.5012622761
 30
0.0
 10
5.0915935369
 20
2.5152283001
 30
0.0
 10
5.0802421874
 20
2.5303732956
 30
0.0
 10
5.0704378038
 20
2.5465433768
 30
0.0
 10
5.0622874901
 20
2.5635904406
 30
0.0
 10
5.0558596787
 20
2.5813537605
 30
0.0
 10
5.0496911122
 20
2.6057223845
 30
0.0
 10
5.0478043125
 20
2.6246162995
 30
0.0
 10
5.0478043125
 20
2.6371562884
 30
0.0
  0
SPLINE
  5
63B
100
AcDbEntity
  8
0
100
AcDbSpline
 62
7
  6
CONTINUOUS
 70
0
 71
3
 72
31
 73
27
 74
0
 42
0.0000001
 43
0.0000001
 44
0.0000000001
 40
0.0
 40
0.0
 40
0.0
 40
0.0
 40
0.0621838368
 40
0.0933359813
 40
0.124477063
 40
0.1556239446
 40
0.1867912163
 40
0.2179811794
 40
0.2491929559
 40
0.2804294953
 40
0.3116915044
 40
0.3742206291
 40
0.4368446955
 40
0.499538925
 40
0.5622683831
 40
0.6249927737
 40
0.6876720297
 40
0.7190204221
 40
0.7503467708
 40
0.781648366
 40
0.8129246688
 40
0.8441714861
 40
0.8753880758
 40
0.9065863492
 40
0.9377810286
 40
1.0
 40
1.0
 40
1.0
 40
1.0
 10
5.4293471414
 20
2.8112705537
 30
0.0
 10
5.4314579128
 20
2.7991215518
 30
0.0
 10
5.4328120669
 20
2.780502111
 30
0.0
 10
5.4309379674
 20
2.7558622468
 30
0.0
 10
5.4277003329
 20
2.7375846598
 30
0.0
 10
5.4226725366
 20
2.7197167371
 30
0.0
 10
5.415893727
 20
2.7024258824
 30
0.0
 10
5.407442885
 20
2.6858736187
 30
0.0
 10
5.3973907605
 20
2.6702258207
 30
0.0
 10
5.3858378405
 20
2.6556309685
 30
0.0
 10
5.368597741
 20
2.6377677365
 30
0.0
 10
5.3438434102
 20
2.6187208079
 30
0.0
 10
5.3102620056
 20
2.6020729618
 30
0.0
 10
5.274051292
 20
2.5922228239
 30
0.0
 10
5.2366006754
 20
2.5895500596
 30
0.0
 10
5.1993469614
 20
2.5941500435
 30
0.0
 10
5.1696120172
 20
2.6039191561
 30
0.0
 10
5.1473508459
 20
2.6150525898
 30
0.0
 10
5.1315468791
 20
2.6249857626
 30
0.0
 10
5.1168014309
 20
2.6364060168
 30
0.0
 10
5.1032587441
 20
2.6492069812
 30
0.0
 10
5.0910412104
 20
2.6632563182
 30
0.0
 10
5.0802774518
 20
2.6784284647
 30
0.0
 10
5.0710609047
 20
2.6945792637
 30
0.0
 10
5.0609839402
 20
2.7171712747
 30
0.0
 10
5.0559734476
 20
2.7351705624
 30
0.0
 10
5.0538614836
 20
2.7473264286
 30
0.0
  0
SPLINE
  5
63C
100
AcDbEntity
  8
0
100
AcDbSpline
 62
7
  6
CONTINUOUS
 70
0
 71
3
 72
31
 73
27
 74
0
 42
0.0000001
 43
0.0000001
 44
0.0000000001
 40
0.0
 40
0.0
 40
0.0
 40
0.0
 40
0.0621838368
 40
0.0933359813
 40
0.124477063
 40
0.1556239446
 40
0.1867912163
 40
0.2179811794
 40
0.2491929559
 40
0.2804294953
 40
0.3116915044
 40
0.3742206291
 40
0.4368446955
 40
0.499538925
 40
0.5622683831
 40
0.6249927737
 40
0.6876720297
 40
0.7190204221
 40
0.7503467708
 40
0.781648366
 40
0.8129246688
 40
0.8441714861
 40
0.8753880758
 40
0.9065863492
 40
0.9377810286
 40
1.0
 40
1.0
 40
1.0
 40
1.0
 10
5.4293471414
 20
2.7345916239
 30
0.0
 10
5.4314579128
 20
2.7224426221
 30
0.0
 10
5.4328120669
 20
2.7038231813
 30
0.0
 10
5.4309379674
 20
2.6791833171
 30
0.0
 10
5.4277003329
 20
2.6609057301
 30
0.0
 10
5.4226725366
 20
2.6430378074
 30
0.0
 10
5.415893727
 20
2.6257469527
 30
0.0
 10
5.407442885
 20
2.609194689
 30
0.0
 10
5.3973907605
 20
2.593546891
 30
0.0
 10
5.3858378405
 20
2.5789520388
 30
0.0
 10
5.368597741
 20
2.5610888068
 30
0.0
 10
5.3438434102
 20
2.5420418782
 30
0.0
 10
5.3102620056
 20
2.525394032
 30
0.0
 10
5.274051292
 20
2.5155438942
 30
0.0
 10
5.2366006754
 20
2.5128711299
 30
0.0
 10
5.1993469614
 20
2.5174711138
 30
0.0
 10
5.1696120172
 20
2.5272402263
 30
0.0
 10
5.1473508459
 20
2.5383736601
 30
0.0
 10
5.1315468791
 20
2.5483068329
 30
0.0
 10
5.1168014309
 20
2.5597270871
 30
0.0
 10
5.1032587441
 20
2.5725280514
 30
0.0
 10
5.0910412104
 20
2.5865773884
 30
0.0
 10
5.0802774518
 20
2.601749535
 30
0.0
 10
5.0710609047
 20
2.6179003339
 30
0.0
 10
5.0609839402
 20
2.640492345
 30
0.0
 10
5.0559734476
 20
2.6584916327
 30
0.0
 10
5.0538614836
 20
2.6706474989
 30
0.0
  0
LINE
  5
63D
100
AcDbEntity
  8
0
100
AcDbLine
 62
7
  6
CONTINUOUS
 10
5.2815110873
 20
2.3486960605
 11
5.2822833045
 21
2.3481370713
  0
LINE
  5
63E
100
AcDbEntity
  8
0
100
AcDbLine
 62
7
  6
CONTINUOUS
 10
5.3393340545
 20
2.3629318718
 11
5.3398516455
 21
2.3640780542
  0
LINE
  5
63F
100
AcDbEntity
  8
0
100
AcDbLine
 62
7
  6
CONTINUOUS
 10
5.3398516455
 20
2.3640780542
 11
5.34049946
 21
2.3655069002
  0
LINE
  5
640
100
AcDbEntity
  8
0
100
AcDbLine
 62
7
  6
CONTINUOUS
 10
5.3539261101
 20
2.3689129744
 11
5.3543749688
 21
2.3700866758
  0
LINE
  5
641
100
AcDbEntity
  8
0
100
AcDbLine
 62
7
  6
CONTINUOUS
 10
5.3543749688
 20
2.3700866758
 11
5.3549367582
 21
2.3715499647
  0
LINE
  5
642
100
AcDbEntity
  8
0
100
AcDbLine
 62
7
  6
CONTINUOUS
 10
5.3681456653
 20
2.3757144717
 11
5.3686190405
 21
2.3772106651
  0
LINE
  5
643
100
AcDbEntity
  8
0
100
AcDbLine
 62
7
  6
CONTINUOUS
 10
5.3686190405
 20
2.3772106651
 11
5.3689982045
 21
2.3784045153
  0
SPLINE
  5
644
100
AcDbEntity
  8
0
100
AcDbSpline
 62
7
  6
CONTINUOUS
 70
0
 71
3
 72
13
 73
9
 74
0
 42
0.0000001
 43
0.0000001
 44
0.0000000001
 40
0.0
 40
0.0
 40
0.0
 40
0.0
 40
0.0436405092
 40
0.1173963316
 40
0.2192150353
 40
0.3448586945
 40
0.6490646434
 40
1.0
 40
1.0
 40
1.0
 40
1.0
 10
4.9634130666
 20
2.6113139884
 30
0.0
 10
4.9634130666
 20
2.6112714604
 30
0.0
 10
4.9634625694
 20
2.6111625414
 30
0.0
 10
4.9635732872
 20
2.6109829616
 30
0.0
 10
4.9637506041
 20
2.6107470948
 30
0.0
 10
4.9640792633
 20
2.6103472969
 30
0.0
 10
4.9645899623
 20
2.6097822724
 30
0.0
 10
4.9650321959
 20
2.6093219306
 30
0.0
 10
4.9652717921
 20
2.6090779011
 30
0.0
  0
LINE
  5
645
100
AcDbEntity
  8
0
100
AcDbLine
 62
7
  6
CONTINUOUS
 10
4.9652717921
 20
2.6090779011
 11
4.9674588857
 21
2.6069610499
  0
LINE
  5
646
100
AcDbEntity
  8
0
100
AcDbLine
 62
7
  6
CONTINUOUS
 10
4.9635452194
 20
2.6271529122
 11
4.9649744282
 21
2.6251905396
  0
LINE
  5
647
100
AcDbEntity
  8
0
100
AcDbLine
 62
7
  6
CONTINUOUS
 10
4.9649744282
 20
2.6251905396
 11
4.9673701731
 21
2.6225758578
  0
LINE
  5
648
100
AcDbEntity
  8
0
100
AcDbLine
 62
7
  6
CONTINUOUS
 10
4.9645995182
 20
2.6429580524
 11
4.96594146
 21
2.6409167728
  0
LINE
  5
649
100
AcDbEntity
  8
0
100
AcDbLine
 62
7
  6
CONTINUOUS
 10
4.96594146
 20
2.6409167728
 11
4.9681909215
 21
2.6381698212
  0
LINE
  5
64A
100
AcDbEntity
  8
0
100
AcDbLine
 62
7
  6
CONTINUOUS
 10
4.9665724664
 20
2.6586769933
 11
4.9675622144
 21
2.6569438704
  0
LINE
  5
64B
100
AcDbEntity
  8
0
100
AcDbLine
 62
7
  6
CONTINUOUS
 10
4.9675622144
 20
2.6569438704
 11
4.969918409
 21
2.6536912251
  0
LINE
  5
64C
100
AcDbEntity
  8
0
100
AcDbLine
 62
7
  6
CONTINUOUS
 10
4.9694575212
 20
2.6742576054
 11
4.9703713781
 21
2.6724702783
  0
LINE
  5
64D
100
AcDbEntity
  8
0
100
AcDbLine
 62
7
  6
CONTINUOUS
 10
4.9703713781
 20
2.6724702783
 11
4.9725469067
 21
2.6690885947
  0
LINE
  5
64E
100
AcDbEntity
  8
0
100
AcDbLine
 62
7
  6
CONTINUOUS
 10
4.9732451145
 20
2.6896482174
 11
4.9740800497
 21
2.6878110944
  0
LINE
  5
64F
100
AcDbEntity
  8
0
100
AcDbLine
 62
7
  6
CONTINUOUS
 10
4.9740800497
 20
2.6878110944
 11
4.9760676973
 21
2.6843108666
  0
SPLINE
  5
650
100
AcDbEntity
  8
0
100
AcDbSpline
 62
7
  6
CONTINUOUS
 70
0
 71
3
 72
18
 73
14
 74
0
 42
0.0000001
 43
0.0000001
 44
0.0000000001
 40
0.0
 40
0.0
 40
0.0
 40
0.0
 40
0.0622580809
 40
0.1245163055
 40
0.1867763958
 40
0.2490661941
 40
0.3736958027
 40
0.4985586689
 40
0.5611363708
 40
0.6237666978
 40
0.7490527194
 40
0.874485583
 40
1.0
 40
1.0
 40
1.0
 40
1.0
 10
5.0722592415
 20
2.6162004834
 30
0.0
 10
5.0730220326
 20
2.6112410848
 30
0.0
 10
5.0749907017
 20
2.6013843669
 30
0.0
 10
5.0792604739
 20
2.5869292902
 30
0.0
 10
5.0848097063
 20
2.5729106501
 30
0.0
 10
5.0938444888
 20
2.5549499371
 30
0.0
 10
5.1081182031
 20
2.5340966594
 30
0.0
 10
5.1258683593
 20
2.5160799773
 30
0.0
 10
5.1418109292
 20
2.5037117584
 30
0.0
 10
5.158806232
 20
2.4927733339
 30
0.0
 10
5.1817960202
 20
2.4819765012
 30
0.0
 10
5.2112133093
 20
2.4740455395
 30
0.0
 10
5.2314840033
 20
2.4722618212
 30
0.0
 10
5.2415998924
 20
2.4722615552
 30
0.0
  0
SPLINE
  5
651
100
AcDbEntity
  8
0
100
AcDbSpline
 62
7
  6
CONTINUOUS
 70
0
 71
3
 72
18
 73
14
 74
0
 42
0.0000001
 43
0.0000001
 44
0.0000000001
 40
0.0
 40
0.0
 40
0.0
 40
0.0
 40
0.1255140324
 40
0.2509466247
 40
0.3762326134
 40
0.438862884
 40
0.5014406047
 40
0.6263038674
 40
0.7509342396
 40
0.8132241672
 40
0.8754841067
 40
0.9377418341
 40
1.0
 40
1.0
 40
1.0
 40
1.0
 10
5.2415998924
 20
2.4722615552
 30
0.0
 10
5.2517071637
 20
2.4722612895
 30
0.0
 10
5.2719606076
 20
2.4740409677
 30
0.0
 10
5.3013548309
 20
2.4819569466
 30
0.0
 10
5.3243294481
 20
2.4927347068
 30
0.0
 10
5.3413162278
 20
2.5036545877
 30
0.0
 10
5.3572528544
 20
2.516002499
 30
0.0
 10
5.3750011115
 20
2.5339906939
 30
0.0
 10
5.3892811017
 20
2.5548134967
 30
0.0
 10
5.3983263201
 20
2.5727498691
 30
0.0
 10
5.4038859461
 20
2.5867505341
 30
0.0
 10
5.4081689982
 20
2.601188253
 30
0.0
 10
5.4101481648
 20
2.611034109
 30
0.0
 10
5.4109166153
 20
2.6159883307
 30
0.0
  0
LINE
  5
652
100
AcDbEntity
  8
0
100
AcDbLine
 62
7
  6
CONTINUOUS
 10
4.9779226853
 20
2.7047977885
 11
4.9786759288
 21
2.7029154455
  0
LINE
  5
653
100
AcDbEntity
  8
0
100
AcDbLine
 62
7
  6
CONTINUOUS
 10
4.9786759288
 20
2.7029154455
 11
4.9804691048
 21
2.6993075583
  0
LINE
  5
654
100
AcDbEntity
  8
0
100
AcDbLine
 62
7
  6
CONTINUOUS
 10
4.9834747212
 20
2.7196560771
 11
4.9841437771
 21
2.7177332324
  0
LINE
  5
655
100
AcDbEntity
  8
0
100
AcDbLine
 62
7
  6
CONTINUOUS
 10
4.9841437771
 20
2.7177332324
 11
4.9857365324
 21
2.7140289353
  0
LINE
  5
656
100
AcDbEntity
  8
0
100
AcDbLine
 62
7
  6
CONTINUOUS
 10
4.9898828094
 20
2.7341738078
 11
4.9906187962
 21
2.7317740444
  0
LINE
  5
657
100
AcDbEntity
  8
0
100
AcDbLine
 62
7
  6
CONTINUOUS
 10
4.9906187962
 20
2.7317740444
 11
4.9918525114
 21
2.7284261759
  0
LINE
  5
658
100
AcDbEntity
  8
0
100
AcDbLine
 62
7
  6
CONTINUOUS
 10
5.4277110754
 20
2.8220735267
 11
5.4278660442
 21
2.8181337853
  0
SPLINE
  5
659
100
AcDbEntity
  8
0
100
AcDbSpline
 62
7
  6
CONTINUOUS
 70
0
 71
3
 72
12
 73
8
 74
0
 42
0.0000001
 43
0.0000001
 44
0.0000000001
 40
0.0
 40
0.0
 40
0.0
 40
0.0
 40
0.0570634556
 40
0.1366993589
 40
0.3599716837
 40
0.6538042332
 40
1.0
 40
1.0
 40
1.0
 40
1.0
 10
5.0479631272
 20
2.8151161572
 30
0.0
 10
5.0480144642
 20
2.8151652783
 30
0.0
 10
5.0481637177
 20
2.8152533973
 30
0.0
 10
5.0485837427
 20
2.8154096283
 30
0.0
 10
5.0493145235
 20
2.8155623233
 30
0.0
 10
5.0503792821
 20
2.815705629
 30
0.0
 10
5.0511739014
 20
2.815773105
 30
0.0
 10
5.0516039
 20
2.8158033542
 30
0.0
  0
LINE
  5
65A
100
AcDbEntity
  8
0
100
AcDbLine
 62
7
  6
CONTINUOUS
 10
5.0516039
 20
2.8158033542
 11
5.0548784039
 21
2.8159393669
  0
SPLINE
  5
65B
100
AcDbEntity
  8
0
100
AcDbSpline
 62
7
  6
CONTINUOUS
 70
0
 71
3
 72
12
 73
8
 74
0
 42
0.0000001
 43
0.0000001
 44
0.0000000001
 40
0.0
 40
0.0
 40
0.0
 40
0.0
 40
0.056866292
 40
0.1364091797
 40
0.3597870368
 40
0.6538121753
 40
1.0
 40
1.0
 40
1.0
 40
1.0
 10
5.0367780973
 20
2.8037615998
 30
0.0
 10
5.0368270934
 20
2.8038141795
 30
0.0
 10
5.0369730968
 20
2.8039117152
 30
0.0
 10
5.0373896783
 20
2.8040937274
 30
0.0
 10
5.038121921
 20
2.8042898533
 30
0.0
 10
5.0391931396
 20
2.8044958127
 30
0.0
 10
5.0399947947
 20
2.8046096043
 30
0.0
 10
5.040428819
 20
2.8046648345
 30
0.0
  0
SPLINE
  5
65C
100
AcDbEntity
  8
0
100
AcDbSpline
 62
7
  6
CONTINUOUS
 70
0
 71
3
 72
12
 73
8
 74
0
 42
0.0000001
 43
0.0000001
 44
0.0000000001
 40
0.0
 40
0.0
 40
0.0
 40
0.0
 40
0.0565657722
 40
0.1359494974
 40
0.3594017062
 40
0.6536885582
 40
1.0
 40
1.0
 40
1.0
 40
1.0
 10
5.0262724642
 20
2.7917885105
 30
0.0
 10
5.0263188046
 20
2.7918443285
 30
0.0
 10
5.0264608878
 20
2.7919509313
 30
0.0
 10
5.026872348
 20
2.7921583724
 30
0.0
 10
5.0276035812
 20
2.7923980638
 30
0.0
 10
5.0286778678
 20
2.7926673892
 30
0.0
 10
5.0294841398
 20
2.792828255
 30
0.0
 10
5.0299209097
 20
2.7929089035
 30
0.0
  0
SPLINE
  5
65D
100
AcDbEntity
  8
0
100
AcDbSpline
 62
7
  6
CONTINUOUS
 70
0
 71
3
 72
12
 73
8
 74
0
 42
0.0000001
 43
0.0000001
 44
0.0000000001
 40
0.0
 40
0.0
 40
0.0
 40
0.0
 40
0.0561611496
 40
0.1353191175
 40
0.3588139254
 40
0.6534322356
 40
1.0
 40
1.0
 40
1.0
 40
1.0
 10
5.016481207
 20
2.7792366081
 30
0.0
 10
5.0165245916
 20
2.7792954096
 30
0.0
 10
5.0166621162
 20
2.779410668
 30
0.0
 10
5.0170668021
 20
2.7796430521
 30
0.0
 10
5.0177945396
 20
2.7799262925
 30
0.0
 10
5.0188684301
 20
2.7802595163
 30
0.0
 10
5.0196768267
 20
2.7804681007
 30
0.0
 10
5.0201150202
 20
2.7805745483
 30
0.0
  0
LINE
  5
65E
100
AcDbEntity
  8
0
100
AcDbLine
 62
7
  6
CONTINUOUS
 10
5.0201150202
 20
2.7805745483
 11
5.0217484021
 21
2.7809443454
  0
SPLINE
  5
65F
100
AcDbEntity
  8
0
100
AcDbSpline
 62
7
  6
CONTINUOUS
 70
0
 71
3
 72
13
 73
9
 74
0
 42
0.0000001
 43
0.0000001
 44
0.0000000001
 40
0.0
 40
0.0
 40
0.0
 40
0.0
 40
0.0538956167
 40
0.132722728
 40
0.2353041573
 40
0.3586474907
 40
0.6552831611
 40
1.0
 40
1.0
 40
1.0
 40
1.0
 10
5.0074368777
 20
2.7661474682
 30
0.0
 10
5.0074836704
 20
2.7662191863
 30
0.0
 10
5.0076458793
 20
2.7663615099
 30
0.0
 10
5.0079642449
 20
2.7665558734
 30
0.0
 10
5.0084006351
 20
2.7667682263
 30
0.0
 10
5.0091669872
 20
2.7670876348
 30
0.0
 10
5.0103157839
 20
2.7674865273
 30
0.0
 10
5.0112917718
 20
2.7677797481
 30
0.0
 10
5.0118184026
 20
2.7679302352
 30
0.0
  0
SPLINE
  5
660
100
AcDbEntity
  8
0
100
AcDbSpline
 62
7
  6
CONTINUOUS
 70
0
 71
3
 72
13
 73
9
 74
0
 42
0.0000001
 43
0.0000001
 44
0.0000000001
 40
0.0
 40
0.0
 40
0.0
 40
0.0
 40
0.0533276725
 40
0.1318423788
 40
0.2343576233
 40
0.3578102891
 40
0.6548869514
 40
1.0
 40
1.0
 40
1.0
 40
1.0
 10
4.9991696714
 20
2.752564644
 30
0.0
 10
4.9992123244
 20
2.7526390676
 30
0.0
 10
4.9993678865
 20
2.752790592
 30
0.0
 10
4.9996779213
 20
2.7530033154
 30
0.0
 10
5.0001072704
 20
2.7532413686
 30
0.0
 10
5.0008651793
 20
2.7536065058
 30
0.0
 10
5.0020057609
 20
2.7540739491
 30
0.0
 10
5.0029771561
 20
2.7544254583
 30
0.0
 10
5.0035016354
 20
2.7546073618
 30
0.0
  0
LINE
  5
661
100
AcDbEntity
  8
0
100
AcDbLine
 62
7
  6
CONTINUOUS
 10
5.164059607
 20
2.3527983457
 11
5.1665040387
 21
2.3537882337
  0
LINE
  5
662
100
AcDbEntity
  8
0
100
AcDbLine
 62
7
  6
CONTINUOUS
 10
5.1665040387
 20
2.3537882337
 11
5.1686298776
 21
2.3549100469
  0
SPLINE
  5
663
100
AcDbEntity
  8
0
100
AcDbSpline
 62
7
  6
CONTINUOUS
 70
0
 71
3
 72
13
 73
9
 74
0
 42
0.0000001
 43
0.0000001
 44
0.0000000001
 40
0.0
 40
0.0
 40
0.0
 40
0.0
 40
0.0488017573
 40
0.1258999043
 40
0.2287703941
 40
0.3533007527
 40
0.6529708296
 40
1.0
 40
1.0
 40
1.0
 40
1.0
 10
5.1794358069
 20
2.3488205992
 30
0.0
 10
5.1794793767
 20
2.3488107039
 30
0.0
 10
5.1795975967
 20
2.3488260581
 30
0.0
 10
5.179797199
 20
2.348884459
 30
0.0
 10
5.1800578273
 20
2.348986092
 30
0.0
 10
5.180497934
 20
2.3491833768
 30
0.0
 10
5.1811270928
 20
2.3495051472
 30
0.0
 10
5.1816446519
 20
2.349792642
 30
0.0
 10
5.1819204731
 20
2.3499503299
 30
0.0
  0
LINE
  5
664
100
AcDbEntity
  8
0
100
AcDbLine
 62
7
  6
CONTINUOUS
 10
5.1819204731
 20
2.3499503299
 11
5.1839721355
 21
2.3511910952
  0
SPLINE
  5
665
100
AcDbEntity
  8
0
100
AcDbSpline
 62
7
  6
CONTINUOUS
 70
0
 71
3
 72
13
 73
9
 74
0
 42
0.0000001
 43
0.0000001
 44
0.0000000001
 40
0.0
 40
0.0
 40
0.0
 40
0.0
 40
0.0478215067
 40
0.1242917971
 40
0.226834362
 40
0.351304752
 40
0.6515705412
 40
1.0
 40
1.0
 40
1.0
 40
1.0
 10
5.195149495
 20
2.3457273577
 30
0.0
 10
5.1951922227
 20
2.3457201742
 30
0.0
 10
5.1953066128
 20
2.3457430709
 30
0.0
 10
5.1954982233
 20
2.3458127948
 30
0.0
 10
5.1957484584
 20
2.3459291813
 30
0.0
 10
5.1961711527
 20
2.3461511743
 30
0.0
 10
5.1967747635
 20
2.3465077931
 30
0.0
 10
5.197270558
 20
2.3468233512
 30
0.0
 10
5.1975348409
 20
2.3469960112
 30
0.0
  0
LINE
  5
666
100
AcDbEntity
  8
0
100
AcDbLine
 62
7
  6
CONTINUOUS
 10
5.1975348409
 20
2.3469960112
 11
5.1995055229
 21
2.3483513105
  0
LINE
  5
667
100
AcDbEntity
  8
0
100
AcDbLine
 62
7
  6
CONTINUOUS
 10
5.2110167982
 20
2.3435334979
 11
5.2132953593
 21
2.3449350752
  0
LINE
  5
668
100
AcDbEntity
  8
0
100
AcDbLine
 62
7
  6
CONTINUOUS
 10
5.2132953593
 20
2.3449350752
 11
5.2151785253
 21
2.3464001107
  0
LINE
  5
669
100
AcDbEntity
  8
0
100
AcDbLine
 62
7
  6
CONTINUOUS
 10
5.226985126
 20
2.3422462217
 11
5.2291497606
 21
2.3437743568
  0
LINE
  5
66A
100
AcDbEntity
  8
0
100
AcDbLine
 62
7
  6
CONTINUOUS
 10
5.2291497606
 20
2.3437743568
 11
5.2309391652
 21
2.3453439667
  0
SPLINE
  5
66B
100
AcDbEntity
  8
0
100
AcDbSpline
 62
7
  6
CONTINUOUS
 70
0
 71
3
 72
14
 73
10
 74
0
 42
0.0000001
 43
0.0000001
 44
0.0000000001
 40
0.0
 40
0.0
 40
0.0
 40
0.0
 40
0.0435304664
 40
0.1188255572
 40
0.2219528414
 40
0.3478110999
 40
0.4920960695
 40
0.6507324976
 40
1.0
 40
1.0
 40
1.0
 40
1.0
 10
5.2430015651
 20
2.3418697311
 30
0.0
 10
5.2430475324
 20
2.3418699085
 30
0.0
 10
5.2431658631
 20
2.341927822
 30
0.0
 10
5.2433606261
 20
2.3420518896
 30
0.0
 10
5.2436178127
 20
2.3422475619
 30
0.0
 10
5.2439216957
 20
2.3424977244
 30
0.0
 10
5.2442632081
 20
2.3427953983
 30
0.0
 10
5.2447734975
 20
2.3432578268
 30
0.0
 10
5.245162519
 20
2.3436272118
 30
0.0
 10
5.2454275528
 20
2.3438837008
 30
0.0
  0
LINE
  5
66C
100
AcDbEntity
  8
0
100
AcDbLine
 62
7
  6
CONTINUOUS
 10
5.2590130531
 20
2.3424052155
 11
5.2612880349
 21
2.3445530487
  0
LINE
  5
66D
100
AcDbEntity
  8
0
100
AcDbLine
 62
7
  6
CONTINUOUS
 10
5.2749665533
 20
2.3438508503
 11
5.2770832386
 21
2.3461237749
  0
LINE
  5
66E
100
AcDbEntity
  8
0
100
AcDbLine
 62
7
  6
CONTINUOUS
 10
5.2908092287
 20
2.3462018035
 11
5.2930886671
 21
2.349052259
  0
SPLINE
  5
66F
100
AcDbEntity
  8
0
100
AcDbSpline
 62
7
  6
CONTINUOUS
 70
0
 71
3
 72
16
 73
12
 74
0
 42
0.0000001
 43
0.0000001
 44
0.0000000001
 40
0.0
 40
0.0
 40
0.0
 40
0.0
 40
0.014048724
 40
0.0384265537
 40
0.0726383064
 40
0.1155934658
 40
0.2232476011
 40
0.3536516093
 40
0.5003967716
 40
0.6592623585
 40
1.0
 40
1.0
 40
1.0
 40
1.0
 10
5.3064886151
 20
2.3494502534
 30
0.0
 10
5.3065109825
 20
2.3494555398
 30
0.0
 10
5.3065627807
 20
2.3494960915
 30
0.0
 10
5.30664566
 20
2.3495790632
 30
0.0
 10
5.3067534078
 20
2.3497066541
 30
0.0
 10
5.3069391447
 20
2.3499447996
 30
0.0
 10
5.3072066576
 20
2.3503191881
 30
0.0
 10
5.3075594194
 20
2.3508404943
 30
0.0
 10
5.3079486098
 20
2.3514383671
 30
0.0
 10
5.3085139157
 20
2.3523319952
 30
0.0
 10
5.3089400647
 20
2.3530295354
 30
0.0
 10
5.3092270879
 20
2.3535074068
 30
0.0
  0
LINE
  5
670
100
AcDbEntity
  8
0
100
AcDbLine
 62
7
  6
CONTINUOUS
 10
5.3219527933
 20
2.3535854151
 11
5.3244178913
 21
2.3577909996
  0
SPLINE
  5
671
100
AcDbEntity
  8
0
100
AcDbSpline
 62
7
  6
CONTINUOUS
 70
0
 71
3
 72
15
 73
11
 74
0
 42
0.0000001
 43
0.0000001
 44
0.0000000001
 40
0.0
 40
0.0
 40
0.0
 40
0.0
 40
0.1246360649
 40
0.2494554916
 40
0.3742698603
 40
0.4991476047
 40
0.6241599398
 40
0.7493042352
 40
0.8745841477
 40
1.0
 40
1.0
 40
1.0
 40
1.0
 10
5.5446043125
 20
2.6114268228
 30
0.0
 10
5.5446043125
 20
2.62342874
 30
0.0
 10
5.5431349219
 20
2.647474937
 30
0.0
 10
5.5366021348
 20
2.6830041101
 30
0.0
 10
5.525793905
 20
2.7175045862
 30
0.0
 10
5.5108923983
 20
2.7504626069
 30
0.0
 10
5.4921065823
 20
2.7814087725
 30
0.0
 10
5.4697134658
 20
2.8099043
 30
0.0
 10
5.4440359352
 20
2.8355271179
 30
0.0
 10
5.4249761724
 20
2.8504541414
 30
0.0
 10
5.4150392419
 20
2.8573179246
 30
0.0
  0
SPLINE
  5
672
100
AcDbEntity
  8
0
100
AcDbSpline
 62
7
  6
CONTINUOUS
 70
0
 71
3
 72
15
 73
11
 74
0
 42
0.0000001
 43
0.0000001
 44
0.0000000001
 40
0.0
 40
0.0
 40
0.0
 40
0.0
 40
0.1254160327
 40
0.2506960495
 40
0.3758403791
 40
0.500852745
 40
0.6257304462
 40
0.7505446243
 40
0.8753639341
 40
1.0
 40
1.0
 40
1.0
 40
1.0
 10
5.0682733525
 20
2.8573897014
 30
0.0
 10
5.0583292141
 20
2.8505270482
 30
0.0
 10
5.0392551712
 20
2.8356009797
 30
0.0
 10
5.0135577047
 20
2.8099755788
 30
0.0
 10
4.9911464646
 20
2.7814740584
 30
0.0
 10
4.9723451322
 20
2.7505187318
 30
0.0
 10
4.9574309751
 20
2.7175490437
 30
0.0
 10
4.94661346
 20
2.6830348897
 30
0.0
 10
4.9400749801
 20
2.647490685
 30
0.0
 10
4.9386043125
 20
2.6234339795
 30
0.0
 10
4.9386043125
 20
2.6114268228
 30
0.0
  0
SPLINE
  5
673
100
AcDbEntity
  8
0
100
AcDbSpline
 62
7
  6
CONTINUOUS
 70
0
 71
3
 72
33
 73
29
 74
0
 42
0.0000001
 43
0.0000001
 44
0.0000000001
 40
0.0
 40
0.0
 40
0.0
 40
0.0
 40
0.0621632865
 40
0.0933110884
 40
0.124460406
 40
0.1556280791
 40
0.1868241339
 40
0.2180471956
 40
0.2492973438
 40
0.2805754163
 40
0.3118812863
 40
0.3432138967
 40
0.3745696123
 40
0.4372632661
 40
0.5000003014
 40
0.5627373119
 40
0.6254308977
 40
0.6567865689
 40
0.6881191261
 40
0.7194249431
 40
0.7507029554
 40
0.7819530451
 40
0.8131760494
 40
0.8443720559
 40
0.8755396871
 40
0.906688962
 40
0.9378367299
 40
1.0
 40
1.0
 40
1.0
 40
1.0
 10
4.9386043125
 20
2.6114268228
 30
0.0
 10
4.9386043125
 20
2.5918206393
 30
0.0
 10
4.9415506269
 20
2.5622819999
 30
0.0
 10
4.951199917
 20
2.5241872602
 30
0.0
 10
4.9612457857
 20
2.4964174555
 30
0.0
 10
4.9739917885
 20
2.4697677746
 30
0.0
 10
4.9893166232
 20
2.4444844979
 30
0.0
 10
5.0070645996
 20
2.420806776
 30
0.0
 10
5.027077691
 20
2.3989751766
 30
0.0
 10
5.0491469287
 20
2.3791853649
 30
0.0
 10
5.0730717088
 20
2.3616413645
 30
0.0
 10
5.0986142424
 20
2.346496737
 30
0.0
 10
5.1344804334
 20
2.3297177601
 30
0.0
 10
5.1821696471
 20
2.3154056005
 30
0.0
 10
5.2416045914
 20
2.3096226031
 30
0.0
 10
5.3010395054
 20
2.3154057147
 30
0.0
 10
5.3487286425
 20
2.3297179591
 30
0.0
 10
5.3845947822
 20
2.3464969242
 30
0.0
 10
5.4101372376
 20
2.3616415912
 30
0.0
 10
5.4340619627
 20
2.3791855754
 30
0.0
 10
5.4561311396
 20
2.3989753752
 30
0.0
 10
5.4761441652
 20
2.420806958
 30
0.0
 10
5.4938921112
 20
2.4444846382
 30
0.0
 10
5.509216891
 20
2.4697678937
 30
0.0
 10
5.5219628756
 20
2.496417536
 30
0.0
 10
5.5320087218
 20
2.5241873093
 30
0.0
 10
5.5416580026
 20
2.5622820206
 30
0.0
 10
5.5446043125
 20
2.5918206445
 30
0.0
 10
5.5446043125
 20
2.6114268228
 30
0.0
  0
LINE
  5
674
100
AcDbEntity
  8
0
100
AcDbLine
 62
7
  6
CONTINUOUS
 10
5.4856827052
 20
2.7430990758
 11
5.486746191
 21
2.7468328971
  0
LINE
  5
675
100
AcDbEntity
  8
0
100
AcDbLine
 62
7
  6
CONTINUOUS
 10
5.4926589061
 20
2.7290004352
 11
5.4939090397
 21
2.7326683775
  0
LINE
  5
676
100
AcDbEntity
  8
0
100
AcDbLine
 62
7
  6
CONTINUOUS
 10
5.4988025179
 20
2.7145282151
 11
5.5002351533
 21
2.718119767
  0
LINE
  5
677
100
AcDbEntity
  8
0
100
AcDbLine
 62
7
  6
CONTINUOUS
 10
5.5036564668
 20
2.6988758289
 11
5.5057035528
 21
2.7032353157
  0
LINE
  5
678
100
AcDbEntity
  8
0
100
AcDbLine
 62
7
  6
CONTINUOUS
 10
5.5080298401
 20
2.6838276956
 11
5.5102961013
 21
2.6880643815
  0
LINE
  5
679
100
AcDbEntity
  8
0
100
AcDbLine
 62
7
  6
CONTINUOUS
 10
5.5115196594
 20
2.668555683
 11
5.5139975698
 21
2.6726572812
  0
SPLINE
  5
67A
100
AcDbEntity
  8
0
100
AcDbSpline
 62
7
  6
CONTINUOUS
 70
0
 71
3
 72
12
 73
8
 74
0
 42
0.0000001
 43
0.0000001
 44
0.0000000001
 40
0.0
 40
0.0
 40
0.0
 40
0.0
 40
0.2964858163
 40
0.5822703731
 40
0.8314260124
 40
0.9292178292
 40
1.0
 40
1.0
 40
1.0
 40
1.0
 10
5.5134846225
 20
2.6522845731
 30
0.0
 10
5.5138360384
 20
2.6527401214
 30
0.0
 10
5.5145183554
 20
2.6536409433
 30
0.0
 10
5.5154647923
 20
2.654947458
 30
0.0
 10
5.5161603786
 20
2.6559602582
 30
0.0
 10
5.5165834241
 20
2.6566515282
 30
0.0
 10
5.5167405562
 20
2.6569393011
 30
0.0
 10
5.5167956824
 20
2.6570651089
 30
0.0
  0
SPLINE
  5
67B
100
AcDbEntity
  8
0
100
AcDbSpline
 62
7
  6
CONTINUOUS
 70
0
 71
3
 72
12
 73
8
 74
0
 42
0.0000001
 43
0.0000001
 44
0.0000000001
 40
0.0
 40
0.0
 40
0.0
 40
0.0
 40
0.2971117928
 40
0.5831506679
 40
0.8321018051
 40
0.9295980113
 40
1.0
 40
1.0
 40
1.0
 40
1.0
 10
5.5151298725
 20
2.6367544397
 30
0.0
 10
5.5155065744
 20
2.6371890068
 30
0.0
 10
5.5162379575
 20
2.6380490201
 30
0.0
 10
5.5172529198
 20
2.6392994924
 30
0.0
 10
5.5179991198
 20
2.6402713065
 30
0.0
 10
5.518453186
 20
2.6409380481
 30
0.0
 10
5.5186219452
 20
2.6412168359
 30
0.0
 10
5.5186811594
 20
2.6413395739
 30
0.0
  0
LINE
  5
67C
100
AcDbEntity
  8
0
100
AcDbLine
 62
7
  6
CONTINUOUS
 10
5.5158680114
 20
2.6211564406
 11
5.5178283266
 21
2.6232509261
  0
LINE
  5
67D
100
AcDbEntity
  8
0
100
AcDbLine
 62
7
  6
CONTINUOUS
 10
5.5178283266
 20
2.6232509261
 11
5.5194744994
 21
2.6252524916
  0
LINE
  5
67E
100
AcDbEntity
  8
0
100
AcDbLine
 62
7
  6
CONTINUOUS
 10
5.5194744994
 20
2.6252524916
 11
5.519647748
 21
2.6255328279
  0
SPLINE
  5
67F
100
AcDbEntity
  8
0
100
AcDbSpline
 62
7
  6
CONTINUOUS
 70
0
 71
3
 72
12
 73
8
 74
0
 42
0.0000001
 43
0.0000001
 44
0.0000000001
 40
0.0
 40
0.0
 40
0.0
 40
0.0
 40
0.2985095512
 40
0.5851200518
 40
0.8336180609
 40
0.930452749
 40
1.0
 40
1.0
 40
1.0
 40
1.0
 10
5.5156965913
 20
2.6055423045
 30
0.0
 10
5.5161199096
 20
2.6059307671
 30
0.0
 10
5.516941716
 20
2.6067011082
 30
0.0
 10
5.5180833125
 20
2.6078282536
 30
0.0
 10
5.5189232285
 20
2.6087097589
 30
0.0
 10
5.5194349315
 20
2.6093223889
 30
0.0
 10
5.5196253874
 20
2.6095813244
 30
0.0
 10
5.5196922425
 20
2.6096972918
 30
0.0
  0
SPLINE
  5
680
100
AcDbEntity
  8
0
100
AcDbSpline
 62
7
  6
CONTINUOUS
 70
0
 71
3
 72
12
 73
8
 74
0
 42
0.0000001
 43
0.0000001
 44
0.0000000001
 40
0.0
 40
0.0
 40
0.0
 40
0.0
 40
0.0488521977
 40
0.121562465
 40
0.3376913582
 40
0.6366136957
 40
1.0
 40
1.0
 40
1.0
 40
1.0
 10
4.9633587214
 20
2.615977689
 30
0.0
 10
4.9633587214
 20
2.6160241492
 30
0.0
 10
4.9633911958
 20
2.6161379386
 30
0.0
 10
4.9635289234
 20
2.616427241
 30
0.0
 10
4.9638417395
 20
2.6168940809
 30
0.0
 10
4.9643480002
 20
2.6175575859
 30
0.0
 10
4.9647510474
 20
2.6180422405
 30
0.0
 10
4.9649750824
 20
2.6183053814
 30
0.0
  0
LINE
  5
681
100
AcDbEntity
  8
0
100
AcDbLine
 62
7
  6
CONTINUOUS
 10
4.9639102697
 20
2.6001476124
 11
4.9651286747
 21
2.6021614705
  0
LINE
  5
682
100
AcDbEntity
  8
0
100
AcDbLine
 62
7
  6
CONTINUOUS
 10
4.9655115561
 20
2.6026660074
 11
4.9681720549
 21
2.6059104841
  0
LINE
  5
683
100
AcDbEntity
  8
0
100
AcDbLine
 62
7
  6
CONTINUOUS
 10
4.9653827534
 20
2.584375169
 11
4.9662152286
 21
2.5859885621
  0
LINE
  5
684
100
AcDbEntity
  8
0
100
AcDbLine
 62
7
  6
CONTINUOUS
 10
4.9662152286
 20
2.5859885621
 11
4.9668811433
 21
2.5869818256
  0
LINE
  5
685
100
AcDbEntity
  8
0
100
AcDbLine
 62
7
  6
CONTINUOUS
 10
4.9668811433
 20
2.5869818256
 11
4.9694825072
 21
2.5905190023
  0
LINE
  5
686
100
AcDbEntity
  8
0
100
AcDbLine
 62
7
  6
CONTINUOUS
 10
4.967771289
 20
2.568712666
 11
4.9685438363
 21
2.5703717612
  0
LINE
  5
687
100
AcDbEntity
  8
0
100
AcDbLine
 62
7
  6
CONTINUOUS
 10
4.9691618134
 20
2.5714015829
 11
4.970925959
 21
2.5741211818
  0
LINE
  5
688
100
AcDbEntity
  8
0
100
AcDbLine
 62
7
  6
CONTINUOUS
 10
4.9710679554
 20
2.5532120461
 11
4.9717780127
 21
2.5549133576
  0
LINE
  5
689
100
AcDbEntity
  8
0
100
AcDbLine
 62
7
  6
CONTINUOUS
 10
4.9723460027
 20
2.5559769491
 11
4.9739674496
 21
2.5587929509
  0
LINE
  5
68A
100
AcDbEntity
  8
0
100
AcDbLine
 62
7
  6
CONTINUOUS
 10
4.9752618196
 20
2.5379247149
 11
4.975331305
 21
2.5382507521
  0
LINE
  5
68B
100
AcDbEntity
  8
0
100
AcDbLine
 62
7
  6
CONTINUOUS
 10
4.975331305
 20
2.5382507521
 11
4.9759070321
 21
2.5396646169
  0
LINE
  5
68C
100
AcDbEntity
  8
0
100
AcDbLine
 62
7
  6
CONTINUOUS
 10
4.9764231513
 20
2.5407590778
 11
4.9778965222
 21
2.5436632029
  0
LINE
  5
68D
100
AcDbEntity
  8
0
100
AcDbLine
 62
7
  6
CONTINUOUS
 10
4.9803389732
 20
2.5229013708
 11
4.9805910577
 21
2.5238178736
  0
LINE
  5
68E
100
AcDbEntity
  8
0
100
AcDbLine
 62
7
  6
CONTINUOUS
 10
4.9805910577
 20
2.5238178736
 11
4.9809172011
 21
2.5246761097
  0
LINE
  5
68F
100
AcDbEntity
  8
0
100
AcDbLine
 62
7
  6
CONTINUOUS
 10
4.9813797379
 20
2.5257984373
 11
4.9827001466
 21
2.5287821136
  0
LINE
  5
690
100
AcDbEntity
  8
0
100
AcDbLine
 62
7
  6
CONTINUOUS
 10
4.9862825785
 20
2.5081918368
 11
4.9866337526
 21
2.5095268819
  0
LINE
  5
691
100
AcDbEntity
  8
0
100
AcDbLine
 62
7
  6
CONTINUOUS
 10
4.9866337526
 20
2.5095268819
 11
4.9869801227
 21
2.5105362341
  0
LINE
  5
692
100
AcDbEntity
  8
0
100
AcDbLine
 62
7
  6
CONTINUOUS
 10
4.9871993246
 20
2.5111446423
 11
4.9883623921
 21
2.5141990343
  0
LINE
  5
693
100
AcDbEntity
  8
0
100
AcDbLine
 62
7
  6
CONTINUOUS
 10
4.9930729243
 20
2.4938448951
 11
4.9936737905
 21
2.4962262639
  0
LINE
  5
694
100
AcDbEntity
  8
0
100
AcDbLine
 62
7
  6
CONTINUOUS
 10
4.9938626116
 20
2.4968462904
 11
4.9950985
 21
2.5006658028
  0
LINE
  5
695
100
AcDbEntity
  8
0
100
AcDbLine
 62
7
  6
CONTINUOUS
 10
5.0006874913
 20
2.4799081254
 11
5.0011896849
 21
2.4823208952
  0
LINE
  5
696
100
AcDbEntity
  8
0
100
AcDbLine
 62
7
  6
CONTINUOUS
 10
5.0091010269
 20
2.4664277472
 11
5.0095028864
 21
2.4688662675
  0
LINE
  5
697
100
AcDbEntity
  8
0
100
AcDbLine
 62
7
  6
CONTINUOUS
 10
5.0182856286
 20
2.4534484662
 11
5.0185858193
 21
2.4559069771
  0
LINE
  5
698
100
AcDbEntity
  8
0
100
AcDbLine
 62
7
  6
CONTINUOUS
 10
5.028210837
 20
2.4410133267
 11
5.0284083633
 21
2.4434860097
  0
LINE
  5
699
100
AcDbEntity
  8
0
100
AcDbLine
 62
7
  6
CONTINUOUS
 10
5.0288626393
 20
2.4480073403
 11
5.0290124022
 21
2.4494287203
  0
LINE
  5
69A
100
AcDbEntity
  8
0
100
AcDbLine
 62
7
  6
CONTINUOUS
 10
5.0290124022
 20
2.4494287203
 11
5.0291321341
 21
2.4505458037
  0
LINE
  5
69B
100
AcDbEntity
  8
0
100
AcDbLine
 62
7
  6
CONTINUOUS
 10
5.0388437364
 20
2.429163568
 11
5.0389675477
 21
2.4322958903
  0
LINE
  5
69C
100
AcDbEntity
  8
0
100
AcDbLine
 62
7
  6
CONTINUOUS
 10
5.0389675477
 20
2.4322958903
 11
5.039038343
 21
2.4338019749
  0
LINE
  5
69D
100
AcDbEntity
  8
0
100
AcDbLine
 62
7
  6
CONTINUOUS
 10
5.039038343
 20
2.4338019749
 11
5.0390796623
 21
2.4346586367
  0
LINE
  5
69E
100
AcDbEntity
  8
0
100
AcDbLine
 62
7
  6
CONTINUOUS
 10
5.0390796623
 20
2.4346586367
 11
5.0391538999
 21
2.4361708146
  0
LINE
  5
69F
100
AcDbEntity
  8
0
100
AcDbLine
 62
7
  6
CONTINUOUS
 10
5.0391538999
 20
2.4361708146
 11
5.0392260296
 21
2.4376126714
  0
LINE
  5
6A0
100
AcDbEntity
  8
0
100
AcDbLine
 62
7
  6
CONTINUOUS
 10
5.0392260296
 20
2.4376126714
 11
5.0392831338
 21
2.43873479
  0
LINE
  5
6A1
100
AcDbEntity
  8
0
100
AcDbLine
 62
7
  6
CONTINUOUS
 10
5.4429688781
 20
2.437690101
 11
5.4430856325
 21
2.4351173616
  0
LINE
  5
6A2
100
AcDbEntity
  8
0
100
AcDbLine
 62
7
  6
CONTINUOUS
 10
5.4430856325
 20
2.4351173616
 11
5.4433420505
 21
2.4289534673
  0
LINE
  5
6A3
100
AcDbEntity
  8
0
100
AcDbLine
 62
7
  6
CONTINUOUS
 10
5.4433584036
 20
2.4284311822
 11
5.4433643701
 21
2.4281167184
  0
LINE
  5
6A4
100
AcDbEntity
  8
0
100
AcDbLine
 62
7
  6
CONTINUOUS
 10
5.4534400442
 20
2.4468997708
 11
5.4540103641
 21
2.4407459849
  0
LINE
  5
6A5
100
AcDbEntity
  8
0
100
AcDbLine
 62
7
  6
CONTINUOUS
 10
5.4540103641
 20
2.4407459849
 11
5.4540466513
 21
2.4402251987
  0
LINE
  5
6A6
100
AcDbEntity
  8
0
100
AcDbLine
 62
7
  6
CONTINUOUS
 10
5.4540466513
 20
2.4402251987
 11
5.4540598909
 21
2.4399112818
  0
LINE
  5
6A7
100
AcDbEntity
  8
0
100
AcDbLine
 62
7
  6
CONTINUOUS
 10
5.4630892572
 20
2.4592595665
 11
5.4639742612
 21
2.4531259934
  0
LINE
  5
6A8
100
AcDbEntity
  8
0
100
AcDbLine
 62
7
  6
CONTINUOUS
 10
5.4639742612
 20
2.4531259934
 11
5.4640303623
 21
2.4526078379
  0
LINE
  5
6A9
100
AcDbEntity
  8
0
100
AcDbLine
 62
7
  6
CONTINUOUS
 10
5.4640303623
 20
2.4526078379
 11
5.4640508311
 21
2.4522948808
  0
LINE
  5
6AA
100
AcDbEntity
  8
0
100
AcDbLine
 62
7
  6
CONTINUOUS
 10
5.4726937674
 20
2.4687833426
 11
5.4732006981
 21
2.4660524361
  0
LINE
  5
6AB
100
AcDbEntity
  8
0
100
AcDbLine
 62
7
  6
CONTINUOUS
 10
5.4732006981
 20
2.4660524361
 11
5.473276427
 21
2.4655380344
  0
LINE
  5
6AC
100
AcDbEntity
  8
0
100
AcDbLine
 62
7
  6
CONTINUOUS
 10
5.473276427
 20
2.4655380344
 11
5.473304057
 21
2.4652264469
  0
LINE
  5
6AD
100
AcDbEntity
  8
0
100
AcDbLine
 62
7
  6
CONTINUOUS
 10
5.4810220578
 20
2.4821822934
 11
5.4815087353
 21
2.4801749251
  0
LINE
  5
6AE
100
AcDbEntity
  8
0
100
AcDbLine
 62
7
  6
CONTINUOUS
 10
5.4815087353
 20
2.4801749251
 11
5.4817541659
 21
2.4789730043
  0
LINE
  5
6AF
100
AcDbEntity
  8
0
100
AcDbLine
 62
7
  6
CONTINUOUS
 10
5.4817541659
 20
2.4789730043
 11
5.4817888816
 21
2.4786630943
  0
LINE
  5
6B0
100
AcDbEntity
  8
0
100
AcDbLine
 62
7
  6
CONTINUOUS
 10
5.4885571106
 20
2.4960299339
 11
5.4891410161
 21
2.494054022
  0
LINE
  5
6B1
100
AcDbEntity
  8
0
100
AcDbLine
 62
7
  6
CONTINUOUS
 10
5.4891410161
 20
2.494054022
 11
5.4894355118
 21
2.4928679006
  0
LINE
  5
6B2
100
AcDbEntity
  8
0
100
AcDbLine
 62
7
  6
CONTINUOUS
 10
5.4894355118
 20
2.4928679006
 11
5.489477166
 21
2.4925602621
  0
LINE
  5
6B3
100
AcDbEntity
  8
0
100
AcDbLine
 62
7
  6
CONTINUOUS
 10
5.4948271322
 20
2.5114839037
 11
5.4956554375
 21
2.5092178782
  0
LINE
  5
6B4
100
AcDbEntity
  8
0
100
AcDbLine
 62
7
  6
CONTINUOUS
 10
5.4956554375
 20
2.5092178782
 11
5.4959522547
 21
2.5083449124
  0
LINE
  5
6B5
100
AcDbEntity
  8
0
100
AcDbLine
 62
7
  6
CONTINUOUS
 10
5.4959522547
 20
2.5083449124
 11
5.4962949425
 21
2.5071769345
  0
LINE
  5
6B6
100
AcDbEntity
  8
0
100
AcDbLine
 62
7
  6
CONTINUOUS
 10
5.4962949425
 20
2.5071769345
 11
5.4963434132
 21
2.5068718622
  0
LINE
  5
6B7
100
AcDbEntity
  8
0
100
AcDbLine
 62
7
  6
CONTINUOUS
 10
5.500640365
 20
2.5260701945
 11
5.501582408
 21
2.5238545787
  0
LINE
  5
6B8
100
AcDbEntity
  8
0
100
AcDbLine
 62
7
  6
CONTINUOUS
 10
5.501582408
 20
2.5238545787
 11
5.5021586344
 21
2.5223410142
  0
LINE
  5
6B9
100
AcDbEntity
  8
0
100
AcDbLine
 62
7
  6
CONTINUOUS
 10
5.5021586344
 20
2.5223410142
 11
5.5023097257
 21
2.5218525545
  0
LINE
  5
6BA
100
AcDbEntity
  8
0
100
AcDbLine
 62
7
  6
CONTINUOUS
 10
5.5023097257
 20
2.5218525545
 11
5.5023648521
 21
2.5215504321
  0
LINE
  5
6BB
100
AcDbEntity
  8
0
100
AcDbLine
 62
7
  6
CONTINUOUS
 10
5.5055945392
 20
2.5409630813
 11
5.5066471957
 21
2.5388042635
  0
LINE
  5
6BC
100
AcDbEntity
  8
0
100
AcDbLine
 62
7
  6
CONTINUOUS
 10
5.5066471957
 20
2.5388042635
 11
5.5072910819
 21
2.5373254411
  0
LINE
  5
6BD
100
AcDbEntity
  8
0
100
AcDbLine
 62
7
  6
CONTINUOUS
 10
5.5072910819
 20
2.5373254411
 11
5.5074599142
 21
2.5368460911
  0
LINE
  5
6BE
100
AcDbEntity
  8
0
100
AcDbLine
 62
7
  6
CONTINUOUS
 10
5.5074599142
 20
2.5368460911
 11
5.5075215134
 21
2.5365472923
  0
LINE
  5
6BF
100
AcDbEntity
  8
0
100
AcDbLine
 62
7
  6
CONTINUOUS
 10
5.509673225
 20
2.5561131739
 11
5.5108330039
 21
2.554017354
  0
LINE
  5
6C0
100
AcDbEntity
  8
0
100
AcDbLine
 62
7
  6
CONTINUOUS
 10
5.5108330039
 20
2.554017354
 11
5.5115424146
 21
2.5525770659
  0
LINE
  5
6C1
100
AcDbEntity
  8
0
100
AcDbLine
 62
7
  6
CONTINUOUS
 10
5.5115424146
 20
2.5525770659
 11
5.5117284279
 21
2.5521078199
  0
LINE
  5
6C2
100
AcDbEntity
  8
0
100
AcDbLine
 62
7
  6
CONTINUOUS
 10
5.5117284279
 20
2.5521078199
 11
5.5117962957
 21
2.5518127077
  0
LINE
  5
6C3
100
AcDbEntity
  8
0
100
AcDbLine
 62
7
  6
CONTINUOUS
 10
5.5121016676
 20
2.5726344401
 11
5.5145785577
 21
2.5686561457
  0
LINE
  5
6C4
100
AcDbEntity
  8
0
100
AcDbLine
 62
7
  6
CONTINUOUS
 10
5.5145785577
 20
2.5686561457
 11
5.5148985336
 21
2.5680453088
  0
LINE
  5
6C5
100
AcDbEntity
  8
0
100
AcDbLine
 62
7
  6
CONTINUOUS
 10
5.5148985336
 20
2.5680453088
 11
5.515101111
 21
2.5675871277
  0
LINE
  5
6C6
100
AcDbEntity
  8
0
100
AcDbLine
 62
7
  6
CONTINUOUS
 10
5.515101111
 20
2.5675871277
 11
5.5151750223
 21
2.5672960526
  0
LINE
  5
6C7
100
AcDbEntity
  8
0
100
AcDbLine
 62
7
  6
CONTINUOUS
 10
5.5143320268
 20
2.5881024765
 11
5.5170032305
 21
2.5842707712
  0
LINE
  5
6C8
100
AcDbEntity
  8
0
100
AcDbLine
 62
7
  6
CONTINUOUS
 10
5.5170032305
 20
2.5842707712
 11
5.5173483087
 21
2.5836788713
  0
LINE
  5
6C9
100
AcDbEntity
  8
0
100
AcDbLine
 62
7
  6
CONTINUOUS
 10
5.5173483087
 20
2.5836788713
 11
5.5175667784
 21
2.5832326793
  0
LINE
  5
6CA
100
AcDbEntity
  8
0
100
AcDbLine
 62
7
  6
CONTINUOUS
 10
5.5175667784
 20
2.5832326793
 11
5.5176464881
 21
2.5829459785
  0
LINE
  5
6CB
100
AcDbEntity
  8
0
100
AcDbLine
 62
7
  6
CONTINUOUS
 10
5.5156590588
 20
2.6036710175
 11
5.5185145794
 21
2.5999974727
  0
LINE
  5
6CC
100
AcDbEntity
  8
0
100
AcDbLine
 62
7
  6
CONTINUOUS
 10
5.5185145794
 20
2.5999974727
 11
5.5191172855
 21
2.5989925546
  0
LINE
  5
6CD
100
AcDbEntity
  8
0
100
AcDbLine
 62
7
  6
CONTINUOUS
 10
5.5191172855
 20
2.5989925546
 11
5.5192024968
 21
2.5987105845
  0
LINE
  5
6CE
100
AcDbEntity
  8
0
100
AcDbLine
 62
7
  6
CONTINUOUS
 10
5.5167506723
 20
2.6185545241
 11
5.5183694418
 21
2.6167070598
  0
LINE
  5
6CF
100
AcDbEntity
  8
0
100
AcDbLine
 62
7
  6
CONTINUOUS
 10
5.5183694418
 20
2.6167070598
 11
5.5196795888
 21
2.6149463228
  0
LINE
  5
6D0
100
AcDbEntity
  8
0
100
AcDbLine
 62
7
  6
CONTINUOUS
 10
5.5196795888
 20
2.6149463228
 11
5.5198378882
 21
2.6145375894
  0
LINE
  5
6D1
100
AcDbEntity
  8
0
100
AcDbLine
 62
7
  6
CONTINUOUS
 10
5.5146161807
 20
2.5899638135
 11
5.518622061
 21
2.5936259885
  0
LINE
  5
6D2
100
AcDbEntity
  8
0
100
AcDbLine
 62
7
  6
CONTINUOUS
 10
5.518622061
 20
2.5936259885
 11
5.5188144956
 21
2.5938854822
  0
LINE
  5
6D3
100
AcDbEntity
  8
0
100
AcDbLine
 62
7
  6
CONTINUOUS
 10
5.5126303626
 20
2.5744726318
 11
5.5165094396
 21
2.5775860054
  0
LINE
  5
6D4
100
AcDbEntity
  8
0
100
AcDbLine
 62
7
  6
CONTINUOUS
 10
5.5165094396
 20
2.5775860054
 11
5.5170174179
 21
2.5781498367
  0
LINE
  5
6D5
100
AcDbEntity
  8
0
100
AcDbLine
 62
7
  6
CONTINUOUS
 10
5.5097457227
 20
2.5591201336
 11
5.513332826
 21
2.5616363889
  0
LINE
  5
6D6
100
AcDbEntity
  8
0
100
AcDbLine
 62
7
  6
CONTINUOUS
 10
5.513332826
 20
2.5616363889
 11
5.5143069694
 21
2.5625425406
  0
LINE
  5
6D7
100
AcDbEntity
  8
0
100
AcDbLine
 62
7
  6
CONTINUOUS
 10
5.5059718275
 20
2.5439572337
 11
5.5096840241
 21
2.5462656454
  0
LINE
  5
6D8
100
AcDbEntity
  8
0
100
AcDbLine
 62
7
  6
CONTINUOUS
 10
5.5096840241
 20
2.5462656454
 11
5.5106921389
 21
2.5471153533
  0
LINE
  5
6D9
100
AcDbEntity
  8
0
100
AcDbLine
 62
7
  6
CONTINUOUS
 10
5.5013211927
 20
2.5290342175
 11
5.5045373449
 21
2.5307544419
  0
LINE
  5
6DA
100
AcDbEntity
  8
0
100
AcDbLine
 62
7
  6
CONTINUOUS
 10
5.5045373449
 20
2.5307544419
 11
5.5061849074
 21
2.5319194292
  0
LINE
  5
6DB
100
AcDbEntity
  8
0
100
AcDbLine
 62
7
  6
CONTINUOUS
 10
5.4958092414
 20
2.5144005755
 11
5.4991095315
 21
2.515935233
  0
LINE
  5
6DC
100
AcDbEntity
  8
0
100
AcDbLine
 62
7
  6
CONTINUOUS
 10
5.4991095315
 20
2.515935233
 11
5.5008002436
 21
2.5170051872
  0
LINE
  5
6DD
100
AcDbEntity
  8
0
100
AcDbLine
 62
7
  6
CONTINUOUS
 10
5.4894542534
 20
2.5001048381
 11
5.4928277625
 21
2.5014494628
  0
LINE
  5
6DE
100
AcDbEntity
  8
0
100
AcDbLine
 62
7
  6
CONTINUOUS
 10
5.4928277625
 20
2.5014494628
 11
5.4945559841
 21
2.5024220647
  0
LINE
  5
6DF
100
AcDbEntity
  8
0
100
AcDbLine
 62
7
  6
CONTINUOUS
 10
5.4822773041
 20
2.4861944151
 11
5.4857128443
 21
2.4873451559
  0
LINE
  5
6E0
100
AcDbEntity
  8
0
100
AcDbLine
 62
7
  6
CONTINUOUS
 10
5.4857128443
 20
2.4873451559
 11
5.487472844
 21
2.4882184326
  0
LINE
  5
6E1
100
AcDbEntity
  8
0
100
AcDbLine
 62
7
  6
CONTINUOUS
 10
5.4743021949
 20
2.4727154387
 11
5.4770365163
 21
2.4734353101
  0
LINE
  5
6E2
100
AcDbEntity
  8
0
100
AcDbLine
 62
7
  6
CONTINUOUS
 10
5.4770365163
 20
2.4734353101
 11
5.4795743137
 21
2.4744413954
  0
LINE
  5
6E3
100
AcDbEntity
  8
0
100
AcDbLine
 62
7
  6
CONTINUOUS
 10
5.4655553741
 20
2.4597126102
 11
5.4683203442
 21
2.4602758922
  0
LINE
  5
6E4
100
AcDbEntity
  8
0
100
AcDbLine
 62
7
  6
CONTINUOUS
 10
5.4683203442
 20
2.4602758922
 11
5.4706422253
 21
2.4609916311
  0
LINE
  5
6E5
100
AcDbEntity
  8
0
100
AcDbLine
 62
7
  6
CONTINUOUS
 10
5.4706422253
 20
2.4609916311
 11
5.4708865876
 21
2.4611366427
  0
LINE
  5
6E6
100
AcDbEntity
  8
0
100
AcDbLine
 62
7
  6
CONTINUOUS
 10
5.4560658495
 20
2.4472290515
 11
5.4588522987
 21
2.4476342599
  0
LINE
  5
6E7
100
AcDbEntity
  8
0
100
AcDbLine
 62
7
  6
CONTINUOUS
 10
5.4588522987
 20
2.4476342599
 11
5.4602910477
 21
2.4479340314
  0
LINE
  5
6E8
100
AcDbEntity
  8
0
100
AcDbLine
 62
7
  6
CONTINUOUS
 10
5.4602910477
 20
2.4479340314
 11
5.4614384774
 21
2.4483482981
  0
LINE
  5
6E9
100
AcDbEntity
  8
0
100
AcDbLine
 62
7
  6
CONTINUOUS
 10
5.4458650917
 20
2.4353061629
 11
5.4486637792
 21
2.4355523376
  0
LINE
  5
6EA
100
AcDbEntity
  8
0
100
AcDbLine
 62
7
  6
CONTINUOUS
 10
5.4486637792
 20
2.4355523376
 11
5.4494333344
 21
2.4356558625
  0
LINE
  5
6EB
100
AcDbEntity
  8
0
100
AcDbLine
 62
7
  6
CONTINUOUS
 10
5.4494333344
 20
2.4356558625
 11
5.4512613164
 21
2.4361187723
  0
LINE
  5
6EC
100
AcDbEntity
  8
0
100
AcDbLine
 62
7
  6
CONTINUOUS
 10
5.4349869303
 20
2.423983485
 11
5.4377885745
 21
2.4240701933
  0
LINE
  5
6ED
100
AcDbEntity
  8
0
100
AcDbLine
 62
7
  6
CONTINUOUS
 10
5.4377885745
 20
2.4240701933
 11
5.4385589427
 21
2.4241298697
  0
LINE
  5
6EE
100
AcDbEntity
  8
0
100
AcDbLine
 62
7
  6
CONTINUOUS
 10
5.4385589427
 20
2.4241298697
 11
5.440388856
 21
2.4244886229
  0
LINE
  5
6EF
100
AcDbEntity
  8
0
100
AcDbLine
 62
7
  6
CONTINUOUS
 10
5.4234674413
 20
2.4132985679
 11
5.4262627508
 21
2.413225906
  0
LINE
  5
6F0
100
AcDbEntity
  8
0
100
AcDbLine
 62
7
  6
CONTINUOUS
 10
5.4262627508
 20
2.413225906
 11
5.4270313772
 21
2.4132417604
  0
LINE
  5
6F1
100
AcDbEntity
  8
0
100
AcDbLine
 62
7
  6
CONTINUOUS
 10
5.4270313772
 20
2.4132417604
 11
5.428857153
 21
2.4134964199
  0
LINE
  5
6F2
100
AcDbEntity
  8
0
100
AcDbLine
 62
7
  6
CONTINUOUS
 10
5.4113448273
 20
2.4032868467
 11
5.4132900761
 21
2.403106581
  0
LINE
  5
6F3
100
AcDbEntity
  8
0
100
AcDbLine
 62
7
  6
CONTINUOUS
 10
5.4141245321
 20
2.4030554393
 11
5.4148888676
 21
2.4030276435
  0
LINE
  5
6F4
100
AcDbEntity
  8
0
100
AcDbLine
 62
7
  6
CONTINUOUS
 10
5.4148888676
 20
2.4030276435
 11
5.416704451
 21
2.4031786172
  0
LINE
  5
6F5
100
AcDbEntity
  8
0
100
AcDbLine
 62
7
  6
CONTINUOUS
 10
5.3986592916
 20
2.393981524
 11
5.4005871689
 21
2.3936909732
  0
LINE
  5
6F6
100
AcDbEntity
  8
0
100
AcDbLine
 62
7
  6
CONTINUOUS
 10
5.401414173
 20
2.3935925223
 11
5.4021716829
 21
2.3935213928
  0
LINE
  5
6F7
100
AcDbEntity
  8
0
100
AcDbLine
 62
7
  6
CONTINUOUS
 10
5.4021716829
 20
2.3935213928
 11
5.4039710527
 21
2.3935694327
  0
LINE
  5
6F8
100
AcDbEntity
  8
0
100
AcDbLine
 62
7
  6
CONTINUOUS
 10
5.3864506748
 20
2.3851945612
 11
5.3881738258
 21
2.3848685374
  0
LINE
  5
6F9
100
AcDbEntity
  8
0
100
AcDbLine
 62
7
  6
CONTINUOUS
 10
5.3881738258
 20
2.3848685374
 11
5.3889219978
 21
2.3847545344
  0
LINE
  5
6FA
100
AcDbEntity
  8
0
100
AcDbLine
 62
7
  6
CONTINUOUS
 10
5.3889219978
 20
2.3847545344
 11
5.3906991868
 21
2.3847007338
  0
LINE
  5
6FB
100
AcDbEntity
  8
0
100
AcDbLine
 62
7
  6
CONTINUOUS
 10
5.3727514704
 20
2.3773357969
 11
5.3744474004
 21
2.3769124167
  0
LINE
  5
6FC
100
AcDbEntity
  8
0
100
AcDbLine
 62
7
  6
CONTINUOUS
 10
5.3744474004
 20
2.3769124167
 11
5.3751837533
 21
2.3767561426
  0
LINE
  5
6FD
100
AcDbEntity
  8
0
100
AcDbLine
 62
7
  6
CONTINUOUS
 10
5.3751837533
 20
2.3767561426
 11
5.3769328675
 21
2.3766019324
  0
LINE
  5
6FE
100
AcDbEntity
  8
0
100
AcDbLine
 62
7
  6
CONTINUOUS
 10
5.3586173339
 20
2.3702695717
 11
5.3602804185
 21
2.3697505454
  0
LINE
  5
6FF
100
AcDbEntity
  8
0
100
AcDbLine
 62
7
  6
CONTINUOUS
 10
5.3602804185
 20
2.3697505454
 11
5.3610025104
 21
2.3695527429
  0
LINE
  5
700
100
AcDbEntity
  8
0
100
AcDbLine
 62
7
  6
CONTINUOUS
 10
5.3610025104
 20
2.3695527429
 11
5.36163636
 21
2.3694023702
  0
LINE
  5
701
100
AcDbEntity
  8
0
100
AcDbLine
 62
7
  6
CONTINUOUS
 10
5.36163636
 20
2.3694023702
 11
5.3627177492
 21
2.3692998872
  0
SPLINE
  5
702
100
AcDbEntity
  8
0
100
AcDbSpline
 62
7
  6
CONTINUOUS
 70
0
 71
3
 72
20
 73
16
 74
0
 42
0.0000001
 43
0.0000001
 44
0.0000000001
 40
0.0
 40
0.0
 40
0.0
 40
0.0
 40
0.0084051015
 40
0.0177144817
 40
0.039707075
 40
0.0739995944
 40
0.1191231097
 40
0.1735241767
 40
0.2358763222
 40
0.3049864029
 40
0.3796751673
 40
0.4590529243
 40
0.629296587
 40
0.8108696843
 40
1.0
 40
1.0
 40
1.0
 40
1.0
 10
5.3520102494
 20
2.3644960787
 30
0.0
 10
5.3520102494
 20
2.3644823581
 30
0.0
 10
5.3520188751
 20
2.364437488
 30
0.0
 10
5.3520831089
 20
2.364507615
 30
0.0
 10
5.3521260063
 20
2.3645849353
 30
0.0
 10
5.352210463
 20
2.3647384367
 30
0.0
 10
5.3523030655
 20
2.3649320527
 30
0.0
 10
5.3524144359
 20
2.3651732067
 30
0.0
 10
5.3525367907
 20
2.3654503677
 30
0.0
 10
5.3526697186
 20
2.3657596842
 30
0.0
 10
5.352810769
 20
2.366095548
 30
0.0
 10
5.3530125704
 20
2.3665850085
 30
0.0
 10
5.3532753962
 20
2.3672379948
 30
0.0
 10
5.3535984716
 20
2.3680598362
 30
0.0
 10
5.3538159934
 20
2.368624539
 30
0.0
 10
5.3539261101
 20
2.3689129744
 30
0.0
  0
LINE
  5
703
100
AcDbEntity
  8
0
100
AcDbLine
 62
7
  6
CONTINUOUS
 10
5.3431543618
 20
2.3644041829
 11
5.3457198632
 21
2.363406675
  0
LINE
  5
704
100
AcDbEntity
  8
0
100
AcDbLine
 62
7
  6
CONTINUOUS
 10
5.3457198632
 20
2.363406675
 11
5.3464252992
 21
2.3631682244
  0
LINE
  5
705
100
AcDbEntity
  8
0
100
AcDbLine
 62
7
  6
CONTINUOUS
 10
5.3464252992
 20
2.3631682244
 11
5.3470445284
 21
2.362982171
  0
LINE
  5
706
100
AcDbEntity
  8
0
100
AcDbLine
 62
7
  6
CONTINUOUS
 10
5.3470445284
 20
2.362982171
 11
5.3481009742
 21
2.3628188143
  0
SPLINE
  5
707
100
AcDbEntity
  8
0
100
AcDbSpline
 62
7
  6
CONTINUOUS
 70
0
 71
3
 72
20
 73
16
 74
0
 42
0.0000001
 43
0.0000001
 44
0.0000000001
 40
0.0
 40
0.0
 40
0.0
 40
0.0
 40
0.0086469813
 40
0.0186349012
 40
0.0410243003
 40
0.0755761107
 40
0.1208623764
 40
0.1753473402
 40
0.2377159273
 40
0.3067839152
 40
0.3813794559
 40
0.4606185419
 40
0.6304659459
 40
0.8115096914
 40
1.0
 40
1.0
 40
1.0
 40
1.0
 10
5.3371248243
 20
2.3586324359
 30
0.0
 10
5.3371248243
 20
2.3586182584
 30
0.0
 10
5.3371356614
 20
2.3585732839
 30
0.0
 10
5.3372063621
 20
2.3586376794
 30
0.0
 10
5.3372590345
 20
2.3587142316
 30
0.0
 10
5.3373550515
 20
2.3588619694
 30
0.0
 10
5.3374625324
 20
2.3590503373
 30
0.0
 10
5.3375907606
 20
2.3592845947
 30
0.0
 10
5.3377319481
 20
2.3595543297
 30
0.0
 10
5.3378852202
 20
2.3598555072
 30
0.0
 10
5.338047885
 20
2.3601827427
 30
0.0
 10
5.3382805461
 20
2.3606597477
 30
0.0
 10
5.3385835932
 20
2.361296561
 30
0.0
 10
5.3389561571
 20
2.3620986279
 30
0.0
 10
5.3392070496
 20
2.362650129
 30
0.0
 10
5.3393340545
 20
2.3629318718
 30
0.0
  0
LINE
  5
708
100
AcDbEntity
  8
0
100
AcDbLine
 62
7
  6
CONTINUOUS
 10
5.3283176024
 20
2.3590434874
 11
5.3308140225
 21
2.3579018441
  0
LINE
  5
709
100
AcDbEntity
  8
0
100
AcDbLine
 62
7
  6
CONTINUOUS
 10
5.3308140225
 20
2.3579018441
 11
5.3315004632
 21
2.3576237606
  0
LINE
  5
70A
100
AcDbEntity
  8
0
100
AcDbLine
 62
7
  6
CONTINUOUS
 10
5.3315004632
 20
2.3576237606
 11
5.3321030184
 21
2.3574029175
  0
LINE
  5
70B
100
AcDbEntity
  8
0
100
AcDbLine
 62
7
  6
CONTINUOUS
 10
5.3321030184
 20
2.3574029175
 11
5.3331310173
 21
2.3571802074
  0
LINE
  5
70C
100
AcDbEntity
  8
0
100
AcDbLine
 62
7
  6
CONTINUOUS
 10
5.3131932699
 20
2.3545359176
 11
5.3156123296
 21
2.3532543087
  0
LINE
  5
70D
100
AcDbEntity
  8
0
100
AcDbLine
 62
7
  6
CONTINUOUS
 10
5.3156123296
 20
2.3532543087
 11
5.3168613815
 21
2.3526831126
  0
LINE
  5
70E
100
AcDbEntity
  8
0
100
AcDbLine
 62
7
  6
CONTINUOUS
 10
5.3168613815
 20
2.3526831126
 11
5.317317449
 21
2.3525117175
  0
LINE
  5
70F
100
AcDbEntity
  8
0
100
AcDbLine
 62
7
  6
CONTINUOUS
 10
5.2978315222
 20
2.3508964223
 11
5.3001651991
 21
2.3494794818
  0
LINE
  5
710
100
AcDbEntity
  8
0
100
AcDbLine
 62
7
  6
CONTINUOUS
 10
5.3001651991
 20
2.3494794818
 11
5.3013701646
 21
2.3488384089
  0
LINE
  5
711
100
AcDbEntity
  8
0
100
AcDbLine
 62
7
  6
CONTINUOUS
 10
5.3013701646
 20
2.3488384089
 11
5.3018101347
 21
2.3486414996
  0
LINE
  5
712
100
AcDbEntity
  8
0
100
AcDbLine
 62
7
  6
CONTINUOUS
 10
5.3018101347
 20
2.3486414996
 11
5.3023488663
 21
2.3485046623
  0
LINE
  5
713
100
AcDbEntity
  8
0
100
AcDbLine
 62
7
  6
CONTINUOUS
 10
5.2822833045
 20
2.3481370713
 11
5.2845238592
 21
2.346589882
  0
LINE
  5
714
100
AcDbEntity
  8
0
100
AcDbLine
 62
7
  6
CONTINUOUS
 10
5.2845238592
 20
2.346589882
 11
5.2851399446
 21
2.3462002856
  0
LINE
  5
715
100
AcDbEntity
  8
0
100
AcDbLine
 62
7
  6
CONTINUOUS
 10
5.2851399446
 20
2.3462002856
 11
5.2861031559
 21
2.3456600916
  0
LINE
  5
716
100
AcDbEntity
  8
0
100
AcDbLine
 62
7
  6
CONTINUOUS
 10
5.2861031559
 20
2.3456600916
 11
5.2866191275
 21
2.3454930233
  0
LINE
  5
717
100
AcDbEntity
  8
0
100
AcDbLine
 62
7
  6
CONTINUOUS
 10
5.2666001803
 20
2.3462670156
 11
5.2687401823
 21
2.3445950924
  0
LINE
  5
718
100
AcDbEntity
  8
0
100
AcDbLine
 62
7
  6
CONTINUOUS
 10
5.2687401823
 20
2.3445950924
 11
5.270537247
 21
2.3434338197
  0
LINE
  5
719
100
AcDbEntity
  8
0
100
AcDbLine
 62
7
  6
CONTINUOUS
 10
5.2508341606
 20
2.3452924571
 11
5.2528665129
 21
2.3435017284
  0
LINE
  5
71A
100
AcDbEntity
  8
0
100
AcDbLine
 62
7
  6
CONTINUOUS
 10
5.2528665129
 20
2.3435017284
 11
5.2534253489
 21
2.3430451659
  0
LINE
  5
71B
100
AcDbEntity
  8
0
100
AcDbLine
 62
7
  6
CONTINUOUS
 10
5.2350375314
 20
2.3452166277
 11
5.2363797295
 21
2.3438664265
  0
LINE
  5
71C
100
AcDbEntity
  8
0
100
AcDbLine
 62
7
  6
CONTINUOUS
 10
5.2363797295
 20
2.3438664265
 11
5.2374828762
 21
2.342825924
  0
LINE
  5
71D
100
AcDbEntity
  8
0
100
AcDbLine
 62
7
  6
CONTINUOUS
 10
5.2205203764
 20
2.3446155471
 11
5.2215540717
 21
2.3435141992
  0
LINE
  5
71E
100
AcDbEntity
  8
0
100
AcDbLine
 62
7
  6
CONTINUOUS
 10
5.2047309455
 20
2.3462658496
 11
5.2060949662
 21
2.3446536813
  0
LINE
  5
71F
100
AcDbEntity
  8
0
100
AcDbLine
 62
7
  6
CONTINUOUS
 10
5.1885514074
 20
2.3495436379
 11
5.1906098416
 21
2.346780716
  0
LINE
  5
720
100
AcDbEntity
  8
0
100
AcDbLine
 62
7
  6
CONTINUOUS
 10
5.1906098416
 20
2.346780716
 11
5.1909643614
 21
2.3464634517
  0
LINE
  5
721
100
AcDbEntity
  8
0
100
AcDbLine
 62
7
  6
CONTINUOUS
 10
5.1731042578
 20
2.3530047918
 11
5.1753026261
 21
2.3497930533
  0
LINE
  5
722
100
AcDbEntity
  8
0
100
AcDbLine
 62
7
  6
CONTINUOUS
 10
5.1578842794
 20
2.3573391755
 11
5.1598607938
 21
2.3540082085
  0
LINE
  5
723
100
AcDbEntity
  8
0
100
AcDbLine
 62
7
  6
CONTINUOUS
 10
5.148619382
 20
2.357730074
 11
5.1491798897
 21
2.3577112207
  0
LINE
  5
724
100
AcDbEntity
  8
0
100
AcDbLine
 62
7
  6
CONTINUOUS
 10
5.1491798897
 20
2.3577112207
 11
5.1513366644
 21
2.3584969948
  0
LINE
  5
725
100
AcDbEntity
  8
0
100
AcDbLine
 62
7
  6
CONTINUOUS
 10
5.1513366644
 20
2.3584969948
 11
5.1535296297
 21
2.3594958323
  0
LINE
  5
726
100
AcDbEntity
  8
0
100
AcDbLine
 62
7
  6
CONTINUOUS
 10
5.1429419475
 20
2.3625324144
 11
5.1446793875
 21
2.3591013244
  0
LINE
  5
727
100
AcDbEntity
  8
0
100
AcDbLine
 62
7
  6
CONTINUOUS
 10
5.134511672
 20
2.3634540491
 11
5.1364686507
 21
2.364060997
  0
LINE
  5
728
100
AcDbEntity
  8
0
100
AcDbLine
 62
7
  6
CONTINUOUS
 10
5.1364686507
 20
2.364060997
 11
5.1387214697
 21
2.3649332433
  0
LINE
  5
729
100
AcDbEntity
  8
0
100
AcDbLine
 62
7
  6
CONTINUOUS
 10
5.1202588941
 20
2.3700268722
 11
5.1219493054
 21
2.3704617882
  0
LINE
  5
72A
100
AcDbEntity
  8
0
100
AcDbLine
 62
7
  6
CONTINUOUS
 10
5.1219493054
 20
2.3704617882
 11
5.124254507
 21
2.3712042473
  0
SPLINE
  5
72B
100
AcDbEntity
  8
0
100
AcDbSpline
 62
7
  6
CONTINUOUS
 70
0
 71
3
 72
13
 73
9
 74
0
 42
0.0000001
 43
0.0000001
 44
0.0000000001
 40
0.0
 40
0.0
 40
0.0
 40
0.0
 40
0.0946390014
 40
0.1824132562
 40
0.2993844306
 40
0.442966314
 40
0.6097271158
 40
1.0
 40
1.0
 40
1.0
 40
1.0
 10
5.1049149928
 20
2.3773931409
 30
0.0
 10
5.1049149928
 20
2.3773425671
 30
0.0
 10
5.1050334794
 20
2.3772829426
 30
0.0
 10
5.1051819233
 20
2.3772700809
 30
0.0
 10
5.1053721723
 20
2.3772651283
 30
0.0
 10
5.1055988438
 20
2.3772793164
 30
0.0
 10
5.1059719307
 20
2.3773177039
 30
0.0
 10
5.1062659568
 20
2.3773638808
 30
0.0
 10
5.1064714399
 20
2.3773995533
 30
0.0
  0
LINE
  5
72C
100
AcDbEntity
  8
0
100
AcDbLine
 62
7
  6
CONTINUOUS
 10
5.1064714399
 20
2.3773995533
 11
5.1078267801
 21
2.3776781409
  0
LINE
  5
72D
100
AcDbEntity
  8
0
100
AcDbLine
 62
7
  6
CONTINUOUS
 10
5.1078267801
 20
2.3776781409
 11
5.1101767193
 21
2.3782880475
  0
SPLINE
  5
72E
100
AcDbEntity
  8
0
100
AcDbSpline
 62
7
  6
CONTINUOUS
 70
0
 71
3
 72
15
 73
11
 74
0
 42
0.0000001
 43
0.0000001
 44
0.0000000001
 40
0.0
 40
0.0
 40
0.0
 40
0.0
 40
0.0344680839
 40
0.0618091271
 40
0.097464321
 40
0.1932107196
 40
0.3175375982
 40
0.4648139552
 40
0.6303703007
 40
1.0
 40
1.0
 40
1.0
 40
1.0
 10
5.0911903453
 20
2.3855682497
 30
0.0
 10
5.0911903453
 20
2.3855335054
 30
0.0
 10
5.0912468968
 20
2.3854808573
 30
0.0
 10
5.0913380448
 20
2.3854524804
 30
0.0
 10
5.0914966652
 20
2.3854212306
 30
0.0
 10
5.0917544188
 20
2.385411741
 30
0.0
 10
5.0921248028
 20
2.3854234386
 30
0.0
 10
5.0925640261
 20
2.3854604156
 30
0.0
 10
5.0932473612
 20
2.385540481
 30
0.0
 10
5.0937806243
 20
2.3856234637
 30
0.0
 10
5.09414791
 20
2.3856861232
 30
0.0
  0
LINE
  5
72F
100
AcDbEntity
  8
0
100
AcDbLine
 62
7
  6
CONTINUOUS
 10
5.09414791
 20
2.3856861232
 11
5.0965347936
 21
2.3861611513
  0
LINE
  5
730
100
AcDbEntity
  8
0
100
AcDbLine
 62
7
  6
CONTINUOUS
 10
5.0683009709
 20
2.4039682094
 11
5.0707378997
 21
2.4041682985
  0
SPLINE
  5
731
100
AcDbEntity
  8
0
100
AcDbSpline
 62
7
  6
CONTINUOUS
 70
0
 71
3
 72
13
 73
9
 74
0
 42
0.0000001
 43
0.0000001
 44
0.0000000001
 40
0.0
 40
0.0
 40
0.0
 40
0.0
 40
0.0361104899
 40
0.1065557003
 40
0.2100793532
 40
0.3393006635
 40
0.6496130871
 40
1.0
 40
1.0
 40
1.0
 40
1.0
 10
5.0417095128
 20
2.42563399
 30
0.0
 10
5.0417095128
 20
2.4255823131
 30
0.0
 10
5.0418564703
 20
2.4254701041
 30
0.0
 10
5.0421279507
 20
2.4253870034
 30
0.0
 10
5.0425591212
 20
2.42528849
 30
0.0
 10
5.0433247328
 20
2.4251765293
 30
0.0
 10
5.0444535475
 20
2.425074637
 30
0.0
 10
5.0453974743
 20
2.4250298522
 30
0.0
 10
5.0458986356
 20
2.4250134185
 30
0.0
  0
SPLINE
  5
732
100
AcDbEntity
  8
0
100
AcDbSpline
 62
7
  6
CONTINUOUS
 70
0
 71
3
 72
13
 73
9
 74
0
 42
0.0000001
 43
0.0000001
 44
0.0000000001
 40
0.0
 40
0.0
 40
0.0
 40
0.0
 40
0.0371805732
 40
0.1064791758
 40
0.2079036267
 40
0.3353685115
 40
0.6452663733
 40
1.0
 40
1.0
 40
1.0
 40
1.0
 10
5.0308989328
 20
2.4373256052
 30
0.0
 10
5.0308989328
 20
2.4372793404
 30
0.0
 10
5.0310139978
 20
2.4371738046
 30
0.0
 10
5.0312433291
 20
2.4370799723
 30
0.0
 10
5.0316032471
 20
2.4369686748
 30
0.0
 10
5.0322553733
 20
2.4368227852
 30
0.0
 10
5.0332305745
 20
2.4366652113
 30
0.0
 10
5.0340515882
 20
2.4365686358
 30
0.0
 10
5.0344906812
 20
2.4365235231
 30
0.0
  0
SPLINE
  5
733
100
AcDbEntity
  8
0
100
AcDbSpline
 62
7
  6
CONTINUOUS
 70
0
 71
3
 72
14
 73
10
 74
0
 42
0.0000001
 43
0.0000001
 44
0.0000000001
 40
0.0
 40
0.0
 40
0.0
 40
0.0
 40
0.037506194
 40
0.1095864546
 40
0.2141049052
 40
0.3436274294
 40
0.4916899429
 40
0.6527584919
 40
1.0
 40
1.0
 40
1.0
 40
1.0
 10
5.0207871292
 20
2.4496129738
 30
0.0
 10
5.0207871292
 20
2.4495584823
 30
0.0
 10
5.0209312705
 20
2.4494363864
 30
0.0
 10
5.0212009116
 20
2.449317666
 30
0.0
 10
5.0216299189
 20
2.4491720266
 30
0.0
 10
5.0221642095
 20
2.449031415
 30
0.0
 10
5.022786935
 20
2.4488910914
 30
0.0
 10
5.023722557
 20
2.448708117
 30
0.0
 10
5.0244519023
 20
2.4485898455
 30
0.0
 10
5.0249510108
 20
2.4485163129
 30
0.0
  0
SPLINE
  5
734
100
AcDbEntity
  8
0
100
AcDbSpline
 62
7
  6
CONTINUOUS
 70
0
 71
3
 72
14
 73
10
 74
0
 42
0.0000001
 43
0.0000001
 44
0.0000000001
 40
0.0
 40
0.0
 40
0.0
 40
0.0
 40
0.0381551532
 40
0.1110038192
 40
0.2159977454
 40
0.3456708113
 40
0.4935839599
 40
0.6542413012
 40
1.0
 40
1.0
 40
1.0
 40
1.0
 10
5.0114076363
 20
2.4624553465
 30
0.0
 10
5.0114076363
 20
2.4623995134
 30
0.0
 10
5.0115497917
 20
2.4622724504
 30
0.0
 10
5.0118171307
 20
2.462136291
 30
0.0
 10
5.0122428654
 20
2.4619671484
 30
0.0
 10
5.0127730727
 20
2.4617957669
 30
0.0
 10
5.0133909153
 20
2.4616201959
 30
0.0
 10
5.0143185851
 20
2.4613842036
 30
0.0
 10
5.0150425729
 20
2.4612244462
 30
0.0
 10
5.0155381514
 20
2.4611225071
 30
0.0
  0
SPLINE
  5
735
100
AcDbEntity
  8
0
100
AcDbSpline
 62
7
  6
CONTINUOUS
 70
0
 71
3
 72
14
 73
10
 74
0
 42
0.0000001
 43
0.0000001
 44
0.0000000001
 40
0.0
 40
0.0
 40
0.0
 40
0.0
 40
0.0387722991
 40
0.1123559498
 40
0.2178087557
 40
0.3476300344
 40
0.4954028992
 40
0.6556671444
 40
1.0
 40
1.0
 40
1.0
 40
1.0
 10
5.0027915601
 20
2.4758101331
 30
0.0
 10
5.0027915601
 20
2.475753004
 30
0.0
 10
5.0029313463
 20
2.4756209849
 30
0.0
 10
5.0031954807
 20
2.4754676893
 30
0.0
 10
5.0036165114
 20
2.4752752028
 30
0.0
 10
5.0041408568
 20
2.4750733597
 30
0.0
 10
5.0047517593
 20
2.4748628638
 30
0.0
 10
5.0056684171
 20
2.4745744222
 30
0.0
 10
5.0063846225
 20
2.4743735275
 30
0.0
 10
5.0068750104
 20
2.4742434056
 30
0.0
  0
SPLINE
  5
736
100
AcDbEntity
  8
0
100
AcDbSpline
 62
7
  6
CONTINUOUS
 70
0
 71
3
 72
15
 73
11
 74
0
 42
0.0000001
 43
0.0000001
 44
0.0000000001
 40
0.0
 40
0.0
 40
0.0
 40
0.0
 40
0.0156066306
 40
0.0404642929
 40
0.1193156185
 40
0.230263107
 40
0.3636647852
 40
0.5118629147
 40
0.6697230774
 40
1.0
 40
1.0
 40
1.0
 40
1.0
 10
4.9949674745
 20
2.4896330443
 30
0.0
 10
4.9949674745
 20
2.4896030396
 30
0.0
 10
4.995009903
 20
2.4895302675
 30
0.0
 10
4.9951795121
 20
2.4893790685
 30
0.0
 10
4.9955409678
 20
2.4891694467
 30
0.0
 10
4.9961003188
 20
2.4889028247
 30
0.0
 10
4.9967982352
 20
2.4886131178
 30
0.0
 10
4.9975883246
 20
2.4883141929
 30
0.0
 10
4.9987430036
 20
2.4879094435
 30
0.0
 10
4.9996375523
 20
2.4876249721
 30
0.0
 10
5.000245548
 20
2.4874418424
 30
0.0
  0
SPLINE
  5
737
100
AcDbEntity
  8
0
100
AcDbSpline
 62
7
  6
CONTINUOUS
 70
0
 71
3
 72
15
 73
11
 74
0
 42
0.0000001
 43
0.0000001
 44
0.0000000001
 40
0.0
 40
0.0
 40
0.0
 40
0.0
 40
0.0157997487
 40
0.0410166606
 40
0.1205319398
 40
0.2318796185
 40
0.3654013085
 40
0.5134684329
 40
0.6709776192
 40
1.0
 40
1.0
 40
1.0
 40
1.0
 10
4.9879613271
 20
2.5038782383
 30
0.0
 10
4.9879613271
 20
2.5038477074
 30
0.0
 10
4.9880030837
 20
2.5037733133
 30
0.0
 10
4.9881685889
 20
2.503612709
 30
0.0
 10
4.988523265
 20
2.5033829715
 30
0.0
 10
4.98907251
 20
2.5030844772
 30
0.0
 10
4.9897577916
 20
2.5027553161
 30
0.0
 10
4.9905334583
 20
2.5024117318
 30
0.0
 10
4.9916663934
 20
2.5019420327
 30
0.0
 10
4.9925449985
 20
2.501606859
 30
0.0
 10
4.9931423787
 20
2.5013892185
 30
0.0
  0
SPLINE
  5
738
100
AcDbEntity
  8
0
100
AcDbSpline
 62
7
  6
CONTINUOUS
 70
0
 71
3
 72
15
 73
11
 74
0
 42
0.0000001
 43
0.0000001
 44
0.0000000001
 40
0.0
 40
0.0
 40
0.0
 40
0.0
 40
0.0163623247
 40
0.0409767018
 40
0.1165246585
 40
0.2231904255
 40
0.3533643654
 40
0.5006847685
 40
0.6597880383
 40
1.0
 40
1.0
 40
1.0
 40
1.0
 10
4.9817963529
 20
2.5184984727
 30
0.0
 10
4.9817963529
 20
2.5184738861
 30
0.0
 10
4.9818226996
 20
2.5184144929
 30
0.0
 10
4.9819348126
 20
2.5182808806
 30
0.0
 10
4.9821812754
 20
2.5180864113
 30
0.0
 10
4.9825726105
 20
2.5178288013
 30
0.0
 10
4.9830715552
 20
2.5175372849
 30
0.0
 10
4.983648704
 20
2.5172254896
 30
0.0
 10
4.9845147464
 20
2.5167846665
 30
0.0
 10
4.9851931908
 20
2.516463901
 30
0.0
 10
4.9856582038
 20
2.5162515253
 30
0.0
  0
SPLINE
  5
739
100
AcDbEntity
  8
0
100
AcDbSpline
 62
7
  6
CONTINUOUS
 70
0
 71
3
 72
14
 73
10
 74
0
 42
0.0000001
 43
0.0000001
 44
0.0000000001
 40
0.0
 40
0.0
 40
0.0
 40
0.0
 40
0.041013573
 40
0.1152780202
 40
0.2199375881
 40
0.3485590941
 40
0.4952105166
 40
0.6550376823
 40
1.0
 40
1.0
 40
1.0
 40
1.0
 10
4.9764929972
 20
2.5334452616
 30
0.0
 10
4.9764929972
 20
2.5333915471
 30
0.0
 10
4.9765938647
 20
2.5332590169
 30
0.0
 10
4.9767976218
 20
2.5330682115
 30
0.0
 10
4.9771224353
 20
2.5328221936
 30
0.0
 10
4.9775326054
 20
2.5325431321
 30
0.0
 10
4.9780152093
 20
2.532238975
 30
0.0
 10
4.978747863
 20
2.5318020914
 30
0.0
 10
4.9793255293
 20
2.531480081
 30
0.0
 10
4.979722911
 20
2.5312651371
 30
0.0
  0
SPLINE
  5
73A
100
AcDbEntity
  8
0
100
AcDbSpline
 62
7
  6
CONTINUOUS
 70
0
 71
3
 72
14
 73
10
 74
0
 42
0.0000001
 43
0.0000001
 44
0.0000000001
 40
0.0
 40
0.0
 40
0.0
 40
0.0
 40
0.0417769449
 40
0.1149578509
 40
0.21762926
 40
0.3445844213
 40
0.4903274201
 40
0.6505730585
 40
1.0
 40
1.0
 40
1.0
 40
1.0
 10
4.9720688478
 20
2.5486690358
 30
0.0
 10
4.9720688478
 20
2.5486219166
 30
0.0
 10
4.9721453239
 20
2.5485041639
 30
0.0
 10
4.9723083817
 20
2.5483283574
 30
0.0
 10
4.9725679908
 20
2.5481016595
 30
0.0
 10
4.9729002096
 20
2.5478407578
 30
0.0
 10
4.9732950995
 20
2.5475527947
 30
0.0
 10
4.9739031314
 20
2.5471325336
 30
0.0
 10
4.9743855005
 20
2.5468194968
 30
0.0
 10
4.9747187357
 20
2.5466090758
 30
0.0
  0
SPLINE
  5
73B
100
AcDbEntity
  8
0
100
AcDbSpline
 62
7
  6
CONTINUOUS
 70
0
 71
3
 72
13
 73
9
 74
0
 42
0.0000001
 43
0.0000001
 44
0.0000000001
 40
0.0
 40
0.0
 40
0.0
 40
0.0
 40
0.0427764643
 40
0.1151580925
 40
0.2159552844
 40
0.3411358515
 40
0.6461576927
 40
1.0
 40
1.0
 40
1.0
 40
1.0
 10
4.9685385769
 20
2.5641193078
 30
0.0
 10
4.9685385769
 20
2.5640783894
 30
0.0
 10
4.9685951946
 20
2.5639756014
 30
0.0
 10
4.9687225571
 20
2.5638173372
 30
0.0
 10
4.9689251609
 20
2.563613488
 30
0.0
 10
4.9693017144
 20
2.5632736692
 30
0.0
 10
4.9698860219
 20
2.5628019385
 30
0.0
 10
4.9703901578
 20
2.5624239124
 30
0.0
 10
4.9706634836
 20
2.5622242706
 30
0.0
  0
SPLINE
  5
73C
100
AcDbEntity
  8
0
100
AcDbSpline
 62
7
  6
CONTINUOUS
 70
0
 71
3
 72
13
 73
9
 74
0
 42
0.0000001
 43
0.0000001
 44
0.0000000001
 40
0.0
 40
0.0
 40
0.0
 40
0.0
 40
0.0430847761
 40
0.1159575757
 40
0.2171186013
 40
0.3424631531
 40
0.6471924252
 40
1.0
 40
1.0
 40
1.0
 40
1.0
 10
4.9659138922
 20
2.5797448388
 30
0.0
 10
4.9659138922
 20
2.5797033528
 30
0.0
 10
4.9659683153
 20
2.579598444
 30
0.0
 10
4.9660904838
 20
2.5794327384
 30
0.0
 10
4.9662853049
 20
2.5792177498
 30
0.0
 10
4.9666470353
 20
2.5788570321
 30
0.0
 10
4.9672086255
 20
2.5783528187
 30
0.0
 10
4.9676937801
 20
2.5779461946
 30
0.0
 10
4.9679567484
 20
2.5777311268
 30
0.0
  0
LINE
  5
73D
100
AcDbEntity
  8
0
100
AcDbLine
 62
7
  6
CONTINUOUS
 10
4.9679567484
 20
2.5777311268
 11
4.9703605018
 21
2.5758759365
  0
LINE
  5
73E
100
AcDbEntity
  8
0
100
AcDbLine
 62
7
  6
CONTINUOUS
 10
4.9642034979
 20
2.5954938088
 11
4.9657927477
 21
2.5937034769
  0
LINE
  5
73F
100
AcDbEntity
  8
0
100
AcDbLine
 62
7
  6
CONTINUOUS
 10
4.9665572138
 20
2.593005476
 11
4.968456765
 21
2.5913771822
  0
SPLINE
  5
740
100
AcDbEntity
  8
0
100
AcDbSpline
 62
7
  6
CONTINUOUS
 70
0
 71
3
 72
12
 73
8
 74
0
 42
0.0000001
 43
0.0000001
 44
0.0000000001
 40
0.0
 40
0.0
 40
0.0
 40
0.0
 40
0.3206220832
 40
0.6086933331
 40
0.8426281809
 40
0.9323251425
 40
1.0
 40
1.0
 40
1.0
 40
1.0
 10
5.5155817391
 20
2.634907461
 30
0.0
 10
5.516025271
 20
2.6344789877
 30
0.0
 10
5.5168596766
 20
2.6336574337
 30
0.0
 10
5.5179850053
 20
2.632491219
 30
0.0
 10
5.5187685914
 20
2.6316117592
 30
0.0
 10
5.5192266276
 20
2.6310144589
 30
0.0
 10
5.5193936599
 20
2.6307609608
 30
0.0
 10
5.5194551086
 20
2.6306462104
 30
0.0
  0
LINE
  5
741
100
AcDbEntity
  8
0
100
AcDbLine
 62
7
  6
CONTINUOUS
 10
5.5194551086
 20
2.6306462104
 11
5.5195505549
 21
2.6303745051
  0
SPLINE
  5
742
100
AcDbEntity
  8
0
100
AcDbSpline
 62
7
  6
CONTINUOUS
 70
0
 71
3
 72
12
 73
8
 74
0
 42
0.0000001
 43
0.0000001
 44
0.0000000001
 40
0.0
 40
0.0
 40
0.0
 40
0.0
 40
0.3167016847
 40
0.6063597527
 40
0.8444014502
 40
0.9344680128
 40
1.0
 40
1.0
 40
1.0
 40
1.0
 10
5.512921698
 20
2.6515399542
 30
0.0
 10
5.5135203311
 20
2.651039752
 30
0.0
 10
5.514655771
 20
2.6500688549
 30
0.0
 10
5.5161987501
 20
2.6486745862
 30
0.0
 10
5.517290723
 20
2.6476117986
 30
0.0
 10
5.5179299236
 20
2.646882943
 30
0.0
 10
5.518160423
 20
2.6465746051
 30
0.0
 10
5.5182413689
 20
2.6464349483
 30
0.0
  0
LINE
  5
743
100
AcDbEntity
  8
0
100
AcDbLine
 62
7
  6
CONTINUOUS
 10
5.5182413689
 20
2.6464349483
 11
5.5183414499
 21
2.6461688106
  0
SPLINE
  5
744
100
AcDbEntity
  8
0
100
AcDbSpline
 62
7
  6
CONTINUOUS
 70
0
 71
3
 72
13
 73
9
 74
0
 42
0.0000001
 43
0.0000001
 44
0.0000000001
 40
0.0
 40
0.0
 40
0.0
 40
0.0
 40
0.3171972052
 40
0.6071894049
 40
0.7346977017
 40
0.8452796354
 40
0.935031993
 40
1.0
 40
1.0
 40
1.0
 40
1.0
 10
5.5104692668
 20
2.6669928843
 30
0.0
 10
5.511102913
 20
2.6665217714
 30
0.0
 10
5.5123046417
 20
2.6656048563
 30
0.0
 10
5.5137284362
 20
2.6644561695
 30
0.0
 10
5.5147220206
 20
2.6635954171
 30
0.0
 10
5.5153208948
 20
2.6630402515
 30
0.0
 10
5.5157792893
 20
2.6625651746
 30
0.0
 10
5.516024425
 20
2.6622655447
 30
0.0
 10
5.5161101993
 20
2.6621284418
 30
0.0
  0
LINE
  5
745
100
AcDbEntity
  8
0
100
AcDbLine
 62
7
  6
CONTINUOUS
 10
5.5161101993
 20
2.6621284418
 11
5.5162145831
 21
2.6618681261
  0
SPLINE
  5
746
100
AcDbEntity
  8
0
100
AcDbSpline
 62
7
  6
CONTINUOUS
 70
0
 71
3
 72
13
 73
9
 74
0
 42
0.0000001
 43
0.0000001
 44
0.0000000001
 40
0.0
 40
0.0
 40
0.0
 40
0.0
 40
0.317740719
 40
0.6080944773
 40
0.7357021462
 40
0.8462061695
 40
0.935628157
 40
1.0
 40
1.0
 40
1.0
 40
1.0
 10
5.5071133291
 20
2.6822780936
 30
0.0
 10
5.50778103
 20
2.6818383628
 30
0.0
 10
5.509047902
 20
2.6809801243
 30
0.0
 10
5.5105508443
 20
2.6798984052
 30
0.0
 10
5.5116010495
 20
2.6790827676
 30
0.0
 10
5.5122342174
 20
2.6785542904
 30
0.0
 10
5.5127186126
 20
2.6780991028
 30
0.0
 10
5.5129781604
 20
2.6778089698
 30
0.0
 10
5.5130686675
 20
2.6776746454
 30
0.0
  0
LINE
  5
747
100
AcDbEntity
  8
0
100
AcDbLine
 62
7
  6
CONTINUOUS
 10
5.5130686675
 20
2.6776746454
 11
5.5131770079
 21
2.6774203869
  0
SPLINE
  5
748
100
AcDbEntity
  8
0
100
AcDbSpline
 62
7
  6
CONTINUOUS
 70
0
 71
3
 72
13
 73
9
 74
0
 42
0.0000001
 43
0.0000001
 44
0.0000000001
 40
0.0
 40
0.0
 40
0.0
 40
0.0
 40
0.3183215077
 40
0.6090539845
 40
0.7367648455
 40
0.8471864939
 40
0.9362588535
 40
1.0
 40
1.0
 40
1.0
 40
1.0
 10
5.502865438
 20
2.6973435577
 30
0.0
 10
5.5035660679
 20
2.6969375299
 30
0.0
 10
5.5048960215
 20
2.6961423942
 30
0.0
 10
5.5064759773
 20
2.6951329342
 30
0.0
 10
5.5075814959
 20
2.694366186
 30
0.0
 10
5.5082481964
 20
2.6938666725
 30
0.0
 10
5.5087579767
 20
2.6934330752
 30
0.0
 10
5.5090317323
 20
2.6931533173
 30
0.0
 10
5.5091268604
 20
2.6930220022
 30
0.0
  0
LINE
  5
749
100
AcDbEntity
  8
0
100
AcDbLine
 62
7
  6
CONTINUOUS
 10
5.5091268604
 20
2.6930220022
 11
5.5092387981
 21
2.692774016
  0
SPLINE
  5
74A
100
AcDbEntity
  8
0
100
AcDbSpline
 62
7
  6
CONTINUOUS
 70
0
 71
3
 72
13
 73
9
 74
0
 42
0.0000001
 43
0.0000001
 44
0.0000000001
 40
0.0
 40
0.0
 40
0.0
 40
0.0
 40
0.318939876
 40
0.6100682056
 40
0.7378857221
 40
0.8482205348
 40
0.9369241134
 40
1.0
 40
1.0
 40
1.0
 40
1.0
 10
5.4977402651
 20
2.7121380215
 30
0.0
 10
5.4984725191
 20
2.7117680313
 30
0.0
 10
5.4998631489
 20
2.711040461
 30
0.0
 10
5.5015175824
 20
2.7101086344
 30
0.0
 10
5.5026768181
 20
2.7093946319
 30
0.0
 10
5.503376115
 20
2.7089264137
 30
0.0
 10
5.503910529
 20
2.7085161507
 30
0.0
 10
5.5041982307
 20
2.7082476841
 30
0.0
 10
5.5042978503
 20
2.7081196149
 30
0.0
  0
LINE
  5
74B
100
AcDbEntity
  8
0
100
AcDbLine
 62
7
  6
CONTINUOUS
 10
5.5042978503
 20
2.7081196149
 11
5.5044130141
 21
2.7078780953
  0
SPLINE
  5
74C
100
AcDbEntity
  8
0
100
AcDbSpline
 62
7
  6
CONTINUOUS
 70
0
 71
3
 72
13
 73
9
 74
0
 42
0.0000001
 43
0.0000001
 44
0.0000000001
 40
0.0
 40
0.0
 40
0.0
 40
0.0
 40
0.319595981
 40
0.6111373429
 40
0.739064611
 40
0.849308147
 40
0.9376239506
 40
1.0
 40
1.0
 40
1.0
 40
1.0
 10
5.4917555369
 20
2.726611195
 30
0.0
 10
5.4925179204
 20
2.7262795743
 30
0.0
 10
5.4939664581
 20
2.7256240368
 30
0.0
 10
5.4956924041
 20
2.7247752661
 30
0.0
 10
5.4969034496
 20
2.7241179236
 30
0.0
 10
5.4976342174
 20
2.7236833733
 30
0.0
 10
5.4981923663
 20
2.7232982207
 30
0.0
 10
5.498493689
 20
2.7230419968
 30
0.0
 10
5.4985976521
 20
2.7229174141
 30
0.0
  0
LINE
  5
74D
100
AcDbEntity
  8
0
100
AcDbLine
 62
7
  6
CONTINUOUS
 10
5.4985976521
 20
2.7229174141
 11
5.4987156601
 21
2.7226825339
  0
SPLINE
  5
74E
100
AcDbEntity
  8
0
100
AcDbSpline
 62
7
  6
CONTINUOUS
 70
0
 71
3
 72
11
 73
7
 74
0
 42
0.0000001
 43
0.0000001
 44
0.0000000001
 40
0.0
 40
0.0
 40
0.0
 40
0.0
 40
0.3027160731
 40
0.5820833986
 40
0.8218346701
 40
1.0
 40
1.0
 40
1.0
 40
1.0
 10
5.4857534749
 20
2.7404067689
 30
0.0
 10
5.4863739878
 20
2.7401709409
 30
0.0
 10
5.4875613921
 20
2.7397024792
 30
0.0
 10
5.4892193527
 20
2.7389940288
 30
0.0
 10
5.4905986408
 20
2.7383358164
 30
0.0
 10
5.4913997355
 20
2.7378826204
 30
0.0
 10
5.4917150087
 20
2.7376518749
 30
0.0
  0
LINE
  5
74F
100
AcDbEntity
  8
0
100
AcDbLine
 62
7
  6
CONTINUOUS
 10
5.4917150087
 20
2.7376518749
 11
5.4920451698
 21
2.7373663249
  0
LINE
  5
750
100
AcDbEntity
  8
0
100
AcDbLine
 62
7
  6
CONTINUOUS
 10
5.4920451698
 20
2.7373663249
 11
5.4921656306
 21
2.737138235
  0
SPLINE
  5
751
100
AcDbEntity
  8
0
100
AcDbSpline
 62
7
  6
CONTINUOUS
 70
0
 71
3
 72
10
 73
6
 74
0
 42
0.0000001
 43
0.0000001
 44
0.0000000001
 40
0.0
 40
0.0
 40
0.0
 40
0.0
 40
0.5577729557
 40
0.8001930593
 40
1.0
 40
1.0
 40
1.0
 40
1.0
 10
5.478262237
 20
2.754097817
 30
0.0
 10
5.4793122617
 20
2.7537647501
 30
0.0
 10
5.4808101872
 20
2.7532575194
 30
0.0
 10
5.4826486729
 20
2.752535946
 30
0.0
 10
5.4834458798
 20
2.7521764085
 30
0.0
 10
5.4837955181
 20
2.7519934556
 30
0.0
  0
LINE
  5
752
100
AcDbEntity
  8
0
100
AcDbLine
 62
7
  6
CONTINUOUS
 10
5.4837955181
 20
2.7519934556
 11
5.4846620741
 21
2.751418489
  0
LINE
  5
753
100
AcDbEntity
  8
0
100
AcDbLine
 62
7
  6
CONTINUOUS
 10
5.4846620741
 20
2.751418489
 11
5.4847846478
 21
2.7511972582
  0
SPLINE
  5
754
100
AcDbEntity
  8
0
100
AcDbSpline
 62
7
  6
CONTINUOUS
 70
0
 71
3
 72
10
 73
6
 74
0
 42
0.0000001
 43
0.0000001
 44
0.0000000001
 40
0.0
 40
0.0
 40
0.0
 40
0.0
 40
0.5587433944
 40
0.8009575669
 40
1.0
 40
1.0
 40
1.0
 40
1.0
 10
5.4699880649
 20
2.7673393489
 30
0.0
 10
5.4710507285
 20
2.7670668469
 30
0.0
 10
5.4725672155
 20
2.7666460499
 30
0.0
 10
5.4744313874
 20
2.7660295748
 30
0.0
 10
5.475240143
 20
2.765715529
 30
0.0
 10
5.475595209
 20
2.7655522642
 30
0.0
  0
LINE
  5
755
100
AcDbEntity
  8
0
100
AcDbLine
 62
7
  6
CONTINUOUS
 10
5.475595209
 20
2.7655522642
 11
5.4765538915
 21
2.7649327582
  0
LINE
  5
756
100
AcDbEntity
  8
0
100
AcDbLine
 62
7
  6
CONTINUOUS
 10
5.4609555318
 20
2.780088357
 11
5.4658505774
 21
2.7788948408
  0
LINE
  5
757
100
AcDbEntity
  8
0
100
AcDbLine
 62
7
  6
CONTINUOUS
 10
5.4658505774
 20
2.7788948408
 11
5.4671613244
 21
2.7783751425
  0
LINE
  5
758
100
AcDbEntity
  8
0
100
AcDbLine
 62
7
  6
CONTINUOUS
 10
5.4671613244
 20
2.7783751425
 11
5.4675786724
 21
2.7780685268
  0
LINE
  5
759
100
AcDbEntity
  8
0
100
AcDbLine
 62
7
  6
CONTINUOUS
 10
5.4511955496
 20
2.7923022585
 11
5.4561225813
 21
2.7913884206
  0
LINE
  5
75A
100
AcDbEntity
  8
0
100
AcDbLine
 62
7
  6
CONTINUOUS
 10
5.4561225813
 20
2.7913884206
 11
5.4568954816
 21
2.7911596342
  0
LINE
  5
75B
100
AcDbEntity
  8
0
100
AcDbLine
 62
7
  6
CONTINUOUS
 10
5.4568954816
 20
2.7911596342
 11
5.457853686
 21
2.7906709034
  0
LINE
  5
75C
100
AcDbEntity
  8
0
100
AcDbLine
 62
7
  6
CONTINUOUS
 10
5.4407404859
 20
2.8039405477
 11
5.445683164
 21
2.8033077443
  0
LINE
  5
75D
100
AcDbEntity
  8
0
100
AcDbLine
 62
7
  6
CONTINUOUS
 10
5.445683164
 20
2.8033077443
 11
5.4474112819
 21
2.8026981284
  0
SPLINE
  5
75E
100
AcDbEntity
  8
0
100
AcDbSpline
 62
7
  6
CONTINUOUS
 70
0
 71
3
 72
12
 73
8
 74
0
 42
0.0000001
 43
0.0000001
 44
0.0000000001
 40
0.0
 40
0.0
 40
0.0
 40
0.0
 40
0.30619952
 40
0.5884137031
 40
0.8295145615
 40
0.9254527361
 40
1.0
 40
1.0
 40
1.0
 40
1.0
 10
5.4279722621
 20
2.8149877056
 30
0.0
 10
5.428785361
 20
2.8149849731
 30
0.0
 10
5.430348075
 20
2.8149566776
 30
0.0
 10
5.4325476831
 20
2.8148391595
 30
0.0
 10
5.4341866297
 20
2.8146839645
 30
0.0
 10
5.4352640933
 20
2.8144993452
 30
0.0
 10
5.4357039764
 20
2.814386102
 30
0.0
 10
5.4358902482
 20
2.8143190933
 30
0.0
  0
LINE
  5
75F
100
AcDbEntity
  8
0
100
AcDbLine
 62
7
  6
CONTINUOUS
 10
5.4358902482
 20
2.8143190933
 11
5.4362862192
 21
2.8141103206
  0
SPLINE
  5
760
100
AcDbEntity
  8
0
100
AcDbSpline
 62
7
  6
CONTINUOUS
 70
0
 71
3
 72
13
 73
9
 74
0
 42
0.0000001
 43
0.0000001
 44
0.0000000001
 40
0.0
 40
0.0
 40
0.0
 40
0.0
 40
0.0416993733
 40
0.1107695585
 40
0.2083940678
 40
0.3313954071
 40
0.6375169412
 40
1.0
 40
1.0
 40
1.0
 40
1.0
 10
4.9916800043
 20
2.7384334302
 30
0.0
 10
4.9916800043
 20
2.7385027209
 30
0.0
 10
4.9917881448
 20
2.7386719202
 30
0.0
 10
4.9920460496
 20
2.7388944375
 30
0.0
 10
4.9924483393
 20
2.7391655103
 30
0.0
 10
4.9932082193
 20
2.7395978076
 30
0.0
 10
4.994395449
 20
2.7401690457
 30
0.0
 10
4.9954172217
 20
2.7406048291
 30
0.0
 10
4.9959745179
 20
2.7408333472
 30
0.0
  0
SPLINE
  5
761
100
AcDbEntity
  8
0
100
AcDbSpline
 62
7
  6
CONTINUOUS
 70
0
 71
3
 72
13
 73
9
 74
0
 42
0.0000001
 43
0.0000001
 44
0.0000000001
 40
0.0
 40
0.0
 40
0.0
 40
0.0
 40
0.0433971476
 40
0.1125570044
 40
0.208996159
 40
0.3304570459
 40
0.6348195531
 40
1.0
 40
1.0
 40
1.0
 40
1.0
 10
4.985053494
 20
2.7240118283
 30
0.0
 10
4.985053494
 20
2.7240727462
 30
0.0
 10
4.9851344174
 20
2.7242216408
 30
0.0
 10
4.9853380007
 20
2.724428485
 30
0.0
 10
4.9856559847
 20
2.7246799842
 30
0.0
 10
4.9862639685
 20
2.7250887145
 30
0.0
 10
4.9872289021
 20
2.7256413949
 30
0.0
 10
4.9880652519
 20
2.7260700012
 30
0.0
 10
4.9885249286
 20
2.7262968736
 30
0.0
  0
SPLINE
  5
762
100
AcDbEntity
  8
0
100
AcDbSpline
 62
7
  6
CONTINUOUS
 70
0
 71
3
 72
12
 73
8
 74
0
 42
0.0000001
 43
0.0000001
 44
0.0000000001
 40
0.0
 40
0.0
 40
0.0
 40
0.0
 40
0.0454244422
 40
0.1150792567
 40
0.330466966
 40
0.6328282102
 40
1.0
 40
1.0
 40
1.0
 40
1.0
 10
4.9792778003
 20
2.7092370805
 30
0.0
 10
4.9792778003
 20
2.7092900811
 30
0.0
 10
4.9793368922
 20
2.7094190658
 30
0.0
 10
4.9795838262
 20
2.7097125571
 30
0.0
 10
4.9801245367
 20
2.7101448849
 30
0.0
 10
4.9809771732
 20
2.7107233008
 30
0.0
 10
4.981646556
 20
2.7111281106
 30
0.0
 10
4.9820163441
 20
2.7113444256
 30
0.0
  0
SPLINE
  5
763
100
AcDbEntity
  8
0
100
AcDbSpline
 62
7
  6
CONTINUOUS
 70
0
 71
3
 72
12
 73
8
 74
0
 42
0.0000001
 43
0.0000001
 44
0.0000000001
 40
0.0
 40
0.0
 40
0.0
 40
0.0
 40
0.0478665043
 40
0.1184720897
 40
0.3320109526
 40
0.6320554908
 40
1.0
 40
1.0
 40
1.0
 40
1.0
 10
4.9743720775
 20
2.6941581852
 30
0.0
 10
4.9743720775
 20
2.6942036939
 30
0.0
 10
4.9744140536
 20
2.6943134458
 30
0.0
 10
4.9745970092
 20
2.6945697789
 30
0.0
 10
4.9750057463
 20
2.6949530901
 30
0.0
 10
4.9756614005
 20
2.6954729702
 30
0.0
 10
4.9761801604
 20
2.6958406668
 30
0.0
 10
4.9764685705
 20
2.6960386401
 30
0.0
  0
LINE
  5
764
100
AcDbEntity
  8
0
100
AcDbLine
 62
7
  6
CONTINUOUS
 10
4.9764685705
 20
2.6960386401
 11
4.9776673456
 21
2.6968289068
  0
LINE
  5
765
100
AcDbEntity
  8
0
100
AcDbLine
 62
7
  6
CONTINUOUS
 10
4.9776673456
 20
2.6968289068
 11
4.9808454397
 21
2.6987418853
  0
SPLINE
  5
766
100
AcDbEntity
  8
0
100
AcDbSpline
 62
7
  6
CONTINUOUS
 70
0
 71
3
 72
12
 73
8
 74
0
 42
0.0000001
 43
0.0000001
 44
0.0000000001
 40
0.0
 40
0.0
 40
0.0
 40
0.0
 40
0.0479893323
 40
0.1190613601
 40
0.333300291
 40
0.633169915
 40
1.0
 40
1.0
 40
1.0
 40
1.0
 10
4.9703525948
 20
2.6788251496
 30
0.0
 10
4.9703525948
 20
2.6788712288
 30
0.0
 10
4.97039344
 20
2.6789827869
 30
0.0
 10
4.9705698153
 20
2.6792488245
 30
0.0
 10
4.9709651453
 20
2.679654578
 30
0.0
 10
4.9716001036
 20
2.6802115047
 30
0.0
 10
4.9721030098
 20
2.6806087671
 30
0.0
 10
4.9723825201
 20
2.680823102
 30
0.0
  0
LINE
  5
767
100
AcDbEntity
  8
0
100
AcDbLine
 62
7
  6
CONTINUOUS
 10
4.9729308699
 20
2.6812355331
 11
4.9766204153
 21
2.6837716479
  0
SPLINE
  5
768
100
AcDbEntity
  8
0
100
AcDbSpline
 62
7
  6
CONTINUOUS
 70
0
 71
3
 72
12
 73
8
 74
0
 42
0.0000001
 43
0.0000001
 44
0.0000000001
 40
0.0
 40
0.0
 40
0.0
 40
0.0
 40
0.0508953471
 40
0.1233907736
 40
0.3363783508
 40
0.6335410571
 40
1.0
 40
1.0
 40
1.0
 40
1.0
 10
4.9672326824
 20
2.6632888236
 30
0.0
 10
4.9672326824
 20
2.663327636
 30
0.0
 10
4.9672605151
 20
2.6634203535
 30
0.0
 10
4.9673856397
 20
2.6636441101
 30
0.0
 10
4.9676714659
 20
2.6639884132
 30
0.0
 10
4.9681392763
 20
2.6644649786
 30
0.0
 10
4.9685126602
 20
2.6648073152
 30
0.0
 10
4.9687214619
 20
2.6649930538
 30
0.0
  0
LINE
  5
769
100
AcDbEntity
  8
0
100
AcDbLine
 62
7
  6
CONTINUOUS
 10
4.9687214619
 20
2.6649930538
 11
4.9697178571
 21
2.6658433861
  0
LINE
  5
76A
100
AcDbEntity
  8
0
100
AcDbLine
 62
7
  6
CONTINUOUS
 10
4.9697178571
 20
2.6658433861
 11
4.9732741747
 21
2.6685858228
  0
SPLINE
  5
76B
100
AcDbEntity
  8
0
100
AcDbSpline
 62
7
  6
CONTINUOUS
 70
0
 71
3
 72
12
 73
8
 74
0
 42
0.0000001
 43
0.0000001
 44
0.0000000001
 40
0.0
 40
0.0
 40
0.0
 40
0.0
 40
0.0509241687
 40
0.1237745856
 40
0.3373771011
 40
0.6344518272
 40
1.0
 40
1.0
 40
1.0
 40
1.0
 10
4.9650226868
 20
2.6476007314
 30
0.0
 10
4.9650226868
 20
2.6476399391
 30
0.0
 10
4.9650495289
 20
2.6477339304
 30
0.0
 10
4.9651691551
 20
2.6479642467
 30
0.0
 10
4.9654429792
 20
2.648324049
 30
0.0
 10
4.9658917557
 20
2.6488268983
 30
0.0
 10
4.966250299
 20
2.6491904627
 30
0.0
 10
4.9664507559
 20
2.6493880173
 30
0.0
  0
LINE
  5
76C
100
AcDbEntity
  8
0
100
AcDbLine
 62
7
  6
CONTINUOUS
 10
4.9674065195
 20
2.6502939362
 11
4.9708178152
 21
2.6532347719
  0
SPLINE
  5
76D
100
AcDbEntity
  8
0
100
AcDbSpline
 62
7
  6
CONTINUOUS
 70
0
 71
3
 72
12
 73
8
 74
0
 42
0.0000001
 43
0.0000001
 44
0.0000000001
 40
0.0
 40
0.0
 40
0.0
 40
0.0
 40
0.0509522905
 40
0.1241299203
 40
0.33829984
 40
0.6352941088
 40
1.0
 40
1.0
 40
1.0
 40
1.0
 10
4.9637299374
 20
2.6318129005
 30
0.0
 10
4.9637299374
 20
2.6318524826
 30
0.0
 10
4.9637556747
 20
2.6319476949
 30
0.0
 10
4.9638694742
 20
2.6321842861
 30
0.0
 10
4.9641304432
 20
2.6325588776
 30
0.0
 10
4.9645586852
 20
2.633086873
 30
0.0
 10
4.9649011384
 20
2.6334707756
 30
0.0
 10
4.9650925601
 20
2.6336796498
 30
0.0
  0
LINE
  5
76E
100
AcDbEntity
  8
0
100
AcDbLine
 62
7
  6
CONTINUOUS
 10
4.9655207616
 20
2.6341379581
 11
4.9692594831
 21
2.6377694048
  0
LINE
  5
76F
100
AcDbEntity
  8
0
100
AcDbLine
 62
7
  6
CONTINUOUS
 10
4.9649750824
 20
2.6183053814
 11
4.9666004885
 21
2.6201292669
  0
SPLINE
  5
770
100
AcDbEntity
  8
0
100
AcDbSpline
 62
7
  6
CONTINUOUS
 70
0
 71
3
 72
17
 73
13
 74
0
 42
0.0000001
 43
0.0000001
 44
0.0000000001
 40
0.0
 40
0.0
 40
0.0
 40
0.0
 40
0.0621982888
 40
0.124409694
 40
0.1866489662
 40
0.2489260929
 40
0.3734898316
 40
0.498312702
 40
0.6234194889
 40
0.748764463
 40
0.8743584088
 40
1.0
 40
1.0
 40
1.0
 40
1.0
 10
5.0706360302
 20
2.8000641917
 30
0.0
 10
5.0706357662
 20
2.7945354333
 30
0.0
 10
5.0711831894
 20
2.7834686111
 30
0.0
 10
5.0736530278
 20
2.7670364287
 30
0.0
 10
5.0777364023
 20
2.7509188302
 30
0.0
 10
5.0852818031
 20
2.7300719789
 30
0.0
 10
5.0985537795
 20
2.7055301328
 30
0.0
 10
5.1199606612
 20
2.6797626179
 30
0.0
 10
5.1460391481
 20
2.6586202503
 30
0.0
 10
5.175785142
 20
2.6429068875
 30
0.0
 10
5.2080440511
 20
2.6332410665
 30
0.0
 10
5.2304361274
 20
2.6310615004
 30
0.0
 10
5.2416043125
 20
2.6310615004
 30
0.0
  0
SPLINE
  5
771
100
AcDbEntity
  8
0
100
AcDbSpline
 62
7
  6
CONTINUOUS
 70
0
 71
3
 72
17
 73
13
 74
0
 42
0.0000001
 43
0.0000001
 44
0.0000000001
 40
0.0
 40
0.0
 40
0.0
 40
0.0
 40
0.1242503928
 40
0.248659837
 40
0.3732840263
 40
0.4357517018
 40
0.4982850738
 40
0.6234116304
 40
0.7487391715
 40
0.8115605913
 40
0.8744522823
 40
1.0
 40
1.0
 40
1.0
 40
1.0
 10
5.072267242
 20
2.6161472103
 30
0.0
 10
5.0737937889
 20
2.6062569737
 30
0.0
 10
5.0786407609
 20
2.58669328
 30
0.0
 10
5.0910153144
 20
2.5591286426
 30
0.0
 10
5.1052802832
 20
2.5383126788
 30
0.0
 10
5.1187584024
 20
2.5233638365
 30
0.0
 10
5.1335430599
 20
2.5096450498
 30
0.0
 10
5.1542374826
 20
2.4950067522
 30
0.0
 10
5.1772045614
 20
2.4842290883
 30
0.0
 10
5.1965002735
 20
2.4781084495
 30
0.0
 10
5.216272574
 20
2.4737104232
 30
0.0
 10
5.23149247
 20
2.4723651102
 30
0.0
 10
5.2416043125
 20
2.4723651102
 30
0.0
  0
SPLINE
  5
772
100
AcDbEntity
  8
0
100
AcDbSpline
 62
7
  6
CONTINUOUS
 70
0
 71
3
 72
17
 73
13
 74
0
 42
0.0000001
 43
0.0000001
 44
0.0000000001
 40
0.0
 40
0.0
 40
0.0
 40
0.0
 40
0.124148076
 40
0.1864330497
 40
0.2487330314
 40
0.3110763523
 40
0.3734915409
 40
0.4984091513
 40
0.6235920537
 40
0.748954045
 40
0.8745174541
 40
1.0
 40
1.0
 40
1.0
 40
1.0
 10
5.0730716902
 20
2.6777574513
 30
0.0
 10
5.074963352
 20
2.6668695825
 30
0.0
 10
5.0794566373
 20
2.6507456204
 30
0.0
 10
5.0884854365
 20
2.6305026822
 30
0.0
 10
5.0967514741
 20
2.616028114
 30
0.0
 10
5.1064056048
 20
2.6024277494
 30
0.0
 10
5.1210121996
 20
2.5856376354
 30
0.0
 10
5.1422949924
 20
2.5674227245
 30
0.0
 10
5.1716155779
 20
2.5509540583
 30
0.0
 10
5.2036271279
 20
2.5404386822
 30
0.0
 10
5.2370801967
 20
2.5363102448
 30
0.0
 10
5.2595361106
 20
2.5379054644
 30
0.0
 10
5.2705483139
 20
2.5397749529
 30
0.0
  0
SPLINE
  5
773
100
AcDbEntity
  8
0
100
AcDbSpline
 62
7
  6
CONTINUOUS
 70
0
 71
3
 72
15
 73
11
 74
0
 42
0.0000001
 43
0.0000001
 44
0.0000000001
 40
0.0
 40
0.0
 40
0.0
 40
0.0
 40
0.1256172362
 40
0.2512412298
 40
0.3765575427
 40
0.5016471116
 40
0.6265142107
 40
0.7511591681
 40
0.875602335
 40
1.0
 40
1.0
 40
1.0
 40
1.0
 10
5.2705483139
 20
2.5397749529
 30
0.0
 10
5.2799050096
 20
2.5413633939
 30
0.0
 10
5.298390616
 20
2.5461027037
 30
0.0
 10
5.3245306801
 20
2.5576410706
 30
0.0
 10
5.3483756623
 20
2.5733291627
 30
0.0
 10
5.369245868
 20
2.5927131804
 30
0.0
 10
5.3865787348
 20
2.61525329
 30
0.0
 10
5.3998774496
 20
2.6403335983
 30
0.0
 10
5.4087791821
 20
2.6672438748
 30
0.0
 10
5.4116182357
 20
2.6859360533
 30
0.0
 10
5.4122370739
 20
2.695314086
 30
0.0
  0
SPLINE
  5
774
100
AcDbEntity
  8
0
100
AcDbSpline
 62
7
  6
CONTINUOUS
 70
0
 71
3
 72
17
 73
13
 74
0
 42
0.0000001
 43
0.0000001
 44
0.0000000001
 40
0.0
 40
0.0
 40
0.0
 40
0.0
 40
0.1256415727
 40
0.2512354869
 40
0.376580457
 40
0.5016872424
 40
0.6265101183
 40
0.7510738694
 40
0.8133510039
 40
0.8755902851
 40
0.9378016998
 40
1.0
 40
1.0
 40
1.0
 40
1.0
 10
5.2416043125
 20
2.6310615004
 30
0.0
 10
5.252772496
 20
2.6310615004
 30
0.0
 10
5.2751645681
 20
2.633241064
 30
0.0
 10
5.3074234724
 20
2.642906884
 30
0.0
 10
5.337169465
 20
2.658620242
 30
0.0
 10
5.3632479532
 20
2.6797626083
 30
0.0
 10
5.3846548379
 20
2.7055301222
 30
0.0
 10
5.3979268191
 20
2.7300719687
 30
0.0
 10
5.4054722194
 20
2.7509188229
 30
0.0
 10
5.4095555968
 20
2.7670364231
 30
0.0
 10
5.4120254353
 20
2.7834686082
 30
0.0
 10
5.4125728583
 20
2.7945354323
 30
0.0
 10
5.4125725946
 20
2.8000641917
 30
0.0
  0
SPLINE
  5
775
100
AcDbEntity
  8
0
100
AcDbSpline
 62
7
  6
CONTINUOUS
 70
0
 71
3
 72
11
 73
7
 74
0
 42
0.0000001
 43
0.0000001
 44
0.0000000001
 40
0.0
 40
0.0
 40
0.0
 40
0.0
 40
0.250167185
 40
0.500316091
 40
0.7502939263
 40
1.0
 40
1.0
 40
1.0
 40
1.0
 10
5.2416043125
 20
2.6146877366
 30
0.0
 10
5.2484325392
 20
2.6146877366
 30
0.0
 10
5.2621013476
 20
2.6155241761
 30
0.0
 10
5.2822991102
 20
2.6191676442
 30
0.0
 10
5.3019205758
 20
2.6251464821
 30
0.0
 10
5.314439791
 20
2.6306541287
 30
0.0
 10
5.3205012658
 20
2.6337704539
 30
0.0
  0
SPLINE
  5
776
100
AcDbEntity
  8
0
100
AcDbSpline
 62
7
  6
CONTINUOUS
 70
0
 71
3
 72
21
 73
17
 74
0
 42
0.0000001
 43
0.0000001
 44
0.0000000001
 40
0.0
 40
0.0
 40
0.0
 40
0.0
 40
0.0624047921
 40
0.1248588773
 40
0.1872804808
 40
0.249722357
 40
0.3122539169
 40
0.3748515763
 40
0.4999120946
 40
0.6249884437
 40
0.6876028011
 40
0.7501536724
 40
0.8126175636
 40
0.8750669441
 40
0.9375561018
 40
1.0
 40
1.0
 40
1.0
 40
1.0
 10
5.3205012658
 20
2.6337704539
 30
0.0
 10
5.3176845447
 20
2.6323157937
 30
0.0
 10
5.3120067815
 20
2.6294849901
 30
0.0
 10
5.303318668
 20
2.6255996223
 30
0.0
 10
5.2944242696
 20
2.6221985998
 30
0.0
 10
5.2853052957
 20
2.6194375162
 30
0.0
 10
5.2760131166
 20
2.6172980462
 30
0.0
 10
5.2634721083
 20
2.6151988958
 30
0.0
 10
5.2476135181
 20
2.6138335483
 30
0.0
 10
5.2316977609
 20
2.6140968315
 30
0.0
 10
5.2190384813
 20
2.6153184993
 30
0.0
 10
5.2096171653
 20
2.6168077384
 30
0.0
 10
5.2003255758
 20
2.6189325442
 30
0.0
 10
5.1912146031
 20
2.6217165915
 30
0.0
 10
5.1822755155
 20
2.62499834
 30
0.0
 10
5.1764122387
 20
2.6274313303
 30
0.0
 10
5.1734992587
 20
2.6286871572
 30
0.0
  0
SPLINE
  5
777
100
AcDbEntity
  8
0
100
AcDbSpline
 62
7
  6
CONTINUOUS
 70
0
 71
3
 72
10
 73
6
 74
0
 42
0.0000001
 43
0.0000001
 44
0.0000000001
 40
0.0
 40
0.0
 40
0.0
 40
0.0
 40
0.4994395018
 40
0.749714606
 40
1.0
 40
1.0
 40
1.0
 40
1.0
 10
5.1734992587
 20
2.6286871572
 30
0.0
 10
5.1841967177
 20
2.6240953475
 30
0.0
 10
5.2010329571
 20
2.6188517377
 30
0.0
 10
5.2240928242
 20
2.6153048581
 30
0.0
 10
5.2357704677
 20
2.6146877366
 30
0.0
 10
5.2416043125
 20
2.6146877366
 30
0.0
  0
LINE
  5
778
100
AcDbEntity
  8
0
100
AcDbLine
 62
7
  6
CONTINUOUS
 10
5.4787840322
 20
2.7614007837
 11
5.4778506525
 21
2.7587431838
  0
LINE
  5
779
100
AcDbEntity
  8
0
100
AcDbLine
 62
7
  6
CONTINUOUS
 10
5.4700171325
 20
2.7746608437
 11
5.4692916224
 21
2.7719534403
  0
LINE
  5
77A
100
AcDbEntity
  8
0
100
AcDbLine
 62
7
  6
CONTINUOUS
 10
5.460493561
 20
2.7873992842
 11
5.4599774977
 21
2.7846547686
  0
LINE
  5
77B
100
AcDbEntity
  8
0
100
AcDbLine
 62
7
  6
CONTINUOUS
 10
5.4502449646
 20
2.7995740203
 11
5.4498731037
 21
2.7961046796
  0
LINE
  5
77C
100
AcDbEntity
  8
0
100
AcDbLine
 62
7
  6
CONTINUOUS
 10
5.4393053682
 20
2.811144841
 11
5.4391892557
 21
2.8076611424
  0
LINE
  5
77D
100
AcDbEntity
  8
0
100
AcDbLine
 62
7
  6
CONTINUOUS
 10
5.4391892557
 20
2.8076611424
 11
5.439087485
 21
2.8040577551
  0
SPLINE
  5
77E
100
AcDbEntity
  8
0
100
AcDbSpline
 62
7
  6
CONTINUOUS
 70
0
 71
3
 72
18
 73
14
 74
0
 42
0.0000001
 43
0.0000001
 44
0.0000000001
 40
0.0
 40
0.0
 40
0.0
 40
0.0
 40
0.0169293205
 40
0.0314624153
 40
0.0508535584
 40
0.0785246087
 40
0.1153650588
 40
0.1612418332
 40
0.2781932478
 40
0.4249793565
 40
0.5970895345
 40
0.7900269173
 40
1.0
 40
1.0
 40
1.0
 40
1.0
 10
5.5197135533
 20
2.6262736528
 30
0.0
 10
5.5197135533
 20
2.626296087
 30
0.0
 10
5.5197074032
 20
2.6263414342
 30
0.0
 10
5.5196458475
 20
2.626382189
 30
0.0
 10
5.5195615529
 20
2.6263765623
 30
0.0
 10
5.5194551796
 20
2.6263449835
 30
0.0
 10
5.5193216617
 20
2.6262838225
 30
0.0
 10
5.5190904171
 20
2.6261552441
 30
0.0
 10
5.5187486922
 20
2.6259270682
 30
0.0
 10
5.5182852627
 20
2.6255823437
 30
0.0
 10
5.5177551912
 20
2.6251589547
 30
0.0
 10
5.5171713129
 20
2.6246692828
 30
0.0
 10
5.5167683523
 20
2.6243189588
 30
0.0
 10
5.5165595329
 20
2.6241350645
 30
0.0
  0
SPLINE
  5
77F
100
AcDbEntity
  8
0
100
AcDbSpline
 62
7
  6
CONTINUOUS
 70
0
 71
3
 72
15
 73
11
 74
0
 42
0.0000001
 43
0.0000001
 44
0.0000000001
 40
0.0
 40
0.0
 40
0.0
 40
0.0
 40
0.3447437658
 40
0.5028052746
 40
0.6481804754
 40
0.7762705273
 40
0.8810249882
 40
0.9567601579
 40
0.9824750279
 40
1.0
 40
1.0
 40
1.0
 40
1.0
 10
4.969593122
 20
2.6075400501
 30
0.0
 10
4.9689339176
 20
2.608108431
 30
0.0
 10
4.9679619579
 20
2.6089254121
 30
0.0
 10
4.9666830521
 20
2.6099466915
 30
0.0
 10
4.9658187724
 20
2.6106099706
 30
0.0
 10
4.9650461012
 20
2.6111721022
 30
0.0
 10
4.9643974316
 20
2.6116022248
 30
0.0
 10
4.9639415036
 20
2.6118600388
 30
0.0
 10
4.9636606448
 20
2.6119647159
 30
0.0
 10
4.9635502324
 20
2.6119839488
 30
0.0
 10
4.9635063006
 20
2.6119786778
 30
0.0
  0
SPLINE
  5
780
100
AcDbEntity
  8
0
100
AcDbSpline
 62
7
  6
CONTINUOUS
 70
0
 71
3
 72
18
 73
14
 74
0
 42
0.0000001
 43
0.0000001
 44
0.0000000001
 40
0.0
 40
0.0
 40
0.0
 40
0.0
 40
0.0168710886
 40
0.0306171476
 40
0.0490663639
 40
0.0759658932
 40
0.1122350516
 40
0.1577241269
 40
0.274388541
 40
0.4214567523
 40
0.5943396467
 40
0.7884725434
 40
1.0
 40
1.0
 40
1.0
 40
1.0
 10
5.5187429874
 20
2.6420840331
 30
0.0
 10
5.5187429874
 20
2.6421061094
 30
0.0
 10
5.5187383659
 20
2.6421499723
 30
0.0
 10
5.5186791715
 20
2.6421891986
 30
0.0
 10
5.5185991047
 20
2.6421781446
 30
0.0
 10
5.5184996394
 20
2.6421408242
 30
0.0
 10
5.5183742846
 20
2.6420722472
 30
0.0
 10
5.5181567418
 20
2.6419306766
 30
0.0
 10
5.5178356234
 20
2.6416834716
 30
0.0
 10
5.51740044
 20
2.641313329
 30
0.0
 10
5.5169025526
 20
2.6408607679
 30
0.0
 10
5.5163540636
 20
2.6403389328
 30
0.0
 10
5.5159757032
 20
2.6399665892
 30
0.0
 10
5.515779598
 20
2.6397712549
 30
0.0
  0
SPLINE
  5
781
100
AcDbEntity
  8
0
100
AcDbSpline
 62
7
  6
CONTINUOUS
 70
0
 71
3
 72
18
 73
14
 74
0
 42
0.0000001
 43
0.0000001
 44
0.0000000001
 40
0.0
 40
0.0
 40
0.0
 40
0.0
 40
0.0168168652
 40
0.029743958
 40
0.0472192311
 40
0.0733409731
 40
0.1090441705
 40
0.1541551078
 40
0.2705538626
 40
0.4179216135
 40
0.5915882921
 40
0.7869207963
 40
1.0
 40
1.0
 40
1.0
 40
1.0
 10
5.516853328
 20
2.65781297
 30
0.0
 10
5.516853328
 20
2.657834706
 30
0.0
 10
5.5168502586
 20
2.6578770232
 30
0.0
 10
5.5167936061
 20
2.657915014
 30
0.0
 10
5.516718013
 20
2.6578986256
 30
0.0
 10
5.5166258829
 20
2.6578560607
 30
0.0
 10
5.5165090784
 20
2.6577805417
 30
0.0
 10
5.5163060263
 20
2.6576267837
 30
0.0
 10
5.5160065894
 20
2.6573617594
 30
0.0
 10
5.5156010702
 20
2.6569678664
 30
0.0
 10
5.5151369963
 20
2.6564880199
 30
0.0
 10
5.5146257013
 20
2.6559360928
 30
0.0
 10
5.5142731541
 20
2.6555431692
 30
0.0
 10
5.5140903973
 20
2.6553371381
 30
0.0
  0
SPLINE
  5
782
100
AcDbEntity
  8
0
100
AcDbSpline
 62
7
  6
CONTINUOUS
 70
0
 71
3
 72
15
 73
11
 74
0
 42
0.0000001
 43
0.0000001
 44
0.0000000001
 40
0.0
 40
0.0
 40
0.0
 40
0.0
 40
0.3431239619
 40
0.5006887206
 40
0.6457991083
 40
0.7738999981
 40
0.8790080456
 40
0.955518951
 40
0.9817986221
 40
1.0
 40
1.0
 40
1.0
 40
1.0
 10
4.9707004336
 20
2.5920808408
 30
0.0
 10
4.9700068154
 20
2.5926111873
 30
0.0
 10
4.9689843744
 20
2.5933718306
 30
0.0
 10
4.9676405321
 20
2.5943179326
 30
0.0
 10
4.9667317561
 20
2.5949308452
 30
0.0
 10
4.9659190784
 20
2.5954480087
 30
0.0
 10
4.9652364924
 20
2.5958406364
 30
0.0
 10
4.964757036
 20
2.5960714492
 30
0.0
 10
4.9644624472
 20
2.596159352
 30
0.0
 10
4.9643471764
 20
2.5961716926
 30
0.0
 10
4.9643015125
 20
2.5961639438
 30
0.0
  0
SPLINE
  5
783
100
AcDbEntity
  8
0
100
AcDbSpline
 62
7
  6
CONTINUOUS
 70
0
 71
3
 72
18
 73
14
 74
0
 42
0.0000001
 43
0.0000001
 44
0.0000000001
 40
0.0
 40
0.0
 40
0.0
 40
0.0
 40
0.0167672506
 40
0.0288450772
 40
0.0453183457
 40
0.0706629881
 40
0.1058113592
 40
0.1505578507
 40
0.2667160196
 40
0.4143994868
 40
0.5888556853
 40
0.7853831789
 40
1.0
 40
1.0
 40
1.0
 40
1.0
 10
5.5140508419
 20
2.6734083007
 30
0.0
 10
5.5140508419
 20
2.6734297157
 30
0.0
 10
5.5140493337
 20
2.6734704111
 30
0.0
 10
5.5139954023
 20
2.6735074817
 30
0.0
 10
5.5139245323
 20
2.6734858357
 30
0.0
 10
5.5138401455
 20
2.6734385897
 30
0.0
 10
5.5137322365
 20
2.6733566128
 30
0.0
 10
5.5135444233
 20
2.6731915292
 30
0.0
 10
5.5132676632
 20
2.6729099517
 30
0.0
 10
5.5128931258
 20
2.6724940528
 30
0.0
 10
5.5124643799
 20
2.6719888942
 30
0.0
 10
5.5119919591
 20
2.6714090444
 30
0.0
 10
5.5116663515
 20
2.6709970432
 30
0.0
 10
5.5114975328
 20
2.6707810917
 30
0.0
  0
SPLINE
  5
784
100
AcDbEntity
  8
0
100
AcDbSpline
 62
7
  6
CONTINUOUS
 70
0
 71
3
 72
17
 73
13
 74
0
 42
0.0000001
 43
0.0000001
 44
0.0000000001
 40
0.0
 40
0.0
 40
0.0
 40
0.0
 40
0.0189110004
 40
0.0315386205
 40
0.0463747758
 40
0.0693205146
 40
0.1442714083
 40
0.256850537
 40
0.4029644256
 40
0.5783035414
 40
0.7786781311
 40
1.0
 40
1.0
 40
1.0
 40
1.0
 10
5.5103448232
 20
2.6888183053
 30
0.0
 10
5.5103448232
 20
2.6888376602
 30
0.0
 10
5.5103442566
 20
2.6888713752
 30
0.0
 10
5.5103080317
 20
2.6889108196
 30
0.0
 10
5.5102519178
 20
2.6889002402
 30
0.0
 10
5.5101535972
 20
2.6888428485
 30
0.0
 10
5.509993699
 20
2.6886934902
 30
0.0
 10
5.5097655204
 20
2.688441209
 30
0.0
 10
5.5094843913
 20
2.6880963292
 30
0.0
 10
5.5091596774
 20
2.6876725117
 30
0.0
 10
5.5087983341
 20
2.6871796176
 30
0.0
 10
5.5085486082
 20
2.6868276104
 30
0.0
 10
5.5084185865
 20
2.6866421257
 30
0.0
  0
LINE
  5
785
100
AcDbEntity
  8
0
100
AcDbLine
 62
7
  6
CONTINUOUS
 10
5.5084185865
 20
2.6866421257
 11
5.5059956202
 21
2.6830030381
  0
SPLINE
  5
786
100
AcDbEntity
  8
0
100
AcDbSpline
 62
7
  6
CONTINUOUS
 70
0
 71
3
 72
15
 73
11
 74
0
 42
0.0000001
 43
0.0000001
 44
0.0000000001
 40
0.0
 40
0.0
 40
0.0
 40
0.0
 40
0.3414918783
 40
0.4985598064
 40
0.643409075
 40
0.7715280474
 40
0.8769994403
 40
0.9542937322
 40
0.9811358663
 40
1.0
 40
1.0
 40
1.0
 40
1.0
 10
4.9727061618
 20
2.5767102737
 30
0.0
 10
4.9719803488
 20
2.5772006706
 30
0.0
 10
4.9709107402
 20
2.5779021683
 30
0.0
 10
4.9695065023
 20
2.5787695453
 30
0.0
 10
4.9685562255
 20
2.5793296306
 30
0.0
 10
4.9677062075
 20
2.5797996023
 30
0.0
 10
4.9669919176
 20
2.5801528075
 30
0.0
 10
4.9664905873
 20
2.5803553109
 30
0.0
 10
4.9661833432
 20
2.5804257072
 30
0.0
 10
4.9660636396
 20
2.5804309901
 30
0.0
 10
4.9660163622
 20
2.5804206825
 30
0.0
  0
SPLINE
  5
787
100
AcDbEntity
  8
0
100
AcDbSpline
 62
7
  6
CONTINUOUS
 70
0
 71
3
 72
17
 73
13
 74
0
 42
0.0000001
 43
0.0000001
 44
0.0000000001
 40
0.0
 40
0.0
 40
0.0
 40
0.0
 40
0.0189367875
 40
0.0307495145
 40
0.0443985123
 40
0.0664381559
 40
0.1403570677
 40
0.2526657213
 40
0.3991179068
 40
0.5753130142
 40
0.7769902489
 40
1.0
 40
1.0
 40
1.0
 40
1.0
 10
5.5057475624
 20
2.7039918785
 30
0.0
 10
5.5057475624
 20
2.7040110206
 30
0.0
 10
5.5057478826
 20
2.7040430447
 30
0.0
 10
5.5057147472
 20
2.7040825011
 30
0.0
 10
5.5056622062
 20
2.7040682317
 30
0.0
 10
5.5055740874
 20
2.7040048642
 30
0.0
 10
5.505429298
 20
2.7038469786
 30
0.0
 10
5.5052238724
 20
2.7035826826
 30
0.0
 10
5.504969969
 20
2.7032227757
 30
0.0
 10
5.5046767969
 20
2.7027814777
 30
0.0
 10
5.5043504388
 20
2.7022690778
 30
0.0
 10
5.5041250036
 20
2.7019037527
 30
0.0
 10
5.5040076076
 20
2.7017113061
 30
0.0
  0
LINE
  5
788
100
AcDbEntity
  8
0
100
AcDbLine
 62
7
  6
CONTINUOUS
 10
5.5040076076
 20
2.7017113061
 11
5.5023295225
 21
2.6988490499
  0
SPLINE
  5
789
100
AcDbEntity
  8
0
100
AcDbSpline
 62
7
  6
CONTINUOUS
 70
0
 71
3
 72
15
 73
11
 74
0
 42
0.0000001
 43
0.0000001
 44
0.0000000001
 40
0.0
 40
0.0
 40
0.0
 40
0.0
 40
0.3398558097
 40
0.4964293151
 40
0.6410223878
 40
0.7691663889
 40
0.8750086493
 40
0.9530894212
 40
0.980488815
 40
1.0
 40
1.0
 40
1.0
 40
1.0
 10
4.9756036549
 20
2.5614793231
 30
0.0
 10
4.9748479772
 20
2.5619279788
 30
0.0
 10
4.9737346773
 20
2.5625677107
 30
0.0
 10
4.9722747801
 20
2.5633530854
 30
0.0
 10
4.9712861382
 20
2.5638580564
 30
0.0
 10
4.9704015757
 20
2.5642787661
 30
0.0
 10
4.9696579116
 20
2.5645907508
 30
0.0
 10
4.9691364386
 20
2.5647637396
 30
0.0
 10
4.9688176439
 20
2.5648159754
 30
0.0
 10
4.9686939275
 20
2.5648140491
 30
0.0
 10
4.9686451627
 20
2.5648011043
 30
0.0
  0
SPLINE
  5
78A
100
AcDbEntity
  8
0
100
AcDbSpline
 62
7
  6
CONTINUOUS
 70
0
 71
3
 72
17
 73
13
 74
0
 42
0.0000001
 43
0.0000001
 44
0.0000000001
 40
0.0
 40
0.0
 40
0.0
 40
0.0
 40
0.018965838
 40
0.0299594528
 40
0.0423908763
 40
0.0635470739
 40
0.1364979482
 40
0.2485771191
 40
0.3953807821
 40
0.5724186214
 40
0.7753611883
 40
1.0
 40
1.0
 40
1.0
 40
1.0
 10
5.5002743057
 20
2.7188786993
 30
0.0
 10
5.5002743057
 20
2.7188976484
 30
0.0
 10
5.5002753937
 20
2.7189278425
 30
0.0
 10
5.5002455888
 20
2.7189676437
 30
0.0
 10
5.5001967713
 20
2.718949721
 30
0.0
 10
5.5001195963
 20
2.7188810996
 30
0.0
 10
5.4999900549
 20
2.7187156147
 30
0.0
 10
5.4998081568
 20
2.718440641
 30
0.0
 10
5.4995822053
 20
2.7180672809
 30
0.0
 10
5.4993215486
 20
2.7176103251
 30
0.0
 10
5.4990312337
 20
2.7170804403
 30
0.0
 10
5.4988307993
 20
2.7167031903
 30
0.0
 10
5.4987264032
 20
2.7165045069
 30
0.0
  0
LINE
  5
78B
100
AcDbEntity
  8
0
100
AcDbLine
 62
7
  6
CONTINUOUS
 10
5.4987264032
 20
2.7165045069
 11
5.4976532948
 21
2.7144013268
  0
SPLINE
  5
78C
100
AcDbEntity
  8
0
100
AcDbSpline
 62
7
  6
CONTINUOUS
 70
0
 71
3
 72
17
 73
13
 74
0
 42
0.0000001
 43
0.0000001
 44
0.0000000001
 40
0.0
 40
0.0
 40
0.0
 40
0.0
 40
0.0189975372
 40
0.0291803487
 40
0.0403749552
 40
0.0606872877
 40
0.132751211
 40
0.2446453013
 40
0.3918079102
 40
0.5696624253
 40
0.7738144039
 40
1.0
 40
1.0
 40
1.0
 40
1.0
 10
5.4939432045
 20
2.7334293974
 30
0.0
 10
5.4939432045
 20
2.7334481747
 30
0.0
 10
5.4939448968
 20
2.7334763732
 30
0.0
 10
5.4939186803
 20
2.73351688
 30
0.0
 10
5.493873785
 20
2.7334953034
 30
0.0
 10
5.4938082922
 20
2.733422346
 30
0.0
 10
5.4936939766
 20
2.7332500803
 30
0.0
 10
5.4935363488
 20
2.7329658532
 30
0.0
 10
5.4933389585
 20
2.7325806221
 30
0.0
 10
5.4931116915
 20
2.7321098887
 30
0.0
 10
5.4928583555
 20
2.731564592
 30
0.0
 10
5.4926835519
 20
2.7311768448
 30
0.0
 10
5.4925924875
 20
2.7309726684
 30
0.0
  0
LINE
  5
78D
100
AcDbEntity
  8
0
100
AcDbLine
 62
7
  6
CONTINUOUS
 10
5.4925924875
 20
2.7309726684
 11
5.4908934536
 21
2.7269806847
  0
SPLINE
  5
78E
100
AcDbEntity
  8
0
100
AcDbSpline
 62
7
  6
CONTINUOUS
 70
0
 71
3
 72
15
 73
11
 74
0
 42
0.0000001
 43
0.0000001
 44
0.0000000001
 40
0.0
 40
0.0
 40
0.0
 40
0.0
 40
0.3382231771
 40
0.494306832
 40
0.6386496337
 40
0.7668252162
 40
0.8730437404
 40
0.9519099976
 40
0.9798590315
 40
1.0
 40
1.0
 40
1.0
 40
1.0
 10
4.9793833037
 20
2.5464385004
 30
0.0
 10
4.9786001957
 20
2.5468437534
 30
0.0
 10
4.9774468329
 20
2.5474192966
 30
0.0
 10
4.9759361917
 20
2.5481196725
 30
0.0
 10
4.9749124503
 20
2.5485674236
 30
0.0
 10
4.9739962589
 20
2.5489369625
 30
0.0
 10
4.9732256596
 20
2.5492060656
 30
0.0
 10
4.9726858437
 20
2.5493484434
 30
0.0
 10
4.9723566265
 20
2.5493819394
 30
0.0
 10
4.9722293151
 20
2.5493726657
 30
0.0
 10
4.9721791957
 20
2.5493570094
 30
0.0
  0
SPLINE
  5
78F
100
AcDbEntity
  8
0
100
AcDbSpline
 62
7
  6
CONTINUOUS
 70
0
 71
3
 72
15
 73
11
 74
0
 42
0.0000001
 43
0.0000001
 44
0.0000000001
 40
0.0
 40
0.0
 40
0.0
 40
0.0
 40
0.0275605559
 40
0.0563453293
 40
0.1277389716
 40
0.2396800354
 40
0.3874464064
 40
0.5663730717
 40
0.7719982165
 40
1.0
 40
1.0
 40
1.0
 40
1.0
 10
5.4867752549
 20
2.7475957174
 30
0.0
 10
5.4867752549
 20
2.7476226494
 30
0.0
 10
5.4867622151
 20
2.747712001
 30
0.0
 10
5.4866444205
 20
2.7475675878
 30
0.0
 10
5.4865741835
 20
2.747414313
 30
0.0
 10
5.4864240244
 20
2.7471050153
 30
0.0
 10
5.4862628428
 20
2.7467165746
 30
0.0
 10
5.4860671684
 20
2.7462314536
 30
0.0
 10
5.4858524903
 20
2.7456737213
 30
0.0
 10
5.4857036469
 20
2.7452767183
 30
0.0
 10
5.4856262031
 20
2.7450678089
 30
0.0
  0
LINE
  5
790
100
AcDbEntity
  8
0
100
AcDbLine
 62
7
  6
CONTINUOUS
 10
5.4856262031
 20
2.7450678089
 11
5.4841808387
 21
2.7409862901
  0
SPLINE
  5
791
100
AcDbEntity
  8
0
100
AcDbSpline
 62
7
  6
CONTINUOUS
 70
0
 71
3
 72
15
 73
11
 74
0
 42
0.0000001
 43
0.0000001
 44
0.0000000001
 40
0.0
 40
0.0
 40
0.0
 40
0.0
 40
0.3366005735
 40
0.4922008153
 40
0.63630007
 40
0.7645133234
 40
0.8711115116
 40
0.9507586315
 40
0.9792476734
 40
1.0
 40
1.0
 40
1.0
 40
1.0
 10
4.9840325736
 20
2.5316376866
 30
0.0
 10
4.9832245665
 20
2.5319980115
 30
0.0
 10
4.98203491
 20
2.5325071498
 30
0.0
 10
4.9804786015
 20
2.53311982
 30
0.0
 10
4.9794231457
 20
2.5335084346
 30
0.0
 10
4.9784783512
 20
2.5338250627
 30
0.0
 10
4.9776833556
 20
2.5340497669
 30
0.0
 10
4.9771270572
 20
2.5341605497
 30
0.0
 10
4.9767885646
 20
2.5341747985
 30
0.0
 10
4.9766580755
 20
2.5341580529
 30
0.0
 10
4.9766067413
 20
2.534139616
 30
0.0
  0
SPLINE
  5
792
100
AcDbEntity
  8
0
100
AcDbSpline
 62
7
  6
CONTINUOUS
 70
0
 71
3
 72
15
 73
11
 74
0
 42
0.0000001
 43
0.0000001
 44
0.0000000001
 40
0.0
 40
0.0
 40
0.0
 40
0.0
 40
0.3349938176
 40
0.4901186752
 40
0.6339817286
 40
0.762238231
 40
0.8692176288
 40
0.949637802
 40
0.9786555659
 40
1.0
 40
1.0
 40
1.0
 40
1.0
 10
4.9895360458
 20
2.5171259666
 30
0.0
 10
4.9887057605
 20
2.5174399804
 30
0.0
 10
4.9874837082
 20
2.5178807126
 30
0.0
 10
4.9858869532
 20
2.5184032678
 30
0.0
 10
4.9848032756
 20
2.518731025
 30
0.0
 10
4.9838330041
 20
2.5189931778
 30
0.0
 10
4.9830162419
 20
2.5191721157
 30
0.0
 10
4.9824453728
 20
2.5192504351
 30
0.0
 10
4.9820987675
 20
2.5192449984
 30
0.0
 10
4.9819655196
 20
2.5192206707
 30
0.0
 10
4.9819131161
 20
2.5191993907
 30
0.0
  0
SPLINE
  5
793
100
AcDbEntity
  8
0
100
AcDbSpline
 62
7
  6
CONTINUOUS
 70
0
 71
3
 72
15
 73
11
 74
0
 42
0.0000001
 43
0.0000001
 44
0.0000000001
 40
0.0
 40
0.0
 40
0.0
 40
0.0
 40
0.3334080118
 40
0.4880668587
 40
0.6317015242
 40
0.7600063106
 40
0.8673667572
 40
0.9485494021
 40
0.9780832625
 40
1.0
 40
1.0
 40
1.0
 40
1.0
 10
4.9958754689
 20
2.5029514665
 30
0.0
 10
4.9950256075
 20
2.5032179338
 30
0.0
 10
4.9937751732
 20
2.5035884818
 30
0.0
 10
4.9921433185
 20
2.5040188174
 30
0.0
 10
4.9910350085
 20
2.504284198
 30
0.0
 10
4.9900424749
 20
2.5044904923
 30
0.0
 10
4.9892066568
 20
2.5046224521
 30
0.0
 10
4.9886231728
 20
2.5046675568
 30
0.0
 10
4.9882696297
 20
2.5046420642
 30
0.0
 10
4.9881340439
 20
2.5046100596
 30
0.0
 10
4.988080722
 20
2.5045858807
 30
0.0
  0
SPLINE
  5
794
100
AcDbEntity
  8
0
100
AcDbSpline
 62
7
  6
CONTINUOUS
 70
0
 71
3
 72
15
 73
11
 74
0
 42
0.0000001
 43
0.0000001
 44
0.0000000001
 40
0.0
 40
0.0
 40
0.0
 40
0.0
 40
0.3318476027
 40
0.4860509368
 40
0.6294653626
 40
0.7578229097
 40
0.8655626867
 40
0.9474948322
 40
0.9775310967
 40
1.0
 40
1.0
 40
1.0
 40
1.0
 10
5.0030298189
 20
2.4891611942
 30
0.0
 10
5.0021631565
 20
2.4893790325
 30
0.0
 10
5.0008884571
 20
2.4896778478
 30
0.0
 10
4.9992269575
 20
2.4900141698
 30
0.0
 10
4.9980976884
 20
2.4902158618
 30
0.0
 10
4.9970861858
 20
2.4903651008
 30
0.0
 10
4.9962340937
 20
2.4904490309
 30
0.0
 10
4.9956399859
 20
2.4904602884
 30
0.0
 10
4.9952806896
 20
2.4904144356
 30
0.0
 10
4.9951431898
 20
2.4903746754
 30
0.0
 10
4.9950891052
 20
2.4903475498
 30
0.0
  0
SPLINE
  5
795
100
AcDbEntity
  8
0
100
AcDbSpline
 62
7
  6
CONTINUOUS
 70
0
 71
3
 72
14
 73
10
 74
0
 42
0.0000001
 43
0.0000001
 44
0.0000000001
 40
0.0
 40
0.0
 40
0.0
 40
0.0
 40
0.3303787718
 40
0.4841670325
 40
0.6273966114
 40
0.7558350642
 40
0.8639714424
 40
0.946653676
 40
1.0
 40
1.0
 40
1.0
 40
1.0
 10
5.0109753694
 20
2.4758008833
 30
0.0
 10
5.010094745
 20
2.4759691673
 30
0.0
 10
5.0087999403
 20
2.4761949724
 30
0.0
 10
5.0071144564
 20
2.4764357157
 30
0.0
 10
5.0059676683
 20
2.4765728456
 30
0.0
 10
5.0049415206
 20
2.4766633078
 30
0.0
 10
5.0040732349
 20
2.476700371
 30
0.0
 10
5.0034152617
 20
2.4766697903
 30
0.0
 10
5.0030418376
 20
2.4766014444
 30
0.0
 10
5.0029150233
 20
2.4765316176
 30
0.0
  0
SPLINE
  5
796
100
AcDbEntity
  8
0
100
AcDbSpline
 62
7
  6
CONTINUOUS
 70
0
 71
3
 72
14
 73
10
 74
0
 42
0.0000001
 43
0.0000001
 44
0.0000000001
 40
0.0
 40
0.0
 40
0.0
 40
0.0
 40
0.3288760233
 40
0.4822304916
 40
0.6252549782
 40
0.7537519592
 40
0.8622589284
 40
0.9456580661
 40
1.0
 40
1.0
 40
1.0
 40
1.0
 10
5.0196857701
 20
2.4629148415
 30
0.0
 10
5.0187940778
 20
2.4630328073
 30
0.0
 10
5.0174834988
 20
2.4631844924
 30
0.0
 10
5.0157795218
 20
2.4633285958
 30
0.0
 10
5.0146193421
 20
2.463400023
 30
0.0
 10
5.0135809475
 20
2.463431704
 30
0.0
 10
5.0127022627
 20
2.4634188771
 30
0.0
 10
5.0120357581
 20
2.463350463
 30
0.0
 10
5.0116599108
 20
2.4632604595
 30
0.0
 10
5.0115325225
 20
2.4631839026
 30
0.0
  0
SPLINE
  5
797
100
AcDbEntity
  8
0
100
AcDbSpline
 62
7
  6
CONTINUOUS
 70
0
 71
3
 72
14
 73
10
 74
0
 42
0.0000001
 43
0.0000001
 44
0.0000000001
 40
0.0
 40
0.0
 40
0.0
 40
0.0
 40
0.3274088024
 40
0.4803423152
 40
0.6231702972
 40
0.7517286448
 40
0.8606006798
 40
0.9446985337
 40
1.0
 40
1.0
 40
1.0
 40
1.0
 10
5.0291321341
 20
2.4505458037
 30
0.0
 10
5.0282323135
 20
2.4506128524
 30
0.0
 10
5.0269103024
 20
2.4506895935
 30
0.0
 10
5.0251934998
 20
2.4507362184
 30
0.0
 10
5.0240237789
 20
2.4507412813
 30
0.0
 10
5.0229765969
 20
2.4507135551
 30
0.0
 10
5.0220904434
 20
2.4506503216
 30
0.0
 10
5.0214177126
 20
2.4505435944
 30
0.0
 10
5.0210406407
 20
2.4504319888
 30
0.0
 10
5.0209130242
 20
2.4503486708
 30
0.0
  0
SPLINE
  5
798
100
AcDbEntity
  8
0
100
AcDbSpline
 62
7
  6
CONTINUOUS
 70
0
 71
3
 72
14
 73
10
 74
0
 42
0.0000001
 43
0.0000001
 44
0.0000000001
 40
0.0
 40
0.0
 40
0.0
 40
0.0
 40
0.325979558
 40
0.478505442
 40
0.6211455034
 40
0.7497675373
 40
0.8589981062
 40
0.9437752913
 40
1.0
 40
1.0
 40
1.0
 40
1.0
 10
5.0392831338
 20
2.43873479
 30
0.0
 10
5.0383781602
 20
2.4387504907
 30
0.0
 10
5.0370491057
 20
2.4387517138
 30
0.0
 10
5.0353251778
 20
2.4387003454
 30
0.0
 10
5.0341497996
 20
2.4386386031
 30
0.0
 10
5.0330973218
 20
2.438551045
 30
0.0
 10
5.0322066573
 20
2.4384370564
 30
0.0
 10
5.0315300246
 20
2.4382916846
 30
0.0
 10
5.0311529126
 20
2.4381585807
 30
0.0
 10
5.0310254192
 20
2.4380684886
 30
0.0
  0
SPLINE
  5
799
100
AcDbEntity
  8
0
100
AcDbSpline
 62
7
  6
CONTINUOUS
 70
0
 71
3
 72
14
 73
10
 74
0
 42
0.0000001
 43
0.0000001
 44
0.0000000001
 40
0.0
 40
0.0
 40
0.0
 40
0.0
 40
0.3245903698
 40
0.4767223301
 40
0.6191829984
 40
0.7478705391
 40
0.8574522146
 40
0.9428883602
 40
1.0
 40
1.0
 40
1.0
 40
1.0
 10
5.0501051047
 20
2.4275209702
 30
0.0
 10
5.0491979794
 20
2.4274850621
 30
0.0
 10
5.0478663012
 20
2.4274104454
 30
0.0
 10
5.0461409633
 20
2.427260894
 30
0.0
 10
5.0449638317
 20
2.4271321279
 30
0.0
 10
5.0439095693
 20
2.4269845159
 30
0.0
 10
5.0430173689
 20
2.4268195934
 30
0.0
 10
5.0423391677
 20
2.4266353919
 30
0.0
 10
5.041963186
 20
2.4264809423
 30
0.0
 10
5.041836171
 20
2.4263840815
 30
0.0
  0
LINE
  5
79A
100
AcDbEntity
  8
0
100
AcDbLine
 62
7
  6
CONTINUOUS
 10
5.041836171
 20
2.4263840815
 11
5.0417095128
 21
2.4261940258
  0
LINE
  5
79B
100
AcDbEntity
  8
0
100
AcDbLine
 62
7
  6
CONTINUOUS
 10
5.0615621572
 20
2.4169415334
 11
5.0559751517
 21
2.4161686147
  0
LINE
  5
79C
100
AcDbEntity
  8
0
100
AcDbLine
 62
7
  6
CONTINUOUS
 10
5.0559751517
 20
2.4161686147
 11
5.0549772368
 21
2.415952728
  0
LINE
  5
79D
100
AcDbEntity
  8
0
100
AcDbLine
 62
7
  6
CONTINUOUS
 10
5.0549772368
 20
2.415952728
 11
5.0533094272
 21
2.4153341993
  0
LINE
  5
79E
100
AcDbEntity
  8
0
100
AcDbLine
 62
7
  6
CONTINUOUS
 10
5.0533094272
 20
2.4153341993
 11
5.0531830172
 21
2.4151369376
  0
LINE
  5
79F
100
AcDbEntity
  8
0
100
AcDbLine
 62
7
  6
CONTINUOUS
 10
5.0736162955
 20
2.4070315648
 11
5.0680587884
 21
2.4059413123
  0
LINE
  5
7A0
100
AcDbEntity
  8
0
100
AcDbLine
 62
7
  6
CONTINUOUS
 10
5.0680587884
 20
2.4059413123
 11
5.0670661423
 21
2.4056687454
  0
LINE
  5
7A1
100
AcDbEntity
  8
0
100
AcDbLine
 62
7
  6
CONTINUOUS
 10
5.0670661423
 20
2.4056687454
 11
5.0654071384
 21
2.4049554876
  0
LINE
  5
7A2
100
AcDbEntity
  8
0
100
AcDbLine
 62
7
  6
CONTINUOUS
 10
5.0654071384
 20
2.4049554876
 11
5.0652813958
 21
2.404751046
  0
LINE
  5
7A3
100
AcDbEntity
  8
0
100
AcDbLine
 62
7
  6
CONTINUOUS
 10
5.062089328
 20
2.4073753141
 11
5.0619407844
 21
2.4105062267
  0
LINE
  5
7A4
100
AcDbEntity
  8
0
100
AcDbLine
 62
7
  6
CONTINUOUS
 10
5.0616306684
 20
2.4158200649
 11
5.0615621572
 21
2.4169415334
  0
LINE
  5
7A5
100
AcDbEntity
  8
0
100
AcDbLine
 62
7
  6
CONTINUOUS
 10
5.0862275437
 20
2.3978239297
 11
5.0807179656
 21
2.3964185479
  0
LINE
  5
7A6
100
AcDbEntity
  8
0
100
AcDbLine
 62
7
  6
CONTINUOUS
 10
5.0807179656
 20
2.3964185479
 11
5.0797338803
 21
2.3960896947
  0
LINE
  5
7A7
100
AcDbEntity
  8
0
100
AcDbLine
 62
7
  6
CONTINUOUS
 10
5.0797338803
 20
2.3960896947
 11
5.078089184
 21
2.3952823658
  0
LINE
  5
7A8
100
AcDbEntity
  8
0
100
AcDbLine
 62
7
  6
CONTINUOUS
 10
5.078089184
 20
2.3952823658
 11
5.0779645258
 21
2.3950707942
  0
LINE
  5
7A9
100
AcDbEntity
  8
0
100
AcDbLine
 62
7
  6
CONTINUOUS
 10
5.0746249292
 20
2.3975090768
 11
5.0742639474
 21
2.4013428194
  0
LINE
  5
7AA
100
AcDbEntity
  8
0
100
AcDbLine
 62
7
  6
CONTINUOUS
 10
5.0737473777
 20
2.4059157797
 11
5.0736162955
 21
2.4070315648
  0
LINE
  5
7AB
100
AcDbEntity
  8
0
100
AcDbLine
 62
7
  6
CONTINUOUS
 10
5.0993540783
 20
2.3893491638
 11
5.093910701
 21
2.3876319026
  0
LINE
  5
7AC
100
AcDbEntity
  8
0
100
AcDbLine
 62
7
  6
CONTINUOUS
 10
5.093910701
 20
2.3876319026
 11
5.09293844
 21
2.3872473435
  0
LINE
  5
7AD
100
AcDbEntity
  8
0
100
AcDbLine
 62
7
  6
CONTINUOUS
 10
5.09293844
 20
2.3872473435
 11
5.0913135057
 21
2.3863469137
  0
LINE
  5
7AE
100
AcDbEntity
  8
0
100
AcDbLine
 62
7
  6
CONTINUOUS
 10
5.0913135057
 20
2.3863469137
 11
5.0911903453
 21
2.3861282855
  0
LINE
  5
7AF
100
AcDbEntity
  8
0
100
AcDbLine
 62
7
  6
CONTINUOUS
 10
5.0877142953
 20
2.3883724963
 11
5.087182199
 21
2.392180809
  0
LINE
  5
7B0
100
AcDbEntity
  8
0
100
AcDbLine
 62
7
  6
CONTINUOUS
 10
5.1129523668
 20
2.3816353726
 11
5.1075932425
 21
2.3796105161
  0
LINE
  5
7B1
100
AcDbEntity
  8
0
100
AcDbLine
 62
7
  6
CONTINUOUS
 10
5.1075932425
 20
2.3796105161
 11
5.1066360303
 21
2.3791710163
  0
LINE
  5
7B2
100
AcDbEntity
  8
0
100
AcDbLine
 62
7
  6
CONTINUOUS
 10
5.1066360303
 20
2.3791710163
 11
5.1050362468
 21
2.3781787644
  0
LINE
  5
7B3
100
AcDbEntity
  8
0
100
AcDbLine
 62
7
  6
CONTINUOUS
 10
5.1050362468
 20
2.3781787644
 11
5.1049149928
 21
2.3779531767
  0
LINE
  5
7B4
100
AcDbEntity
  8
0
100
AcDbLine
 62
7
  6
CONTINUOUS
 10
5.1013140172
 20
2.379995873
 11
5.1004459728
 21
2.3845377542
  0
LINE
  5
7B5
100
AcDbEntity
  8
0
100
AcDbLine
 62
7
  6
CONTINUOUS
 10
5.1269773123
 20
2.3747081378
 11
5.121720214
 21
2.3723809902
  0
LINE
  5
7B6
100
AcDbEntity
  8
0
100
AcDbLine
 62
7
  6
CONTINUOUS
 10
5.121720214
 20
2.3723809902
 11
5.1207812249
 21
2.3718874972
  0
LINE
  5
7B7
100
AcDbEntity
  8
0
100
AcDbLine
 62
7
  6
CONTINUOUS
 10
5.1207812249
 20
2.3718874972
 11
5.1192118978
 21
2.3708050066
  0
LINE
  5
7B8
100
AcDbEntity
  8
0
100
AcDbLine
 62
7
  6
CONTINUOUS
 10
5.1192118978
 20
2.3708050066
 11
5.1190929522
 21
2.3705725793
  0
LINE
  5
7B9
100
AcDbEntity
  8
0
100
AcDbLine
 62
7
  6
CONTINUOUS
 10
5.1153789931
 20
2.3724069869
 11
5.1140760633
 21
2.3777179763
  0
LINE
  5
7BA
100
AcDbEntity
  8
0
100
AcDbLine
 62
7
  6
CONTINUOUS
 10
5.1413824031
 20
2.3685904328
 11
5.136244765
 21
2.3659673007
  0
LINE
  5
7BB
100
AcDbEntity
  8
0
100
AcDbLine
 62
7
  6
CONTINUOUS
 10
5.136244765
 20
2.3659673007
 11
5.1353271132
 21
2.3654209409
  0
LINE
  5
7BC
100
AcDbEntity
  8
0
100
AcDbLine
 62
7
  6
CONTINUOUS
 10
5.1353271132
 20
2.3654209409
 11
5.1337934469
 21
2.3642500942
  0
LINE
  5
7BD
100
AcDbEntity
  8
0
100
AcDbLine
 62
7
  6
CONTINUOUS
 10
5.1337934469
 20
2.3642500942
 11
5.1336772041
 21
2.3640109701
  0
LINE
  5
7BE
100
AcDbEntity
  8
0
100
AcDbLine
 62
7
  6
CONTINUOUS
 10
5.1298625784
 20
2.3656310054
 11
5.128313391
 21
2.3708607823
  0
LINE
  5
7BF
100
AcDbEntity
  8
0
100
AcDbLine
 62
7
  6
CONTINUOUS
 10
5.1561198664
 20
2.363302546
 11
5.151118727
 21
2.3603907178
  0
LINE
  5
7C0
100
AcDbEntity
  8
0
100
AcDbLine
 62
7
  6
CONTINUOUS
 10
5.151118727
 20
2.3603907178
 11
5.1495325385
 21
2.3592836709
  0
LINE
  5
7C1
100
AcDbEntity
  8
0
100
AcDbLine
 62
7
  6
CONTINUOUS
 10
5.1495325385
 20
2.3592836709
 11
5.1487325364
 21
2.3585357659
  0
LINE
  5
7C2
100
AcDbEntity
  8
0
100
AcDbLine
 62
7
  6
CONTINUOUS
 10
5.1487325364
 20
2.3585357659
 11
5.148619382
 21
2.3582901098
  0
SPLINE
  5
7C3
100
AcDbEntity
  8
0
100
AcDbSpline
 62
7
  6
CONTINUOUS
 70
0
 71
3
 72
14
 73
10
 74
0
 42
0.0000001
 43
0.0000001
 44
0.0000000001
 40
0.0
 40
0.0
 40
0.0
 40
0.0
 40
0.0447869783
 40
0.1210712128
 40
0.2251727879
 40
0.3520092898
 40
0.4967842064
 40
0.6552574027
 40
1.0
 40
1.0
 40
1.0
 40
1.0
 10
5.1447167404
 20
2.3596904001
 30
0.0
 10
5.1447167404
 20
2.3597853772
 30
0.0
 10
5.1446591124
 20
2.360038751
 30
0.0
 10
5.1445320622
 20
2.3604972577
 30
0.0
 10
5.1443270749
 20
2.361116711
 30
0.0
 10
5.1440623813
 20
2.361867896
 30
0.0
 10
5.1437453595
 20
2.3627232288
 30
0.0
 10
5.1432537817
 20
2.3640064206
 30
0.0
 10
5.1428589202
 20
2.3649978892
 30
0.0
 10
5.1425852297
 20
2.3656758007
 30
0.0
  0
LINE
  5
7C4
100
AcDbEntity
  8
0
100
AcDbLine
 62
7
  6
CONTINUOUS
 10
5.1711408275
 20
2.3588620141
 11
5.1662927723
 21
2.3556697355
  0
LINE
  5
7C5
100
AcDbEntity
  8
0
100
AcDbLine
 62
7
  6
CONTINUOUS
 10
5.1662927723
 20
2.3556697355
 11
5.1647551369
 21
2.3544737393
  0
LINE
  5
7C6
100
AcDbEntity
  8
0
100
AcDbLine
 62
7
  6
CONTINUOUS
 10
5.1647551369
 20
2.3544737393
 11
5.1639796227
 21
2.3536809724
  0
LINE
  5
7C7
100
AcDbEntity
  8
0
100
AcDbLine
 62
7
  6
CONTINUOUS
 10
5.1639796227
 20
2.3536809724
 11
5.163869932
 21
2.3534289709
  0
LINE
  5
7C8
100
AcDbEntity
  8
0
100
AcDbLine
 62
7
  6
CONTINUOUS
 10
5.0451050904
 20
2.8050773331
 11
5.0449308587
 21
2.8121622577
  0
LINE
  5
7C9
100
AcDbEntity
  8
0
100
AcDbLine
 62
7
  6
CONTINUOUS
 10
5.0345837884
 20
2.7935873293
 11
5.0339303704
 21
2.8006485704
  0
LINE
  5
7CA
100
AcDbEntity
  8
0
100
AcDbLine
 62
7
  6
CONTINUOUS
 10
5.0247490423
 20
2.7815176982
 11
5.023617638
 21
2.7885274235
  0
LINE
  5
7CB
100
AcDbEntity
  8
0
100
AcDbLine
 62
7
  6
CONTINUOUS
 10
5.0156334679
 20
2.7689084671
 11
5.0142138956
 21
2.7753169189
  0
LINE
  5
7CC
100
AcDbEntity
  8
0
100
AcDbLine
 62
7
  6
CONTINUOUS
 10
5.0142138956
 20
2.7753169189
 11
5.0140268984
 21
2.7758388491
  0
SPLINE
  5
7CD
100
AcDbEntity
  8
0
100
AcDbSpline
 62
7
  6
CONTINUOUS
 70
0
 71
3
 72
14
 73
10
 74
0
 42
0.0000001
 43
0.0000001
 44
0.0000000001
 40
0.0
 40
0.0
 40
0.0
 40
0.0
 40
0.0446491281
 40
0.1207229976
 40
0.2246669309
 40
0.3514303423
 40
0.4962238766
 40
0.6548051077
 40
1.0
 40
1.0
 40
1.0
 40
1.0
 10
5.159892217
 20
2.3546048724
 30
0.0
 10
5.159892217
 20
2.3546992891
 30
0.0
 10
5.1598270045
 20
2.3549502317
 30
0.0
 10
5.1596831488
 20
2.3554006936
 30
0.0
 10
5.1594512426
 20
2.3560079056
 30
0.0
 10
5.1591517816
 20
2.3567429114
 30
0.0
 10
5.1587931258
 20
2.3575789962
 30
0.0
 10
5.1582368641
 20
2.3588325773
 30
0.0
 10
5.1577902425
 20
2.3597998311
 30
0.0
 10
5.1574807017
 20
2.3604609128
 30
0.0
  0
LINE
  5
7CE
100
AcDbEntity
  8
0
100
AcDbLine
 62
7
  6
CONTINUOUS
 10
5.0072672957
 20
2.7558014529
 11
5.0052972005
 21
2.7624715985
  0
SPLINE
  5
7CF
100
AcDbEntity
  8
0
100
AcDbSpline
 62
7
  6
CONTINUOUS
 70
0
 71
3
 72
18
 73
14
 74
0
 42
0.0000001
 43
0.0000001
 44
0.0000000001
 40
0.0
 40
0.0
 40
0.0
 40
0.0
 40
0.1832008477
 40
0.3569492776
 40
0.5188841551
 40
0.6664618996
 40
0.7947415315
 40
0.8495841778
 40
0.8971286163
 40
0.9365623177
 40
0.9671800623
 40
0.9884330713
 40
1.0
 40
1.0
 40
1.0
 40
1.0
 10
4.9996782709
 20
2.7422401231
 30
0.0
 10
4.9995393474
 20
2.742654697
 30
0.0
 10
4.9992663924
 20
2.7434616951
 30
0.0
 10
4.9988622505
 20
2.7446322818
 30
0.0
 10
4.9984780028
 20
2.7457197746
 30
0.0
 10
4.9981215115
 20
2.7467019157
 30
0.0
 10
4.9978436847
 20
2.7474407464
 30
0.0
 10
4.9976416701
 20
2.7479527907
 30
0.0
 10
4.9975129748
 20
2.7482660455
 30
0.0
 10
4.9974005089
 20
2.7485226976
 30
0.0
 10
4.9973069662
 20
2.7487208919
 30
0.0
 10
4.9972328993
 20
2.7488503319
 30
0.0
 10
4.9971878147
 20
2.7489186847
 30
0.0
 10
4.9971642073
 20
2.7489329947
 30
0.0
  0
LINE
  5
7D0
100
AcDbEntity
  8
0
100
AcDbLine
 62
7
  6
CONTINUOUS
 10
5.1863954714
 20
2.3552835634
 11
5.1817165784
 21
2.3518200102
  0
LINE
  5
7D1
100
AcDbEntity
  8
0
100
AcDbLine
 62
7
  6
CONTINUOUS
 10
5.1817165784
 20
2.3518200102
 11
5.1797742931
 21
2.3500697238
  0
LINE
  5
7D2
100
AcDbEntity
  8
0
100
AcDbLine
 62
7
  6
CONTINUOUS
 10
5.1797742931
 20
2.3500697238
 11
5.1793782777
 21
2.3494436748
  0
SPLINE
  5
7D3
100
AcDbEntity
  8
0
100
AcDbSpline
 62
7
  6
CONTINUOUS
 70
0
 71
3
 72
17
 73
13
 74
0
 42
0.0000001
 43
0.0000001
 44
0.0000000001
 40
0.0
 40
0.0
 40
0.0
 40
0.0
 40
0.182652881
 40
0.355960074
 40
0.5175707558
 40
0.6649536289
 40
0.7931959402
 40
0.8957467488
 40
0.9353626389
 40
0.966245501
 40
0.9878714933
 40
1.0
 40
1.0
 40
1.0
 40
1.0
 10
4.9928915617
 20
2.7282694522
 30
0.0
 10
4.9927277771
 20
2.7286754907
 30
0.0
 10
4.9924059626
 20
2.7294657351
 30
0.0
 10
4.9919295914
 20
2.730611295
 30
0.0
 10
4.9914766124
 20
2.731674946
 30
0.0
 10
4.9910564849
 20
2.7326352323
 30
0.0
 10
4.9906814398
 20
2.7334603289
 30
0.0
 10
4.9904005537
 20
2.7340451316
 30
0.0
 10
4.9902066296
 20
2.7344111958
 30
0.0
 10
4.9900958114
 20
2.7346036416
 30
0.0
 10
4.9900089482
 20
2.7347292364
 30
0.0
 10
4.9899545961
 20
2.7347941721
 30
0.0
 10
4.9899282003
 20
2.7348063571
 30
0.0
  0
SPLINE
  5
7D4
100
AcDbEntity
  8
0
100
AcDbSpline
 62
7
  6
CONTINUOUS
 70
0
 71
3
 72
14
 73
10
 74
0
 42
0.0000001
 43
0.0000001
 44
0.0000000001
 40
0.0
 40
0.0
 40
0.0
 40
0.0
 40
0.0450129085
 40
0.1197951095
 40
0.2217779735
 40
0.3468561201
 40
0.4907567463
 40
0.6497735371
 40
1.0
 40
1.0
 40
1.0
 40
1.0
 10
5.175338681
 20
2.3503912877
 30
0.0
 10
5.175338681
 20
2.3504724569
 30
0.0
 10
5.1752815524
 20
2.3506846636
 30
0.0
 10
5.1751501748
 20
2.3510603841
 30
0.0
 10
5.1749384866
 20
2.3515630651
 30
0.0
 10
5.1746622316
 20
2.3521719403
 30
0.0
 10
5.1743283774
 20
2.3528679614
 30
0.0
 10
5.1738035304
 20
2.3539223046
 30
0.0
 10
5.1733797973
 20
2.3547370944
 30
0.0
 10
5.1730847253
 20
2.3552954667
 30
0.0
  0
SPLINE
  5
7D5
100
AcDbEntity
  8
0
100
AcDbSpline
 62
7
  6
CONTINUOUS
 70
0
 71
3
 72
16
 73
12
 74
0
 42
0.0000001
 43
0.0000001
 44
0.0000000001
 40
0.0
 40
0.0
 40
0.0
 40
0.0
 40
0.3617853675
 40
0.5246219885
 40
0.6714114952
 40
0.7971009547
 40
0.89660101
 40
0.9350128321
 40
0.9652218491
 40
0.9868874341
 40
1.0
 40
1.0
 40
1.0
 40
1.0
 10
4.9862492083
 20
2.7153510783
 30
0.0
 10
4.9859505069
 20
2.7159643753
 30
0.0
 10
4.9855113159
 20
2.7168508224
 30
0.0
 10
4.984932668
 20
2.7179768316
 30
0.0
 10
4.9845486784
 20
2.7187023773
 30
0.0
 10
4.9842091747
 20
2.7193160338
 30
0.0
 10
4.9839562463
 20
2.7197443937
 30
0.0
 10
4.9837819315
 20
2.7200088814
 30
0.0
 10
4.9836813234
 20
2.720147085
 30
0.0
 10
4.9836015625
 20
2.7202386315
 30
0.0
 10
4.9835501893
 20
2.7202832616
 30
0.0
 10
4.9835268435
 20
2.7202914031
 30
0.0
  0
LINE
  5
7D6
100
AcDbEntity
  8
0
100
AcDbLine
 62
7
  6
CONTINUOUS
 10
5.201833208
 20
2.3525790615
 11
5.1973389941
 21
2.3488543091
  0
LINE
  5
7D7
100
AcDbEntity
  8
0
100
AcDbLine
 62
7
  6
CONTINUOUS
 10
5.1973389941
 20
2.3488543091
 11
5.1951946725
 21
2.3466114871
  0
LINE
  5
7D8
100
AcDbEntity
  8
0
100
AcDbLine
 62
7
  6
CONTINUOUS
 10
5.1951946725
 20
2.3466114871
 11
5.1950929877
 21
2.346347438
  0
SPLINE
  5
7D9
100
AcDbEntity
  8
0
100
AcDbSpline
 62
7
  6
CONTINUOUS
 70
0
 71
3
 72
15
 73
11
 74
0
 42
0.0000001
 43
0.0000001
 44
0.0000000001
 40
0.0
 40
0.0
 40
0.0
 40
0.0
 40
0.3604168556
 40
0.5228050977
 40
0.669334256
 40
0.7949966744
 40
0.8947614358
 40
0.9640003783
 40
0.9861779085
 40
1.0
 40
1.0
 40
1.0
 40
1.0
 10
4.9810462918
 20
2.7006607346
 30
0.0
 10
4.980709818
 20
2.7012562802
 30
0.0
 10
4.9802151334
 20
2.702116449
 30
0.0
 10
4.9795638904
 20
2.7032072194
 30
0.0
 10
4.9791314104
 20
2.7039093862
 30
0.0
 10
4.9787492628
 20
2.7045035129
 30
0.0
 10
4.9784309287
 20
2.7049622019
 30
0.0
 10
4.9782068954
 20
2.7052507074
 30
0.0
 10
4.9780646717
 20
2.705389071
 30
0.0
 10
4.9780067794
 20
2.7054297639
 30
0.0
 10
4.9779813664
 20
2.7054362695
 30
0.0
  0
SPLINE
  5
7DA
100
AcDbEntity
  8
0
100
AcDbSpline
 62
7
  6
CONTINUOUS
 70
0
 71
3
 72
14
 73
10
 74
0
 42
0.0000001
 43
0.0000001
 44
0.0000000001
 40
0.0
 40
0.0
 40
0.0
 40
0.0
 40
0.0448595353
 40
0.1193820227
 40
0.22116266
 40
0.3461411889
 40
0.4900568371
 40
0.6492026922
 40
1.0
 40
1.0
 40
1.0
 40
1.0
 10
5.1910049061
 20
2.3470636197
 30
0.0
 10
5.1910049061
 20
2.3471441968
 30
0.0
 10
5.1909421895
 20
2.3473540127
 30
0.0
 10
5.1907977549
 20
2.3477216343
 30
0.0
 10
5.1905653221
 20
2.3482118619
 30
0.0
 10
5.1902619813
 20
2.3488041264
 30
0.0
 10
5.1898954085
 20
2.3494801929
 30
0.0
 10
5.1893189519
 20
2.3505034261
 30
0.0
 10
5.1888538199
 20
2.3512926391
 30
0.0
 10
5.1885299598
 20
2.3518331458
 30
0.0
  0
LINE
  5
7DB
100
AcDbEntity
  8
0
100
AcDbLine
 62
7
  6
CONTINUOUS
 10
5.2174028402
 20
2.3507574774
 11
5.2131082099
 21
2.3467824675
  0
LINE
  5
7DC
100
AcDbEntity
  8
0
100
AcDbLine
 62
7
  6
CONTINUOUS
 10
5.2131082099
 20
2.3467824675
 11
5.2110591155
 21
2.3444202403
  0
LINE
  5
7DD
100
AcDbEntity
  8
0
100
AcDbLine
 62
7
  6
CONTINUOUS
 10
5.2110591155
 20
2.3444202403
 11
5.2109619464
 21
2.3441505289
  0
SPLINE
  5
7DE
100
AcDbEntity
  8
0
100
AcDbSpline
 62
7
  6
CONTINUOUS
 70
0
 71
3
 72
17
 73
13
 74
0
 42
0.0000001
 43
0.0000001
 44
0.0000000001
 40
0.0
 40
0.0
 40
0.0
 40
0.0
 40
0.18061822
 40
0.3522969564
 40
0.5127232867
 40
0.6594109301
 40
0.7875512296
 40
0.8907625704
 40
0.9310734688
 40
0.9629503805
 40
0.9859415585
 40
1.0
 40
1.0
 40
1.0
 40
1.0
 10
4.9775566564
 20
2.684370573
 30
0.0
 10
4.9773217655
 20
2.684742793
 30
0.0
 10
4.9768601837
 20
2.6854666552
 30
0.0
 10
4.9761774565
 20
2.6865130899
 30
0.0
 10
4.9755282362
 20
2.6874825364
 30
0.0
 10
4.9749258647
 20
2.6883556605
 30
0.0
 10
4.9743879793
 20
2.689103417
 30
0.0
 10
4.9739851027
 20
2.6896294684
 30
0.0
 10
4.9737081146
 20
2.68995457
 30
0.0
 10
4.9735481011
 20
2.6901238771
 30
0.0
 10
4.9734231362
 20
2.6902337193
 30
0.0
 10
4.9733438947
 20
2.6902842576
 30
0.0
 10
4.9733101596
 20
2.6902902214
 30
0.0
  0
SPLINE
  5
7DF
100
AcDbEntity
  8
0
100
AcDbSpline
 62
7
  6
CONTINUOUS
 70
0
 71
3
 72
13
 73
9
 74
0
 42
0.0000001
 43
0.0000001
 44
0.0000000001
 40
0.0
 40
0.0
 40
0.0
 40
0.0
 40
0.0455831559
 40
0.1191186705
 40
0.2190742875
 40
0.3423322512
 40
0.6444751277
 40
1.0
 40
1.0
 40
1.0
 40
1.0
 10
5.2068389374
 20
2.3446329043
 30
0.0
 10
5.2068389374
 20
2.3447015649
 30
0.0
 10
5.2067864296
 20
2.3448772921
 30
0.0
 10
5.2066598165
 20
2.345180148
 30
0.0
 10
5.2064565006
 20
2.345579492
 30
0.0
 10
5.2060714205
 20
2.3462704064
 30
0.0
 10
5.2054570849
 20
2.3472743084
 30
0.0
 10
5.2049176593
 20
2.3481051246
 30
0.0
 10
5.2046219289
 20
2.3485515795
 30
0.0
  0
SPLINE
  5
7E0
100
AcDbEntity
  8
0
100
AcDbSpline
 62
7
  6
CONTINUOUS
 70
0
 71
3
 72
16
 73
12
 74
0
 42
0.0000001
 43
0.0000001
 44
0.0000000001
 40
0.0
 40
0.0
 40
0.0
 40
0.0
 40
0.3508906389
 40
0.5108708229
 40
0.6573034641
 40
0.7854194387
 40
0.8889006149
 40
0.9294851014
 40
0.9617465008
 40
0.9852531149
 40
1.0
 40
1.0
 40
1.0
 40
1.0
 10
4.9741766085
 20
2.6692371032
 30
0.0
 10
4.9736748187
 20
2.6699362515
 30
0.0
 10
4.972934337
 20
2.6709471745
 30
0.0
 10
4.9719561105
 20
2.6722285524
 30
0.0
 10
4.9712966637
 20
2.6730658754
 30
0.0
 10
4.9707077166
 20
2.6737818279
 30
0.0
 10
4.9702667014
 20
2.6742837593
 30
0.0
 10
4.9699638087
 20
2.674592082
 30
0.0
 10
4.9697884255
 20
2.6747518531
 30
0.0
 10
4.9696511358
 20
2.6748548182
 30
0.0
 10
4.9695646769
 20
2.6748996398
 30
0.0
 10
4.9695287146
 20
2.6749034887
 30
0.0
  0
LINE
  5
7E1
100
AcDbEntity
  8
0
100
AcDbLine
 62
7
  6
CONTINUOUS
 10
5.2330527334
 20
2.3498248522
 11
5.2289719291
 21
2.3456113563
  0
LINE
  5
7E2
100
AcDbEntity
  8
0
100
AcDbLine
 62
7
  6
CONTINUOUS
 10
5.2289719291
 20
2.3456113563
 11
5.2270248575
 21
2.3431353405
  0
LINE
  5
7E3
100
AcDbEntity
  8
0
100
AcDbLine
 62
7
  6
CONTINUOUS
 10
5.2270248575
 20
2.3431353405
 11
5.2269325264
 21
2.3428602333
  0
SPLINE
  5
7E4
100
AcDbEntity
  8
0
100
AcDbSpline
 62
7
  6
CONTINUOUS
 70
0
 71
3
 72
16
 73
12
 74
0
 42
0.0000001
 43
0.0000001
 44
0.0000000001
 40
0.0
 40
0.0
 40
0.0
 40
0.0
 40
0.3494201089
 40
0.508935391
 40
0.6551056481
 40
0.7832029643
 40
0.8869748539
 40
0.9278493193
 40
0.9605147555
 40
0.9845565198
 40
1.0
 40
1.0
 40
1.0
 40
1.0
 10
4.971683449
 20
2.6539363971
 30
0.0
 10
4.9711395982
 20
2.6546062627
 30
0.0
 10
4.9703371937
 20
2.6555737417
 30
0.0
 10
4.9692781434
 20
2.6567966068
 30
0.0
 10
4.9685637913
 20
2.6575949455
 30
0.0
 10
4.9679256799
 20
2.6582762329
 30
0.0
 10
4.9674480014
 20
2.6587519057
 30
0.0
 10
4.96712026
 20
2.6590419831
 30
0.0
 10
4.9669300928
 20
2.659191364
 30
0.0
 10
4.9667808307
 20
2.6592866267
 30
0.0
 10
4.9666876705
 20
2.6593254211
 30
0.0
 10
4.9666495721
 20
2.6593270994
 30
0.0
  0
SPLINE
  5
7E5
100
AcDbEntity
  8
0
100
AcDbSpline
 62
7
  6
CONTINUOUS
 70
0
 71
3
 72
13
 73
9
 74
0
 42
0.0000001
 43
0.0000001
 44
0.0000000001
 40
0.0
 40
0.0
 40
0.0
 40
0.0
 40
0.045427116
 40
0.1186575544
 40
0.2183648317
 40
0.3414932372
 40
0.643788021
 40
1.0
 40
1.0
 40
1.0
 40
1.0
 10
5.2227882634
 20
2.3431072026
 30
0.0
 10
5.2227882634
 20
2.343175276
 30
0.0
 10
5.2227318268
 20
2.3433487961
 30
0.0
 10
5.2225953769
 20
2.343644033
 30
0.0
 10
5.2223766445
 20
2.3440315335
 30
0.0
 10
5.2219621097
 20
2.3446999462
 30
0.0
 10
5.2213010015
 20
2.3456677756
 30
0.0
 10
5.2207210776
 20
2.3464660948
 30
0.0
 10
5.2204030908
 20
2.3468948332
 30
0.0
  0
LINE
  5
7E6
100
AcDbEntity
  8
0
100
AcDbLine
 62
7
  6
CONTINUOUS
 10
5.2476418064
 20
2.3485792637
 11
5.2441892646
 21
2.3444740862
  0
LINE
  5
7E7
100
AcDbEntity
  8
0
100
AcDbLine
 62
7
  6
CONTINUOUS
 10
5.2441892646
 20
2.3444740862
 11
5.2430389503
 21
2.342761049
  0
LINE
  5
7E8
100
AcDbEntity
  8
0
100
AcDbLine
 62
7
  6
CONTINUOUS
 10
5.2430389503
 20
2.342761049
 11
5.2429517634
 21
2.3424808301
  0
SPLINE
  5
7E9
100
AcDbEntity
  8
0
100
AcDbSpline
 62
7
  6
CONTINUOUS
 70
0
 71
3
 72
15
 73
11
 74
0
 42
0.0000001
 43
0.0000001
 44
0.0000000001
 40
0.0
 40
0.0
 40
0.0
 40
0.0
 40
0.347908788
 40
0.5069518468
 40
0.6528615481
 40
0.7809522098
 40
0.8850381053
 40
0.9592652853
 40
0.9838574841
 40
1.0
 40
1.0
 40
1.0
 40
1.0
 10
4.9700854461
 20
2.6385191973
 30
0.0
 10
4.9695012512
 20
2.6391574434
 30
0.0
 10
4.9686394949
 20
2.640077977
 30
0.0
 10
4.9675032224
 20
2.6412379435
 30
0.0
 10
4.9667363114
 20
2.6419939221
 30
0.0
 10
4.9660510934
 20
2.6426387488
 30
0.0
 10
4.9654763843
 20
2.6431375995
 30
0.0
 10
4.9650721353
 20
2.6434451135
 30
0.0
 10
4.9648217998
 20
2.6435808146
 30
0.0
 10
4.9647224225
 20
2.643613271
 30
0.0
 10
4.9646822804
 20
2.6436127106
 30
0.0
  0
SPLINE
  5
7EA
100
AcDbEntity
  8
0
100
AcDbSpline
 62
7
  6
CONTINUOUS
 70
0
 71
3
 72
13
 73
9
 74
0
 42
0.0000001
 43
0.0000001
 44
0.0000000001
 40
0.0
 40
0.0
 40
0.0
 40
0.0
 40
0.046614536
 40
0.1192470823
 40
0.2173310762
 40
0.3387385516
 40
0.6397198752
 40
1.0
 40
1.0
 40
1.0
 40
1.0
 10
5.2387999903
 20
2.3424915744
 30
0.0
 10
5.2387999903
 20
2.3425490545
 30
0.0
 10
5.2387546596
 20
2.3426929632
 30
0.0
 10
5.238639293
 20
2.3429334038
 30
0.0
 10
5.2384550005
 20
2.3432440878
 30
0.0
 10
5.2381008868
 20
2.3437790755
 30
0.0
 10
5.2375277513
 20
2.3445564554
 30
0.0
 10
5.2370223558
 20
2.3451963038
 30
0.0
 10
5.2367430937
 20
2.3455418165
 30
0.0
  0
LINE
  5
7EB
100
AcDbEntity
  8
0
100
AcDbLine
 62
7
  6
CONTINUOUS
 10
5.2367430937
 20
2.3455418165
 11
5.2344899056
 21
2.3482100798
  0
LINE
  5
7EC
100
AcDbEntity
  8
0
100
AcDbLine
 62
7
  6
CONTINUOUS
 10
4.9682357223
 20
2.6241383347
 11
4.9654926627
 21
2.6265843688
  0
SPLINE
  5
7ED
100
AcDbEntity
  8
0
100
AcDbSpline
 62
7
  6
CONTINUOUS
 70
0
 71
3
 72
12
 73
8
 74
0
 42
0.0000001
 43
0.0000001
 44
0.0000000001
 40
0.0
 40
0.0
 40
0.0
 40
0.0
 40
0.3667578999
 40
0.6639088488
 40
0.8774905252
 40
0.9500944999
 40
1.0
 40
1.0
 40
1.0
 40
1.0
 10
4.9654926627
 20
2.6265843688
 30
0.0
 10
4.9652811669
 20
2.6267596753
 30
0.0
 10
4.9648942527
 20
2.6270726694
 30
0.0
 10
4.9643657404
 20
2.6274623107
 30
0.0
 10
4.9639937808
 20
2.6276964959
 30
0.0
 10
4.9637625649
 20
2.62779493
 30
0.0
 10
4.9636706218
 20
2.6278150358
 30
0.0
 10
4.9636333302
 20
2.6278124725
 30
0.0
  0
LINE
  5
7EE
100
AcDbEntity
  8
0
100
AcDbLine
 62
7
  6
CONTINUOUS
 10
5.2633317276
 20
2.349329887
 11
5.2601269144
 21
2.3450751122
  0
LINE
  5
7EF
100
AcDbEntity
  8
0
100
AcDbLine
 62
7
  6
CONTINUOUS
 10
5.2601269144
 20
2.3450751122
 11
5.2590482854
 21
2.3432986071
  0
LINE
  5
7F0
100
AcDbEntity
  8
0
100
AcDbLine
 62
7
  6
CONTINUOUS
 10
5.2590482854
 20
2.3432986071
 11
5.2589665317
 21
2.3430135777
  0
SPLINE
  5
7F1
100
AcDbEntity
  8
0
100
AcDbSpline
 62
7
  6
CONTINUOUS
 70
0
 71
3
 72
13
 73
9
 74
0
 42
0.0000001
 43
0.0000001
 44
0.0000000001
 40
0.0
 40
0.0
 40
0.0
 40
0.0
 40
0.0464725553
 40
0.1187598603
 40
0.2165470166
 40
0.3377896629
 40
0.638921492
 40
1.0
 40
1.0
 40
1.0
 40
1.0
 10
5.2548210174
 20
2.3427880613
 30
0.0
 10
5.2548210174
 20
2.3428449887
 30
0.0
 10
5.2547730839
 20
2.3429869562
 30
0.0
 10
5.2546505615
 20
2.3432206236
 30
0.0
 10
5.2544552709
 20
2.3435206485
 30
0.0
 10
5.2540797613
 20
2.3440351276
 30
0.0
 10
5.2534722445
 20
2.3447791056
 30
0.0
 10
5.2529371671
 20
2.3453887549
 30
0.0
 10
5.2526414449
 20
2.3457176722
 30
0.0
  0
LINE
  5
7F2
100
AcDbEntity
  8
0
100
AcDbLine
 62
7
  6
CONTINUOUS
 10
5.2526414449
 20
2.3457176722
 11
5.2495224481
 21
2.3489968082
  0
LINE
  5
7F3
100
AcDbEntity
  8
0
100
AcDbLine
 62
7
  6
CONTINUOUS
 10
5.2789718375
 20
2.350995329
 11
5.2760031364
 21
2.3465820208
  0
LINE
  5
7F4
100
AcDbEntity
  8
0
100
AcDbLine
 62
7
  6
CONTINUOUS
 10
5.2760031364
 20
2.3465820208
 11
5.2749997698
 21
2.3447462321
  0
LINE
  5
7F5
100
AcDbEntity
  8
0
100
AcDbLine
 62
7
  6
CONTINUOUS
 10
5.2749997698
 20
2.3447462321
 11
5.2749237206
 21
2.3444567093
  0
SPLINE
  5
7F6
100
AcDbEntity
  8
0
100
AcDbSpline
 62
7
  6
CONTINUOUS
 70
0
 71
3
 72
13
 73
9
 74
0
 42
0.0000001
 43
0.0000001
 44
0.0000000001
 40
0.0
 40
0.0
 40
0.0
 40
0.0
 40
0.0463193192
 40
0.1182312957
 40
0.2156963064
 40
0.3367606288
 40
0.638056734
 40
1.0
 40
1.0
 40
1.0
 40
1.0
 10
5.270798213
 20
2.34399568
 30
0.0
 10
5.270798213
 20
2.3440520176
 30
0.0
 10
5.2707478584
 20
2.3441919436
 30
0.0
 10
5.270618526
 20
2.3444184465
 30
0.0
 10
5.2704128855
 20
2.3447072078
 30
0.0
 10
5.270017171
 20
2.3452000008
 30
0.0
 10
5.2693772552
 20
2.3459086727
 30
0.0
 10
5.2688143583
 20
2.3464864699
 30
0.0
 10
5.2685031929
 20
2.3467978794
 30
0.0
  0
LINE
  5
7F7
100
AcDbEntity
  8
0
100
AcDbLine
 62
7
  6
CONTINUOUS
 10
5.2685031929
 20
2.3467978794
 11
5.265218989
 21
2.3498946877
  0
LINE
  5
7F8
100
AcDbEntity
  8
0
100
AcDbLine
 62
7
  6
CONTINUOUS
 10
5.2954165234
 20
2.3550014304
 11
5.2913360574
 21
2.3481865861
  0
LINE
  5
7F9
100
AcDbEntity
  8
0
100
AcDbLine
 62
7
  6
CONTINUOUS
 10
5.2913360574
 20
2.3481865861
 11
5.2908405027
 21
2.347099123
  0
LINE
  5
7FA
100
AcDbEntity
  8
0
100
AcDbLine
 62
7
  6
CONTINUOUS
 10
5.2908405027
 20
2.347099123
 11
5.2907704101
 21
2.3468054389
  0
SPLINE
  5
7FB
100
AcDbEntity
  8
0
100
AcDbSpline
 62
7
  6
CONTINUOUS
 70
0
 71
3
 72
13
 73
9
 74
0
 42
0.0000001
 43
0.0000001
 44
0.0000000001
 40
0.0
 40
0.0
 40
0.0
 40
0.0
 40
0.0461546208
 40
0.1176600461
 40
0.2147767894
 40
0.3356489902
 40
0.6371238075
 40
1.0
 40
1.0
 40
1.0
 40
1.0
 10
5.286678591
 20
2.3461104258
 30
0.0
 10
5.286678591
 20
2.3461661371
 30
0.0
 10
5.2866260068
 20
2.3463039296
 30
0.0
 10
5.2864902281
 20
2.3465228986
 30
0.0
 10
5.2862749212
 20
2.3467998277
 30
0.0
 10
5.2858602575
 20
2.3472698245
 30
0.0
 10
5.2851900329
 20
2.3479413984
 30
0.0
 10
5.2846012742
 20
2.3484858047
 30
0.0
 10
5.2842757343
 20
2.3487788556
 30
0.0
  0
LINE
  5
7FC
100
AcDbEntity
  8
0
100
AcDbLine
 62
7
  6
CONTINUOUS
 10
5.2842757343
 20
2.3487788556
 11
5.2808372149
 21
2.3516842381
  0
SPLINE
  5
7FD
100
AcDbEntity
  8
0
100
AcDbSpline
 62
7
  6
CONTINUOUS
 70
0
 71
3
 72
12
 73
8
 74
0
 42
0.0000001
 43
0.0000001
 44
0.0000000001
 40
0.0
 40
0.0
 40
0.0
 40
0.0
 40
0.3076148335
 40
0.5956216109
 40
0.8393993142
 40
0.9327588098
 40
1.0
 40
1.0
 40
1.0
 40
1.0
 10
5.3106899129
 20
2.3585008782
 30
0.0
 10
5.3102256472
 20
2.3576838618
 30
0.0
 10
5.3093393685
 20
2.3560945693
 30
0.0
 10
5.3081319984
 20
2.353832552
 30
0.0
 10
5.307267707
 20
2.3521285557
 30
0.0
 10
5.3067605774
 20
2.3510023154
 30
0.0
 10
5.3065793445
 20
2.3505454979
 30
0.0
 10
5.3065179503
 20
2.3503494768
 30
0.0
  0
LINE
  5
7FE
100
AcDbEntity
  8
0
100
AcDbLine
 62
7
  6
CONTINUOUS
 10
5.3065179503
 20
2.3503494768
 11
5.3064540468
 21
2.3500519773
  0
SPLINE
  5
7FF
100
AcDbEntity
  8
0
100
AcDbSpline
 62
7
  6
CONTINUOUS
 70
0
 71
3
 72
13
 73
9
 74
0
 42
0.0000001
 43
0.0000001
 44
0.0000000001
 40
0.0
 40
0.0
 40
0.0
 40
0.0
 40
0.045978229
 40
0.117044619
 40
0.2137860795
 40
0.3344520368
 40
0.6361207454
 40
1.0
 40
1.0
 40
1.0
 40
1.0
 10
5.3024094861
 20
2.3491252852
 30
0.0
 10
5.3024094861
 20
2.3491803346
 30
0.0
 10
5.3023548734
 20
2.3493159106
 30
0.0
 10
5.3022130283
 20
2.349526999
 30
0.0
 10
5.3019887715
 20
2.3497915653
 30
0.0
 10
5.3015564752
 20
2.3502377262
 30
0.0
 10
5.3008581344
 20
2.3508705286
 30
0.0
 10
5.3002455592
 20
2.3513801251
 30
0.0
 10
5.2999067616
 20
2.3516540313
 30
0.0
  0
LINE
  5
800
100
AcDbEntity
  8
0
100
AcDbLine
 62
7
  6
CONTINUOUS
 10
5.2999067616
 20
2.3516540313
 11
5.2963253301
 21
2.3543595245
  0
SPLINE
  5
801
100
AcDbEntity
  8
0
100
AcDbSpline
 62
7
  6
CONTINUOUS
 70
0
 71
3
 72
12
 73
8
 74
0
 42
0.0000001
 43
0.0000001
 44
0.0000000001
 40
0.0
 40
0.0
 40
0.0
 40
0.0
 40
0.3071503991
 40
0.5949877562
 40
0.8389271059
 40
0.9324986255
 40
1.0
 40
1.0
 40
1.0
 40
1.0
 10
5.3257341892
 20
2.362863605
 30
0.0
 10
5.3253162426
 20
2.3620211002
 30
0.0
 10
5.3245183944
 20
2.3603831175
 30
0.0
 10
5.3234318869
 20
2.3580556029
 30
0.0
 10
5.3226542998
 20
2.3563049986
 30
0.0
 10
5.3221982294
 20
2.3551519156
 30
0.0
 10
5.3220353194
 20
2.3546856919
 30
0.0
 10
5.3219801205
 20
2.3544865142
 30
0.0
  0
LINE
  5
802
100
AcDbEntity
  8
0
100
AcDbLine
 62
7
  6
CONTINUOUS
 10
5.3219801205
 20
2.3544865142
 11
5.321922618
 21
2.3541855577
  0
LINE
  5
803
100
AcDbEntity
  8
0
100
AcDbLine
 62
7
  6
CONTINUOUS
 10
5.317938729
 20
2.3530302599
 11
5.3178165191
 21
2.3533049915
  0
LINE
  5
804
100
AcDbEntity
  8
0
100
AcDbLine
 62
7
  6
CONTINUOUS
 10
5.3178165191
 20
2.3533049915
 11
5.3153444366
 21
2.3554138713
  0
LINE
  5
805
100
AcDbEntity
  8
0
100
AcDbLine
 62
7
  6
CONTINUOUS
 10
5.3153444366
 20
2.3554138713
 11
5.3116319703
 21
2.3579116747
  0
SPLINE
  5
806
100
AcDbEntity
  8
0
100
AcDbSpline
 62
7
  6
CONTINUOUS
 70
0
 71
3
 72
12
 73
8
 74
0
 42
0.0000001
 43
0.0000001
 44
0.0000000001
 40
0.0
 40
0.0
 40
0.0
 40
0.0
 40
0.3067387973
 40
0.5944264646
 40
0.8385094506
 40
0.9322686774
 40
1.0
 40
1.0
 40
1.0
 40
1.0
 10
5.34049946
 20
2.3680751424
 30
0.0
 10
5.340129278
 20
2.3672098584
 30
0.0
 10
5.3394226184
 20
2.3655283646
 30
0.0
 10
5.3384606031
 20
2.3631423583
 30
0.0
 10
5.3377722585
 20
2.3613501524
 30
0.0
 10
5.3373686744
 20
2.3601731223
 30
0.0
 10
5.337224571
 20
2.3596985105
 30
0.0
 10
5.337175735
 20
2.3594965152
 30
0.0
  0
LINE
  5
807
100
AcDbEntity
  8
0
100
AcDbLine
 62
7
  6
CONTINUOUS
 10
5.337175735
 20
2.3594965152
 11
5.3371248243
 21
2.3591924717
  0
LINE
  5
808
100
AcDbEntity
  8
0
100
AcDbLine
 62
7
  6
CONTINUOUS
 10
5.3332148189
 20
2.3578123996
 11
5.3327042736
 21
2.3584773973
  0
LINE
  5
809
100
AcDbEntity
  8
0
100
AcDbLine
 62
7
  6
CONTINUOUS
 10
5.3327042736
 20
2.3584773973
 11
5.3305375624
 21
2.3600459065
  0
LINE
  5
80A
100
AcDbEntity
  8
0
100
AcDbLine
 62
7
  6
CONTINUOUS
 10
5.3305375624
 20
2.3600459065
 11
5.3267063732
 21
2.3623289085
  0
LINE
  5
80B
100
AcDbEntity
  8
0
100
AcDbLine
 62
7
  6
CONTINUOUS
 10
5.3549367582
 20
2.3741182068
 11
5.3520543996
 21
2.3653628649
  0
LINE
  5
80C
100
AcDbEntity
  8
0
100
AcDbLine
 62
7
  6
CONTINUOUS
 10
5.3520543996
 20
2.3653628649
 11
5.3520102494
 21
2.3650561145
  0
LINE
  5
80D
100
AcDbEntity
  8
0
100
AcDbLine
 62
7
  6
CONTINUOUS
 10
5.3481870949
 20
2.3634558449
 11
5.3473573038
 21
2.3643251539
  0
LINE
  5
80E
100
AcDbEntity
  8
0
100
AcDbLine
 62
7
  6
CONTINUOUS
 10
5.3473573038
 20
2.3643251539
 11
5.3454357528
 21
2.3655347755
  0
LINE
  5
80F
100
AcDbEntity
  8
0
100
AcDbLine
 62
7
  6
CONTINUOUS
 10
5.3454357528
 20
2.3655347755
 11
5.3414985464
 21
2.3675965767
  0
LINE
  5
810
100
AcDbEntity
  8
0
100
AcDbLine
 62
7
  6
CONTINUOUS
 10
5.3689982045
 20
2.3809727575
 11
5.3665667712
 21
2.3720661082
  0
LINE
  5
811
100
AcDbEntity
  8
0
100
AcDbLine
 62
7
  6
CONTINUOUS
 10
5.3665667712
 20
2.3720661082
 11
5.366529528
 21
2.3717570402
  0
SPLINE
  5
812
100
AcDbEntity
  8
0
100
AcDbSpline
 62
7
  6
CONTINUOUS
 70
0
 71
3
 72
11
 73
7
 74
0
 42
0.0000001
 43
0.0000001
 44
0.0000000001
 40
0.0
 40
0.0
 40
0.0
 40
0.0
 40
0.1264568752
 40
0.335581203
 40
0.6299719902
 40
1.0
 40
1.0
 40
1.0
 40
1.0
 10
5.3628059032
 20
2.3699418802
 30
0.0
 10
5.3628059032
 20
2.3700116542
 30
0.0
 10
5.3627008975
 20
2.3701827957
 30
0.0
 10
5.3624506808
 20
2.3704160268
 30
0.0
 10
5.3620590134
 20
2.3707031984
 30
0.0
 10
5.3617490278
 20
2.3708976432
 30
0.0
 10
5.3615739998
 20
2.3710027593
 30
0.0
  0
LINE
  5
813
100
AcDbEntity
  8
0
100
AcDbLine
 62
7
  6
CONTINUOUS
 10
5.3615739998
 20
2.3710027593
 11
5.3599896001
 21
2.3718622751
  0
LINE
  5
814
100
AcDbEntity
  8
0
100
AcDbLine
 62
7
  6
CONTINUOUS
 10
5.3599896001
 20
2.3718622751
 11
5.3569045347
 21
2.3732928689
  0
LINE
  5
815
100
AcDbEntity
  8
0
100
AcDbLine
 62
7
  6
CONTINUOUS
 10
5.3826371658
 20
2.388616062
 11
5.3806647403
 21
2.3795841475
  0
LINE
  5
816
100
AcDbEntity
  8
0
100
AcDbLine
 62
7
  6
CONTINUOUS
 10
5.3806647403
 20
2.3795841475
 11
5.3806345088
 21
2.379273026
  0
SPLINE
  5
817
100
AcDbEntity
  8
0
100
AcDbSpline
 62
7
  6
CONTINUOUS
 70
0
 71
3
 72
11
 73
7
 74
0
 42
0.0000001
 43
0.0000001
 44
0.0000000001
 40
0.0
 40
0.0
 40
0.0
 40
0.0
 40
0.1193143944
 40
0.3286291717
 40
0.6269277196
 40
1.0
 40
1.0
 40
1.0
 40
1.0
 10
5.3770227626
 20
2.3772489953
 30
0.0
 10
5.3770227626
 20
2.3773345617
 30
0.0
 10
5.3768631678
 20
2.3775425437
 30
0.0
 10
5.3765152297
 20
2.3778078659
 30
0.0
 10
5.3759690236
 20
2.378138402
 30
0.0
 10
5.3755423101
 20
2.3783580713
 30
0.0
 10
5.3753022953
 20
2.3784762884
 30
0.0
  0
LINE
  5
818
100
AcDbEntity
  8
0
100
AcDbLine
 62
7
  6
CONTINUOUS
 10
5.3753022953
 20
2.3784762884
 11
5.3741508384
 21
2.3790074211
  0
LINE
  5
819
100
AcDbEntity
  8
0
100
AcDbLine
 62
7
  6
CONTINUOUS
 10
5.3741508384
 20
2.3790074211
 11
5.3710048439
 21
2.3802605889
  0
LINE
  5
81A
100
AcDbEntity
  8
0
100
AcDbLine
 62
7
  6
CONTINUOUS
 10
5.3958084105
 20
2.3970227725
 11
5.3943014964
 21
2.3878916524
  0
LINE
  5
81B
100
AcDbEntity
  8
0
100
AcDbLine
 62
7
  6
CONTINUOUS
 10
5.3943014964
 20
2.3878916524
 11
5.3942784145
 21
2.3875791461
  0
SPLINE
  5
81C
100
AcDbEntity
  8
0
100
AcDbSpline
 62
7
  6
CONTINUOUS
 70
0
 71
3
 72
11
 73
7
 74
0
 42
0.0000001
 43
0.0000001
 44
0.0000000001
 40
0.0
 40
0.0
 40
0.0
 40
0.0
 40
0.118545986
 40
0.3269293856
 40
0.6254375722
 40
1.0
 40
1.0
 40
1.0
 40
1.0
 10
5.3907905247
 20
2.3853529572
 30
0.0
 10
5.3907905247
 20
2.3854368174
 30
0.0
 10
5.3906281064
 20
2.3856390491
 30
0.0
 10
5.3902735557
 20
2.3858827752
 30
0.0
 10
5.3897189065
 20
2.3861826116
 30
0.0
 10
5.389286014
 20
2.3863771731
 30
0.0
 10
5.3890424425
 20
2.3864814852
 30
0.0
  0
LINE
  5
81D
100
AcDbEntity
  8
0
100
AcDbLine
 62
7
  6
CONTINUOUS
 10
5.3890424425
 20
2.3864814852
 11
5.3878725038
 21
2.3869465174
  0
LINE
  5
81E
100
AcDbEntity
  8
0
100
AcDbLine
 62
7
  6
CONTINUOUS
 10
5.3878725038
 20
2.3869465174
 11
5.3846760135
 21
2.3880190865
  0
LINE
  5
81F
100
AcDbEntity
  8
0
100
AcDbLine
 62
7
  6
CONTINUOUS
 10
5.4084682579
 20
2.4061650092
 11
5.4074318715
 21
2.39696147
  0
LINE
  5
820
100
AcDbEntity
  8
0
100
AcDbLine
 62
7
  6
CONTINUOUS
 10
5.4074318715
 20
2.39696147
 11
5.4074159968
 21
2.3966478545
  0
SPLINE
  5
821
100
AcDbEntity
  8
0
100
AcDbSpline
 62
7
  6
CONTINUOUS
 70
0
 71
3
 72
12
 73
8
 74
0
 42
0.0000001
 43
0.0000001
 44
0.0000000001
 40
0.0
 40
0.0
 40
0.0
 40
0.0
 40
0.0471144449
 40
0.1146846613
 40
0.3237287332
 40
0.6249394061
 40
1.0
 40
1.0
 40
1.0
 40
1.0
 10
5.4040635306
 20
2.3942268901
 30
0.0
 10
5.4040635306
 20
2.3942690596
 30
0.0
 10
5.4040185719
 20
2.3943688566
 30
0.0
 10
5.4038094422
 20
2.3945705742
 30
0.0
 10
5.4033531186
 20
2.3948268038
 30
0.0
 10
5.4026267769
 20
2.3951397595
 30
0.0
 10
5.4020556452
 20
2.3953431367
 30
0.0
 10
5.4017374432
 20
2.3954500903
 30
0.0
  0
LINE
  5
822
100
AcDbEntity
  8
0
100
AcDbLine
 62
7
  6
CONTINUOUS
 10
5.4011090902
 20
2.3956532352
 11
5.3978727048
 21
2.3965426317
  0
LINE
  5
823
100
AcDbEntity
  8
0
100
AcDbLine
 62
7
  6
CONTINUOUS
 10
5.4205747232
 20
2.4160124531
 11
5.4200123016
 21
2.4067633887
  0
LINE
  5
824
100
AcDbEntity
  8
0
100
AcDbLine
 62
7
  6
CONTINUOUS
 10
5.4200123016
 20
2.4067633887
 11
5.4200036867
 21
2.4064490758
  0
SPLINE
  5
825
100
AcDbEntity
  8
0
100
AcDbSpline
 62
7
  6
CONTINUOUS
 70
0
 71
3
 72
12
 73
8
 74
0
 42
0.0000001
 43
0.0000001
 44
0.0000000001
 40
0.0
 40
0.0
 40
0.0
 40
0.0
 40
0.0441229866
 40
0.1103269431
 40
0.321185306
 40
0.6251634248
 40
1.0
 40
1.0
 40
1.0
 40
1.0
 10
5.4167977622
 20
2.4038413649
 30
0.0
 10
5.4167977622
 20
2.4038899606
 30
0.0
 10
5.4167351444
 20
2.4040060009
 30
0.0
 10
5.4164571518
 20
2.4042248246
 30
0.0
 10
5.4158664926
 20
2.4044903555
 30
0.0
 10
5.4149398609
 20
2.404802291
 30
0.0
 10
5.414216995
 20
2.4049977278
 30
0.0
 10
5.4138167003
 20
2.4050986998
 30
0.0
  0
LINE
  5
826
100
AcDbEntity
  8
0
100
AcDbLine
 62
7
  6
CONTINUOUS
 10
5.4138167003
 20
2.4050986998
 11
5.4105511529
 21
2.4058029573
  0
LINE
  5
827
100
AcDbEntity
  8
0
100
AcDbLine
 62
7
  6
CONTINUOUS
 10
5.432087657
 20
2.4265324464
 11
5.4320047006
 21
2.4177875489
  0
LINE
  5
828
100
AcDbEntity
  8
0
100
AcDbLine
 62
7
  6
CONTINUOUS
 10
5.4320047006
 20
2.4177875489
 11
5.4320010653
 21
2.4172649017
  0
LINE
  5
829
100
AcDbEntity
  8
0
100
AcDbLine
 62
7
  6
CONTINUOUS
 10
5.4320010653
 20
2.4172649017
 11
5.4319997389
 21
2.4169503058
  0
SPLINE
  5
82A
100
AcDbEntity
  8
0
100
AcDbSpline
 62
7
  6
CONTINUOUS
 70
0
 71
3
 72
13
 73
9
 74
0
 42
0.0000001
 43
0.0000001
 44
0.0000000001
 40
0.0
 40
0.0
 40
0.0
 40
0.0
 40
0.0438134332
 40
0.1091837262
 40
0.2011428407
 40
0.3192563329
 40
0.6235236861
 40
1.0
 40
1.0
 40
1.0
 40
1.0
 10
5.4289509881
 20
2.4141644964
 30
0.0
 10
5.4289509881
 20
2.4142121593
 30
0.0
 10
5.4288884071
 20
2.4143256333
 30
0.0
 10
5.4287110109
 20
2.4144543714
 30
0.0
 10
5.4284427988
 20
2.4145907359
 30
0.0
 10
5.4279190071
 20
2.4147886515
 30
0.0
 10
5.4270796214
 20
2.4150192391
 30
0.0
 10
5.426355245
 20
2.4151735696
 30
0.0
 10
5.4259531909
 20
2.4152515866
 30
0.0
  0
LINE
  5
82B
100
AcDbEntity
  8
0
100
AcDbLine
 62
7
  6
CONTINUOUS
 10
5.4259531909
 20
2.4152515866
 11
5.4226693112
 21
2.4157693527
  0
SPLINE
  5
82C
100
AcDbEntity
  8
0
100
AcDbSpline
 62
7
  6
CONTINUOUS
 70
0
 71
3
 72
14
 73
10
 74
0
 42
0.0000001
 43
0.0000001
 44
0.0000000001
 40
0.0
 40
0.0
 40
0.0
 40
0.0
 40
0.0411662445
 40
0.1056424626
 40
0.1984367165
 40
0.3181214116
 40
0.4614310056
 40
0.6249956423
 40
1.0
 40
1.0
 40
1.0
 40
1.0
 10
5.4404829036
 20
2.4251620493
 30
0.0
 10
5.4404829036
 20
2.4252161056
 30
0.0
 10
5.4403981512
 20
2.4253453099
 30
0.0
 10
5.4401726767
 20
2.4254747955
 30
0.0
 10
5.4398333313
 20
2.4256102079
 30
0.0
 10
5.4393834649
 20
2.4257369457
 30
0.0
 10
5.4388365449
 20
2.4258590351
 30
0.0
 10
5.4379551638
 20
2.4260176246
 30
0.0
 10
5.437253794
 20
2.4261111932
 30
0.0
 10
5.4367646977
 20
2.4261683586
 30
0.0
  0
LINE
  5
82D
100
AcDbEntity
  8
0
100
AcDbLine
 62
7
  6
CONTINUOUS
 10
5.4367646977
 20
2.4261683586
 11
5.4341869917
 21
2.4264087657
  0
SPLINE
  5
82E
100
AcDbEntity
  8
0
100
AcDbSpline
 62
7
  6
CONTINUOUS
 70
0
 71
3
 72
25
 73
21
 74
0
 42
0.0000001
 43
0.0000001
 44
0.0000000001
 40
0.0
 40
0.0
 40
0.0
 40
0.0
 40
0.0621760846
 40
0.1243750478
 40
0.1866767942
 40
0.2491118609
 40
0.3116737838
 40
0.3743525491
 40
0.4057588119
 40
0.437181666
 40
0.4999933617
 40
0.5628048865
 40
0.5942274022
 40
0.6256335526
 40
0.6883123722
 40
0.7508764221
 40
0.8133146922
 40
0.8756193524
 40
0.9378220096
 40
1.0
 40
1.0
 40
1.0
 40
1.0
 10
5.4132677988
 20
2.6208140848
 30
0.0
 10
5.4120683042
 20
2.6105191129
 30
0.0
 10
5.4077687864
 20
2.5900951751
 30
0.0
 10
5.3958123609
 20
2.561183097
 30
0.0
 10
5.3787600699
 20
2.5348914432
 30
0.0
 10
5.3571834171
 20
2.512085105
 30
0.0
 10
5.3317911616
 20
2.4935215337
 30
0.0
 10
5.3081376217
 20
2.4820995978
 30
0.0
 10
5.2882221901
 20
2.4756094163
 30
0.0
 10
5.2677798376
 20
2.4709395099
 30
0.0
 10
5.2415567216
 20
2.4685725991
 30
0.0
 10
5.2153348284
 20
2.4709533336
 30
0.0
 10
5.1948952653
 20
2.4756349415
 30
0.0
 10
5.1749833762
 20
2.482135755
 30
0.0
 10
5.1513358897
 20
2.4935709882
 30
0.0
 10
5.1259527381
 20
2.5121485812
 30
0.0
 10
5.1043883484
 20
2.5349684799
 30
0.0
 10
5.0873499999
 20
2.5612711089
 30
0.0
 10
5.0754099707
 20
2.5901915717
 30
0.0
 10
5.0711225256
 20
2.6106190037
 30
0.0
 10
5.0699291273
 20
2.620915004
 30
0.0
  0
SPLINE
  5
82F
100
AcDbEntity
  8
0
100
AcDbSpline
 62
7
  6
CONTINUOUS
 70
0
 71
3
 72
12
 73
8
 74
0
 42
0.0000001
 43
0.0000001
 44
0.0000000001
 40
0.0
 40
0.0
 40
0.0
 40
0.0
 40
0.2506478431
 40
0.5009290993
 40
0.7505707671
 40
0.8753774921
 40
1.0
 40
1.0
 40
1.0
 40
1.0
 10
5.2416043125
 20
2.4723651102
 30
0.0
 10
5.2564221887
 20
2.4723651102
 30
0.0
 10
5.2861790829
 20
2.4762063332
 30
0.0
 10
5.3277111448
 20
2.4930923625
 30
0.0
 10
5.3575941745
 20
2.5155712081
 30
0.0
 10
5.3773201303
 20
2.5375984307
 30
0.0
 10
5.3856810958
 20
2.5498078057
 30
0.0
 10
5.3894353544
 20
2.5561469841
 30
0.0
  0
SPLINE
  5
830
100
AcDbEntity
  8
0
100
AcDbSpline
 62
7
  6
CONTINUOUS
 70
0
 71
3
 72
14
 73
10
 74
0
 42
0.0000001
 43
0.0000001
 44
0.0000000001
 40
0.0
 40
0.0
 40
0.0
 40
0.0
 40
0.0407325465
 40
0.104272532
 40
0.1963556265
 40
0.3157062972
 40
0.4590779624
 40
0.6230856079
 40
1.0
 40
1.0
 40
1.0
 40
1.0
 10
5.4513552648
 20
2.4367975518
 30
0.0
 10
5.4513552648
 20
2.4368503836
 30
0.0
 10
5.4512710445
 20
2.4369764766
 30
0.0
 10
5.4510441405
 20
2.4370928716
 30
0.0
 10
5.4507055393
 20
2.4372090533
 30
0.0
 10
5.4502561605
 20
2.43730999
 30
0.0
 10
5.4497099938
 20
2.4374009305
 30
0.0
 10
5.4488289049
 20
2.4375093811
 30
0.0
 10
5.4481289787
 20
2.4375629335
 30
0.0
 10
5.447640983
 20
2.437592225
 30
0.0
  0
SPLINE
  5
831
100
AcDbEntity
  8
0
100
AcDbSpline
 62
7
  6
CONTINUOUS
 70
0
 71
3
 72
13
 73
9
 74
0
 42
0.0000001
 43
0.0000001
 44
0.0000000001
 40
0.0
 40
0.0
 40
0.0
 40
0.0
 40
0.0992876093
 40
0.1909829466
 40
0.3104558209
 40
0.4544628659
 40
0.6195874892
 40
1.0
 40
1.0
 40
1.0
 40
1.0
 10
5.461532015
 20
2.4490324161
 30
0.0
 10
5.461532015
 20
2.4491590713
 30
0.0
 10
5.4612463854
 20
2.4493096874
 30
0.0
 10
5.4608909487
 20
2.449403002
 30
0.0
 10
5.4604344163
 20
2.4494840289
 30
0.0
 10
5.4598940674
 20
2.4495418599
 30
0.0
 10
5.4590147902
 20
2.4496011204
 30
0.0
 10
5.4583192416
 20
2.449614468
 30
0.0
 10
5.457833975
 20
2.4496160276
 30
0.0
  0
LINE
  5
832
100
AcDbEntity
  8
0
100
AcDbLine
 62
7
  6
CONTINUOUS
 10
5.457833975
 20
2.4496160276
 11
5.4561943711
 21
2.4495943071
  0
SPLINE
  5
833
100
AcDbEntity
  8
0
100
AcDbSpline
 62
7
  6
CONTINUOUS
 70
0
 71
3
 72
13
 73
9
 74
0
 42
0.0000001
 43
0.0000001
 44
0.0000000001
 40
0.0
 40
0.0
 40
0.0
 40
0.0
 40
0.0974059341
 40
0.1883478359
 40
0.3075055624
 40
0.4516467993
 40
0.6173320495
 40
1.0
 40
1.0
 40
1.0
 40
1.0
 10
5.4709794042
 20
2.4618260671
 30
0.0
 10
5.4709794042
 20
2.4619486613
 30
0.0
 10
5.4706935261
 20
2.4620897513
 30
0.0
 10
5.4703425051
 20
2.4621596722
 30
0.0
 10
5.4698892897
 20
2.4622157647
 30
0.0
 10
5.4693534188
 20
2.4622425137
 30
0.0
 10
5.4684802082
 20
2.462252034
 30
0.0
 10
5.4677907935
 20
2.4622258277
 30
0.0
 10
5.4673098702
 20
2.462199891
 30
0.0
  0
LINE
  5
834
100
AcDbEntity
  8
0
100
AcDbLine
 62
7
  6
CONTINUOUS
 10
5.4673098702
 20
2.462199891
 11
5.465682905
 21
2.4620851567
  0
SPLINE
  5
835
100
AcDbEntity
  8
0
100
AcDbSpline
 62
7
  6
CONTINUOUS
 70
0
 71
3
 72
13
 73
9
 74
0
 42
0.0000001
 43
0.0000001
 44
0.0000000001
 40
0.0
 40
0.0
 40
0.0
 40
0.0
 40
0.0938498785
 40
0.1860710823
 40
0.307096913
 40
0.452901913
 40
0.6195124693
 40
1.0
 40
1.0
 40
1.0
 40
1.0
 10
5.4796661014
 20
2.4751360763
 30
0.0
 10
5.4796661014
 20
2.475276679
 30
0.0
 10
5.4792957537
 20
2.4754069923
 30
0.0
 10
5.478881617
 20
2.4754479137
 30
0.0
 10
5.4783277591
 20
2.4754678609
 30
0.0
 10
5.4776840194
 20
2.4754462731
 30
0.0
 10
5.4766458961
 20
2.4753750287
 30
0.0
 10
5.4758321305
 20
2.475281877
 30
0.0
 10
5.4752667551
 20
2.4752091533
 30
0.0
  0
SPLINE
  5
836
100
AcDbEntity
  8
0
100
AcDbSpline
 62
7
  6
CONTINUOUS
 70
0
 71
3
 72
15
 73
11
 74
0
 42
0.0000001
 43
0.0000001
 44
0.0000000001
 40
0.0
 40
0.0
 40
0.0
 40
0.0
 40
0.0916470943
 40
0.133539788
 40
0.1831769353
 40
0.3039251435
 40
0.4499204348
 40
0.6171503068
 40
0.8016070476
 40
1.0
 40
1.0
 40
1.0
 40
1.0
 10
5.4875632985
 20
2.4889183028
 30
0.0
 10
5.4875632985
 20
2.4890538615
 30
0.0
 10
5.4872837359
 20
2.4891434267
 30
0.0
 10
5.4870327662
 20
2.4891710945
 30
0.0
 10
5.4867133519
 20
2.4891882248
 30
0.0
 10
5.4862484937
 20
2.489172721
 30
0.0
 10
5.4856075092
 20
2.4891168731
 30
0.0
 10
5.4848776228
 20
2.4890232922
 30
0.0
 10
5.4840736324
 20
2.4888969699
 30
0.0
 10
5.4835162577
 20
2.4887968506
 30
0.0
 10
5.4832278538
 20
2.4887426614
 30
0.0
  0
SPLINE
  5
837
100
AcDbEntity
  8
0
100
AcDbSpline
 62
7
  6
CONTINUOUS
 70
0
 71
3
 72
17
 73
13
 74
0
 42
0.0000001
 43
0.0000001
 44
0.0000000001
 40
0.0
 40
0.0
 40
0.0
 40
0.0
 40
0.0174747583
 40
0.037141845
 40
0.0627683091
 40
0.0959268989
 40
0.1859609761
 40
0.3055775402
 40
0.450746138
 40
0.6174398681
 40
0.8016309905
 40
1.0
 40
1.0
 40
1.0
 40
1.0
 10
5.4946448053
 20
2.5031270396
 30
0.0
 10
5.4946448053
 20
2.5031527338
 30
0.0
 10
5.4946284508
 20
2.5032088027
 30
0.0
 10
5.4945548241
 20
2.5032699283
 30
0.0
 10
5.494446386
 20
2.5033115765
 30
0.0
 10
5.4942303609
 20
2.5033512433
 30
0.0
 10
5.4938715655
 20
2.5033527968
 30
0.0
 10
5.4933518188
 20
2.503307724
 30
0.0
 10
5.4927238051
 20
2.5032148928
 30
0.0
 10
5.4920068668
 20
2.503080391
 30
0.0
 10
5.4912176399
 20
2.5029086233
 30
0.0
 10
5.490670684
 20
2.5027771556
 30
0.0
 10
5.4903876403
 20
2.5027067284
 30
0.0
  0
SPLINE
  5
838
100
AcDbEntity
  8
0
100
AcDbSpline
 62
7
  6
CONTINUOUS
 70
0
 71
3
 72
18
 73
14
 74
0
 42
0.0000001
 43
0.0000001
 44
0.0000000001
 40
0.0
 40
0.0
 40
0.0
 40
0.0
 40
0.016214831
 40
0.0348270784
 40
0.060077085
 40
0.0934980559
 40
0.1353206518
 40
0.1851847881
 40
0.3067570294
 40
0.453502129
 40
0.620682503
 40
0.8040113993
 40
1.0
 40
1.0
 40
1.0
 40
1.0
 10
5.5008871371
 20
2.5177151655
 30
0.0
 10
5.5008871371
 20
2.517743207
 30
0.0
 10
5.500866833
 20
2.5178055257
 30
0.0
 10
5.5007758262
 20
2.5178649182
 30
0.0
 10
5.5006457549
 20
2.5178979993
 30
0.0
 10
5.5004717279
 20
2.517910846
 30
0.0
 10
5.5002553171
 20
2.5179036874
 30
0.0
 10
5.4998881899
 20
2.5178662918
 30
0.0
 10
5.4993458392
 20
2.5177700292
 30
0.0
 10
5.4986119811
 20
2.5176000877
 30
0.0
 10
5.497781613
 20
2.5173758987
 30
0.0
 10
5.4968758238
 20
2.5171059281
 30
0.0
 10
5.4962508207
 20
2.5169065998
 30
0.0
 10
5.495928634
 20
2.5168013633
 30
0.0
  0
SPLINE
  5
839
100
AcDbEntity
  8
0
100
AcDbSpline
 62
7
  6
CONTINUOUS
 70
0
 71
3
 72
18
 73
14
 74
0
 42
0.0000001
 43
0.0000001
 44
0.0000000001
 40
0.0
 40
0.0
 40
0.0
 40
0.0
 40
0.0160949698
 40
0.0341173786
 40
0.0586997108
 40
0.0915354588
 40
0.1328968936
 40
0.1824303794
 40
0.3037223267
 40
0.4506579796
 40
0.6184461267
 40
0.8027431894
 40
1.0
 40
1.0
 40
1.0
 40
1.0
 10
5.5062695919
 20
2.5326343008
 30
0.0
 10
5.5062695919
 20
2.5326618119
 30
0.0
 10
5.506250663
 20
2.532722681
 30
0.0
 10
5.5061607317
 20
2.5327781242
 30
0.0
 10
5.5060336919
 20
2.5328035478
 30
0.0
 10
5.5058641675
 20
2.5328066194
 30
0.0
 10
5.505653384
 20
2.5327872224
 30
0.0
 10
5.5052951619
 20
2.5327290887
 30
0.0
 10
5.5047664592
 20
2.5326021818
 30
0.0
 10
5.5040515787
 20
2.5323910301
 30
0.0
 10
5.5032425775
 20
2.5321201892
 30
0.0
 10
5.5023600397
 20
2.5317993351
 30
0.0
 10
5.5017513613
 20
2.5315650099
 30
0.0
 10
5.5014375404
 20
2.531441718
 30
0.0
  0
SPLINE
  5
83A
100
AcDbEntity
  8
0
100
AcDbSpline
 62
7
  6
CONTINUOUS
 70
0
 71
3
 72
18
 73
14
 74
0
 42
0.0000001
 43
0.0000001
 44
0.0000000001
 40
0.0
 40
0.0
 40
0.0
 40
0.0
 40
0.0149187025
 40
0.0320274204
 40
0.0564729498
 40
0.0898135221
 40
0.132043207
 40
0.1826236771
 40
0.3060179898
 40
0.4544514342
 40
0.6224603999
 40
0.8056041148
 40
1.0
 40
1.0
 40
1.0
 40
1.0
 10
5.5107743196
 20
2.5478349682
 30
0.0
 10
5.5107743196
 20
2.5478646279
 30
0.0
 10
5.5107511356
 20
2.5479318829
 30
0.0
 10
5.5106420192
 20
2.5479810311
 30
0.0
 10
5.5104936262
 20
2.5479923214
 30
0.0
 10
5.5102946074
 20
2.5479742982
 30
0.0
 10
5.5100482714
 20
2.5479268683
 30
0.0
 10
5.5096318136
 20
2.5478194217
 30
0.0
 10
5.5090228745
 20
2.5476176615
 30
0.0
 10
5.5082063556
 20
2.5473043333
 30
0.0
 10
5.5072910373
 20
2.5469183642
 30
0.0
 10
5.5063014159
 20
2.5464743863
 30
0.0
 10
5.5056215905
 20
2.5461561635
 30
0.0
 10
5.505272825
 20
2.5459896503
 30
0.0
  0
SPLINE
  5
83B
100
AcDbEntity
  8
0
100
AcDbSpline
 62
7
  6
CONTINUOUS
 70
0
 71
3
 72
19
 73
15
 74
0
 42
0.0000001
 43
0.0000001
 44
0.0000000001
 40
0.0
 40
0.0
 40
0.0
 40
0.0
 40
0.0147532351
 40
0.0311961148
 40
0.0549481706
 40
0.0877132033
 40
0.1295063444
 40
0.1797864266
 40
0.2378482268
 40
0.3029787991
 40
0.4516493526
 40
0.6202876571
 40
0.804385668
 40
1.0
 40
1.0
 40
1.0
 40
1.0
 10
5.5143863808
 20
2.5632667567
 30
0.0
 10
5.5143863808
 20
2.5632957761
 30
0.0
 10
5.5143651415
 20
2.5633614561
 30
0.0
 10
5.5142576718
 20
2.5634058651
 30
0.0
 10
5.5141142699
 20
2.5634081567
 30
0.0
 10
5.5139220915
 20
2.5633791268
 30
0.0
 10
5.5136842502
 20
2.5633177992
 30
0.0
 10
5.513403187
 20
2.5632265839
 30
0.0
 10
5.5130835056
 20
2.5631071073
 30
0.0
 10
5.5125888089
 20
2.5629038551
 30
0.0
 10
5.5119040785
 20
2.5625918033
 30
0.0
 10
5.5110198092
 20
2.562154821
 30
0.0
 10
5.5100636988
 20
2.5616554577
 30
0.0
 10
5.509407128
 20
2.5612993657
 30
0.0
 10
5.509070275
 20
2.5611134136
 30
0.0
  0
SPLINE
  5
83C
100
AcDbEntity
  8
0
100
AcDbSpline
 62
7
  6
CONTINUOUS
 70
0
 71
3
 72
19
 73
15
 74
0
 42
0.0000001
 43
0.0000001
 44
0.0000000001
 40
0.0
 40
0.0
 40
0.0
 40
0.0
 40
0.0145871708
 40
0.0303335218
 40
0.0533689322
 40
0.0855474638
 40
0.1269006077
 40
0.1768814162
 40
0.2347766653
 40
0.2998648158
 40
0.4487884486
 40
0.6180747835
 40
0.8031469804
 40
1.0
 40
1.0
 40
1.0
 40
1.0
 10
5.5170937967
 20
2.5788784889
 30
0.0
 10
5.5170937967
 20
2.578906877
 30
0.0
 10
5.5170746341
 20
2.5789709966
 30
0.0
 10
5.5169690423
 20
2.5790108852
 30
0.0
 10
5.5168311565
 20
2.5790043508
 30
0.0
 10
5.5166464821
 20
2.5789647805
 30
0.0
 10
5.5164179281
 20
2.5788900751
 30
0.0
 10
5.5161477089
 20
2.5787832148
 30
0.0
 10
5.5158403222
 20
2.5786458888
 30
0.0
 10
5.5153641961
 20
2.5784148354
 30
0.0
 10
5.5147054503
 20
2.5780643981
 30
0.0
 10
5.5138551587
 20
2.5775781183
 30
0.0
 10
5.5129357163
 20
2.5770254242
 30
0.0
 10
5.5123045479
 20
2.5766328542
 30
0.0
 10
5.5119807099
 20
2.5764281802
 30
0.0
  0
SPLINE
  5
83D
100
AcDbEntity
  8
0
100
AcDbSpline
 62
7
  6
CONTINUOUS
 70
0
 71
3
 72
18
 73
14
 74
0
 42
0.0000001
 43
0.0000001
 44
0.0000000001
 40
0.0
 40
0.0
 40
0.0
 40
0.0
 40
0.0156109834
 40
0.0309632272
 40
0.0525740676
 40
0.0828847075
 40
0.1223057597
 40
0.1704810416
 40
0.2906996925
 40
0.4385447741
 40
0.6089736393
 40
0.7973935813
 40
1.0
 40
1.0
 40
1.0
 40
1.0
 10
5.5188875883
 20
2.5946183905
 30
0.0
 10
5.5188875883
 20
2.594643845
 30
0.0
 10
5.5188752254
 20
2.5946988708
 30
0.0
 10
5.518791746
 20
2.5947404634
 30
0.0
 10
5.5186808439
 20
2.5947364095
 30
0.0
 10
5.5185351437
 20
2.5947037158
 30
0.0
 10
5.5183537164
 20
2.5946391354
 30
0.0
 10
5.5180428841
 20
2.594503902
 30
0.0
 10
5.5175860277
 20
2.5942635844
 30
0.0
 10
5.5169699576
 20
2.5939005924
 30
0.0
 10
5.51627235
 20
2.5934576806
 30
0.0
 10
5.5155110943
 20
2.5929490736
 30
0.0
 10
5.5149869968
 20
2.5925859222
 30
0.0
 10
5.5147166109
 20
2.5923961074
 30
0.0
  0
SPLINE
  5
83E
100
AcDbEntity
  8
0
100
AcDbSpline
 62
7
  6
CONTINUOUS
 70
0
 71
3
 72
14
 73
10
 74
0
 42
0.0000001
 43
0.0000001
 44
0.0000000001
 40
0.0
 40
0.0
 40
0.0
 40
0.0
 40
0.060633301
 40
0.1150724031
 40
0.1870671802
 40
0.2877802418
 40
0.420305361
 40
0.5842616034
 40
1.0
 40
1.0
 40
1.0
 40
1.0
 10
5.5197618069
 20
2.6104342622
 30
0.0
 10
5.5197618069
 20
2.6104569546
 30
0.0
 10
5.5197542855
 20
2.6105033976
 30
0.0
 10
5.5196914273
 20
2.6105460711
 30
0.0
 10
5.5196040554
 20
2.6105465171
 30
0.0
 10
5.5194924789
 20
2.6105218555
 30
0.0
 10
5.5193527912
 20
2.6104696211
 30
0.0
 10
5.5191112917
 20
2.6103566931
 30
0.0
 10
5.5189228489
 20
2.6102483594
 30
0.0
 10
5.5187896832
 20
2.6101678854
 30
0.0
  0
LINE
  5
83F
100
AcDbEntity
  8
0
100
AcDbLine
 62
7
  6
CONTINUOUS
 10
5.5187896832
 20
2.6101678854
 11
5.5157921735
 21
2.6079801797
  0
ENDSEC
  0
SECTION
  2
OBJECTS
  0
DICTIONARY
  5
C
100
AcDbDictionary
280
0
281
1
  3
ACAD_GROUP
350
D
  3
ACAD_MLINESTYLE
350
17
  3
ACAD_LAYOUT
350
1A
  3
ACAD_PLOTSETTINGS
350
19
  3
ACAD_PLOTSTYLENAME
350
E
  0
DICTIONARY
  5
D
102
{ACAD_REACTORS
330
C
102
}
100
AcDbDictionary
280
0
281
1
  0
ACDBDICTIONARYWDFLT
  5
E
102
{ACAD_REACTORS
330
C
102
}
100
AcDbDictionary
281
1
  3
Normal
350
F
100
AcDbDictionaryWithDefault
340
F
  0
DICTIONARY
  5
17
102
{ACAD_REACTORS
330
C
102
}
100
AcDbDictionary
280
0
281
1
  3
Standard
350
18
  0
DICTIONARY
  5
19
102
{ACAD_REACTORS
330
C
102
}
100
AcDbDictionary
281
1
  0
DICTIONARY
  5
1A
102
{ACAD_REACTORS
330
C
102
}
100
AcDbDictionary
281
1
  3
Model
350
840
  3
Layout1
350
841
  0
ACDBPLACEHOLDER
  5
F
102
{ACAD_REACTORS
330
E
102
}
  0
MLINESTYLE
  5
18
102
{ACAD_REACTORS
330
17
102
}
100
AcDbMlineStyle
  2
STANDARD
 70
0
  3

 62
256
 51
90.0
 52
90.0
 71
2
 49
0.5
 62
256
  6
BYLAYER
 49
-0.5
 62
256
  6
BYLAYER
  0
LAYOUT
  5
840
102
{ACAD_REACTORS
330
1A
102
}
100
AcDbPlotSettings
  1

  2
none_device
  4
ANSI_A_(11.00_x_8.50_Inches)
  6

 40
0.0
 41
0.0
 42
0.0
 43
0.0
 44
279.4
 45
215.9
 46
0.0
 47
0.0
 48
0.0
 49
0.0
140
0.0
141
0.0
142
1.0
143
1.0
 70
1024
 72
0
 73
0
 74
0
  7

 75
0
147
1.0
148
0.0
149
0.0
100
AcDbLayout
  1
Model
 70
0
 71
0
 10
0.0
 20
0.0
 11
11.0
 21
8.5
 12
0.0
 22
0.0
 32
0.0
 14
0.0
 24
0.0
 34
0.0
 15
0.0
 25
0.0
 35
0.0
146
0.0
 13
0.0
 23
0.0
 33
0.0
 16
1.0
 26
0.0
 36
0.0
 17
0.0
 27
1.0
 37
0.0
 76
0
330
1FF
345
0
346
0
  0
LAYOUT
  5
841
102
{ACAD_REACTORS
330
1A
102
}
100
AcDbPlotSettings
  1

  2
none_device
  4
ANSI_A_(11.00_x_8.50_Inches)
  6

 40
0.0
 41
0.0
 42
0.0
 43
0.0
 44
279.4
 45
215.9
 46
0.0
 47
0.0
 48
0.0
 49
0.0
140
0.0
141
0.0
142
1.0
143
1.0
 70
0
 72
0
 73
0
 74
0
  7

 75
0
147
1.0
148
0.0
149
0.0
100
AcDbLayout
  1
Layout1
 70
0
 71
1
 10
0.0
 20
0.0
 11
11.0
 21
8.5
 12
0.0
 22
0.0
 32
0.0
 14
0.0
 24
0.0
 34
0.0
 15
0.0
 25
0.0
 35
0.0
146
0.0
 13
0.0
 23
0.0
 33
0.0
 16
1.0
 26
0.0
 36
0.0
 17
0.0
 27
1.0
 37
0.0
 76
0
330
200
345
0
346
0
  0
ENDSEC
  0
EOF
