999
DXF file: 1030-5462_right.dxf
999
Pro/ENGINEER 2023134 by Parametric Technology Corporation
  0
SECTION
  2
HEADER
  9
$ACADVER
  1
AC1032
  9
$DWGCODEPAGE
  3
ANSI_1252
  9
$EXTMAX
 10
11.0
 20
8.5
 30
0.0
  9
$EXTMIN
 10
0.0
 20
0.0
 30
0.0
  9
$LIMMIN
 10
0.0
 20
0.0
  9
$LIMMAX
 10
11.0
 20
8.5
  9
$VIEWCTR
 10
5.5
 20
4.25
  9
$VIEWSIZE
 40
8.5
  9
$CLAYER
  8
0
  9
$LTSCALE
 40
0.605
  9
$CELTYPE
  6
BYLAYER
  9
$DIMSCALE
 40
1.0
  9
$DIMASZ
 40
0.1
  9
$DIMEXO
 40
0.0625
  9
$DIMDLI
 40
0.418
  9
$DIMEXE
 40
0.125
  9
$DIMCEN
 40
0.099
  9
$DIMLFAC
 40
1.0
  9
$DIMBLK
  1
_FILLED
  9
$DIMALT
 70
1
  9
$DIMALTD
 70
2
  9
$DIMALTTD
 70
2
  9
$DIMALTF
 40
25.4
  9
$DIMTXT
 40
0.08
  9
$DIMTOL
 70
1
  9
$DIMLIM
 70
0
  9
$DIMTFAC
 40
1.0
  9
$DIMTP
 40
0.001
  9
$DIMTM
 40
0.001
  9
$DIMGAP
 40
0.09
  9
$DIMDSEP
 70
46
  9
$AUNITS
 70
0
  9
$PDMODE
 70
3
  9
$PDSIZE
 40
0.3125
  9
$HANDSEED
  5
34F
  9
$TILEMODE
 70
1
  9
$MEASUREMENT
 70
0
  9
$INSUNITS
 70
1
  0
ENDSEC
  0
SECTION
  2
CLASSES
  0
CLASS
  1
ACDBDICTIONARYWDFLT
  2
AcDbDictionaryWithDefault
  3
AutoCAD 2000
 90
0
 91
1
280
0
281
0
  0
CLASS
  1
ACDBPLACEHOLDER
  2
AcDbPlaceHolder
  3
AutoCAD 2000
 90
0
 91
1
280
0
281
0
  0
CLASS
  1
LAYOUT
  2
AcDbLayout
  3
AutoCAD 2000
 90
0
 91
0
280
0
281
0
  0
ENDSEC
  0
SECTION
  2
TABLES
  0
TABLE
  2
VPORT
  5
8
100
AcDbSymbolTable
 70
2
  0
VPORT
  5
1F4
100
AcDbSymbolTableRecord
100
AcDbViewportTableRecord
  2
*ACTIVE
 70
0
 10
0.0
 20
0.0
 11
1.0
 21
1.0
 12
5.5
 22
4.25
 13
0.0
 23
0.0
 14
1.0
 24
1.0
 15
0.0
 25
0.0
 16
0.0
 26
0.0
 36
1.0
 17
0.0
 27
0.0
 37
0.0
 40
8.5
 41
1.2941176471
 42
50.0
 43
0.0
 44
0.0
 50
0.0
 51
0.0
 71
0
 72
100
 73
1
 74
1
 75
0
 76
0
 77
0
 78
0
  0
ENDTAB
  0
TABLE
  2
LTYPE
  5
5
100
AcDbSymbolTable
 70
6
  0
LTYPE
  5
14
100
AcDbSymbolTableRecord
100
AcDbLinetypeTableRecord
  2
BYBLOCK
 70
0
  3

 72
65
 73
0
 40
0.0
  0
LTYPE
  5
15
100
AcDbSymbolTableRecord
100
AcDbLinetypeTableRecord
  2
BYLAYER
 70
0
  3

 72
65
 73
0
 40
0.0
  0
LTYPE
  5
16
100
AcDbSymbolTableRecord
100
AcDbLinetypeTableRecord
  2
CONTINUOUS
 70
64
  3
Solid line
 72
65
 73
0
 40
0.0
  0
LTYPE
  5
1F5
100
AcDbSymbolTableRecord
100
AcDbLinetypeTableRecord
  2
CENTER
 70
64
  3
____ _ ____ _ ____ _ ____ _ ____ _ ____ _ ____
 72
65
 73
4
 40
0.6
 49
0.375
 74
0
 49
-0.075
 74
0
 49
0.075
 74
0
 49
-0.075
 74
0
  0
LTYPE
  5
1F6
100
AcDbSymbolTableRecord
100
AcDbLinetypeTableRecord
  2
HIDDEN
 70
64
  3
- - - - - - - - - - - - - - - - - - - -
 72
65
 73
2
 40
0.2
 49
0.1
 74
0
 49
-0.1
 74
0
  0
LTYPE
  5
1F7
100
AcDbSymbolTableRecord
100
AcDbLinetypeTableRecord
  2
PHANTOM
 70
64
  3
_____ _ _ _____ _ _ _____ _ _ _____
 72
65
 73
6
 40
0.8
 49
0.45
 74
0
 49
-0.05
 74
0
 49
0.1
 74
0
 49
-0.05
 74
0
 49
0.1
 74
0
 49
-0.05
 74
0
  0
LTYPE
  5
1F8
100
AcDbSymbolTableRecord
100
AcDbLinetypeTableRecord
  2
DOT
 70
64
  3
. . . . . . . . . . . . . . . . . . . .
 72
65
 73
2
 40
0.2
 49
0.1
 74
0
 49
-0.1
 74
0
  0
LTYPE
  5
1F9
100
AcDbSymbolTableRecord
100
AcDbLinetypeTableRecord
  2
DASHED
 70
64
  3
- - - - - - - - - - - - - - - - - - - -
 72
65
 73
2
 40
0.2
 49
0.1
 74
0
 49
-0.1
 74
0
  0
ENDTAB
  0
TABLE
  2
LAYER
  5
2
100
AcDbSymbolTable
 70
36
  0
LAYER
  5
10
100
AcDbSymbolTableRecord
100
AcDbLayerTableRecord
  2
0
 70
0
 62
7
  6
CONTINUOUS
370
-3
390
F
  0
LAYER
  5
1FA
100
AcDbSymbolTableRecord
100
AcDbLayerTableRecord
  2
DEFAULT_1
 70
0
 62
7
  6
CENTER
370
-3
390
F
  0
LAYER
  5
1FB
100
AcDbSymbolTableRecord
100
AcDbLayerTableRecord
  2
DEFAULT_2
 70
0
 62
8
  6
HIDDEN
370
-3
390
F
  0
LAYER
  5
1FC
100
AcDbSymbolTableRecord
100
AcDbLayerTableRecord
  2
DEFAULT_3
 70
0
 62
7
  6
PHANTOM
370
-3
390
F
  0
LAYER
  5
1FD
100
AcDbSymbolTableRecord
100
AcDbLayerTableRecord
  2
DEFAULT_COORDINATE_SYSTEM
 70
0
 62
7
  6
CONTINUOUS
370
-3
390
F
  0
LAYER
  5
1FE
100
AcDbSymbolTableRecord
100
AcDbLayerTableRecord
  2
DEFAULT_DATUM_AXES
 70
0
 62
7
  6
CONTINUOUS
370
-3
390
F
  0
LAYER
  5
1FF
100
AcDbSymbolTableRecord
100
AcDbLayerTableRecord
  2
DEFAULT_DATUM_CURVES
 70
0
 62
7
  6
CONTINUOUS
370
-3
390
F
  0
LAYER
  5
200
100
AcDbSymbolTableRecord
100
AcDbLayerTableRecord
  2
DEFAULT_DATUM_PLANES
 70
0
 62
7
  6
CONTINUOUS
370
-3
390
F
  0
ENDTAB
  0
TABLE
  2
STYLE
  5
3
100
AcDbSymbolTable
 70
1
  0
STYLE
  5
11
100
AcDbSymbolTableRecord
100
AcDbTextStyleTableRecord
  2
STANDARD
 70
0
 40
0.0
 41
0.8
 50
0.0
 71
0
 42
0.2
  3
txt
  4

  0
STYLE
  5
201
100
AcDbSymbolTableRecord
100
AcDbTextStyleTableRecord
  2
TEXTSTYLE_1
 70
0
 40
0.0
 41
0.8
 50
0.0
 71
0
 42
0.2
  3
gdt
  4

  0
ENDTAB
  0
TABLE
  2
VIEW
  5
6
100
AcDbSymbolTable
 70
0
  0
ENDTAB
  0
TABLE
  2
UCS
  5
7
100
AcDbSymbolTable
 70
0
  0
ENDTAB
  0
TABLE
  2
APPID
  5
9
100
AcDbSymbolTable
 70
1
  0
APPID
  5
202
100
AcDbSymbolTableRecord
100
AcDbRegAppTableRecord
  2
ACAD
 70
0
  0
ENDTAB
  0
TABLE
  2
BLOCK_RECORD
  5
1
100
AcDbSymbolTable
 70
0
  0
BLOCK_RECORD
  5
203
100
AcDbSymbolTableRecord
100
AcDbBlockTableRecord
  2
*Model_Space
  0
BLOCK_RECORD
  5
204
100
AcDbSymbolTableRecord
100
AcDbBlockTableRecord
  2
*Paper_Space
  0
BLOCK_RECORD
  5
205
100
AcDbSymbolTableRecord
100
AcDbBlockTableRecord
  2
_FILLED
  0
ENDTAB
  0
TABLE
  2
DIMSTYLE
  5
A
100
AcDbSymbolTable
 70
1
100
AcDbDimStyleTable
 71
0
  0
DIMSTYLE
105
206
100
AcDbSymbolTableRecord
100
AcDbDimStyleTableRecord
  2
STANDARD
 70
0
  3

  4

 40
1.0
 41
0.1
 42
0.0625
 43
0.38
 44
0.125
 45
0.0
 46
0.0
 47
0.001
 48
0.001
140
0.08
141
0.09
142
0.0
143
25.4
144
1.0
145
0.0
146
1.0
147
0.09
 71
1
 72
0
 73
1
 74
1
 75
0
 76
0
 77
0
 78
4
 79
1
170
1
171
2
172
0
173
0
174
0
175
0
176
0
177
0
178
0
270
2
179
3
271
3
272
3
273
2
274
2
275
0
280
0
281
0
282
0
283
1
284
4
285
0
286
0
287
3
288
0
340
11
278
46
341
205
342
205
343
205
344
205
  0
ENDTAB
  0
ENDSEC
  0
SECTION
  2
BLOCKS
  0
BLOCK
  5
20
100
AcDbEntity
  8
0
100
AcDbBlockBegin
  2
*Model_Space
 70
0
 10
0.0
 20
0.0
 30
0.0
  3
*Model_Space
  1

  0
ENDBLK
  5
21
100
AcDbEntity
  8
0
100
AcDbBlockEnd
  0
BLOCK
  5
1C
100
AcDbEntity
  8
0
100
AcDbBlockBegin
  2
*Paper_Space
 70
0
 10
0.0
 20
0.0
 30
0.0
  3
*Paper_Space
  1

  0
ENDBLK
  5
1D
100
AcDbEntity
  8
0
100
AcDbBlockEnd
  0
BLOCK
  5
207
100
AcDbEntity
  8
0
100
AcDbBlockBegin
  2
_FILLED
 70
64
 10
0.0
 20
0.0
  3
_FILLED
  1

  0
SOLID
  5
208
100
AcDbEntity
  8
0
  6
BYBLOCK
 62
0
100
AcDbTrace
 10
0.0
 20
0.0
 11
-1.0
 21
0.2
 12
-1.0
 22
-0.2
 13
-1.0
 23
-0.2
  0
ENDBLK
  5
209
100
AcDbEntity
  8
0
  6
BYBLOCK
 62
0
100
AcDbBlockEnd
  0
ENDSEC
  0
SECTION
  2
ENTITIES
  0
MTEXT
  5
20A
100
AcDbEntity
  8
0
100
AcDbMText
 62
2
  6
CONTINUOUS
  7
STANDARD
 71
3
 72
1
 10
5.5477471856
 20
0.3924101777
 30
0.0
 11
1.0
 21
0.0
 31
0.0
 73
2
 44
0.9
  1
SCALE 0.375
 40
0.08
 41
0.704
  0
LINE
  5
20B
100
AcDbEntity
  8
0
100
AcDbLine
 62
7
  6
CONTINUOUS
 10
0.0
 20
0.0
 11
0.0
 21
8.5
  0
LINE
  5
20C
100
AcDbEntity
  8
0
100
AcDbLine
 62
7
  6
CONTINUOUS
 10
0.0
 20
0.0
 11
11.0
 21
0.0
  0
LINE
  5
20D
100
AcDbEntity
  8
0
100
AcDbLine
 62
7
  6
CONTINUOUS
 10
0.0
 20
8.5
 11
11.0
 21
8.5
  0
LINE
  5
20E
100
AcDbEntity
  8
0
100
AcDbLine
 62
7
  6
CONTINUOUS
 10
11.0
 20
0.0
 11
11.0
 21
8.5
  0
LINE
  5
20F
100
AcDbEntity
  8
0
100
AcDbLine
 62
7
  6
CONTINUOUS
 10
6.1491005272
 20
1.5407800407
 11
7.1241005272
 21
1.5407800407
  0
LINE
  5
210
100
AcDbEntity
  8
0
100
AcDbLine
 62
7
  6
CONTINUOUS
 10
6.1491005272
 20
1.5820300407
 11
7.1241005272
 21
1.5820300407
  0
LINE
  5
211
100
AcDbEntity
  8
0
100
AcDbLine
 62
7
  6
CONTINUOUS
 10
6.1596833071
 20
1.5932800407
 11
7.1135177472
 21
1.5932800407
  0
LINE
  5
212
100
AcDbEntity
  8
0
100
AcDbLine
 62
7
  6
CONTINUOUS
 10
6.2522255272
 20
1.6720300407
 11
7.0209755272
 21
1.6720300407
  0
LINE
  5
213
100
AcDbEntity
  8
0
100
AcDbLine
 62
7
  6
CONTINUOUS
 10
6.3703505272
 20
1.7995300407
 11
6.9028505272
 21
1.7995300407
  0
LINE
  5
214
100
AcDbEntity
  8
0
100
AcDbLine
 62
7
  6
CONTINUOUS
 10
3.2391349267
 20
4.6614029332
 11
3.2398546474
 21
4.6725325603
  0
LINE
  5
215
100
AcDbEntity
  8
0
100
AcDbLine
 62
7
  6
CONTINUOUS
 10
3.2493599457
 20
4.6710780452
 11
3.248640225
 21
4.6599484181
  0
LINE
  5
216
100
AcDbEntity
  8
0
100
AcDbLine
 62
7
  6
CONTINUOUS
 10
3.2767293613
 20
4.6668899361
 11
3.2760096406
 21
4.655760309
  0
LINE
  5
217
100
AcDbEntity
  8
0
100
AcDbLine
 62
7
  6
CONTINUOUS
 10
3.3840599588
 20
5.8382579145
 11
3.362788906
 21
5.6992509616
  0
LINE
  5
218
100
AcDbEntity
  8
0
100
AcDbLine
 62
7
  6
CONTINUOUS
 10
3.3640527034
 20
5.6876766229
 11
3.3654707736
 21
5.6969437531
  0
LINE
  5
219
100
AcDbEntity
  8
0
100
AcDbLine
 62
7
  6
CONTINUOUS
 10
3.3640107191
 20
5.6859306125
 11
3.3642727438
 21
5.687642952
  0
LINE
  5
21A
100
AcDbEntity
  8
0
100
AcDbLine
 62
7
  6
CONTINUOUS
 10
3.365690814
 20
5.6969100822
 11
3.3659744281
 21
5.6987635082
  0
LINE
  5
21B
100
AcDbEntity
  8
0
100
AcDbLine
 62
7
  6
CONTINUOUS
 10
6.3281302536
 20
2.4356494206
 11
6.9450708007
 21
2.4356494206
  0
LINE
  5
21C
100
AcDbEntity
  8
0
100
AcDbLine
 62
7
  6
CONTINUOUS
 10
6.9309755272
 20
2.4557800407
 11
6.3422255272
 21
2.4557800407
  0
LINE
  5
21D
100
AcDbEntity
  8
0
100
AcDbLine
 62
7
  6
CONTINUOUS
 10
3.3186617388
 20
4.6604733807
 11
3.3179420181
 21
4.6493437536
  0
LINE
  5
21E
100
AcDbEntity
  8
0
100
AcDbLine
 62
7
  6
CONTINUOUS
 10
3.3700994146
 20
4.6526023102
 11
3.3693796939
 21
4.6414726831
  0
LINE
  5
21F
100
AcDbEntity
  8
0
100
AcDbLine
 62
7
  6
CONTINUOUS
 10
3.4248382458
 20
4.644226092
 11
3.4241185251
 21
4.6330964649
  0
LINE
  5
220
100
AcDbEntity
  8
0
100
AcDbLine
 62
7
  6
CONTINUOUS
 10
3.4762759215
 20
4.6363550216
 11
3.4755562008
 21
4.6252253945
  0
LINE
  5
221
100
AcDbEntity
  8
0
100
AcDbLine
 62
7
  6
CONTINUOUS
 10
3.518208299
 20
4.6299384661
 11
3.5174885783
 21
4.618808839
  0
LINE
  5
222
100
AcDbEntity
  8
0
100
AcDbLine
 62
7
  6
CONTINUOUS
 10
3.3172945342
 20
4.6606825924
 11
3.3146531082
 21
4.6498470275
  0
LINE
  5
223
100
AcDbEntity
  8
0
100
AcDbLine
 62
7
  6
CONTINUOUS
 10
3.3592269116
 20
4.654266037
 11
3.3565854856
 21
4.6434304721
  0
LINE
  5
224
100
AcDbEntity
  8
0
100
AcDbLine
 62
7
  6
CONTINUOUS
 10
3.4106645874
 20
4.6463949665
 11
3.4080231614
 21
4.6355594017
  0
LINE
  5
225
100
AcDbEntity
  8
0
100
AcDbLine
 62
7
  6
CONTINUOUS
 10
3.4654034186
 20
4.6380187483
 11
3.4627619926
 21
4.6271831834
  0
LINE
  5
226
100
AcDbEntity
  8
0
100
AcDbLine
 62
7
  6
CONTINUOUS
 10
3.5168410944
 20
4.6301476779
 11
3.5141996684
 21
4.619312113
  0
LINE
  5
227
100
AcDbEntity
  8
0
100
AcDbLine
 62
7
  6
CONTINUOUS
 10
3.7802208116
 20
5.6222415186
 11
3.7804828363
 21
5.6239538581
  0
LINE
  5
228
100
AcDbEntity
  8
0
100
AcDbLine
 62
7
  6
CONTINUOUS
 10
3.7819009065
 20
5.6332209883
 11
3.7821845205
 21
5.6350744143
  0
LINE
  5
229
100
AcDbEntity
  8
0
100
AcDbLine
 62
7
  6
CONTINUOUS
 10
3.7821209469
 20
5.6331873174
 11
3.7807028767
 21
5.6239201872
  0
LINE
  5
22A
100
AcDbEntity
  8
0
100
AcDbLine
 62
7
  6
CONTINUOUS
 10
3.8066410955
 20
5.7735939138
 11
3.7853700426
 21
5.634586961
  0
LINE
  5
22B
100
AcDbEntity
  8
0
100
AcDbLine
 62
7
  6
CONTINUOUS
 10
3.5587734718
 20
4.6237311224
 11
3.5561320459
 21
4.6128955576
  0
LINE
  5
22C
100
AcDbEntity
  8
0
100
AcDbLine
 62
7
  6
CONTINUOUS
 10
3.5861428875
 20
4.6195430133
 11
3.5835014615
 21
4.6087074484
  0
LINE
  5
22D
100
AcDbEntity
  8
0
100
AcDbLine
 62
7
  6
CONTINUOUS
 10
3.5930067598
 20
4.6072529334
 11
3.5956481857
 21
4.6180884983
  0
LINE
  5
22E
100
AcDbEntity
  8
0
100
AcDbLine
 62
7
  6
CONTINUOUS
 10
6.8522255272
 20
2.9264683547
 11
6.4209755272
 21
2.9264683547
  0
LINE
  5
22F
100
AcDbEntity
  8
0
100
AcDbLine
 62
7
  6
CONTINUOUS
 10
6.8803505272
 20
2.9465509141
 11
6.8732348595
 21
2.9465509141
  0
LINE
  5
230
100
AcDbEntity
  8
0
100
AcDbLine
 62
7
  6
CONTINUOUS
 10
6.3999661948
 20
2.9465509141
 11
6.3928505272
 21
2.9465509141
  0
LINE
  5
231
100
AcDbEntity
  8
0
100
AcDbLine
 62
7
  6
CONTINUOUS
 10
6.569535509
 20
2.9830407476
 11
6.4772258776
 21
2.9830407476
  0
LINE
  5
232
100
AcDbEntity
  8
0
100
AcDbLine
 62
7
  6
CONTINUOUS
 10
6.4101608594
 20
2.9830407476
 11
6.4039736173
 21
2.9830407476
  0
LINE
  5
233
100
AcDbEntity
  8
0
100
AcDbLine
 62
7
  6
CONTINUOUS
 10
6.7036655454
 20
2.9830407476
 11
6.7959751767
 21
2.9830407476
  0
LINE
  5
234
100
AcDbEntity
  8
0
100
AcDbLine
 62
7
  6
CONTINUOUS
 10
6.863040195
 20
2.9830407476
 11
6.869227437
 21
2.9830407476
  0
LINE
  5
235
100
AcDbEntity
  8
0
100
AcDbLine
 62
7
  6
CONTINUOUS
 10
3.8599146384
 20
5.0131279201
 11
3.8581820974
 21
5.3765291506
  0
LINE
  5
236
100
AcDbEntity
  8
0
100
AcDbLine
 62
7
  6
CONTINUOUS
 10
3.8818565607
 20
5.0153809384
 11
3.8801444905
 21
5.3744884325
  0
LINE
  5
237
100
AcDbEntity
  8
0
100
AcDbLine
 62
7
  6
CONTINUOUS
 10
3.8831904078
 20
5.0828516031
 11
3.8833857822
 21
5.041871729
  0
LINE
  5
238
100
AcDbEntity
  8
0
100
AcDbLine
 62
7
  6
CONTINUOUS
 10
3.8846683237
 20
5.0449613181
 11
3.8845023499
 21
5.0797743834
  0
LINE
  5
239
100
AcDbEntity
  8
0
100
AcDbLine
 62
7
  6
CONTINUOUS
 10
3.8833857822
 20
5.041871729
 11
3.8817381943
 21
5.0402083558
  0
LINE
  5
23A
100
AcDbEntity
  8
0
100
AcDbLine
 62
7
  6
CONTINUOUS
 10
6.4397180578
 20
3.0700933547
 11
6.8334829965
 21
3.0700933547
  0
LINE
  5
23B
100
AcDbEntity
  8
0
100
AcDbLine
 62
7
  6
CONTINUOUS
 10
6.480127984
 20
3.4086903095
 11
6.7930730703
 21
3.4086903095
  0
LINE
  5
23C
100
AcDbEntity
  8
0
100
AcDbLine
 62
7
  6
CONTINUOUS
 10
6.498745863
 20
3.4252183547
 11
6.7744551913
 21
3.4252183547
  0
LINE
  5
23D
100
AcDbEntity
  8
0
100
AcDbLine
 62
7
  6
CONTINUOUS
 10
6.7654130272
 20
3.4330933547
 11
6.5077880272
 21
3.4330933547
  0
LINE
  5
23E
100
AcDbEntity
  8
0
100
AcDbLine
 62
7
  6
CONTINUOUS
 10
6.4976630272
 20
3.5489683547
 11
6.7755380272
 21
3.5489683547
  0
LINE
  5
23F
100
AcDbEntity
  8
0
100
AcDbLine
 62
7
  6
CONTINUOUS
 10
6.4387880272
 20
3.5680933547
 11
6.8344130272
 21
3.5680933547
  0
LINE
  5
240
100
AcDbEntity
  8
0
100
AcDbLine
 62
7
  6
CONTINUOUS
 10
6.5678672387
 20
3.5977183547
 11
6.4275380272
 21
3.5977183547
  0
LINE
  5
241
100
AcDbEntity
  8
0
100
AcDbLine
 62
7
  6
CONTINUOUS
 10
6.7053312218
 20
3.5977183547
 11
6.8456630272
 21
3.5977183547
  0
LINE
  5
242
100
AcDbEntity
  8
0
100
AcDbLine
 62
7
  6
CONTINUOUS
 10
6.5678698326
 20
3.7514683547
 11
6.4275380272
 21
3.7514683547
  0
LINE
  5
243
100
AcDbEntity
  8
0
100
AcDbLine
 62
7
  6
CONTINUOUS
 10
6.7053338156
 20
3.7514683547
 11
6.8456630272
 21
3.7514683547
  0
LWPOLYLINE
  5
244
100
AcDbEntity
  8
0
100
AcDbPolyline
 62
7
  6
CONTINUOUS
 90
3
 70
0
 10
6.6179560141
 20
3.8646410701
 10
6.6183162243
 20
3.8646496984
 10
6.6194521101
 20
3.8646770624
  0
LINE
  5
245
100
AcDbEntity
  8
0
100
AcDbLine
 62
7
  6
CONTINUOUS
 10
6.6137255272
 20
3.8645431719
 11
6.6245145189
 21
3.8648009925
  0
LINE
  5
246
100
AcDbEntity
  8
0
100
AcDbLine
 62
7
  6
CONTINUOUS
 10
6.6245145189
 20
3.8644257678
 11
6.6137255272
 21
3.8641677488
  0
LWPOLYLINE
  5
247
100
AcDbEntity
  8
0
100
AcDbPolyline
 62
7
  6
CONTINUOUS
 90
3
 70
0
 10
6.6172660036
 20
3.8642492395
 10
6.6169367919
 20
3.8642414197
 10
6.6166189262
 20
3.8642338828
  0
LINE
  5
248
100
AcDbEntity
  8
0
100
AcDbLine
 62
7
  6
CONTINUOUS
 10
6.4381534089
 20
3.7814683547
 11
6.8350476454
 21
3.7814683547
  0
LINE
  5
249
100
AcDbEntity
  8
0
100
AcDbLine
 62
7
  6
CONTINUOUS
 10
6.4485380272
 20
3.7874683547
 11
6.8246630272
 21
3.7874683547
  0
LINE
  5
24A
100
AcDbEntity
  8
0
100
AcDbLine
 62
7
  6
CONTINUOUS
 10
6.4387880272
 20
3.7930933547
 11
6.8344130272
 21
3.7930933547
  0
LINE
  5
24B
100
AcDbEntity
  8
0
100
AcDbLine
 62
7
  6
CONTINUOUS
 10
6.4387880272
 20
3.8198248911
 11
6.8344130272
 21
3.8198248911
  0
LINE
  5
24C
100
AcDbEntity
  8
0
100
AcDbLine
 62
7
  6
CONTINUOUS
 10
6.4471203692
 20
3.8281572332
 11
6.8260806851
 21
3.8281572332
  0
LINE
  5
24D
100
AcDbEntity
  8
0
100
AcDbLine
 62
7
  6
CONTINUOUS
 10
6.4661592936
 20
3.8343433547
 11
6.8070417607
 21
3.8343433547
  0
LINE
  5
24E
100
AcDbEntity
  8
0
100
AcDbLine
 62
7
  6
CONTINUOUS
 10
6.4901663351
 20
3.8426335341
 11
6.7830347192
 21
3.8426335341
  0
LINE
  5
24F
100
AcDbEntity
  8
0
100
AcDbLine
 62
7
  6
CONTINUOUS
 10
6.5690773931
 20
3.860392307
 11
6.3707059205
 21
3.860392307
  0
LINE
  5
250
100
AcDbEntity
  8
0
100
AcDbLine
 62
7
  6
CONTINUOUS
 10
6.7041236612
 20
3.860392307
 11
6.9024951338
 21
3.860392307
  0
LINE
  5
251
100
AcDbEntity
  8
0
100
AcDbLine
 62
7
  6
CONTINUOUS
 10
6.8919574735
 20
3.8763597473
 11
6.3812435808
 21
3.8763597473
  0
LINE
  5
252
100
AcDbEntity
  8
0
100
AcDbLine
 62
7
  6
CONTINUOUS
 10
6.8866944977
 20
3.8874246987
 11
6.3865065566
 21
3.8874246987
  0
LINE
  5
253
100
AcDbEntity
  8
0
100
AcDbLine
 62
7
  6
CONTINUOUS
 10
6.6574703956
 20
3.8645561185
 11
6.6581394487
 21
3.8645376399
  0
LINE
  5
254
100
AcDbEntity
  8
0
100
AcDbLine
 62
7
  6
CONTINUOUS
 10
6.6613505272
 20
3.8640761851
 11
6.6505615354
 21
3.8643757184
  0
LINE
  5
255
100
AcDbEntity
  8
0
100
AcDbLine
 62
7
  6
CONTINUOUS
 10
6.6505615354
 20
3.8647509816
 11
6.6613505272
 21
3.8644516786
  0
LINE
  5
256
100
AcDbEntity
  8
0
100
AcDbLine
 62
7
  6
CONTINUOUS
 10
6.6505615354
 20
3.8647509816
 11
6.6509991584
 21
3.8647384467
  0
LINE
  5
257
100
AcDbEntity
  8
0
100
AcDbLine
 62
7
  6
CONTINUOUS
 10
6.6241798627
 20
3.8610404612
 11
6.6255834119
 21
3.8609710776
  0
LINE
  5
258
100
AcDbEntity
  8
0
100
AcDbLine
 62
7
  6
CONTINUOUS
 10
6.4387880272
 20
3.5680933547
 11
6.4976630272
 21
3.5489683547
  0
LINE
  5
259
100
AcDbEntity
  8
0
100
AcDbLine
 62
7
  6
CONTINUOUS
 10
3.8815270346
 20
5.0844991911
 11
3.8831904078
 21
5.0828516031
  0
LINE
  5
25A
100
AcDbEntity
  8
0
100
AcDbLine
 62
7
  6
CONTINUOUS
 10
6.4081840609
 20
4.3030525673
 11
6.8650169934
 21
4.3030525673
  0
LINE
  5
25B
100
AcDbEntity
  8
0
100
AcDbLine
 62
7
  6
CONTINUOUS
 10
6.4173650742
 20
4.3078009141
 11
6.8558359801
 21
4.3078009141
  0
LINE
  5
25C
100
AcDbEntity
  8
0
100
AcDbLine
 62
7
  6
CONTINUOUS
 10
6.4228505272
 20
4.3153009141
 11
6.8503505272
 21
4.3153009141
  0
LINE
  5
25D
100
AcDbEntity
  8
0
100
AcDbLine
 62
7
  6
CONTINUOUS
 10
3.3516019485
 20
4.6401028891
 11
3.3217024271
 21
4.6446781588
  0
LINE
  5
25E
100
AcDbEntity
  8
0
100
AcDbLine
 62
7
  6
CONTINUOUS
 10
3.2428848742
 20
4.6567389392
 11
3.2519120414
 21
4.6553575885
  0
LINE
  5
25F
100
AcDbEntity
  8
0
100
AcDbLine
 62
7
  6
CONTINUOUS
 10
3.252391335
 20
4.6552842463
 11
3.3096753827
 21
4.6465185552
  0
LINE
  5
260
100
AcDbEntity
  8
0
100
AcDbLine
 62
7
  6
CONTINUOUS
 10
3.3731296413
 20
4.6368086892
 11
3.4030500859
 21
4.6322302178
  0
LINE
  5
261
100
AcDbEntity
  8
0
100
AcDbLine
 62
7
  6
CONTINUOUS
 10
3.4278684725
 20
4.6284324709
 11
3.4577889171
 21
4.6238539995
  0
LINE
  5
262
100
AcDbEntity
  8
0
100
AcDbLine
 62
7
  6
CONTINUOUS
 10
3.4793061483
 20
4.6205614005
 11
3.5092265929
 21
4.6159829291
  0
LINE
  5
263
100
AcDbEntity
  8
0
100
AcDbLine
 62
7
  6
CONTINUOUS
 10
3.5212385257
 20
4.6141448451
 11
3.5880336842
 21
4.6039237495
  0
LINE
  5
264
100
AcDbEntity
  8
0
100
AcDbLine
 62
7
  6
CONTINUOUS
 10
3.2391349267
 20
4.6614029332
 11
3.3146531082
 21
4.6498470275
  0
LINE
  5
265
100
AcDbEntity
  8
0
100
AcDbLine
 62
7
  6
CONTINUOUS
 10
3.3179420181
 20
4.6493437536
 11
3.3565854856
 21
4.6434304721
  0
LINE
  5
266
100
AcDbEntity
  8
0
100
AcDbLine
 62
7
  6
CONTINUOUS
 10
3.3693796939
 20
4.6414726831
 11
3.4080231614
 21
4.6355594017
  0
LINE
  5
267
100
AcDbEntity
  8
0
100
AcDbLine
 62
7
  6
CONTINUOUS
 10
3.4241185251
 20
4.6330964649
 11
3.4627619926
 21
4.6271831834
  0
LINE
  5
268
100
AcDbEntity
  8
0
100
AcDbLine
 62
7
  6
CONTINUOUS
 10
3.4755562008
 20
4.6252253945
 11
3.5141996684
 21
4.619312113
  0
LINE
  5
269
100
AcDbEntity
  8
0
100
AcDbLine
 62
7
  6
CONTINUOUS
 10
3.5174885783
 20
4.618808839
 11
3.5930067598
 21
4.6072529334
  0
LINE
  5
26A
100
AcDbEntity
  8
0
100
AcDbLine
 62
7
  6
CONTINUOUS
 10
3.1556769748
 20
4.6854135542
 11
3.6798258583
 21
4.6052075043
  0
LINE
  5
26B
100
AcDbEntity
  8
0
100
AcDbLine
 62
7
  6
CONTINUOUS
 10
6.8070417607
 20
3.8343433547
 11
6.8260806851
 21
3.8281572332
  0
LINE
  5
26C
100
AcDbEntity
  8
0
100
AcDbLine
 62
7
  6
CONTINUOUS
 10
3.1286068201
 20
4.7747806622
 11
3.7323817024
 21
4.6823901222
  0
LINE
  5
26D
100
AcDbEntity
  8
0
100
AcDbLine
 62
7
  6
CONTINUOUS
 10
3.1431852755
 20
4.8106153301
 11
3.7291863799
 21
4.7209445604
  0
LINE
  5
26E
100
AcDbEntity
  8
0
100
AcDbLine
 62
7
  6
CONTINUOUS
 10
6.4387880272
 20
3.7930933547
 11
6.4485380272
 21
3.7874683547
  0
LINE
  5
26F
100
AcDbEntity
  8
0
100
AcDbLine
 62
7
  6
CONTINUOUS
 10
6.2830965685
 20
3.7375135906
 11
6.2523130972
 21
3.7590684093
  0
LINE
  5
270
100
AcDbEntity
  8
0
100
AcDbLine
 62
7
  6
CONTINUOUS
 10
3.7954466155
 20
4.9494292683
 11
3.791841106
 21
4.9499809888
  0
LINE
  5
271
100
AcDbEntity
  8
0
100
AcDbLine
 62
7
  6
CONTINUOUS
 10
6.8246630272
 20
3.7874683547
 11
6.8350476454
 21
3.7814683547
  0
LINE
  5
272
100
AcDbEntity
  8
0
100
AcDbLine
 62
7
  6
CONTINUOUS
 10
6.9901044858
 20
3.6116731189
 11
7.0208879572
 21
3.5901183002
  0
LINE
  5
273
100
AcDbEntity
  8
0
100
AcDbLine
 62
7
  6
CONTINUOUS
 10
3.7912540539
 20
4.9775666961
 11
3.8454455832
 21
4.9782980108
  0
LINE
  5
274
100
AcDbEntity
  8
0
100
AcDbLine
 62
7
  6
CONTINUOUS
 10
3.8453511841
 20
4.9981110955
 11
3.7945038712
 21
4.997426236
  0
LINE
  5
275
100
AcDbEntity
  8
0
100
AcDbLine
 62
7
  6
CONTINUOUS
 10
6.4661592936
 20
3.8343433547
 11
6.4471203692
 21
3.8281572332
  0
LINE
  5
276
100
AcDbEntity
  8
0
100
AcDbLine
 62
7
  6
CONTINUOUS
 10
3.8803663603
 20
5.3279511487
 11
3.8833190826
 21
5.327965226
  0
LINE
  5
277
100
AcDbEntity
  8
0
100
AcDbLine
 62
7
  6
CONTINUOUS
 10
3.8166014106
 20
5.4211571308
 11
3.8123295137
 21
5.4218108229
  0
LINE
  5
278
100
AcDbEntity
  8
0
100
AcDbLine
 62
7
  6
CONTINUOUS
 10
3.3129565794
 20
5.5954802023
 11
3.8018903682
 21
5.5206628191
  0
LINE
  5
279
100
AcDbEntity
  8
0
100
AcDbLine
 62
7
  6
CONTINUOUS
 10
3.3183600935
 20
5.6270203824
 11
3.8061659176
 21
5.552375602
  0
LINE
  5
27A
100
AcDbEntity
  8
0
100
AcDbLine
 62
7
  6
CONTINUOUS
 10
3.3640107191
 20
5.6859306125
 11
3.7802208116
 21
5.6222415186
  0
LINE
  5
27B
100
AcDbEntity
  8
0
100
AcDbLine
 62
7
  6
CONTINUOUS
 10
3.8494709302
 20
5.410692717
 11
3.8095805408
 21
5.4175305405
  0
LINE
  5
27C
100
AcDbEntity
  8
0
100
AcDbLine
 62
7
  6
CONTINUOUS
 10
6.8260806851
 20
3.8281572332
 11
6.8344130272
 21
3.8198248911
  0
LINE
  5
27D
100
AcDbEntity
  8
0
100
AcDbLine
 62
7
  6
CONTINUOUS
 10
6.1491005272
 20
1.5820300407
 11
6.1491005272
 21
1.5407800407
  0
LINE
  5
27E
100
AcDbEntity
  8
0
100
AcDbLine
 62
7
  6
CONTINUOUS
 10
6.2523130972
 20
3.5901183002
 11
6.2523130972
 21
3.7590684093
  0
LINE
  5
27F
100
AcDbEntity
  8
0
100
AcDbLine
 62
7
  6
CONTINUOUS
 10
6.2830965685
 20
3.6116731189
 11
6.2830965685
 21
3.7375135906
  0
LINE
  5
280
100
AcDbEntity
  8
0
100
AcDbLine
 62
7
  6
CONTINUOUS
 10
6.2925380272
 20
3.6036842711
 11
6.2925380272
 21
3.7455024384
  0
LINE
  5
281
100
AcDbEntity
  8
0
100
AcDbLine
 62
7
  6
CONTINUOUS
 10
6.3018617116
 20
3.6029993698
 11
6.3018617116
 21
3.7461873397
  0
LINE
  5
282
100
AcDbEntity
  8
0
100
AcDbLine
 62
7
  6
CONTINUOUS
 10
6.4485380272
 20
3.7874683547
 11
6.4381534089
 21
3.7814683547
  0
LINE
  5
283
100
AcDbEntity
  8
0
100
AcDbLine
 62
7
  6
CONTINUOUS
 10
6.4228505272
 20
5.5745840062
 11
6.8503505272
 21
5.5745840062
  0
LINE
  5
284
100
AcDbEntity
  8
0
100
AcDbLine
 62
7
  6
CONTINUOUS
 10
3.7807028767
 20
5.6239201872
 11
3.3640527034
 21
5.6876766229
  0
LINE
  5
285
100
AcDbEntity
  8
0
100
AcDbLine
 62
7
  6
CONTINUOUS
 10
3.7821209469
 20
5.6331873174
 11
3.3654707736
 21
5.6969437531
  0
LINE
  5
286
100
AcDbEntity
  8
0
100
AcDbLine
 62
7
  6
CONTINUOUS
 10
3.7853700426
 20
5.634586961
 11
3.362788906
 21
5.6992509616
  0
LINE
  5
287
100
AcDbEntity
  8
0
100
AcDbLine
 62
7
  6
CONTINUOUS
 10
3.8066410955
 20
5.7735939138
 11
3.3840599588
 21
5.8382579145
  0
LINE
  5
288
100
AcDbEntity
  8
0
100
AcDbLine
 62
7
  6
CONTINUOUS
 10
6.4228505272
 20
4.3153009141
 11
6.4228505272
 21
5.5745840062
  0
LINE
  5
289
100
AcDbEntity
  8
0
100
AcDbLine
 62
7
  6
CONTINUOUS
 10
6.4266005272
 20
4.3153009141
 11
6.4266005272
 21
4.3078009141
  0
LINE
  5
28A
100
AcDbEntity
  8
0
100
AcDbLine
 62
7
  6
CONTINUOUS
 10
6.4374132735
 20
3.7179271246
 11
6.4374132735
 21
3.6312595848
  0
LINE
  5
28B
100
AcDbEntity
  8
0
100
AcDbLine
 62
7
  6
CONTINUOUS
 10
6.4387880272
 20
3.8198248911
 11
6.4387880272
 21
3.7930933547
  0
LINE
  5
28C
100
AcDbEntity
  8
0
100
AcDbLine
 62
7
  6
CONTINUOUS
 10
6.5077880272
 20
3.5489683547
 11
6.5077880272
 21
3.4330933547
  0
LINE
  5
28D
100
AcDbEntity
  8
0
100
AcDbLine
 62
7
  6
CONTINUOUS
 10
6.5409755272
 20
3.4252183547
 11
6.5409755272
 21
3.4330933547
  0
LINE
  5
28E
100
AcDbEntity
  8
0
100
AcDbLine
 62
7
  6
CONTINUOUS
 10
6.480127984
 20
3.4086903095
 11
6.4397180578
 21
3.0700933547
  0
LINE
  5
28F
100
AcDbEntity
  8
0
100
AcDbLine
 62
7
  6
CONTINUOUS
 10
6.4471203692
 20
3.8281572332
 11
6.4387880272
 21
3.8198248911
  0
LINE
  5
290
100
AcDbEntity
  8
0
100
AcDbLine
 62
7
  6
CONTINUOUS
 10
6.2830965685
 20
3.6116731189
 11
6.2523130972
 21
3.5901183002
  0
LINE
  5
291
100
AcDbEntity
  8
0
100
AcDbLine
 62
7
  6
CONTINUOUS
 10
6.8344130272
 20
3.7930933547
 11
6.8246630272
 21
3.7874683547
  0
LINE
  5
292
100
AcDbEntity
  8
0
100
AcDbLine
 62
7
  6
CONTINUOUS
 10
6.8344130272
 20
3.5680933547
 11
6.7755380272
 21
3.5489683547
  0
LINE
  5
293
100
AcDbEntity
  8
0
100
AcDbLine
 62
7
  6
CONTINUOUS
 10
6.6047255272
 20
3.8530619686
 11
6.6047255272
 21
3.8588182373
  0
LINE
  5
294
100
AcDbEntity
  8
0
100
AcDbLine
 62
7
  6
CONTINUOUS
 10
6.6047255272
 20
3.8603707289
 11
6.6047255272
 21
3.8640279621
  0
LINE
  5
295
100
AcDbEntity
  8
0
100
AcDbLine
 62
7
  6
CONTINUOUS
 10
6.6132645189
 20
3.8620271862
 11
6.6132645189
 21
3.8631642361
  0
LINE
  5
296
100
AcDbEntity
  8
0
100
AcDbLine
 62
7
  6
CONTINUOUS
 10
6.6137255272
 20
3.8560262585
 11
6.6137255272
 21
3.8539281406
  0
LINE
  5
297
100
AcDbEntity
  8
0
100
AcDbLine
 62
7
  6
CONTINUOUS
 10
6.6137255272
 20
3.8589493011
 11
6.6137255272
 21
3.8593287818
  0
LINE
  5
298
100
AcDbEntity
  8
0
100
AcDbLine
 62
7
  6
CONTINUOUS
 10
6.6137255272
 20
3.8641677488
 11
6.6137255272
 21
3.8645431719
  0
LINE
  5
299
100
AcDbEntity
  8
0
100
AcDbLine
 62
7
  6
CONTINUOUS
 10
6.618689355
 20
3.8612584444
 11
6.618689355
 21
3.8616361188
  0
LINE
  5
29A
100
AcDbEntity
  8
0
100
AcDbLine
 62
7
  6
CONTINUOUS
 10
6.6197722205
 20
3.8586296133
 11
6.6197722205
 21
3.8590093454
  0
LINE
  5
29B
100
AcDbEntity
  8
0
100
AcDbLine
 62
7
  6
CONTINUOUS
 10
6.6245145189
 20
3.8644257678
 11
6.6245145189
 21
3.8648009925
  0
LINE
  5
29C
100
AcDbEntity
  8
0
100
AcDbLine
 62
7
  6
CONTINUOUS
 10
6.6260316496
 20
3.8500310142
 11
6.6260316496
 21
3.8504176361
  0
LINE
  5
29D
100
AcDbEntity
  8
0
100
AcDbLine
 62
7
  6
CONTINUOUS
 10
6.6490444047
 20
3.8499854511
 11
6.6490444047
 21
3.8503721102
  0
LINE
  5
29E
100
AcDbEntity
  8
0
100
AcDbLine
 62
7
  6
CONTINUOUS
 10
6.6505615354
 20
3.8643757184
 11
6.6505615354
 21
3.8647509816
  0
LINE
  5
29F
100
AcDbEntity
  8
0
100
AcDbLine
 62
7
  6
CONTINUOUS
 10
6.6553038338
 20
3.8585605171
 11
6.6553038338
 21
3.8589403036
  0
LINE
  5
2A0
100
AcDbEntity
  8
0
100
AcDbLine
 62
7
  6
CONTINUOUS
 10
6.6613505272
 20
3.8538346126
 11
6.6613505272
 21
3.8559331399
  0
LINE
  5
2A1
100
AcDbEntity
  8
0
100
AcDbLine
 62
7
  6
CONTINUOUS
 10
6.6613505272
 20
3.8588567467
 11
6.6613505272
 21
3.8592363002
  0
LINE
  5
2A2
100
AcDbEntity
  8
0
100
AcDbLine
 62
7
  6
CONTINUOUS
 10
6.6613505272
 20
3.8640761851
 11
6.6613505272
 21
3.8644516786
  0
LINE
  5
2A3
100
AcDbEntity
  8
0
100
AcDbLine
 62
7
  6
CONTINUOUS
 10
6.6681005272
 20
3.8640624604
 11
6.6681005272
 21
3.8629332673
  0
LINE
  5
2A4
100
AcDbEntity
  8
0
100
AcDbLine
 62
7
  6
CONTINUOUS
 10
6.6681005272
 20
3.8588428735
 11
6.6681005272
 21
3.8530869024
  0
LINE
  5
2A5
100
AcDbEntity
  8
0
100
AcDbLine
 62
7
  6
CONTINUOUS
 10
6.7322255272
 20
3.4252183547
 11
6.7322255272
 21
3.4330933547
  0
LINE
  5
2A6
100
AcDbEntity
  8
0
100
AcDbLine
 62
7
  6
CONTINUOUS
 10
6.7654130272
 20
3.5489683547
 11
6.7654130272
 21
3.4330933547
  0
LINE
  5
2A7
100
AcDbEntity
  8
0
100
AcDbLine
 62
7
  6
CONTINUOUS
 10
6.9901044858
 20
3.7375135906
 11
7.0208879572
 21
3.7590684093
  0
LINE
  5
2A8
100
AcDbEntity
  8
0
100
AcDbLine
 62
7
  6
CONTINUOUS
 10
6.7930730703
 20
3.4086903095
 11
6.8334829965
 21
3.0700933547
  0
LINE
  5
2A9
100
AcDbEntity
  8
0
100
AcDbLine
 62
7
  6
CONTINUOUS
 10
6.8344130272
 20
3.8198248911
 11
6.8344130272
 21
3.7930933547
  0
LINE
  5
2AA
100
AcDbEntity
  8
0
100
AcDbLine
 62
7
  6
CONTINUOUS
 10
6.8357877808
 20
3.6312595859
 11
6.8357877808
 21
3.7179271249
  0
LINE
  5
2AB
100
AcDbEntity
  8
0
100
AcDbLine
 62
7
  6
CONTINUOUS
 10
6.8466005272
 20
4.3153009141
 11
6.8466005272
 21
4.3078009141
  0
LINE
  5
2AC
100
AcDbEntity
  8
0
100
AcDbLine
 62
7
  6
CONTINUOUS
 10
6.8503505272
 20
4.3153009141
 11
6.8503505272
 21
5.5745840062
  0
LINE
  5
2AD
100
AcDbEntity
  8
0
100
AcDbLine
 62
7
  6
CONTINUOUS
 10
6.9713393427
 20
3.6029993698
 11
6.9713393427
 21
3.7461873397
  0
LINE
  5
2AE
100
AcDbEntity
  8
0
100
AcDbLine
 62
7
  6
CONTINUOUS
 10
6.9806630272
 20
3.6036842711
 11
6.9806630272
 21
3.7455024384
  0
LINE
  5
2AF
100
AcDbEntity
  8
0
100
AcDbLine
 62
7
  6
CONTINUOUS
 10
6.9901044858
 20
3.6116731189
 11
6.9901044858
 21
3.7375135906
  0
LINE
  5
2B0
100
AcDbEntity
  8
0
100
AcDbLine
 62
7
  6
CONTINUOUS
 10
7.0208879572
 20
3.5901183002
 11
7.0208879572
 21
3.7590684093
  0
LINE
  5
2B1
100
AcDbEntity
  8
0
100
AcDbLine
 62
7
  6
CONTINUOUS
 10
7.1241005272
 20
1.5820300407
 11
7.1241005272
 21
1.5407800407
  0
ARC
  5
2B2
100
AcDbEntity
  8
0
100
AcDbCircle
 62
7
  6
CONTINUOUS
 10
4.2276211618
 20
3.3512711291
 40
2.2027293653
100
AcDbArc
 50
349.412565011
 51
7.0660429456
  0
ARC
  5
2B3
100
AcDbEntity
  8
0
100
AcDbCircle
 62
7
  6
CONTINUOUS
 10
4.2276211618
 20
3.3512711291
 40
2.2027293653
100
AcDbArc
 50
9.660646143
 51
13.3637247155
  0
ARC
  5
2B4
100
AcDbEntity
  8
0
100
AcDbCircle
 62
7
  6
CONTINUOUS
 10
5.2321791961
 20
2.0367278601
 40
1.166296331
100
AcDbArc
 50
348.2654948351
 51
20.0012924602
  0
ARC
  5
2B5
100
AcDbEntity
  8
0
100
AcDbCircle
 62
7
  6
CONTINUOUS
 10
3.1635047223
 20
4.7365681129
 40
0.05175
100
AcDbArc
 50
132.4041286657
 51
261.3
  0
ARC
  5
2B6
100
AcDbEntity
  8
0
100
AcDbCircle
 62
7
  6
CONTINUOUS
 10
3.6876536058
 20
4.656362063
 40
0.05175
100
AcDbArc
 50
261.3
 51
30.1958713343
  0
ARC
  5
2B7
100
AcDbEntity
  8
0
100
AcDbCircle
 62
7
  6
CONTINUOUS
 10
3.0982608182
 20
4.8080089659
 40
0.045
100
AcDbArc
 50
312.4041286657
 51
3.3203842552
  0
ARC
  5
2B8
100
AcDbEntity
  8
0
100
AcDbCircle
 62
7
  6
CONTINUOUS
 10
3.4584588715
 20
4.6282321713
 40
0.0044291339
100
AcDbArc
 50
261.3
 51
346.3
  0
ARC
  5
2B9
100
AcDbEntity
  8
0
100
AcDbCircle
 62
7
  6
CONTINUOUS
 10
3.4285384269
 20
4.6328106427
 40
0.0044291339
100
AcDbArc
 50
176.3
 51
261.3
  0
ARC
  5
2BA
100
AcDbEntity
  8
0
100
AcDbCircle
 62
7
  6
CONTINUOUS
 10
3.5098965473
 20
4.6203611008
 40
0.0044291339
100
AcDbArc
 50
261.3
 51
346.3
  0
ARC
  5
2BB
100
AcDbEntity
  8
0
100
AcDbCircle
 62
7
  6
CONTINUOUS
 10
3.4799761027
 20
4.6249395722
 40
0.0044291339
100
AcDbArc
 50
176.3
 51
261.3
  0
ARC
  5
2BC
100
AcDbEntity
  8
0
100
AcDbCircle
 62
7
  6
CONTINUOUS
 10
3.5518289248
 20
4.6139445454
 40
0.0044291339
100
AcDbArc
 50
261.3
 51
346.3
  0
ARC
  5
2BD
100
AcDbEntity
  8
0
100
AcDbCircle
 62
7
  6
CONTINUOUS
 10
3.5219084802
 20
4.6185230168
 40
0.0044291339
100
AcDbArc
 50
176.3
 51
261.3
  0
ARC
  5
2BE
100
AcDbEntity
  8
0
100
AcDbCircle
 62
7
  6
CONTINUOUS
 10
3.5791983404
 20
4.6097564363
 40
0.0044291339
100
AcDbArc
 50
261.3
 51
346.3
  0
ARC
  5
2BF
100
AcDbEntity
  8
0
100
AcDbCircle
 62
7
  6
CONTINUOUS
 10
3.2530601269
 20
4.6596625959
 40
0.0044291339
100
AcDbArc
 50
176.3
 51
261.3
  0
ARC
  5
2C0
100
AcDbEntity
  8
0
100
AcDbCircle
 62
7
  6
CONTINUOUS
 10
3.2804295425
 20
4.6554744868
 40
0.0044291339
100
AcDbArc
 50
176.3
 51
261.3
  0
ARC
  5
2C1
100
AcDbEntity
  8
0
100
AcDbCircle
 62
7
  6
CONTINUOUS
 10
3.3103499871
 20
4.6508960154
 40
0.0044291339
100
AcDbArc
 50
261.3
 51
346.3
  0
ARC
  5
2C2
100
AcDbEntity
  8
0
100
AcDbCircle
 62
7
  6
CONTINUOUS
 10
3.3223619199
 20
4.6490579314
 40
0.0044291339
100
AcDbArc
 50
176.3
 51
261.3
  0
ARC
  5
2C3
100
AcDbEntity
  8
0
100
AcDbCircle
 62
7
  6
CONTINUOUS
 10
3.2435548286
 20
4.6611171109
 40
0.0044291339
100
AcDbArc
 50
176.3000000044
 51
261.3
  0
ARC
  5
2C4
100
AcDbEntity
  8
0
100
AcDbCircle
 62
7
  6
CONTINUOUS
 10
3.5887036387
 20
4.6083019213
 40
0.0044291339
100
AcDbArc
 50
261.3
 51
346.2999999956
  0
ARC
  5
2C5
100
AcDbEntity
  8
0
100
AcDbCircle
 62
7
  6
CONTINUOUS
 10
3.3522823645
 20
4.64447946
 40
0.0044291339
100
AcDbArc
 50
261.3
 51
346.3
  0
ARC
  5
2C6
100
AcDbEntity
  8
0
100
AcDbCircle
 62
7
  6
CONTINUOUS
 10
3.3737995957
 20
4.6411868609
 40
0.0044291339
100
AcDbArc
 50
176.3
 51
261.3
  0
ARC
  5
2C7
100
AcDbEntity
  8
0
100
AcDbCircle
 62
7
  6
CONTINUOUS
 10
3.4037200403
 20
4.6366083895
 40
0.0044291339
100
AcDbArc
 50
261.3
 51
346.3
  0
ARC
  5
2C8
100
AcDbEntity
  8
0
100
AcDbCircle
 62
7
  6
CONTINUOUS
 10
2.3262090573
 20
5.2516560002
 40
1.5
100
AcDbArc
 50
339.2796157448
 51
348.3762187194
  0
ARC
  5
2C9
100
AcDbEntity
  8
0
100
AcDbCircle
 62
7
  6
CONTINUOUS
 10
2.3262090573
 20
5.2516560002
 40
1.5
100
AcDbArc
 50
6.4883249817
 51
10.3311955299
  0
ARC
  5
2CA
100
AcDbEntity
  8
0
100
AcDbCircle
 62
7
  6
CONTINUOUS
 10
2.3832377683
 20
5.2707776502
 40
1.4307018583
100
AcDbArc
 50
356.657344645
 51
4.9393818782
  0
ARC
  5
2CB
100
AcDbEntity
  8
0
100
AcDbCircle
 62
7
  6
CONTINUOUS
 10
3.3695696235
 20
5.6344800432
 40
0.05175
100
AcDbArc
 50
96.166521336
 51
188.2879469452
  0
ARC
  5
2CC
100
AcDbEntity
  8
0
100
AcDbCircle
 62
7
  6
CONTINUOUS
 10
3.2671505635
 20
5.6195607215
 40
0.05175
100
AcDbArc
 50
332.2688044701
 51
8.2879469452
  0
ARC
  5
2CD
100
AcDbEntity
  8
0
100
AcDbCircle
 62
7
  6
CONTINUOUS
 10
4.6406671861
 20
4.8974941388
 40
1.5
100
AcDbArc
 50
152.2688044701
 51
183.3203842552
  0
ARC
  5
2CE
100
AcDbEntity
  8
0
100
AcDbCircle
 62
7
  6
CONTINUOUS
 10
3.7712756995
 20
4.7050232172
 40
0.045
100
AcDbArc
 50
159.2796157448
 51
210.1958713343
  0
ARC
  5
2CF
100
AcDbEntity
  8
0
100
AcDbCircle
 62
7
  6
CONTINUOUS
 10
3.8449475356
 20
5.0152040992
 40
0.0369094488
100
AcDbArc
 50
270.7731595888
 51
0.2731595949
  0
ARC
  5
2D0
100
AcDbEntity
  8
0
100
AcDbCircle
 62
7
  6
CONTINUOUS
 10
3.8800734973
 20
5.0797048436
 40
0.0044291339
100
AcDbArc
 50
0.2730396967
 51
45.2730368898
  0
ARC
  5
2D1
100
AcDbEntity
  8
0
100
AcDbCircle
 62
7
  6
CONTINUOUS
 10
3.8802390093
 20
5.044988626
 40
0.0044291339
100
AcDbArc
 50
315.2732823001
 51
0.2732794932
  0
ARC
  5
2D2
100
AcDbEntity
  8
0
100
AcDbCircle
 62
7
  6
CONTINUOUS
 10
5.1071766644
 20
5.5745839972
 40
1.7431738627
100
AcDbArc
 50
0.0000002989
 51
171.2999997011
  0
ARC
  5
2D3
100
AcDbEntity
  8
0
100
AcDbCircle
 62
7
  6
CONTINUOUS
 10
5.1071766651
 20
5.5745840062
 40
1.315673862
100
AcDbArc
 50
0.0
 51
171.3
  0
ARC
  5
2D4
100
AcDbEntity
  8
0
100
AcDbCircle
 62
7
  6
CONTINUOUS
 10
3.9828447926
 20
5.1773370585
 40
0.1716319951
100
AcDbArc
 50
176.6530287093
 51
178.5807003063
  0
ARC
  5
2D5
100
AcDbEntity
  8
0
100
AcDbCircle
 62
7
  6
CONTINUOUS
 10
3.7595304618
 20
5.5748076496
 40
0.05175
100
AcDbArc
 50
334.3120530548
 51
66.433478664
  0
ARC
  5
2D6
100
AcDbEntity
  8
0
100
AcDbCircle
 62
7
  6
CONTINUOUS
 10
3.8528013734
 20
5.5299435544
 40
0.05175
100
AcDbArc
 50
154.3120530548
 51
190.3311955299
  0
ARC
  5
2D7
100
AcDbEntity
  8
0
100
AcDbCircle
 62
7
  6
CONTINUOUS
 10
3.8432354548
 20
5.374313791
 40
0.0369094488
100
AcDbArc
 50
0.2731595949
 51
80.2738166472
  0
ARC
  5
2D8
100
AcDbEntity
  8
0
100
AcDbCircle
 62
7
  6
CONTINUOUS
 10
3.8657271755
 20
5.3017821372
 40
0.0177165354
100
AcDbArc
 50
326.715849833
 51
33.8304693569
  0
ARC
  5
2D9
100
AcDbEntity
  8
0
100
AcDbCircle
 62
7
  6
CONTINUOUS
 10
3.8656027485
 20
5.3278807621
 40
0.0177165354
100
AcDbArc
 50
326.715849833
 51
33.8304693569
  0
ARC
  5
2DA
100
AcDbEntity
  8
0
100
AcDbCircle
 62
7
  6
CONTINUOUS
 10
3.8654783215
 20
5.3539793871
 40
0.0177165354
100
AcDbArc
 50
326.715849833
 51
33.8304693569
  0
ARC
  5
2DB
100
AcDbEntity
  8
0
100
AcDbCircle
 62
7
  6
CONTINUOUS
 10
3.8654267821
 20
5.3647897915
 40
0.0177165354
100
AcDbArc
 50
342.5067376628
 51
33.8326021211
  0
ARC
  5
2DC
100
AcDbEntity
  8
0
100
AcDbCircle
 62
7
  6
CONTINUOUS
 10
3.8657787149
 20
5.2909717328
 40
0.0177165354
100
AcDbArc
 50
326.715849833
 51
18.0395815271
  0
ARC
  5
2DD
100
AcDbEntity
  8
0
100
AcDbCircle
 62
7
  6
CONTINUOUS
 10
6.8635877318
 20
1.6664511341
 40
0.13875
100
AcDbArc
 50
2.3043891819
 51
73.5621513853
  0
ARC
  5
2DE
100
AcDbEntity
  8
0
100
AcDbCircle
 62
7
  6
CONTINUOUS
 10
6.4096133225
 20
1.6664511341
 40
0.13875
100
AcDbArc
 50
106.4378486147
 51
177.6956108181
  0
ARC
  5
2DF
100
AcDbEntity
  8
0
100
AcDbCircle
 62
7
  6
CONTINUOUS
 10
7.1135177472
 20
1.6870300407
 40
0.09375
100
AcDbArc
 50
189.2068962213
 51
269.5922459124
  0
ARC
  5
2E0
100
AcDbEntity
  8
0
100
AcDbCircle
 62
7
  6
CONTINUOUS
 10
6.1596833071
 20
1.6870300407
 40
0.09375
100
AcDbArc
 50
270.4077540876
 51
350.7931037787
  0
ARC
  5
2E1
100
AcDbEntity
  8
0
100
AcDbCircle
 62
7
  6
CONTINUOUS
 10
6.3422255272
 20
2.4407800407
 40
0.015
100
AcDbArc
 50
90.0
 51
200.0012924602
  0
ARC
  5
2E2
100
AcDbEntity
  8
0
100
AcDbCircle
 62
7
  6
CONTINUOUS
 10
6.9309755272
 20
2.4407800407
 40
0.015
100
AcDbArc
 50
339.9987075398
 51
90.0
  0
ARC
  5
2E3
100
AcDbEntity
  8
0
100
AcDbCircle
 62
7
  6
CONTINUOUS
 10
7.1128505272
 20
1.5820300407
 40
0.01125
100
AcDbArc
 50
0.0
 51
90.0
  0
ARC
  5
2E4
100
AcDbEntity
  8
0
100
AcDbCircle
 62
7
  6
CONTINUOUS
 10
6.1603505272
 20
1.5820300407
 40
0.01125
100
AcDbArc
 50
90.0
 51
180.0
  0
ARC
  5
2E5
100
AcDbEntity
  8
0
100
AcDbCircle
 62
7
  6
CONTINUOUS
 10
6.2650823532
 20
3.0909352904
 40
0.175875
100
AcDbArc
 50
322.1589593476
 51
353.1942133227
  0
ARC
  5
2E6
100
AcDbEntity
  8
0
100
AcDbCircle
 62
7
  6
CONTINUOUS
 10
6.4316630272
 20
2.9615308547
 40
0.0350625
100
AcDbArc
 50
142.1589593476
 51
270.0
  0
ARC
  5
2E7
100
AcDbEntity
  8
0
100
AcDbCircle
 62
7
  6
CONTINUOUS
 10
6.3928505272
 20
2.9240509141
 40
0.0225
100
AcDbArc
 50
90.0
 51
270.0
  0
ARC
  5
2E8
100
AcDbEntity
  8
0
100
AcDbCircle
 62
7
  6
CONTINUOUS
 10
6.3598010104
 20
3.5964261003
 40
0.51
100
AcDbArc
 50
17.6982774827
 51
21.2739720086
  0
ARC
  5
2E9
100
AcDbEntity
  8
0
100
AcDbCircle
 62
7
  6
CONTINUOUS
 10
6.6254133398
 20
3.3910589913
 40
0.4697674879
100
AcDbArc
 50
90.8193330614
 51
92.5240312434
  0
ARC
  5
2EA
100
AcDbEntity
  8
0
100
AcDbCircle
 62
7
  6
CONTINUOUS
 10
6.6254122718
 20
3.3910981114
 40
0.4697283565
100
AcDbArc
 50
90.0532725582
 51
90.8192710492
  0
ARC
  5
2EB
100
AcDbEntity
  8
0
100
AcDbCircle
 62
7
  6
CONTINUOUS
 10
6.6073452688
 20
3.5063678444
 40
0.3554493426
100
AcDbArc
 50
86.8435466616
 51
88.1711074581
  0
ARC
  5
2EC
100
AcDbEntity
  8
0
100
AcDbCircle
 62
7
  6
CONTINUOUS
 10
6.6073458148
 20
3.5062842921
 40
0.3551553528
100
AcDbArc
 50
87.2832130739
 51
88.1696811633
  0
ARC
  5
2ED
100
AcDbEntity
  8
0
100
AcDbCircle
 62
7
  6
CONTINUOUS
 10
6.3703970425
 20
3.5390308547
 40
0.09375
100
AcDbArc
 50
49.1478439971
 51
136.9739483152
  0
ARC
  5
2EE
100
AcDbEntity
  8
0
100
AcDbCircle
 62
7
  6
CONTINUOUS
 10
6.498745863
 20
3.4064683547
 40
0.01875
100
AcDbArc
 50
90.0
 51
173.1942133227
  0
ARC
  5
2EF
100
AcDbEntity
  8
0
100
AcDbCircle
 62
7
  6
CONTINUOUS
 10
6.2865380272
 20
3.6067582066
 40
0.006
100
AcDbArc
 50
0.0
 51
125.0
  0
ARC
  5
2F0
100
AcDbEntity
  8
0
100
AcDbCircle
 62
7
  6
CONTINUOUS
 10
6.2974754504
 20
3.6070933547
 40
0.006
100
AcDbArc
 50
214.6234510997
 51
316.9739483152
  0
ARC
  5
2F1
100
AcDbEntity
  8
0
100
AcDbCircle
 62
7
  6
CONTINUOUS
 10
6.6366005272
 20
2.6547550407
 40
0.346875
100
AcDbArc
 50
128.4346508177
 51
215.0031605553
  0
ARC
  5
2F2
100
AcDbEntity
  8
0
100
AcDbCircle
 62
7
  6
CONTINUOUS
 10
6.6366005272
 20
2.6547550407
 40
0.346875
100
AcDbArc
 50
324.9968394447
 51
51.5653491823
  0
ARC
  5
2F3
100
AcDbEntity
  8
0
100
AcDbCircle
 62
7
  6
CONTINUOUS
 10
7.0081187011
 20
3.0909352904
 40
0.175875
100
AcDbArc
 50
186.8057866773
 51
217.8410406524
  0
ARC
  5
2F4
100
AcDbEntity
  8
0
100
AcDbCircle
 62
7
  6
CONTINUOUS
 10
6.8415380272
 20
2.9615308547
 40
0.0350625
100
AcDbArc
 50
270.0
 51
37.8410406524
  0
ARC
  5
2F5
100
AcDbEntity
  8
0
100
AcDbCircle
 62
7
  6
CONTINUOUS
 10
6.8803505272
 20
2.9240509141
 40
0.0225
100
AcDbArc
 50
270.0
 51
90.0
  0
ARC
  5
2F6
100
AcDbEntity
  8
0
100
AcDbCircle
 62
7
  6
CONTINUOUS
 10
6.9134000439
 20
3.5964261003
 40
0.51
100
AcDbArc
 50
158.7260279914
 51
162.3017225173
  0
ARC
  5
2F7
100
AcDbEntity
  8
0
100
AcDbCircle
 62
7
  6
CONTINUOUS
 10
6.6366005272
 20
3.3765004908
 40
0.488592864
100
AcDbArc
 50
72.5600569007
 51
107.4399430993
  0
ARC
  5
2F8
100
AcDbEntity
  8
0
100
AcDbCircle
 62
7
  6
CONTINUOUS
 10
6.6366005272
 20
3.3765004908
 40
0.4884500502
100
AcDbArc
 50
88.3621338526
 51
91.4178480318
  0
ARC
  5
2F9
100
AcDbEntity
  8
0
100
AcDbCircle
 62
7
  6
CONTINUOUS
 10
6.6366005272
 20
3.3765004908
 40
0.4882034619
100
AcDbArc
 50
92.6856036555
 51
93.7435273377
  0
ARC
  5
2FA
100
AcDbEntity
  8
0
100
AcDbCircle
 62
7
  6
CONTINUOUS
 10
6.6366005272
 20
3.3765004908
 40
0.4882034619
100
AcDbArc
 50
86.3005758311
 51
87.0940831313
  0
ARC
  5
2FB
100
AcDbEntity
  8
0
100
AcDbCircle
 62
7
  6
CONTINUOUS
 10
6.6366005272
 20
3.3765004908
 40
0.4880749405
100
AcDbArc
 50
88.3608747281
 51
91.4189379408
  0
ARC
  5
2FC
100
AcDbEntity
  8
0
100
AcDbCircle
 62
7
  6
CONTINUOUS
 10
6.6366005272
 20
3.3765004908
 40
0.4879367419
100
AcDbArc
 50
88.3604103509
 51
91.4193399097
  0
ARC
  5
2FD
100
AcDbEntity
  8
0
100
AcDbCircle
 62
7
  6
CONTINUOUS
 10
6.6366005272
 20
3.3765004908
 40
0.4874516346
100
AcDbArc
 50
86.2948620161
 51
87.0895972974
  0
ARC
  5
2FE
100
AcDbEntity
  8
0
100
AcDbCircle
 62
7
  6
CONTINUOUS
 10
6.6366005272
 20
3.3765004908
 40
0.4833698627
100
AcDbArc
 50
86.2635300805
 51
87.0649992434
  0
ARC
  5
2FF
100
AcDbEntity
  8
0
100
AcDbCircle
 62
7
  6
CONTINUOUS
 10
6.6366005272
 20
3.3765004908
 40
0.4833698627
100
AcDbArc
 50
92.7124791208
 51
93.7810160049
  0
ARC
  5
300
100
AcDbEntity
  8
0
100
AcDbCircle
 62
7
  6
CONTINUOUS
 10
6.6366005272
 20
3.3765004908
 40
0.4829908076
100
AcDbArc
 50
92.7146094905
 51
93.7839876976
  0
ARC
  5
301
100
AcDbEntity
  8
0
100
AcDbCircle
 62
7
  6
CONTINUOUS
 10
6.6366005272
 20
3.3765004908
 40
0.4829908076
100
AcDbArc
 50
86.260593499
 51
87.0626938112
  0
ARC
  5
302
100
AcDbEntity
  8
0
100
AcDbCircle
 62
7
  6
CONTINUOUS
 10
6.6366005272
 20
3.3765004908
 40
0.4828022232
100
AcDbArc
 50
87.7798595392
 51
91.9974769037
  0
ARC
  5
303
100
AcDbEntity
  8
0
100
AcDbCircle
 62
7
  6
CONTINUOUS
 10
6.6366005272
 20
3.3765004908
 40
0.482422722
100
AcDbArc
 50
87.7781121746
 51
91.9990488704
  0
ARC
  5
304
100
AcDbEntity
  8
0
100
AcDbCircle
 62
7
  6
CONTINUOUS
 10
6.6366005272
 20
3.3765004908
 40
0.4804914315
100
AcDbArc
 50
87.3160257238
 51
92.4601659302
  0
ARC
  5
305
100
AcDbEntity
  8
0
100
AcDbCircle
 62
7
  6
CONTINUOUS
 10
6.9028040118
 20
3.5390308547
 40
0.09375
100
AcDbArc
 50
43.0260516848
 51
130.852155959
  0
ARC
  5
306
100
AcDbEntity
  8
0
100
AcDbCircle
 62
7
  6
CONTINUOUS
 10
6.7744551913
 20
3.4064683547
 40
0.01875
100
AcDbArc
 50
6.8057866773
 51
90.0
  0
ARC
  5
307
100
AcDbEntity
  8
0
100
AcDbCircle
 62
7
  6
CONTINUOUS
 10
6.9866630272
 20
3.6067582066
 40
0.006
100
AcDbArc
 50
55.0
 51
180.0
  0
ARC
  5
308
100
AcDbEntity
  8
0
100
AcDbCircle
 62
7
  6
CONTINUOUS
 10
6.9757256039
 20
3.6070933547
 40
0.006
100
AcDbArc
 50
223.0260516848
 51
325.3765489003
  0
ARC
  5
309
100
AcDbEntity
  8
0
100
AcDbCircle
 62
7
  6
CONTINUOUS
 10
8.0410218582
 20
2.0367278601
 40
1.166296331
100
AcDbArc
 50
159.9987075398
 51
191.7345051649
  0
ARC
  5
30A
100
AcDbEntity
  8
0
100
AcDbCircle
 62
7
  6
CONTINUOUS
 10
9.0455798925
 20
3.3512711291
 40
2.2027293653
100
AcDbArc
 50
172.9339570544
 51
190.587434989
  0
ARC
  5
30B
100
AcDbEntity
  8
0
100
AcDbCircle
 62
7
  6
CONTINUOUS
 10
9.0455798925
 20
3.3512711291
 40
2.2027293653
100
AcDbArc
 50
166.6362752845
 51
170.339353857
  0
ARC
  5
30C
100
AcDbEntity
  8
0
100
AcDbCircle
 62
7
  6
CONTINUOUS
 10
6.3634884843
 20
3.7638740355
 40
0.51
100
AcDbArc
 50
337.4255442891
 51
340.9862257999
  0
ARC
  5
30D
100
AcDbEntity
  8
0
100
AcDbCircle
 62
7
  6
CONTINUOUS
 10
6.90971257
 20
3.7638740355
 40
0.51
100
AcDbArc
 50
199.0137742001
 51
202.5744557109
  0
ARC
  5
30E
100
AcDbEntity
  8
0
100
AcDbCircle
 62
7
  6
CONTINUOUS
 10
6.5473690416
 20
4.0781060669
 40
0.3892314855
100
AcDbArc
 50
330.6665205283
 51
35.3047110485
  0
ARC
  5
30F
100
AcDbEntity
  8
0
100
AcDbCircle
 62
7
  6
CONTINUOUS
 10
6.7258320127
 20
4.0781060669
 40
0.3892314855
100
AcDbArc
 50
144.6952889515
 51
209.3334794717
  0
ARC
  5
310
100
AcDbEntity
  8
0
100
AcDbCircle
 62
7
  6
CONTINUOUS
 10
6.6573844629
 20
3.7259031935
 40
0.138760853
100
AcDbArc
 50
103.0410635227
 51
103.5067340781
  0
ARC
  5
311
100
AcDbEntity
  8
0
100
AcDbCircle
 62
7
  6
CONTINUOUS
 10
6.657282388
 20
3.7263440166
 40
0.1383083661
100
AcDbArc
 50
102.6824074414
 51
103.0410756096
  0
CIRCLE
  5
312
100
AcDbEntity
  8
0
100
AcDbCircle
 62
7
  6
CONTINUOUS
 10
6.6366005272
 20
3.6745933547
 40
0.103125
  0
ARC
  5
313
100
AcDbEntity
  8
0
100
AcDbCircle
 62
7
  6
CONTINUOUS
 10
6.1931630272
 20
3.6745933547
 40
0.103125
100
AcDbArc
 50
55.0
 51
305.0
  0
ARC
  5
314
100
AcDbEntity
  8
0
100
AcDbCircle
 62
7
  6
CONTINUOUS
 10
7.0800380272
 20
3.6745933547
 40
0.103125
100
AcDbArc
 50
235.0
 51
125.0
  0
ARC
  5
315
100
AcDbEntity
  8
0
100
AcDbCircle
 62
7
  6
CONTINUOUS
 10
6.3703970425
 20
3.8101558547
 40
0.09375
100
AcDbArc
 50
223.0260516848
 51
310.8521560214
  0
ARC
  5
316
100
AcDbEntity
  8
0
100
AcDbCircle
 62
7
  6
CONTINUOUS
 10
6.9028040118
 20
3.8101558547
 40
0.09375
100
AcDbArc
 50
229.1478440028
 51
316.9739483152
  0
ARC
  5
317
100
AcDbEntity
  8
0
100
AcDbCircle
 62
7
  6
CONTINUOUS
 10
6.8897255272
 20
3.8634259141
 40
0.013125
100
AcDbArc
 50
346.6362752845
 51
80.2090962064
  0
ARC
  5
318
100
AcDbEntity
  8
0
100
AcDbCircle
 62
7
  6
CONTINUOUS
 10
6.3834755272
 20
3.8634259141
 40
0.013125
100
AcDbArc
 50
99.7909037936
 51
193.3637247155
  0
ARC
  5
319
100
AcDbEntity
  8
0
100
AcDbCircle
 62
7
  6
CONTINUOUS
 10
6.7796630272
 20
3.8319006784
 40
0.01125
100
AcDbArc
 50
12.5429356846
 51
72.5600569007
  0
ARC
  5
31A
100
AcDbEntity
  8
0
100
AcDbCircle
 62
7
  6
CONTINUOUS
 10
6.4935380272
 20
3.8319006784
 40
0.01125
100
AcDbArc
 50
107.4399430993
 51
167.4570643154
  0
ARC
  5
31B
100
AcDbEntity
  8
0
100
AcDbCircle
 62
7
  6
CONTINUOUS
 10
6.4173650742
 20
4.2965509141
 40
0.01125
100
AcDbArc
 50
90.0
 51
144.6952889515
  0
ARC
  5
31C
100
AcDbEntity
  8
0
100
AcDbCircle
 62
7
  6
CONTINUOUS
 10
6.8558359801
 20
4.2965509141
 40
0.01125
100
AcDbArc
 50
35.3047110485
 51
90.0
  0
ARC
  5
31D
100
AcDbEntity
  8
0
100
AcDbCircle
 62
7
  6
CONTINUOUS
 10
6.8932328714
 20
3.8837505091
 40
0.0075
100
AcDbArc
 50
150.6665205283
 51
260.2090962064
  0
ARC
  5
31E
100
AcDbEntity
  8
0
100
AcDbCircle
 62
7
  6
CONTINUOUS
 10
6.3799681829
 20
3.8837505091
 40
0.0075
100
AcDbArc
 50
279.7909037936
 51
29.3334794717
  0
ARC
  5
31F
100
AcDbEntity
  8
0
100
AcDbCircle
 62
7
  6
CONTINUOUS
 10
6.2865380272
 20
3.7424285028
 40
0.006
100
AcDbArc
 50
235.0
 51
360.0
  0
ARC
  5
320
100
AcDbEntity
  8
0
100
AcDbCircle
 62
7
  6
CONTINUOUS
 10
6.2974754504
 20
3.7420933547
 40
0.006
100
AcDbArc
 50
43.0260516848
 51
145.3765489003
  0
ARC
  5
321
100
AcDbEntity
  8
0
100
AcDbCircle
 62
7
  6
CONTINUOUS
 10
6.9866630272
 20
3.7424285028
 40
0.006
100
AcDbArc
 50
180.0
 51
305.0
  0
ARC
  5
322
100
AcDbEntity
  8
0
100
AcDbCircle
 62
7
  6
CONTINUOUS
 10
6.9757256039
 20
3.7420933547
 40
0.006
100
AcDbArc
 50
34.6234510997
 51
136.9739483152
  0
SPLINE
  5
323
100
AcDbEntity
  8
0
100
AcDbSpline
 62
7
  6
CONTINUOUS
 70
0
 71
3
 72
26
 73
22
 74
0
 42
0.0000001
 43
0.0000001
 44
0.0000000001
 40
0.0
 40
0.0
 40
0.0
 40
0.0
 40
0.0073986442
 40
0.01553126
 40
0.0248786029
 40
0.0357525666
 40
0.0483421717
 40
0.0627553919
 40
0.0790520917
 40
0.0972591483
 40
0.1173833808
 40
0.1394150293
 40
0.189105383
 40
0.2460716328
 40
0.3099409778
 40
0.3802550224
 40
0.4564799723
 40
0.538012399
 40
0.6241850131
 40
0.8074803912
 40
1.0
 40
1.0
 40
1.0
 40
1.0
 10
3.791841106
 20
4.9499809888
 30
0.0
 10
3.7917700696
 20
4.9499918589
 30
0.0
 10
3.791624006
 20
4.9500393642
 30
0.0
 10
3.7914223772
 20
4.9501767732
 30
0.0
 10
3.7912321478
 20
4.9503780875
 30
0.0
 10
3.7910520749
 20
4.9506421826
 30
0.0
 10
3.7908815216
 20
4.9509688645
 30
0.0
 10
3.79072056
 20
4.9513578674
 30
0.0
 10
3.7905695742
 20
4.9518086846
 30
0.0
 10
3.7904290388
 20
4.952320563
 30
0.0
 10
3.790299481
 20
4.9528925475
 30
0.0
 10
3.7901355143
 20
4.9537696295
 30
0.0
 10
3.7899670741
 20
4.9550089454
 30
0.0
 10
3.7898236772
 20
4.9566595139
 30
0.0
 10
3.7897363922
 20
4.9585145282
 30
0.0
 10
3.7897091222
 20
4.9605583799
 30
0.0
 10
3.7897454083
 20
4.9627736407
 30
0.0
 10
3.7898480796
 20
4.9651409855
 30
0.0
 10
3.790081216
 20
4.9685425861
 30
0.0
 10
3.7905494213
 20
4.9730070532
 30
0.0
 10
3.791088689
 20
4.976618602
 30
0.0
 10
3.7914038523
 20
4.9784618001
 30
0.0
  0
SPLINE
  5
324
100
AcDbEntity
  8
0
100
AcDbSpline
 62
7
  6
CONTINUOUS
 70
0
 71
3
 72
28
 73
24
 74
0
 42
0.0000001
 43
0.0000001
 44
0.0000000001
 40
0.0
 40
0.0
 40
0.0
 40
0.0
 40
0.1932242736
 40
0.2869485601
 40
0.3776089063
 40
0.46436
 40
0.5463876487
 40
0.6229309325
 40
0.6933027221
 40
0.7569101029
 40
0.8132729808
 40
0.8386270783
 40
0.8620538753
 40
0.8835362787
 40
0.9030734528
 40
0.920681002
 40
0.9364004841
 40
0.9503052588
 40
0.9625188373
 40
0.9732347236
 40
0.9827507932
 40
0.9914921441
 40
1.0
 40
1.0
 40
1.0
 40
1.0
 10
3.8086265008
 20
5.3939635615
 30
0.0
 10
3.8084652547
 20
5.395830564
 30
0.0
 10
3.8082889488
 20
5.398609331
 30
0.0
 10
3.808194958
 20
5.4022705938
 30
0.0
 10
3.8081966023
 20
5.4049004982
 30
0.0
 10
3.8082683868
 20
5.4074159444
 30
0.0
 10
3.8084076458
 20
5.4097914718
 30
0.0
 10
3.8086103368
 20
5.4120030011
 30
0.0
 10
3.8088711819
 20
5.4140285282
 30
0.0
 10
3.8091840059
 20
5.4158484207
 30
0.0
 10
3.8094919781
 20
5.4172246395
 30
0.0
 10
3.8097628661
 20
5.4182079077
 30
0.0
 10
3.8099675318
 20
5.4188580632
 30
0.0
 10
3.8101800078
 20
5.4194460855
 30
0.0
 10
3.8103993935
 20
5.4199709364
 30
0.0
 10
3.8106248601
 20
5.4204317927
 30
0.0
 10
3.8108556118
 20
5.4208280653
 30
0.0
 10
3.8110910556
 20
5.4211593756
 30
0.0
 10
3.8113308199
 20
5.4214255527
 30
0.0
 10
3.8115750259
 20
5.421626339
 30
0.0
 10
3.8118242711
 20
5.421760854
 30
0.0
 10
3.8120782671
 20
5.42182671
 30
0.0
 10
3.8122479511
 20
5.4218233038
 30
0.0
 10
3.8123295137
 20
5.4218108229
 30
0.0
  0
SPLINE
  5
325
100
AcDbEntity
  8
0
100
AcDbSpline
 62
7
  6
CONTINUOUS
 70
0
 71
3
 72
9
 73
5
 74
0
 42
0.0000001
 43
0.0000001
 44
0.0000000001
 40
0.0
 40
0.0
 40
0.0
 40
0.0
 40
0.4999976178
 40
1.0
 40
1.0
 40
1.0
 40
1.0
 10
3.7914038523
 20
4.9784618001
 30
0.0
 10
3.7971406347
 20
5.012012751
 30
0.0
 10
3.8062263362
 20
5.0795456031
 30
0.0
 10
3.8104200237
 20
5.1475604985
 30
0.0
 10
3.8112654536
 20
5.1815881975
 30
0.0
  0
SPLINE
  5
326
100
AcDbEntity
  8
0
100
AcDbSpline
 62
7
  6
CONTINUOUS
 70
0
 71
3
 72
19
 73
15
 74
0
 42
0.0000001
 43
0.0000001
 44
0.0000000001
 40
0.0
 40
0.0
 40
0.0
 40
0.0
 40
0.1873746065
 40
0.3674808026
 40
0.5335985964
 40
0.6798058732
 40
0.7439091782
 40
0.8013406947
 40
0.8517319621
 40
0.8948398284
 40
0.9306041912
 40
0.9592810175
 40
0.9817234995
 40
1.0
 40
1.0
 40
1.0
 40
1.0
 10
6.6159755272
 20
3.8565490561
 30
0.0
 10
6.615827617
 20
3.8565427013
 30
0.0
 10
6.6155377349
 20
3.8565248811
 30
0.0
 10
6.6151181059
 20
3.8564830009
 30
0.0
 10
6.6147328205
 20
3.8564279748
 30
0.0
 10
6.6144406937
 20
3.8563710296
 30
0.0
 10
6.6142354847
 20
3.8563194352
 30
0.0
 10
6.614105229
 20
3.8562807085
 30
0.0
 10
6.6139928297
 20
3.856240645
 30
0.0
 10
6.6138991813
 20
3.8561996209
 30
0.0
 10
6.613824856
 20
3.8561580204
 30
0.0
 10
6.6137702029
 20
3.8561159323
 30
0.0
 10
6.6137349167
 20
3.8560729527
 30
0.0
 10
6.6137255272
 20
3.856040699
 30
0.0
 10
6.6137255272
 20
3.8560262585
 30
0.0
  0
SPLINE
  5
327
100
AcDbEntity
  8
0
100
AcDbSpline
 62
7
  6
CONTINUOUS
 70
0
 71
3
 72
19
 73
15
 74
0
 42
0.0000001
 43
0.0000001
 44
0.0000000001
 40
0.0
 40
0.0
 40
0.0
 40
0.0
 40
0.0182884252
 40
0.0407654145
 40
0.0694850042
 40
0.1052917695
 40
0.1484366829
 40
0.1988568035
 40
0.2563072514
 40
0.3204187707
 40
0.466610733
 40
0.6326771211
 40
0.812708936
 40
1.0
 40
1.0
 40
1.0
 40
1.0
 10
6.6613505272
 20
3.8559331399
 30
0.0
 10
6.6613505272
 20
3.8559476008
 30
0.0
 10
6.6613411197
 20
3.8559799105
 30
0.0
 10
6.6613058314
 20
3.8560230241
 30
0.0
 10
6.6612511673
 20
3.8560653366
 30
0.0
 10
6.6611768271
 20
3.8561072377
 30
0.0
 10
6.6610831654
 20
3.8561486366
 30
0.0
 10
6.6609707582
 20
3.8561891454
 30
0.0
 10
6.660840502
 20
3.8562283852
 30
0.0
 10
6.6606353203
 20
3.8562807808
 30
0.0
 10
6.6603432353
 20
3.8563388694
 30
0.0
 10
6.6599579821
 20
3.8563954073
 30
0.0
 10
6.6595383645
 20
3.8564389355
 30
0.0
 10
6.6592484581
 20
3.856457894
 30
0.0
 10
6.6591005272
 20
3.8564648287
 30
0.0
  0
SPLINE
  5
328
100
AcDbEntity
  8
0
100
AcDbSpline
 62
7
  6
CONTINUOUS
 70
0
 71
3
 72
17
 73
13
 74
0
 42
0.0000001
 43
0.0000001
 44
0.0000000001
 40
0.0
 40
0.0
 40
0.0
 40
0.0
 40
0.0275516218
 40
0.0611740478
 40
0.1006902217
 40
0.1458838231
 40
0.2521818416
 40
0.3774679967
 40
0.5186094322
 40
0.6720479758
 40
0.8338886417
 40
1.0
 40
1.0
 40
1.0
 40
1.0
 10
6.6613505272
 20
3.8633233883
 30
0.0
 10
6.6612547235
 20
3.8633504902
 30
0.0
 10
6.6610398023
 20
3.8634028252
 30
0.0
 10
6.6606829148
 20
3.8634739999
 30
0.0
 10
6.6602611724
 20
3.8635449702
 30
0.0
 10
6.6595780321
 20
3.8636440349
 30
0.0
 10
6.6585844571
 20
3.8637603608
 30
0.0
 10
6.657243301
 20
3.8638856177
 30
0.0
 10
6.6557302121
 20
3.8639991718
 30
0.0
 10
6.654083755
 20
3.8640979784
 30
0.0
 10
6.6523460121
 20
3.8641793223
 30
0.0
 10
6.6511615663
 20
3.8642202879
 30
0.0
 10
6.6505615354
 20
3.8642374632
 30
0.0
  0
SPLINE
  5
329
100
AcDbEntity
  8
0
100
AcDbSpline
 62
7
  6
CONTINUOUS
 70
0
 71
3
 72
28
 73
24
 74
0
 42
0.0000001
 43
0.0000001
 44
0.0000000001
 40
0.0
 40
0.0
 40
0.0
 40
0.0
 40
0.0099938982
 40
0.0204584603
 40
0.0317912229
 40
0.0443034509
 40
0.0582208694
 40
0.0736969949
 40
0.0908337
 40
0.1096936637
 40
0.130312752
 40
0.1527046547
 40
0.1768679651
 40
0.2027871668
 40
0.2597766116
 40
0.3233696304
 40
0.3931366043
 40
0.4685476056
 40
0.5489844977
 40
0.633750671
 40
0.7220808096
 40
0.8131521593
 40
1.0
 40
1.0
 40
1.0
 40
1.0
 10
6.6681005272
 20
3.8530869024
 30
0.0
 10
6.6681005272
 20
3.8529758928
 30
0.0
 10
6.6680743666
 20
3.852747914
 30
0.0
 10
6.667958837
 20
3.8524117712
 30
0.0
 10
6.6677686532
 20
3.8520793183
 30
0.0
 10
6.6675055097
 20
3.8517509363
 30
0.0
 10
6.667170342
 20
3.8514265108
 30
0.0
 10
6.666763839
 20
3.8511061617
 30
0.0
 10
6.6662866215
 20
3.8507903081
 30
0.0
 10
6.6657394902
 20
3.8504794529
 30
0.0
 10
6.665123383
 20
3.8501742581
 30
0.0
 10
6.6644394416
 20
3.8498753739
 30
0.0
 10
6.6636889735
 20
3.8495835107
 30
0.0
 10
6.662565646
 20
3.8491921973
 30
0.0
 10
6.6610040886
 20
3.8487309311
 30
0.0
 10
6.6589488337
 20
3.8482318521
 30
0.0
 10
6.6566744281
 20
3.8477765542
 30
0.0
 10
6.6542011233
 20
3.8473699774
 30
0.0
 10
6.6515515242
 20
3.8470166977
 30
0.0
 10
6.6487506213
 20
3.8467207615
 30
0.0
 10
6.645825447
 20
3.8464855976
 30
0.0
 10
6.6417635371
 20
3.8462549668
 30
0.0
 10
6.638675981
 20
3.8461839502
 30
0.0
 10
6.6366005272
 20
3.8461804301
 30
0.0
  0
SPLINE
  5
32A
100
AcDbEntity
  8
0
100
AcDbSpline
 62
7
  6
CONTINUOUS
 70
0
 71
3
 72
95
 73
91
 74
0
 42
0.0000001
 43
0.0000001
 44
0.0000000001
 40
0.0
 40
0.0
 40
0.0
 40
0.0
 40
0.000002497
 40
0.0000099865
 40
0.0000224672
 40
0.0000399381
 40
0.0000623981
 40
0.0000898461
 40
0.0001597017
 40
0.0002494963
 40
0.000359221
 40
0.0004888671
 40
0.0006384259
 40
0.0009972463
 40
0.0014356125
 40
0.0019534349
 40
0.002550537
 40
0.0032267179
 40
0.0039817769
 40
0.0048155133
 40
0.0057277265
 40
0.0077866401
 40
0.0101561206
 40
0.012833585
 40
0.0158163474
 40
0.0191011647
 40
0.0226846147
 40
0.0265632136
 40
0.0307330381
 40
0.0399299538
 40
0.0502410044
 40
0.0616293878
 40
0.0740564478
 40
0.0874823648
 40
0.101866324
 40
0.1171669982
 40
0.1333428082
 40
0.150351977
 40
0.1867024077
 40
0.2258826114
 40
0.2675509281
 40
0.3113533862
 40
0.3569153899
 40
0.4038353602
 40
0.4516824347
 40
0.5000004382
 40
0.5483184372
 40
0.596165499
 40
0.6430854483
 40
0.6886474238
 40
0.7324498464
 40
0.7741181214
 40
0.8132982768
 40
0.8496486533
 40
0.8666577927
 40
0.8828335717
 40
0.8981342135
 40
0.9125181388
 40
0.9259440204
 40
0.9383710435
 40
0.9497593886
 40
0.9600703996
 40
0.9692672742
 40
0.9734370778
 40
0.9773156554
 40
0.9808990841
 40
0.9841838798
 40
0.9871666199
 40
0.9898440616
 40
0.9922135195
 40
0.9942724113
 40
0.9951846141
 40
0.9960183401
 40
0.9967733884
 40
0.997449558
 40
0.9980466478
 40
0.9985644566
 40
0.9990028079
 40
0.9993616133
 40
0.9995111647
 40
0.9996408039
 40
0.9997505222
 40
0.9998403111
 40
0.9999101619
 40
0.9999376078
 40
0.999960066
 40
0.9999775354
 40
0.9999900149
 40
0.9999975035
 40
1.0
 40
1.0
 40
1.0
 40
1.0
 10
6.8456630272
 20
3.5977183547
 30
0.0
 10
6.8456628962
 20
3.5977183547
 30
0.0
 10
6.8456629235
 20
3.5977191453
 30
0.0
 10
6.8456623151
 20
3.5977199621
 30
0.0
 10
6.8456617516
 20
3.5977219696
 30
0.0
 10
6.8456607515
 20
3.5977244765
 30
0.0
 10
6.8456595509
 20
3.5977278212
 30
0.0
 10
6.845657373
 20
3.5977337027
 30
0.0
 10
6.8456539921
 20
3.5977429211
 30
0.0
 10
6.8456491143
 20
3.5977561773
 30
0.0
 10
6.8456431597
 20
3.5977723825
 30
0.0
 10
6.8456361243
 20
3.5977915286
 30
0.0
 10
6.8456245869
 20
3.5978229391
 30
0.0
 10
6.8456074736
 20
3.5978695505
 30
0.0
 10
6.8455837162
 20
3.5979342973
 30
0.0
 10
6.8455556686
 20
3.5980107818
 30
0.0
 10
6.8455233531
 20
3.5980989859
 30
0.0
 10
6.8454867936
 20
3.5981988862
 30
0.0
 10
6.8454460145
 20
3.598310458
 30
0.0
 10
6.8454010403
 20
3.5984336765
 30
0.0
 10
6.8453327073
 20
3.5986211646
 30
0.0
 10
6.8452369941
 20
3.5988844011
 30
0.0
 10
6.8451100753
 20
3.5992348025
 30
0.0
 10
6.8449672087
 20
3.5996309604
 30
0.0
 10
6.8448087249
 20
3.6000725185
 30
0.0
 10
6.8446350335
 20
3.6005591014
 30
0.0
 10
6.8444465631
 20
3.601090295
 30
0.0
 10
6.844243749
 20
3.6016656488
 30
0.0
 10
6.843944981
 20
3.60251934
 30
0.0
 10
6.8435391741
 20
3.6036929912
 30
0.0
 10
6.8430181385
 20
3.6052273591
 30
0.0
 10
6.8424532165
 20
3.6069257029
 30
0.0
 10
6.8418496528
 20
3.608783313
 30
0.0
 10
6.841212948
 20
3.6107952883
 30
0.0
 10
6.840548895
 20
3.6129566102
 30
0.0
 10
6.8398634917
 20
3.6152621507
 30
0.0
 10
6.8391628986
 20
3.617706698
 30
0.0
 10
6.8381953438
 20
3.6212229676
 30
0.0
 10
6.8369890396
 20
3.6259245953
 30
0.0
 10
6.8356140892
 20
3.6319162953
 30
0.0
 10
6.834333759
 20
3.6383282277
 30
0.0
 10
6.8331991835
 20
3.6451073937
 30
0.0
 10
6.8322581052
 20
3.652194311
 30
0.0
 10
6.8315522975
 20
3.6595218684
 30
0.0
 10
6.8311146775
 20
3.6670152816
 30
0.0
 10
6.8309663874
 20
3.6745934235
 30
0.0
 10
6.8311146828
 20
3.6821715645
 30
0.0
 10
6.8315523079
 20
3.6896649754
 30
0.0
 10
6.8322581202
 20
3.6969925291
 30
0.0
 10
6.8331992024
 20
3.7040794414
 30
0.0
 10
6.834333781
 20
3.7108586013
 30
0.0
 10
6.8356141134
 20
3.7172705265
 30
0.0
 10
6.8369890651
 20
3.7232622185
 30
0.0
 10
6.8381953695
 20
3.727963839
 30
0.0
 10
6.8391629241
 20
3.7314801024
 30
0.0
 10
6.8398635168
 20
3.7339246447
 30
0.0
 10
6.8405489195
 20
3.7362301801
 30
0.0
 10
6.8412129716
 20
3.7383914967
 30
0.0
 10
6.8418496752
 20
3.7404034665
 30
0.0
 10
6.8424532377
 20
3.7422610709
 30
0.0
 10
6.8430181582
 20
3.7439594089
 30
0.0
 10
6.8435391921
 20
3.7454937708
 30
0.0
 10
6.8439449975
 20
3.7466674168
 30
0.0
 10
6.8442437642
 20
3.7475211038
 30
0.0
 10
6.8444465773
 20
3.7480964545
 30
0.0
 10
6.8446350466
 20
3.7486276449
 30
0.0
 10
6.8448087369
 20
3.7491142246
 30
0.0
 10
6.8449672196
 20
3.7495557793
 30
0.0
 10
6.8451100851
 20
3.7499519339
 30
0.0
 10
6.8452370028
 20
3.750302332
 30
0.0
 10
6.8453327149
 20
3.7505655658
 30
0.0
 10
6.8454010471
 20
3.7507530518
 30
0.0
 10
6.8454460207
 20
3.7508762688
 30
0.0
 10
6.8454867992
 20
3.7509878389
 30
0.0
 10
6.8455233581
 20
3.7510877375
 30
0.0
 10
6.8455556729
 20
3.7511759399
 30
0.0
 10
6.8455837199
 20
3.7512524223
 30
0.0
 10
6.8456074767
 20
3.7513171669
 30
0.0
 10
6.8456245895
 20
3.7513637763
 30
0.0
 10
6.8456361265
 20
3.7513951854
 30
0.0
 10
6.8456431616
 20
3.7514143304
 30
0.0
 10
6.8456491159
 20
3.7514305347
 30
0.0
 10
6.8456539934
 20
3.75144379
 30
0.0
 10
6.845657374
 20
3.7514530079
 30
0.0
 10
6.8456595517
 20
3.751458889
 30
0.0
 10
6.8456607521
 20
3.7514622334
 30
0.0
 10
6.8456617521
 20
3.7514647401
 30
0.0
 10
6.8456623154
 20
3.7514667475
 30
0.0
 10
6.8456629239
 20
3.7514675641
 30
0.0
 10
6.8456628962
 20
3.7514683547
 30
0.0
 10
6.8456630272
 20
3.7514683547
 30
0.0
  0
SPLINE
  5
32B
100
AcDbEntity
  8
0
100
AcDbSpline
 62
7
  6
CONTINUOUS
 70
0
 71
3
 72
28
 73
24
 74
0
 42
0.0000001
 43
0.0000001
 44
0.0000000001
 40
0.0
 40
0.0
 40
0.0
 40
0.0
 40
0.1863650221
 40
0.2773307048
 40
0.3656274558
 40
0.4504181131
 40
0.5309229121
 40
0.6064312787
 40
0.6763118852
 40
0.7400227092
 40
0.7971231938
 40
0.8230922887
 40
0.8473002556
 40
0.8697305294
 40
0.8903807466
 40
0.9092636872
 40
0.9264144061
 40
0.9418948719
 40
0.9558064984
 40
0.9683027559
 40
0.9796101711
 40
0.9900421372
 40
1.0
 40
1.0
 40
1.0
 40
1.0
 10
6.6366005272
 20
3.8461804301
 30
0.0
 10
6.6345074158
 20
3.8461768801
 30
0.0
 10
6.6313919067
 20
3.8462385278
 30
0.0
 10
6.6272910966
 20
3.8464585997
 30
0.0
 10
6.6243339629
 20
3.8466872542
 30
0.0
 10
6.6215003599
 20
3.8469779725
 30
0.0
 10
6.6188181113
 20
3.8473273267
 30
0.0
 10
6.6163129601
 20
3.8477312439
 30
0.0
 10
6.6140082063
 20
3.8481850957
 30
0.0
 10
6.6119247299
 20
3.8486838697
 30
0.0
 10
6.6103412302
 20
3.8491457728
 30
0.0
 10
6.6092018297
 20
3.849538151
 30
0.0
 10
6.6084405464
 20
3.8498310109
 30
0.0
 10
6.6077466822
 20
3.8501311027
 30
0.0
 10
6.6071215853
 20
3.8504376998
 30
0.0
 10
6.6065664319
 20
3.850750137
 30
0.0
 10
6.6060821884
 20
3.8510677357
 30
0.0
 10
6.6056696774
 20
3.8513899792
 30
0.0
 10
6.6053295339
 20
3.8517164367
 30
0.0
 10
6.6050624569
 20
3.8520469874
 30
0.0
 10
6.6048693969
 20
3.8523817579
 30
0.0
 10
6.6047520932
 20
3.8527203781
 30
0.0
 10
6.6047255272
 20
3.8529501293
 30
0.0
 10
6.6047255272
 20
3.8530619686
 30
0.0
  0
SPLINE
  5
32C
100
AcDbEntity
  8
0
100
AcDbSpline
 62
7
  6
CONTINUOUS
 70
0
 71
3
 72
25
 73
21
 74
0
 42
0.0000001
 43
0.0000001
 44
0.0000000001
 40
0.0
 40
0.0
 40
0.0
 40
0.0
 40
0.1932023116
 40
0.3789744451
 40
0.5502250418
 40
0.7004699957
 40
0.7659179536
 40
0.8240832534
 40
0.8744362733
 40
0.91653518
 40
0.9343815333
 40
0.9500503192
 40
0.9635242826
 40
0.9748011049
 40
0.9839099228
 40
0.9909322223
 40
0.9937253206
 40
0.9961016461
 40
0.9981481859
 40
1.0
 40
1.0
 40
1.0
 40
1.0
 10
6.6245145189
 20
3.8642875267
 30
0.0
 10
6.62378169
 20
3.8642693693
 30
0.0
 10
6.6223444512
 20
3.8642233226
 30
0.0
 10
6.6202589941
 20
3.8641251256
 30
0.0
 10
6.6183381427
 20
3.8640021748
 30
0.0
 10
6.6168750279
 20
3.8638786244
 30
0.0
 10
6.6158417794
 20
3.8637683117
 30
0.0
 10
6.615186742
 20
3.8636865815
 30
0.0
 10
6.6146213789
 20
3.8636028716
 30
0.0
 10
6.6142093502
 20
3.8635288691
 30
0.0
 10
6.6139289946
 20
3.8634678057
 30
0.0
 10
6.6137559842
 20
3.8634245921
 30
0.0
 10
6.6136087404
 20
3.8633815572
 30
0.0
 10
6.6134874589
 20
3.8633388324
 30
0.0
 10
6.6133923554
 20
3.8632965616
 30
0.0
 10
6.6133304007
 20
3.8632594023
 30
0.0
 10
6.6132955135
 20
3.8632288175
 30
0.0
 10
6.613277974
 20
3.8632075854
 30
0.0
 10
6.6132670883
 20
3.8631861307
 30
0.0
 10
6.6132645189
 20
3.8631712623
 30
0.0
 10
6.6132645189
 20
3.8631642361
 30
0.0
  0
SPLINE
  5
32D
100
AcDbEntity
  8
0
100
AcDbSpline
 62
7
  6
CONTINUOUS
 70
0
 71
3
 72
95
 73
91
 74
0
 42
0.0000001
 43
0.0000001
 44
0.0000000001
 40
0.0
 40
0.0
 40
0.0
 40
0.0
 40
0.0000024963
 40
0.0000099846
 40
0.0000224636
 40
0.0000399325
 40
0.0000623901
 40
0.0000898353
 40
0.0001596844
 40
0.0002494712
 40
0.0003591873
 40
0.0004888241
 40
0.000638373
 40
0.0009971732
 40
0.0014355197
 40
0.0019533244
 40
0.0025504106
 40
0.0032265771
 40
0.0039816228
 40
0.0048153464
 40
0.005727547
 40
0.0077864345
 40
0.0101558883
 40
0.0128333265
 40
0.0158160639
 40
0.0191008575
 40
0.0226842849
 40
0.0265628618
 40
0.0307326653
 40
0.0399295416
 40
0.0502405566
 40
0.0616289081
 40
0.0740559397
 40
0.0874818319
 40
0.1018657699
 40
0.1171664261
 40
0.1333422213
 40
0.1503513785
 40
0.1867017948
 40
0.2258819951
 40
0.2675503187
 40
0.3113527928
 40
0.3569148213
 40
0.4038348239
 40
0.4516819378
 40
0.4999999862
 40
0.5483180349
 40
0.5961651491
 40
0.6430851526
 40
0.688647182
 40
0.7324496572
 40
0.7741179821
 40
0.8132981839
 40
0.8496486019
 40
0.86665776
 40
0.8828335562
 40
0.8981342134
 40
0.9125181524
 40
0.9259440458
 40
0.9383710785
 40
0.9497594312
 40
0.9600704475
 40
0.969267325
 40
0.9734371291
 40
0.9773157067
 40
0.9808991348
 40
0.9841839291
 40
0.9871666672
 40
0.989844106
 40
0.9922135606
 40
0.9942724487
 40
0.9951846496
 40
0.9960183736
 40
0.9967734196
 40
0.9974495865
 40
0.9980466731
 40
0.9985644782
 40
0.9990028251
 40
0.9993616258
 40
0.999511175
 40
0.9996408119
 40
0.9997505282
 40
0.9998403152
 40
0.9999101645
 40
0.9999376098
 40
0.9999600674
 40
0.9999775363
 40
0.9999900154
 40
0.9999975037
 40
1.0
 40
1.0
 40
1.0
 40
1.0
 10
6.4275380272
 20
3.7514683547
 30
0.0
 10
6.4275381581
 20
3.7514683547
 30
0.0
 10
6.4275381303
 20
3.7514675641
 30
0.0
 10
6.4275387388
 20
3.7514667475
 30
0.0
 10
6.427539302
 20
3.7514647401
 30
0.0
 10
6.4275403019
 20
3.7514622336
 30
0.0
 10
6.4275415023
 20
3.7514588892
 30
0.0
 10
6.4275436799
 20
3.7514530083
 30
0.0
 10
6.4275470604
 20
3.7514437907
 30
0.0
 10
6.4275519378
 20
3.7514305356
 30
0.0
 10
6.427557892
 20
3.7514143317
 30
0.0
 10
6.427564927
 20
3.751395187
 30
0.0
 10
6.4275764639
 20
3.7513637784
 30
0.0
 10
6.4275935765
 20
3.7513171697
 30
0.0
 10
6.4276173332
 20
3.7512524257
 30
0.0
 10
6.4276453799
 20
3.751175944
 30
0.0
 10
6.4276776946
 20
3.7510877422
 30
0.0
 10
6.4277142533
 20
3.750987844
 30
0.0
 10
6.4277550317
 20
3.7508762743
 30
0.0
 10
6.4278000051
 20
3.7507530577
 30
0.0
 10
6.4278683371
 20
3.750565572
 30
0.0
 10
6.4279640491
 20
3.7503023387
 30
0.0
 10
6.4280909666
 20
3.7499519412
 30
0.0
 10
6.4282338319
 20
3.7495557872
 30
0.0
 10
6.4283923145
 20
3.7491142329
 30
0.0
 10
6.4285660046
 20
3.7486276536
 30
0.0
 10
6.4287544739
 20
3.7480964634
 30
0.0
 10
6.428957287
 20
3.7475211128
 30
0.0
 10
6.4292560537
 20
3.7466674257
 30
0.0
 10
6.4296618592
 20
3.7454937794
 30
0.0
 10
6.4301828934
 20
3.743959417
 30
0.0
 10
6.4307478143
 20
3.7422610781
 30
0.0
 10
6.4313513772
 20
3.7404034724
 30
0.0
 10
6.4319880814
 20
3.738391501
 30
0.0
 10
6.4326521341
 20
3.7362301825
 30
0.0
 10
6.4333375374
 20
3.733924645
 30
0.0
 10
6.4340381308
 20
3.7314801002
 30
0.0
 10
6.4350056864
 20
3.727963833
 30
0.0
 10
6.436211992
 20
3.7232622073
 30
0.0
 10
6.4375869449
 20
3.7172705084
 30
0.0
 10
6.4388672781
 20
3.7108585756
 30
0.0
 10
6.4400018571
 20
3.7040794076
 30
0.0
 10
6.440942939
 20
3.6969924869
 30
0.0
 10
6.4416487504
 20
3.6896649248
 30
0.0
 10
6.4420863739
 20
3.6821715057
 30
0.0
 10
6.442234667
 20
3.6745933569
 30
0.0
 10
6.442086374
 20
3.667015208
 30
0.0
 10
6.4416487508
 20
3.6595217888
 30
0.0
 10
6.4409429395
 20
3.6521942266
 30
0.0
 10
6.4400018577
 20
3.6451073057
 30
0.0
 10
6.4388672787
 20
3.6383281376
 30
0.0
 10
6.4375869456
 20
3.6319162045
 30
0.0
 10
6.4362119928
 20
3.6259245053
 30
0.0
 10
6.4350056872
 20
3.6212228794
 30
0.0
 10
6.4340381316
 20
3.6177066121
 30
0.0
 10
6.4333375382
 20
3.6152620672
 30
0.0
 10
6.4326521348
 20
3.6129565294
 30
0.0
 10
6.4319880821
 20
3.6107952107
 30
0.0
 10
6.4313513779
 20
3.6087832392
 30
0.0
 10
6.430747815
 20
3.6069256334
 30
0.0
 10
6.430182894
 20
3.6052272943
 30
0.0
 10
6.4296618598
 20
3.6036929317
 30
0.0
 10
6.4292560542
 20
3.6025192852
 30
0.0
 10
6.4289572875
 20
3.601665598
 30
0.0
 10
6.4287544744
 20
3.6010902473
 30
0.0
 10
6.428566005
 20
3.600559057
 30
0.0
 10
6.4283923148
 20
3.6000724776
 30
0.0
 10
6.4282338322
 20
3.5996309232
 30
0.0
 10
6.4280909669
 20
3.599234769
 30
0.0
 10
6.4279640493
 20
3.5988843714
 30
0.0
 10
6.4278683373
 20
3.5986211381
 30
0.0
 10
6.4278000053
 20
3.5984336524
 30
0.0
 10
6.4277550319
 20
3.5983104357
 30
0.0
 10
6.4277142535
 20
3.5981988659
 30
0.0
 10
6.4276776947
 20
3.5980989677
 30
0.0
 10
6.4276453801
 20
3.5980107659
 30
0.0
 10
6.4276173333
 20
3.597934284
 30
0.0
 10
6.4275935766
 20
3.59786954
 30
0.0
 10
6.427576464
 20
3.5978229312
 30
0.0
 10
6.427564927
 20
3.5977915226
 30
0.0
 10
6.4275578921
 20
3.5977723779
 30
0.0
 10
6.4275519379
 20
3.5977561739
 30
0.0
 10
6.4275470605
 20
3.5977429188
 30
0.0
 10
6.42754368
 20
3.5977337012
 30
0.0
 10
6.4275415023
 20
3.5977278202
 30
0.0
 10
6.427540302
 20
3.5977244759
 30
0.0
 10
6.427539302
 20
3.5977219693
 30
0.0
 10
6.4275387388
 20
3.5977199619
 30
0.0
 10
6.4275381303
 20
3.5977191453
 30
0.0
 10
6.4275381581
 20
3.5977183547
 30
0.0
 10
6.4275380272
 20
3.5977183547
 30
0.0
  0
LINE
  5
32E
100
AcDbEntity
  8
0
100
AcDbLine
 62
7
  6
CONTINUOUS
 10
3.8454455829
 20
4.9782981009
 11
3.8453511838
 21
4.9981110966
  0
SPLINE
  5
32F
100
AcDbEntity
  8
0
100
AcDbSpline
 62
7
  6
CONTINUOUS
 70
0
 71
3
 72
27
 73
23
 74
0
 42
0.0000001
 43
0.0000001
 44
0.0000000001
 40
0.0
 40
0.0
 40
0.0
 40
0.0
 40
0.1798268225
 40
0.3634738957
 40
0.453397258
 40
0.5400779451
 40
0.6220222184
 40
0.697856716
 40
0.7663213606
 40
0.8264772037
 40
0.8775806468
 40
0.8996355597
 40
0.9193283633
 40
0.9366534978
 40
0.9516595911
 40
0.9644167935
 40
0.9750121361
 40
0.9835723679
 40
0.99031621
 40
0.9955921501
 40
0.9978598823
 40
1.0
 40
1.0
 40
1.0
 40
1.0
 10
3.8581820974
 20
5.3765291503
 30
0.0
 10
3.8595179619
 20
5.3765343903
 30
0.0
 10
3.8622182134
 20
5.3765214718
 30
0.0
 10
3.8655856938
 20
5.3764431992
 30
0.0
 10
3.8682598182
 20
5.3763367533
 30
0.0
 10
3.8701779495
 20
5.3762369276
 30
0.0
 10
3.8719900643
 20
5.3761170204
 30
0.0
 10
3.8736651604
 20
5.375978972
 30
0.0
 10
3.8751762281
 20
5.3758243829
 30
0.0
 10
3.8765008791
 20
5.3756564577
 30
0.0
 10
3.8774792169
 20
5.3755009394
 30
0.0
 10
3.8781563822
 20
5.3753693863
 30
0.0
 10
3.878584829
 20
5.3752741794
 30
0.0
 10
3.8789591858
 20
5.3751778269
 30
0.0
 10
3.8792799079
 20
5.3750808294
 30
0.0
 10
3.8795479632
 20
5.3749836123
 30
0.0
 10
3.8797645846
 20
5.3748866267
 30
0.0
 10
3.8799314555
 20
5.3747897627
 30
0.0
 10
3.8800508987
 20
5.3746931741
 30
0.0
 10
3.8801158966
 20
5.3746066788
 30
0.0
 10
3.8801403559
 20
5.3745384902
 30
0.0
 10
3.8801443722
 20
5.3745056557
 30
0.0
 10
3.880144448
 20
5.3744897576
 30
0.0
  0
SPLINE
  5
330
100
AcDbEntity
  8
0
100
AcDbSpline
 62
7
  6
CONTINUOUS
 70
0
 71
3
 72
27
 73
23
 74
0
 42
0.0000001
 43
0.0000001
 44
0.0000000001
 40
0.0
 40
0.0
 40
0.0
 40
0.0
 40
0.0021434122
 40
0.0044143005
 40
0.0096957472
 40
0.0164439023
 40
0.0250074373
 40
0.0356053364
 40
0.0483645491
 40
0.0633721755
 40
0.0806983965
 40
0.1003919417
 40
0.1224473425
 40
0.1735509251
 40
0.2337059859
 40
0.3021691156
 40
0.3780014348
 40
0.4599430403
 40
0.5466206333
 40
0.6365406231
 40
0.8201804562
 40
1.0
 40
1.0
 40
1.0
 40
1.0
 10
3.8818565181
 20
5.0153800649
 30
0.0
 10
3.8818565941
 20
5.0153641418
 30
0.0
 10
3.8818528921
 20
5.0153312213
 30
0.0
 10
3.8818290904
 20
5.015262704
 30
0.0
 10
3.8817649338
 20
5.0151754586
 30
0.0
 10
3.8816464149
 20
5.0150775717
 30
0.0
 10
3.8814804729
 20
5.01497896
 30
0.0
 10
3.8812647838
 20
5.0148797535
 30
0.0
 10
3.880997666
 20
5.014779826
 30
0.0
 10
3.8806778824
 20
5.0146796162
 30
0.0
 10
3.8803044614
 20
5.0145795407
 30
0.0
 10
3.8798769421
 20
5.0144800967
 30
0.0
 10
3.8792010669
 20
5.0143418778
 30
0.0
 10
3.8782242597
 20
5.0141767812
 30
0.0
 10
3.8769012696
 20
5.0139959536
 30
0.0
 10
3.8753917451
 20
5.0138267041
 30
0.0
 10
3.8737180421
 20
5.0136724559
 30
0.0
 10
3.8719071541
 20
5.0135350698
 30
0.0
 10
3.8699900629
 20
5.0134167846
 30
0.0
 10
3.8673170781
 20
5.0132846551
 30
0.0
 10
3.8639504983
 20
5.0131741261
 30
0.0
 10
3.8612504919
 20
5.0131354201
 30
0.0
 10
3.8599146384
 20
5.0131279206
 30
0.0
  0
LINE
  5
331
100
AcDbEntity
  8
0
100
AcDbLine
 62
7
  6
CONTINUOUS
 10
3.8494713926
 20
5.4106925673
 11
3.8459120151
 21
5.3911839247
  0
SPLINE
  5
332
100
AcDbEntity
  8
0
100
AcDbSpline
 62
7
  6
CONTINUOUS
 70
0
 71
3
 72
13
 73
9
 74
0
 42
0.0000001
 43
0.0000001
 44
0.0000000001
 40
0.0
 40
0.0
 40
0.0
 40
0.0
 40
0.2648913524
 40
0.517500437
 40
0.6402610339
 40
0.7612100538
 40
0.8809280788
 40
1.0
 40
1.0
 40
1.0
 40
1.0
 10
3.8805238015
 20
5.294927776
 30
0.0
 10
3.8809869224
 20
5.2954262057
 30
0.0
 10
3.8818184561
 20
5.2964720875
 30
0.0
 10
3.8826056013
 20
5.2979273025
 30
0.0
 10
3.8830443332
 20
5.2991261455
 30
0.0
 10
3.8832774235
 20
5.3000317265
 30
0.0
 10
3.8834160167
 20
5.3009468155
 30
0.0
 10
3.8834449677
 20
5.3015607666
 30
0.0
 10
3.8834435096
 20
5.301866601
 30
0.0
  0
SPLINE
  5
333
100
AcDbEntity
  8
0
100
AcDbSpline
 62
7
  6
CONTINUOUS
 70
0
 71
3
 72
13
 73
9
 74
0
 42
0.0000001
 43
0.0000001
 44
0.0000000001
 40
0.0
 40
0.0
 40
0.0
 40
0.0
 40
0.2648913524
 40
0.517500437
 40
0.6402610339
 40
0.7612100538
 40
0.8809280788
 40
1.0
 40
1.0
 40
1.0
 40
1.0
 10
3.880208919
 20
5.3609745213
 30
0.0
 10
3.8806767714
 20
5.3604805301
 30
0.0
 10
3.8815182396
 20
5.3594426245
 30
0.0
 10
3.8823192244
 20
5.3579949811
 30
0.0
 10
3.8827693673
 20
5.3568003758
 30
0.0
 10
3.8830110816
 20
5.3558970584
 30
0.0
 10
3.8831583938
 20
5.3549833325
 30
0.0
 10
3.8831931975
 20
5.3543696854
 30
0.0
 10
3.8831946556
 20
5.3540638509
 30
0.0
  0
SPLINE
  5
334
100
AcDbEntity
  8
0
100
AcDbSpline
 62
7
  6
CONTINUOUS
 70
0
 71
3
 72
11
 73
7
 74
0
 42
0.0000001
 43
0.0000001
 44
0.0000000001
 40
0.0
 40
0.0
 40
0.0
 40
0.0
 40
0.2467362663
 40
0.5000007216
 40
0.7532656221
 40
1.0
 40
1.0
 40
1.0
 40
1.0
 10
6.6260316496
 20
3.8500310142
 30
0.0
 10
6.6279218149
 20
3.8499156364
 30
0.0
 10
6.6317560847
 20
3.849742941
 30
0.0
 10
6.637537338
 20
3.8496498126
 30
0.0
 10
6.6433189011
 20
3.8497199957
 30
0.0
 10
6.6471538139
 20
3.849877523
 30
0.0
 10
6.6490444047
 20
3.8499854511
 30
0.0
  0
SPLINE
  5
335
100
AcDbEntity
  8
0
100
AcDbSpline
 62
7
  6
CONTINUOUS
 70
0
 71
3
 72
23
 73
19
 74
0
 42
0.0000001
 43
0.0000001
 44
0.0000000001
 40
0.0
 40
0.0
 40
0.0
 40
0.0
 40
0.0111636716
 40
0.0226624069
 40
0.0478115149
 40
0.0620046103
 40
0.0774875986
 40
0.112743039
 40
0.1542005784
 40
0.2021166851
 40
0.2565471867
 40
0.317410129
 40
0.384524648
 40
0.457632291
 40
0.536405709
 40
0.6204600974
 40
0.8025926986
 40
1.0
 40
1.0
 40
1.0
 40
1.0
 10
6.6137255272
 20
3.8539281406
 30
0.0
 10
6.6137255272
 20
3.85387875
 30
0.0
 10
6.6137348426
 20
3.8537782537
 30
0.0
 10
6.6137918273
 20
3.8535735642
 30
0.0
 10
6.6139063406
 20
3.8533756382
 30
0.0
 10
6.6140628526
 20
3.8531901388
 30
0.0
 10
6.6142699439
 20
3.8529903034
 30
0.0
 10
6.6145997852
 20
3.8527476031
 30
0.0
 10
6.6150806075
 20
3.8524760051
 30
0.0
 10
6.615660911
 20
3.8522135502
 30
0.0
 10
6.6163380985
 20
3.8519617001
 30
0.0
 10
6.6171090274
 20
3.8517219812
 30
0.0
 10
6.6179697317
 20
3.8514959514
 30
0.0
 10
6.6189155992
 20
3.8512851312
 30
0.0
 10
6.6199413673
 20
3.8510909333
 30
0.0
 10
6.6214485051
 20
3.8508495294
 30
0.0
 10
6.6234854885
 20
3.8506031464
 30
0.0
 10
6.6251598964
 20
3.8504708054
 30
0.0
 10
6.6260316496
 20
3.8504176361
 30
0.0
  0
SPLINE
  5
336
100
AcDbEntity
  8
0
100
AcDbSpline
 62
7
  6
CONTINUOUS
 70
0
 71
3
 72
11
 73
7
 74
0
 42
0.0000001
 43
0.0000001
 44
0.0000000001
 40
0.0
 40
0.0
 40
0.0
 40
0.0
 40
0.2467343684
 40
0.4999992796
 40
0.7532637463
 40
1.0
 40
1.0
 40
1.0
 40
1.0
 10
6.6490444047
 20
3.8503721102
 30
0.0
 10
6.6471538106
 20
3.85026427
 30
0.0
 10
6.6433188969
 20
3.8501068714
 30
0.0
 10
6.6375373391
 20
3.8500367458
 30
0.0
 10
6.6317560906
 20
3.8501297979
 30
0.0
 10
6.627921819
 20
3.8503023522
 30
0.0
 10
6.6260316496
 20
3.8504176361
 30
0.0
  0
SPLINE
  5
337
100
AcDbEntity
  8
0
100
AcDbSpline
 62
7
  6
CONTINUOUS
 70
0
 71
3
 72
23
 73
19
 74
0
 42
0.0000001
 43
0.0000001
 44
0.0000000001
 40
0.0
 40
0.0
 40
0.0
 40
0.0
 40
0.197506203
 40
0.3797142638
 40
0.4637941681
 40
0.5425834423
 40
0.615696536
 40
0.6828057479
 40
0.7436528033
 40
0.7980576127
 40
0.8459397135
 40
0.8873574522
 40
0.9225712733
 40
0.9380347073
 40
0.9522104056
 40
0.9773360884
 40
0.9888319487
 40
1.0
 40
1.0
 40
1.0
 40
1.0
 10
6.6490444047
 20
3.8503721102
 30
0.0
 10
6.6499160806
 20
3.8504218309
 30
0.0
 10
6.6515903889
 20
3.8505475488
 30
0.0
 10
6.6536275206
 20
3.8507859183
 30
0.0
 10
6.6551348441
 20
3.851021433
 30
0.0
 10
6.6561607005
 20
3.8512116304
 30
0.0
 10
6.6571066381
 20
3.8514187745
 30
0.0
 10
6.6579673852
 20
3.8516414704
 30
0.0
 10
6.6587383246
 20
3.8518782124
 30
0.0
 10
6.6594154904
 20
3.8521274545
 30
0.0
 10
6.6599957461
 20
3.8523876801
 30
0.0
 10
6.6604765049
 20
3.8526574365
 30
0.0
 10
6.6608063029
 20
3.8528988924
 30
0.0
 10
6.6610133426
 20
3.8530979442
 30
0.0
 10
6.6611698219
 20
3.8532828643
 30
0.0
 10
6.661284292
 20
3.8534803972
 30
0.0
 10
6.6613412258
 20
3.8536848219
 30
0.0
 10
6.6613505272
 20
3.8537852433
 30
0.0
 10
6.6613505272
 20
3.8538346126
 30
0.0
  0
SPLINE
  5
338
100
AcDbEntity
  8
0
100
AcDbSpline
 62
7
  6
CONTINUOUS
 70
0
 71
3
 72
14
 73
10
 74
0
 42
0.0000001
 43
0.0000001
 44
0.0000000001
 40
0.0
 40
0.0
 40
0.0
 40
0.0
 40
0.3053260656
 40
0.4506217035
 40
0.5872445538
 40
0.7126172599
 40
0.8244372527
 40
0.9207446537
 40
1.0
 40
1.0
 40
1.0
 40
1.0
 10
6.6553038338
 20
3.8589403036
 30
0.0
 10
6.6559209004
 20
3.8589163811
 30
0.0
 10
6.6568324453
 20
3.8588982987
 30
0.0
 10
6.6580201493
 20
3.8589124098
 30
0.0
 10
6.6588434887
 20
3.8589413592
 30
0.0
 10
6.6595981922
 20
3.8589881064
 30
0.0
 10
6.6602698865
 20
3.8590515184
 30
0.0
 10
6.6608459427
 20
3.8591301112
 30
0.0
 10
6.6611948797
 20
3.8591979768
 30
0.0
 10
6.6613505272
 20
3.8592363002
 30
0.0
  0
SPLINE
  5
339
100
AcDbEntity
  8
0
100
AcDbSpline
 62
7
  6
CONTINUOUS
 70
0
 71
3
 72
23
 73
19
 74
0
 42
0.0000001
 43
0.0000001
 44
0.0000000001
 40
0.0
 40
0.0
 40
0.0
 40
0.0
 40
0.1973927354
 40
0.3795120834
 40
0.4635606127
 40
0.5423288647
 40
0.615432205
 40
0.6825434794
 40
0.7434044617
 40
0.7978345517
 40
0.8457521065
 40
0.8872133275
 40
0.9224751235
 40
0.9379624419
 40
0.952160689
 40
0.9773225441
 40
0.988828633
 40
1.0
 40
1.0
 40
1.0
 40
1.0
 10
6.6260316496
 20
3.8500310142
 30
0.0
 10
6.6251598807
 20
3.8500842279
 30
0.0
 10
6.6234854445
 20
3.8502166798
 30
0.0
 10
6.6214484389
 20
3.8504632687
 30
0.0
 10
6.6199412951
 20
3.8507048729
 30
0.0
 10
6.6189155253
 20
3.8508992315
 30
0.0
 10
6.6179696598
 20
3.8511102253
 30
0.0
 10
6.61710896
 20
3.8513364406
 30
0.0
 10
6.6163380375
 20
3.8515763555
 30
0.0
 10
6.6156608571
 20
3.8518284112
 30
0.0
 10
6.6150805605
 20
3.8520910803
 30
0.0
 10
6.6145997441
 20
3.8523629004
 30
0.0
 10
6.6142699168
 20
3.8526057941
 30
0.0
 10
6.6140628381
 20
3.8528057828
 30
0.0
 10
6.6139063235
 20
3.8529914394
 30
0.0
 10
6.6137918198
 20
3.8531895233
 30
0.0
 10
6.6137348418
 20
3.8533943622
 30
0.0
 10
6.6137255272
 20
3.8534949345
 30
0.0
 10
6.6137255272
 20
3.8535443638
 30
0.0
  0
LINE
  5
33A
100
AcDbEntity
  8
0
100
AcDbLine
 62
7
  6
CONTINUOUS
 10
3.8083635034
 20
5.3976886772
 11
3.845912013
 21
5.3911838984
  0
SPLINE
  5
33B
100
AcDbEntity
  8
0
100
AcDbSpline
 62
7
  6
CONTINUOUS
 70
0
 71
3
 72
23
 73
19
 74
0
 42
0.0000001
 43
0.0000001
 44
0.0000000001
 40
0.0
 40
0.0
 40
0.0
 40
0.0
 40
0.0111757608
 40
0.0226789836
 40
0.0478174133
 40
0.0619982542
 40
0.0774660041
 40
0.1126861414
 40
0.1541075163
 40
0.2019910208
 40
0.2563953802
 40
0.3172404466
 40
0.384346397
 40
0.4574551846
 40
0.5362393017
 40
0.6203133684
 40
0.8025082531
 40
1.0
 40
1.0
 40
1.0
 40
1.0
 10
6.6613505272
 20
3.8534507606
 30
0.0
 10
6.6613505272
 20
3.8534013526
 30
0.0
 10
6.6613412267
 20
3.8533008552
 30
0.0
 10
6.6612842996
 20
3.8530962814
 30
0.0
 10
6.6611698393
 20
3.8528985909
 30
0.0
 10
6.6610133573
 20
3.852713514
 30
0.0
 10
6.6608063304
 20
3.8525143095
 30
0.0
 10
6.6604765465
 20
3.852272661
 30
0.0
 10
6.6599957937
 20
3.8520026839
 30
0.0
 10
6.6594155449
 20
3.8517422457
 30
0.0
 10
6.6587383862
 20
3.8514928001
 30
0.0
 10
6.6579674532
 20
3.8512558644
 30
0.0
 10
6.6571067106
 20
3.8510329855
 30
0.0
 10
6.6561607748
 20
3.8508256706
 30
0.0
 10
6.6551349167
 20
3.8506353157
 30
0.0
 10
6.6536275868
 20
3.8503996055
 30
0.0
 10
6.6515904327
 20
3.8501610366
 30
0.0
 10
6.6499160962
 20
3.8500352133
 30
0.0
 10
6.6490444047
 20
3.8499854511
 30
0.0
  0
SPLINE
  5
33C
100
AcDbEntity
  8
0
100
AcDbSpline
 62
7
  6
CONTINUOUS
 70
0
 71
3
 72
17
 73
13
 74
0
 42
0.0000001
 43
0.0000001
 44
0.0000000001
 40
0.0
 40
0.0
 40
0.0
 40
0.0
 40
0.1252609532
 40
0.2504607725
 40
0.3130903361
 40
0.3756939331
 40
0.5007025227
 40
0.6256075398
 40
0.688082631
 40
0.7505383667
 40
0.8752858676
 40
1.0
 40
1.0
 40
1.0
 40
1.0
 10
3.845912015
 20
5.3911839247
 30
0.0
 10
3.8467650703
 20
5.3910371017
 30
0.0
 10
3.8484474207
 20
5.3905868862
 30
0.0
 10
3.8504166545
 20
5.3896632054
 30
0.0
 10
3.8518749074
 20
5.3887276002
 30
0.0
 10
3.8532440745
 20
5.3876681296
 30
0.0
 10
3.8547723828
 20
5.386125757
 30
0.0
 10
3.8560095297
 20
5.3843426764
 30
0.0
 10
3.8568028387
 20
5.3828071725
 30
0.0
 10
3.8574604116
 20
5.3812099615
 30
0.0
 10
3.8580217393
 20
5.3791175921
 30
0.0
 10
3.8581786782
 20
5.3773909633
 30
0.0
 10
3.8581820974
 20
5.3765291506
 30
0.0
  0
SPLINE
  5
33D
100
AcDbEntity
  8
0
100
AcDbSpline
 62
7
  6
CONTINUOUS
 70
0
 71
3
 72
17
 73
13
 74
0
 42
0.0000001
 43
0.0000001
 44
0.0000000001
 40
0.0
 40
0.0
 40
0.0
 40
0.0
 40
0.1246738351
 40
0.2493929766
 40
0.3118530482
 40
0.3743376107
 40
0.4992443528
 40
0.624268307
 40
0.6868976915
 40
0.7495521287
 40
0.8747618544
 40
1.0
 40
1.0
 40
1.0
 40
1.0
 10
3.8599146384
 20
5.0131279201
 30
0.0
 10
3.8599203663
 20
5.0121650119
 30
0.0
 10
3.8597434251
 20
5.010233052
 30
0.0
 10
3.8590666637
 20
5.0079056338
 30
0.0
 10
3.8582676913
 20
5.0061477183
 30
0.0
 10
3.8573022631
 20
5.0044738038
 30
0.0
 10
3.8557965225
 20
5.0025676514
 30
0.0
 10
3.853948383
 20
5.0009890286
 30
0.0
 10
3.8523073447
 20
4.9999618087
 30
0.0
 10
3.8505716075
 20
4.9991008839
 30
0.0
 10
3.848255167
 20
4.9983520359
 30
0.0
 10
3.8463183023
 20
4.9981302574
 30
0.0
 10
3.845351086
 20
4.9981188326
 30
0.0
  0
SPLINE
  5
33E
100
AcDbEntity
  8
0
100
AcDbSpline
 62
7
  6
CONTINUOUS
 70
0
 71
3
 72
14
 73
10
 74
0
 42
0.0000001
 43
0.0000001
 44
0.0000000001
 40
0.0
 40
0.0
 40
0.0
 40
0.0
 40
0.0792568975
 40
0.175564817
 40
0.2873847503
 40
0.4127571443
 40
0.5493795687
 40
0.6946747809
 40
1.0
 40
1.0
 40
1.0
 40
1.0
 10
6.6613505272
 20
3.8588567467
 30
0.0
 10
6.6611948828
 20
3.8588183939
 30
0.0
 10
6.6608459493
 20
3.8587504752
 30
0.0
 10
6.6602698941
 20
3.8586718204
 30
0.0
 10
6.6595982004
 20
3.8586083581
 30
0.0
 10
6.6588434965
 20
3.8585615739
 30
0.0
 10
6.6580201557
 20
3.8585326014
 30
0.0
 10
6.6568324487
 20
3.858518479
 30
0.0
 10
6.6559209013
 20
3.8585365757
 30
0.0
 10
6.6553038338
 20
3.8585605171
 30
0.0
  0
SPLINE
  5
33F
100
AcDbEntity
  8
0
100
AcDbSpline
 62
7
  6
CONTINUOUS
 70
0
 71
3
 72
14
 73
10
 74
0
 42
0.0000001
 43
0.0000001
 44
0.0000000001
 40
0.0
 40
0.0
 40
0.0
 40
0.0
 40
0.305295042
 40
0.4505750646
 40
0.5871854305
 40
0.71255283
 40
0.8243788475
 40
0.9207071272
 40
1.0
 40
1.0
 40
1.0
 40
1.0
 10
6.6197722205
 20
3.8586296133
 30
0.0
 10
6.6191550059
 20
3.8586080699
 30
0.0
 10
6.6182433097
 20
3.8585935245
 30
0.0
 10
6.6170555526
 20
3.8586122751
 30
0.0
 10
6.6162322363
 20
3.8586444524
 30
0.0
 10
6.6154775952
 20
3.8586941679
 30
0.0
 10
6.6148059776
 20
3.8587602312
 30
0.0
 10
6.614229989
 20
3.8588411086
 30
0.0
 10
6.6138811326
 20
3.8589103604
 30
0.0
 10
6.6137255272
 20
3.8589493011
 30
0.0
  0
SPLINE
  5
340
100
AcDbEntity
  8
0
100
AcDbSpline
 62
7
  6
CONTINUOUS
 70
0
 71
3
 72
22
 73
18
 74
0
 42
0.0000001
 43
0.0000001
 44
0.0000000001
 40
0.0
 40
0.0
 40
0.0
 40
0.0
 40
0.2132847494
 40
0.4058629125
 40
0.5746818796
 40
0.6493473862
 40
0.7171339643
 40
0.7778049767
 40
0.8311608988
 40
0.8770604681
 40
0.9154291614
 40
0.9463037328
 40
0.9699304904
 40
0.9792455342
 40
0.987116239
 40
0.9938656902
 40
1.0
 40
1.0
 40
1.0
 40
1.0
 10
6.618689355
 20
3.8612584444
 30
0.0
 10
6.6182939662
 20
3.8612710791
 30
0.0
 10
6.6175417367
 20
3.8613009867
 30
0.0
 10
6.6164776368
 20
3.8613639498
 30
0.0
 10
6.6156715143
 20
3.8614311006
 30
0.0
 10
6.6150975488
 20
3.861493619
 30
0.0
 10
6.6147238712
 20
3.8615418207
 30
0.0
 10
6.6143905223
 20
3.861593017
 30
0.0
 10
6.6140987794
 20
3.8616469656
 30
0.0
 10
6.613849759
 20
3.8617033728
 30
0.0
 10
6.6136441653
 20
3.8617618979
 30
0.0
 10
6.6134826924
 20
3.8618222393
 30
0.0
 10
6.6133770829
 20
3.861877371
 30
0.0
 10
6.6133174313
 20
3.8619243704
 30
0.0
 10
6.6132874873
 20
3.8619575388
 30
0.0
 10
6.613268856
 20
3.8619917604
 30
0.0
 10
6.6132645189
 20
3.8620158086
 30
0.0
 10
6.6132645189
 20
3.8620271862
 30
0.0
  0
SPLINE
  5
341
100
AcDbEntity
  8
0
100
AcDbSpline
 62
7
  6
CONTINUOUS
 70
0
 71
3
 72
14
 73
10
 74
0
 42
0.0000001
 43
0.0000001
 44
0.0000000001
 40
0.0
 40
0.0
 40
0.0
 40
0.0
 40
0.0792912656
 40
0.1756189935
 40
0.2874450689
 40
0.4128127863
 40
0.5494235959
 40
0.6947040603
 40
1.0
 40
1.0
 40
1.0
 40
1.0
 10
6.6137255272
 20
3.8593287818
 30
0.0
 10
6.6138811357
 20
3.8592898709
 30
0.0
 10
6.6142299958
 20
3.8592206732
 30
0.0
 10
6.6148059855
 20
3.8591398596
 30
0.0
 10
6.6154776038
 20
3.8590738486
 30
0.0
 10
6.6162322447
 20
3.8590241724
 30
0.0
 10
6.6170555595
 20
3.8589920207
 30
0.0
 10
6.6182433137
 20
3.8589732851
 30
0.0
 10
6.619155007
 20
3.858987819
 30
0.0
 10
6.6197722205
 20
3.8590093454
 30
0.0
  0
SPLINE
  5
342
100
AcDbEntity
  8
0
100
AcDbSpline
 62
7
  6
CONTINUOUS
 70
0
 71
3
 72
22
 73
18
 74
0
 42
0.0000001
 43
0.0000001
 44
0.0000000001
 40
0.0
 40
0.0
 40
0.0
 40
0.0
 40
0.0061299032
 40
0.0128754696
 40
0.0207429944
 40
0.0300555191
 40
0.0536788118
 40
0.0845513941
 40
0.1229191391
 40
0.1688185467
 40
0.2221749319
 40
0.2828469213
 40
0.3506349077
 40
0.4253021896
 40
0.5941256121
 40
0.7867091666
 40
1.0
 40
1.0
 40
1.0
 40
1.0
 10
6.6132645189
 20
3.8624042632
 30
0.0
 10
6.6132645189
 20
3.8623928941
 30
0.0
 10
6.6132688568
 20
3.862368862
 30
0.0
 10
6.6132874896
 20
3.8623346668
 30
0.0
 10
6.613317434
 20
3.8623015248
 30
0.0
 10
6.6133770883
 20
3.8622545606
 30
0.0
 10
6.6134826989
 20
3.8621994728
 30
0.0
 10
6.6136441706
 20
3.862139179
 30
0.0
 10
6.613849764
 20
3.8620806999
 30
0.0
 10
6.6140987845
 20
3.8620243368
 30
0.0
 10
6.6143905277
 20
3.8619704302
 30
0.0
 10
6.6147238769
 20
3.8619192738
 30
0.0
 10
6.6150975547
 20
3.8618711097
 30
0.0
 10
6.6156715209
 20
3.86180864
 30
0.0
 10
6.6164776427
 20
3.8617415418
 30
0.0
 10
6.6175417404
 20
3.8616786279
 30
0.0
 10
6.6182939675
 20
3.8616487437
 30
0.0
 10
6.618689355
 20
3.8616361188
 30
0.0
  0
SPLINE
  5
343
100
AcDbEntity
  8
0
100
AcDbSpline
 62
7
  6
CONTINUOUS
 70
0
 71
3
 72
43
 73
39
 74
0
 42
0.0000001
 43
0.0000001
 44
0.0000000001
 40
0.0
 40
0.0
 40
0.0
 40
0.0
 40
0.031455243
 40
0.0655518145
 40
0.0839980823
 40
0.1036409593
 40
0.1247090445
 40
0.1473933689
 40
0.1717164784
 40
0.1973239902
 40
0.2233688967
 40
0.2487903865
 40
0.2728248587
 40
0.2952031209
 40
0.3159928393
 40
0.3353988427
 40
0.3536492269
 40
0.3709509604
 40
0.3874786239
 40
0.4033750113
 40
0.4337023726
 40
0.4626352653
 40
0.5179295134
 40
0.544838281
 40
0.5714480486
 40
0.5978549346
 40
0.6241258
 40
0.6503082626
 40
0.6764368419
 40
0.7286289152
 40
0.7808963921
 40
0.8334705195
 40
0.8599980847
 40
0.8867860967
 40
0.9139563374
 40
0.9416863869
 40
0.9702377518
 40
1.0
 40
1.0
 40
1.0
 40
1.0
 10
6.4101608594
 20
2.9830407476
 30
0.0
 10
6.4091434319
 20
2.9822855771
 30
0.0
 10
6.4071160133
 20
2.9805816742
 30
0.0
 10
6.4048411197
 20
2.9780589553
 30
0.0
 10
6.403158769
 20
2.9756837151
 30
0.0
 10
6.4019535042
 20
2.9736242079
 30
0.0
 10
6.4008746602
 20
2.9713051897
 30
0.0
 10
6.399974606
 20
2.9687095344
 30
0.0
 10
6.399322166
 20
2.9658517974
 30
0.0
 10
6.3989896907
 20
2.9628022535
 30
0.0
 10
6.3990240361
 20
2.9596902369
 30
0.0
 10
6.3994200092
 20
2.9566677154
 30
0.0
 10
6.4001235574
 20
2.9538547503
 30
0.0
 10
6.4010611851
 20
2.9513101007
 30
0.0
 10
6.4021666749
 20
2.9490405653
 30
0.0
 10
6.4033906766
 20
2.947025843
 30
0.0
 10
6.4046991259
 20
2.945237028
 30
0.0
 10
6.4060688023
 20
2.9436453869
 30
0.0
 10
6.4074838747
 20
2.942225362
 30
0.0
 10
6.409386086
 20
2.9405584407
 30
0.0
 10
6.4118434422
 20
2.9387771702
 30
0.0
 10
6.4158531777
 20
2.9364806622
 30
0.0
 10
6.4200223944
 20
2.9347903886
 30
0.0
 10
6.424231215
 20
2.9335622209
 30
0.0
 10
6.4273702866
 20
2.9328388683
 30
0.0
 10
6.4305156211
 20
2.9322783036
 30
0.0
 10
6.4336653342
 20
2.93185889
 30
0.0
 10
6.4368178069
 20
2.9315648331
 30
0.0
 10
6.4410212744
 20
2.9313261694
 30
0.0
 10
6.446285756
 20
2.9312952319
 30
0.0
 10
6.4526041396
 20
2.9316809574
 30
0.0
 10
6.4578536513
 20
2.9324024495
 30
0.0
 10
6.4620290424
 20
2.9332821128
 30
0.0
 10
6.4651620417
 20
2.9341233496
 30
0.0
 10
6.4682820021
 20
2.9351768404
 30
0.0
 10
6.4713823129
 20
2.9364854597
 30
0.0
 10
6.4744516157
 20
2.9381054115
 30
0.0
 10
6.476412317
 20
2.9394091573
 30
0.0
 10
6.4773708796
 20
2.9401291797
 30
0.0
  0
SPLINE
  5
344
100
AcDbEntity
  8
0
100
AcDbSpline
 62
7
  6
CONTINUOUS
 70
0
 71
3
 72
46
 73
42
 74
0
 42
0.0000001
 43
0.0000001
 44
0.0000000001
 40
0.0
 40
0.0
 40
0.0
 40
0.0
 40
0.0312507931
 40
0.0625011631
 40
0.0937488119
 40
0.1249920355
 40
0.1406195291
 40
0.1562468214
 40
0.1718731596
 40
0.1796882574
 40
0.1875037695
 40
0.2031268422
 40
0.2187476821
 40
0.2343666469
 40
0.2499845982
 40
0.265602951
 40
0.2812230001
 40
0.2968451346
 40
0.3124693146
 40
0.3280950383
 40
0.3437217379
 40
0.3593489227
 40
0.3749767113
 40
0.390604717
 40
0.4062322176
 40
0.4218602089
 40
0.4374874865
 40
0.4531152064
 40
0.4687422085
 40
0.4999934852
 40
0.5312452021
 40
0.5624967418
 40
0.5937483026
 40
0.625000093
 40
0.6874982641
 40
0.7499977087
 40
0.812497718
 40
0.874997775
 40
0.9062488385
 40
0.9375000484
 40
1.0
 40
1.0
 40
1.0
 40
1.0
 10
6.569535509
 20
2.9830407476
 30
0.0
 10
6.5682309192
 20
2.9825565914
 30
0.0
 10
6.5656464689
 20
2.9815194501
 30
0.0
 10
6.5618756013
 20
2.9797208813
 30
0.0
 10
6.558255566
 20
2.9776330374
 30
0.0
 10
6.5554211894
 20
2.9756022293
 30
0.0
 10
6.5533239565
 20
2.9737698239
 30
0.0
 10
6.5518568657
 20
2.9722817406
 30
0.0
 10
6.5507449921
 20
2.9709401747
 30
0.0
 10
6.5499395446
 20
2.9698043663
 30
0.0
 10
6.5491966749
 20
2.9686269082
 30
0.0
 10
6.5483979664
 20
2.967076536
 30
0.0
 10
6.5476942122
 20
2.9651048418
 30
0.0
 10
6.5472888655
 20
2.963049633
 30
0.0
 10
6.5472127296
 20
2.9609556356
 30
0.0
 10
6.5474720055
 20
2.9588765905
 30
0.0
 10
6.5480460102
 20
2.9568626045
 30
0.0
 10
6.5488951902
 20
2.9549496917
 30
0.0
 10
6.5499732643
 20
2.9531571867
 30
0.0
 10
6.5512363599
 20
2.9514911117
 30
0.0
 10
6.5526470985
 20
2.9499490812
 30
0.0
 10
6.5541753545
 20
2.948524249
 30
0.0
 10
6.5557975539
 20
2.9472080072
 30
0.0
 10
6.5574953646
 20
2.9459914139
 30
0.0
 10
6.5592543566
 20
2.9448655194
 30
0.0
 10
6.5610635964
 20
2.943822708
 30
0.0
 10
6.5629140717
 20
2.9428552314
 30
0.0
 10
6.564799029
 20
2.941957092
 30
0.0
 10
6.5673503685
 20
2.9408437576
 30
0.0
 10
6.5706004612
 20
2.9395972335
 30
0.0
 10
6.5745695255
 20
2.938298736
 30
0.0
 10
6.5785897511
 20
2.9371696
 30
0.0
 10
6.5826480539
 20
2.9361872369
 30
0.0
 10
6.5880972097
 20
2.9350488831
 30
0.0
 10
6.5949634164
 20
2.9339067294
 30
0.0
 10
6.6032521258
 20
2.9328906388
 30
0.0
 10
6.6115705914
 20
2.9321618135
 30
0.0
 10
6.6185170177
 20
2.9317537825
 30
0.0
 10
6.6240787994
 20
2.9315319701
 30
0.0
 10
6.6296427838
 20
2.9313755897
 30
0.0
 10
6.6338175356
 20
2.9313299648
 30
0.0
 10
6.6366005272
 20
2.9313299648
 30
0.0
  0
SPLINE
  5
345
100
AcDbEntity
  8
0
100
AcDbSpline
 62
7
  6
CONTINUOUS
 70
0
 71
3
 72
14
 73
10
 74
0
 42
0.0000001
 43
0.0000001
 44
0.0000000001
 40
0.0
 40
0.0
 40
0.0
 40
0.0
 40
0.1250066974
 40
0.2500154834
 40
0.4999812672
 40
0.6249875633
 40
0.7499927487
 40
0.8749966464
 40
1.0
 40
1.0
 40
1.0
 40
1.0
 10
6.569535509
 20
2.9830407476
 30
0.0
 10
6.5722269765
 20
2.9840395986
 30
0.0
 10
6.5776318144
 20
2.9859798346
 30
0.0
 10
6.5885398766
 20
2.9895672224
 30
0.0
 10
6.5996249266
 20
2.9926158402
 30
0.0
 10
6.6108827535
 20
2.9948956621
 30
0.0
 10
6.619405389
 20
2.9961662057
 30
0.0
 10
6.6279867062
 20
2.9969500147
 30
0.0
 10
6.6337297676
 20
2.9971267298
 30
0.0
 10
6.6366005272
 20
2.9971267298
 30
0.0
  0
SPLINE
  5
346
100
AcDbEntity
  8
0
100
AcDbSpline
 62
7
  6
CONTINUOUS
 70
0
 71
3
 72
23
 73
19
 74
0
 42
0.0000001
 43
0.0000001
 44
0.0000000001
 40
0.0
 40
0.0
 40
0.0
 40
0.0
 40
0.0673822537
 40
0.1335049944
 40
0.1981799718
 40
0.2612808385
 40
0.3227847039
 40
0.3828247254
 40
0.4417262016
 40
0.4999999898
 40
0.5582737686
 40
0.6171752344
 40
0.6772152786
 40
0.7387191668
 40
0.801820043
 40
0.8664950244
 40
0.9326177607
 40
1.0
 40
1.0
 40
1.0
 40
1.0
 10
6.4101608594
 20
2.9830407476
 30
0.0
 10
6.4114954672
 20
2.9840313405
 30
0.0
 10
6.4141705314
 20
2.9859531953
 30
0.0
 10
6.4182547503
 20
2.9886423092
 30
0.0
 10
6.4223826118
 20
2.9910632483
 30
0.0
 10
6.4265581452
 20
2.9931608939
 30
0.0
 10
6.4307829311
 20
2.9948775674
 30
0.0
 10
6.4350542411
 20
2.9961565133
 30
0.0
 10
6.4393631134
 20
2.9969477114
 30
0.0
 10
6.4436933675
 20
2.9972157595
 30
0.0
 10
6.4480236213
 20
2.9969477116
 30
0.0
 10
6.4523324937
 20
2.9961565139
 30
0.0
 10
6.4566038046
 20
2.9948775679
 30
0.0
 10
6.4608285917
 20
2.9931608937
 30
0.0
 10
6.465004126
 20
2.9910632478
 30
0.0
 10
6.4691319879
 20
2.988642309
 30
0.0
 10
6.4732162057
 20
2.9859531942
 30
0.0
 10
6.47589127
 20
2.9840313403
 30
0.0
 10
6.4772258776
 20
2.9830407476
 30
0.0
  0
SPLINE
  5
347
100
AcDbEntity
  8
0
100
AcDbSpline
 62
7
  6
CONTINUOUS
 70
0
 71
3
 72
46
 73
42
 74
0
 42
0.0000001
 43
0.0000001
 44
0.0000000001
 40
0.0
 40
0.0
 40
0.0
 40
0.0
 40
0.0624999511
 40
0.0937511604
 40
0.1250022231
 40
0.1875022794
 40
0.2500022877
 40
0.3125017309
 40
0.3749999008
 40
0.4062516903
 40
0.4375032511
 40
0.4687547891
 40
0.5000065048
 40
0.5312577811
 40
0.5468847826
 40
0.5625125023
 40
0.5781397789
 40
0.5937677698
 40
0.6093952707
 40
0.6250232746
 40
0.6406510642
 40
0.6562782491
 40
0.6719049468
 40
0.6875306685
 40
0.7031548466
 40
0.7187769804
 40
0.734397027
 40
0.7500153802
 40
0.7656333318
 40
0.7812523001
 40
0.7968731355
 40
0.8124962062
 40
0.8203117194
 40
0.8281268152
 40
0.8437531505
 40
0.8593804455
 40
0.8750079437
 40
0.9062511727
 40
0.9374988261
 40
0.9687492031
 40
1.0
 40
1.0
 40
1.0
 40
1.0
 10
6.6366005272
 20
2.9313299648
 30
0.0
 10
6.6393835187
 20
2.9313299648
 30
0.0
 10
6.6435582704
 20
2.9313755899
 30
0.0
 10
6.6491222548
 20
2.93153197
 30
0.0
 10
6.6546840364
 20
2.9317537826
 30
0.0
 10
6.6616304625
 20
2.9321618133
 30
0.0
 10
6.669948928
 20
2.9328906387
 30
0.0
 10
6.6782376372
 20
2.9339067295
 30
0.0
 10
6.6851038438
 20
2.9350488829
 30
0.0
 10
6.6905529995
 20
2.9361872369
 30
0.0
 10
6.6946113023
 20
2.9371695995
 30
0.0
 10
6.6986315277
 20
2.9382987358
 30
0.0
 10
6.7026005918
 20
2.9395972332
 30
0.0
 10
6.7058506845
 20
2.940843757
 30
0.0
 10
6.7084020239
 20
2.9419570915
 30
0.0
 10
6.7102869813
 20
2.9428552306
 30
0.0
 10
6.7121374564
 20
2.9438227074
 30
0.0
 10
6.7139466963
 20
2.9448655186
 30
0.0
 10
6.7157056883
 20
2.9459914128
 30
0.0
 10
6.7174034988
 20
2.9472080063
 30
0.0
 10
6.7190256986
 20
2.9485242477
 30
0.0
 10
6.7205539546
 20
2.9499490798
 30
0.0
 10
6.7219646931
 20
2.9514911102
 30
0.0
 10
6.7232277887
 20
2.9531571849
 30
0.0
 10
6.724305863
 20
2.9549496896
 30
0.0
 10
6.7251550431
 20
2.956862602
 30
0.0
 10
6.725729048
 20
2.9588765878
 30
0.0
 10
6.7259883246
 20
2.9609556327
 30
0.0
 10
6.7259121893
 20
2.9630496304
 30
0.0
 10
6.7255068428
 20
2.9651048391
 30
0.0
 10
6.724803089
 20
2.9670765334
 30
0.0
 10
6.7240043809
 20
2.9686269055
 30
0.0
 10
6.7232615116
 20
2.9698043637
 30
0.0
 10
6.7224560642
 20
2.970940172
 30
0.0
 10
6.721344191
 20
2.9722817381
 30
0.0
 10
6.7198771004
 20
2.9737698218
 30
0.0
 10
6.7177798668
 20
2.9756022274
 30
0.0
 10
6.7149454903
 20
2.9776330365
 30
0.0
 10
6.7113254543
 20
2.9797208808
 30
0.0
 10
6.7075545861
 20
2.9815194499
 30
0.0
 10
6.7049701353
 20
2.9825565913
 30
0.0
 10
6.7036655454
 20
2.9830407476
 30
0.0
  0
SPLINE
  5
348
100
AcDbEntity
  8
0
100
AcDbSpline
 62
7
  6
CONTINUOUS
 70
0
 71
3
 72
43
 73
39
 74
0
 42
0.0000001
 43
0.0000001
 44
0.0000000001
 40
0.0
 40
0.0
 40
0.0
 40
0.0
 40
0.0314552428
 40
0.0655518137
 40
0.083998081
 40
0.1036409572
 40
0.1247090414
 40
0.1473933644
 40
0.1717164725
 40
0.1973239833
 40
0.2233688899
 40
0.248790381
 40
0.2728248551
 40
0.2952031195
 40
0.3159928401
 40
0.3353988454
 40
0.3536492313
 40
0.3709509664
 40
0.3874786311
 40
0.4033750196
 40
0.4337023826
 40
0.4626352765
 40
0.5179295262
 40
0.5448382943
 40
0.5714480623
 40
0.5978549485
 40
0.624125814
 40
0.6503082767
 40
0.6764368559
 40
0.7286289292
 40
0.7808964057
 40
0.8334705324
 40
0.859998097
 40
0.886786108
 40
0.9139563474
 40
0.9416863948
 40
0.9702377565
 40
1.0
 40
1.0
 40
1.0
 40
1.0
 10
6.7959751767
 20
2.9830407476
 30
0.0
 10
6.7949577494
 20
2.9822855772
 30
0.0
 10
6.792930331
 20
2.9805816744
 30
0.0
 10
6.7906554376
 20
2.9780589559
 30
0.0
 10
6.788973087
 20
2.9756837161
 30
0.0
 10
6.7877678223
 20
2.9736242092
 30
0.0
 10
6.7866889783
 20
2.9713051915
 30
0.0
 10
6.785788924
 20
2.9687095366
 30
0.0
 10
6.7851364838
 20
2.9658518002
 30
0.0
 10
6.7848040083
 20
2.9628022567
 30
0.0
 10
6.7848383532
 20
2.9596902403
 30
0.0
 10
6.785234326
 20
2.956667719
 30
0.0
 10
6.7859378737
 20
2.9538547538
 30
0.0
 10
6.786875501
 20
2.9513101041
 30
0.0
 10
6.7879809905
 20
2.9490405686
 30
0.0
 10
6.7892049919
 20
2.9470258461
 30
0.0
 10
6.790513441
 20
2.9452370309
 30
0.0
 10
6.7918831171
 20
2.9436453897
 30
0.0
 10
6.7932981894
 20
2.9422253646
 30
0.0
 10
6.7952004003
 20
2.9405584431
 30
0.0
 10
6.7976577562
 20
2.9387771724
 30
0.0
 10
6.8016674912
 20
2.936480664
 30
0.0
 10
6.8058367074
 20
2.9347903901
 30
0.0
 10
6.8100455276
 20
2.9335622221
 30
0.0
 10
6.8131845989
 20
2.9328388693
 30
0.0
 10
6.8163299331
 20
2.9322783044
 30
0.0
 10
6.8194796458
 20
2.9318588907
 30
0.0
 10
6.8226321182
 20
2.9315648336
 30
0.0
 10
6.8268355853
 20
2.9313261696
 30
0.0
 10
6.8321000663
 20
2.9312952317
 30
0.0
 10
6.8384184492
 20
2.9316809567
 30
0.0
 10
6.8436679605
 20
2.9324024481
 30
0.0
 10
6.8478433512
 20
2.9332821108
 30
0.0
 10
6.8509763501
 20
2.9341233469
 30
0.0
 10
6.8540963103
 20
2.9351768369
 30
0.0
 10
6.8571966209
 20
2.9364854553
 30
0.0
 10
6.8602659234
 20
2.9381054059
 30
0.0
 10
6.8622266248
 20
2.9394091506
 30
0.0
 10
6.8631851873
 20
2.9401291725
 30
0.0
  0
SPLINE
  5
349
100
AcDbEntity
  8
0
100
AcDbSpline
 62
7
  6
CONTINUOUS
 70
0
 71
3
 72
14
 73
10
 74
0
 42
0.0000001
 43
0.0000001
 44
0.0000000001
 40
0.0
 40
0.0
 40
0.0
 40
0.0
 40
0.125003498
 40
0.2500075127
 40
0.3750126759
 40
0.5000189722
 40
0.7499847029
 40
0.8749933896
 40
1.0
 40
1.0
 40
1.0
 40
1.0
 10
6.6366005272
 20
2.9971267298
 30
0.0
 10
6.63947129
 20
2.9971267298
 30
0.0
 10
6.6452143574
 20
2.9969500142
 30
0.0
 10
6.65379568
 20
2.9961662041
 30
0.0
 10
6.6623183174
 20
2.9948956585
 30
0.0
 10
6.6735761422
 20
2.9926158353
 30
0.0
 10
6.6846611898
 20
2.9895672213
 30
0.0
 10
6.6955692449
 20
2.9859798297
 30
0.0
 10
6.7009740796
 20
2.9840395979
 30
0.0
 10
6.7036655454
 20
2.9830407476
 30
0.0
  0
SPLINE
  5
34A
100
AcDbEntity
  8
0
100
AcDbSpline
 62
7
  6
CONTINUOUS
 70
0
 71
3
 72
23
 73
19
 74
0
 42
0.0000001
 43
0.0000001
 44
0.0000000001
 40
0.0
 40
0.0
 40
0.0
 40
0.0
 40
0.0673822383
 40
0.1335049736
 40
0.1981799545
 40
0.2612808303
 40
0.3227847184
 40
0.3828247632
 40
0.4417262301
 40
0.5000000102
 40
0.5582737996
 40
0.6171752768
 40
0.677215299
 40
0.7387191645
 40
0.8018200308
 40
0.8664950078
 40
0.9326177474
 40
1.0
 40
1.0
 40
1.0
 40
1.0
 10
6.7959751767
 20
2.9830407476
 30
0.0
 10
6.7973097843
 20
2.9840313403
 30
0.0
 10
6.7999848486
 20
2.9859531941
 30
0.0
 10
6.8040690663
 20
2.9886423089
 30
0.0
 10
6.8081969282
 20
2.9910632477
 30
0.0
 10
6.8123724624
 20
2.9931608936
 30
0.0
 10
6.8165972495
 20
2.9948775678
 30
0.0
 10
6.8208685604
 20
2.9961565139
 30
0.0
 10
6.8251774329
 20
2.9969477116
 30
0.0
 10
6.8295076868
 20
2.9972157595
 30
0.0
 10
6.833837941
 20
2.9969477114
 30
0.0
 10
6.8381468134
 20
2.9961565133
 30
0.0
 10
6.8424181234
 20
2.9948775673
 30
0.0
 10
6.8466429093
 20
2.9931608938
 30
0.0
 10
6.8508184427
 20
2.9910632482
 30
0.0
 10
6.8549463042
 20
2.9886423091
 30
0.0
 10
6.8590305229
 20
2.9859531952
 30
0.0
 10
6.8617055871
 20
2.9840313405
 30
0.0
 10
6.863040195
 20
2.9830407476
 30
0.0
  0
SPLINE
  5
34B
100
AcDbEntity
  8
0
100
AcDbSpline
 62
7
  6
CONTINUOUS
 70
0
 71
3
 72
23
 73
19
 74
0
 42
0.0000001
 43
0.0000001
 44
0.0000000001
 40
0.0
 40
0.0
 40
0.0
 40
0.0
 40
0.0487166036
 40
0.0997809457
 40
0.1539016638
 40
0.2119962286
 40
0.2751859881
 40
0.3446021206
 40
0.420618957
 40
0.5012820508
 40
0.5817362794
 40
0.657281828
 40
0.7261952038
 40
0.7889576091
 40
0.846713805
 40
0.9005734197
 40
0.9514381905
 40
1.0
 40
1.0
 40
1.0
 40
1.0
 10
6.4773708796
 20
2.9401291797
 30
0.0
 10
6.4780210887
 20
2.9406175831
 30
0.0
 10
6.4793143796
 20
2.9416704871
 30
0.0
 10
6.4811646949
 20
2.9434573822
 30
0.0
 10
6.4829421793
 20
2.9455294611
 30
0.0
 10
6.4846110693
 20
2.9479423084
 30
0.0
 10
6.4861126687
 20
2.9507579926
 30
0.0
 10
6.4873509762
 20
2.9540239942
 30
0.0
 10
6.4881855598
 20
2.9577185908
 30
0.0
 10
6.4884694613
 20
2.9616827894
 30
0.0
 10
6.4881400104
 20
2.9656354567
 30
0.0
 10
6.4872692887
 20
2.9693011675
 30
0.0
 10
6.4860066356
 20
2.9725324938
 30
0.0
 10
6.4844895046
 20
2.9753155517
 30
0.0
 10
6.482810739
 20
2.9777004553
 30
0.0
 10
6.4810266943
 20
2.9797491166
 30
0.0
 10
6.4791718798
 20
2.9815163962
 30
0.0
 10
6.4778767961
 20
2.982557613
 30
0.0
 10
6.4772258776
 20
2.9830407476
 30
0.0
  0
SPLINE
  5
34C
100
AcDbEntity
  8
0
100
AcDbSpline
 62
7
  6
CONTINUOUS
 70
0
 71
3
 72
23
 73
19
 74
0
 42
0.0000001
 43
0.0000001
 44
0.0000000001
 40
0.0
 40
0.0
 40
0.0
 40
0.0
 40
0.0487165972
 40
0.0997809311
 40
0.1539016385
 40
0.21199619
 40
0.2751859336
 40
0.3446020494
 40
0.4206188729
 40
0.5012819657
 40
0.5817362071
 40
0.6572817739
 40
0.7261951663
 40
0.7889575842
 40
0.8467137893
 40
0.9005734107
 40
0.9514381866
 40
1.0
 40
1.0
 40
1.0
 40
1.0
 10
6.8631851873
 20
2.9401291725
 30
0.0
 10
6.8638353967
 20
2.9406175757
 30
0.0
 10
6.8651286881
 20
2.9416704793
 30
0.0
 10
6.8669790043
 20
2.9434573738
 30
0.0
 10
6.8687564896
 20
2.945529452
 30
0.0
 10
6.8704253807
 20
2.9479422986
 30
0.0
 10
6.8719269813
 20
2.9507579821
 30
0.0
 10
6.8731652903
 20
2.9540239833
 30
0.0
 10
6.8739998756
 20
2.9577185799
 30
0.0
 10
6.8742837788
 20
2.9616827794
 30
0.0
 10
6.8739543292
 20
2.9656354482
 30
0.0
 10
6.8730836082
 20
2.9693011609
 30
0.0
 10
6.8718209552
 20
2.9725324891
 30
0.0
 10
6.8703038241
 20
2.9753155485
 30
0.0
 10
6.868625058
 20
2.9777004532
 30
0.0
 10
6.8668410129
 20
2.9797491154
 30
0.0
 10
6.8649861978
 20
2.9815163957
 30
0.0
 10
6.8636911136
 20
2.9825576128
 30
0.0
 10
6.863040195
 20
2.9830407476
 30
0.0
  0
ENDSEC
  0
SECTION
  2
OBJECTS
  0
DICTIONARY
  5
C
100
AcDbDictionary
280
0
281
1
  3
ACAD_GROUP
350
D
  3
ACAD_MLINESTYLE
350
17
  3
ACAD_LAYOUT
350
1A
  3
ACAD_PLOTSETTINGS
350
19
  3
ACAD_PLOTSTYLENAME
350
E
  0
DICTIONARY
  5
D
102
{ACAD_REACTORS
330
C
102
}
100
AcDbDictionary
280
0
281
1
  0
ACDBDICTIONARYWDFLT
  5
E
102
{ACAD_REACTORS
330
C
102
}
100
AcDbDictionary
281
1
  3
Normal
350
F
100
AcDbDictionaryWithDefault
340
F
  0
DICTIONARY
  5
17
102
{ACAD_REACTORS
330
C
102
}
100
AcDbDictionary
280
0
281
1
  3
Standard
350
18
  0
DICTIONARY
  5
19
102
{ACAD_REACTORS
330
C
102
}
100
AcDbDictionary
281
1
  0
DICTIONARY
  5
1A
102
{ACAD_REACTORS
330
C
102
}
100
AcDbDictionary
281
1
  3
Model
350
34D
  3
Layout1
350
34E
  0
ACDBPLACEHOLDER
  5
F
102
{ACAD_REACTORS
330
E
102
}
  0
MLINESTYLE
  5
18
102
{ACAD_REACTORS
330
17
102
}
100
AcDbMlineStyle
  2
STANDARD
 70
0
  3

 62
256
 51
90.0
 52
90.0
 71
2
 49
0.5
 62
256
  6
BYLAYER
 49
-0.5
 62
256
  6
BYLAYER
  0
LAYOUT
  5
34D
102
{ACAD_REACTORS
330
1A
102
}
100
AcDbPlotSettings
  1

  2
none_device
  4
ANSI_A_(11.00_x_8.50_Inches)
  6

 40
0.0
 41
0.0
 42
0.0
 43
0.0
 44
279.4
 45
215.9
 46
0.0
 47
0.0
 48
0.0
 49
0.0
140
0.0
141
0.0
142
1.0
143
1.0
 70
1024
 72
0
 73
0
 74
0
  7

 75
0
147
1.0
148
0.0
149
0.0
100
AcDbLayout
  1
Model
 70
0
 71
0
 10
0.0
 20
0.0
 11
11.0
 21
8.5
 12
0.0
 22
0.0
 32
0.0
 14
0.0
 24
0.0
 34
0.0
 15
0.0
 25
0.0
 35
0.0
146
0.0
 13
0.0
 23
0.0
 33
0.0
 16
1.0
 26
0.0
 36
0.0
 17
0.0
 27
1.0
 37
0.0
 76
0
330
203
345
0
346
0
  0
LAYOUT
  5
34E
102
{ACAD_REACTORS
330
1A
102
}
100
AcDbPlotSettings
  1

  2
none_device
  4
ANSI_A_(11.00_x_8.50_Inches)
  6

 40
0.0
 41
0.0
 42
0.0
 43
0.0
 44
279.4
 45
215.9
 46
0.0
 47
0.0
 48
0.0
 49
0.0
140
0.0
141
0.0
142
1.0
143
1.0
 70
0
 72
0
 73
0
 74
0
  7

 75
0
147
1.0
148
0.0
149
0.0
100
AcDbLayout
  1
Layout1
 70
0
 71
1
 10
0.0
 20
0.0
 11
11.0
 21
8.5
 12
0.0
 22
0.0
 32
0.0
 14
0.0
 24
0.0
 34
0.0
 15
0.0
 25
0.0
 35
0.0
146
0.0
 13
0.0
 23
0.0
 33
0.0
 16
1.0
 26
0.0
 36
0.0
 17
0.0
 27
1.0
 37
0.0
 76
0
330
204
345
0
346
0
  0
ENDSEC
  0
EOF
