999
DXF file: 1030-5463_side.dxf
999
Pro/ENGINEER 2018400 by Parametric Technology Corporation
  0
SECTION
  2
HEADER
  9
$ACADVER
  1
AC1027
  9
$DWGCODEPAGE
  3
ANSI_1252
  9
$EXTMAX
 10
11.0
 20
8.5
 30
0.0
  9
$EXTMIN
 10
0.0
 20
0.0
 30
0.0
  9
$LIMMIN
 10
0.0
 20
0.0
  9
$LIMMAX
 10
11.0
 20
8.5
  9
$VIEWCTR
 10
5.5
 20
4.25
  9
$VIEWSIZE
 40
8.5
  9
$CLAYER
  8
0
  9
$LTSCALE
 40
0.605
  9
$CELTYPE
  6
BYLAYER
  9
$DIMSCALE
 40
1.0
  9
$DIMASZ
 40
0.1
  9
$DIMEXO
 40
0.0625
  9
$DIMDLI
 40
0.418
  9
$DIMEXE
 40
0.125
  9
$DIMCEN
 40
0.099
  9
$DIMLFAC
 40
1.0
  9
$DIMBLK
  1
_FILLED
  9
$DIMALT
 70
1
  9
$DIMALTD
 70
2
  9
$DIMALTTD
 70
2
  9
$DIMALTF
 40
25.4
  9
$DIMTXT
 40
0.08
  9
$DIMTOL
 70
1
  9
$DIMLIM
 70
0
  9
$DIMTFAC
 40
1.0
  9
$DIMTP
 40
0.001
  9
$DIMTM
 40
0.001
  9
$DIMGAP
 40
0.09
  9
$DIMDSEP
 70
46
  9
$AUNITS
 70
0
  9
$PDMODE
 70
3
  9
$PDSIZE
 40
0.06
  9
$HANDSEED
  5
33A
  9
$TILEMODE
 70
1
  9
$MEASUREMENT
 70
0
  9
$INSUNITS
 70
1
  0
ENDSEC
  0
SECTION
  2
CLASSES
  0
CLASS
  1
ACDBDICTIONARYWDFLT
  2
AcDbDictionaryWithDefault
  3
AutoCAD 2000
 90
0
 91
1
280
0
281
0
  0
CLASS
  1
ACDBPLACEHOLDER
  2
AcDbPlaceHolder
  3
AutoCAD 2000
 90
0
 91
1
280
0
281
0
  0
CLASS
  1
LAYOUT
  2
AcDbLayout
  3
AutoCAD 2000
 90
0
 91
0
280
0
281
0
  0
ENDSEC
  0
SECTION
  2
TABLES
  0
TABLE
  2
VPORT
  5
8
100
AcDbSymbolTable
 70
2
  0
VPORT
  5
1F4
100
AcDbSymbolTableRecord
100
AcDbViewportTableRecord
  2
*ACTIVE
 70
0
 10
0.0
 20
0.0
 11
1.0
 21
1.0
 12
5.5
 22
4.25
 13
0.0
 23
0.0
 14
1.0
 24
1.0
 15
0.0
 25
0.0
 16
0.0
 26
0.0
 36
1.0
 17
0.0
 27
0.0
 37
0.0
 40
8.5
 41
1.2941176471
 42
50.0
 43
0.0
 44
0.0
 50
0.0
 51
0.0
 71
0
 72
100
 73
1
 74
1
 75
0
 76
0
 77
0
 78
0
  0
ENDTAB
  0
TABLE
  2
LTYPE
  5
5
100
AcDbSymbolTable
 70
6
  0
LTYPE
  5
14
100
AcDbSymbolTableRecord
100
AcDbLinetypeTableRecord
  2
BYBLOCK
 70
0
  3

 72
65
 73
0
 40
0.0
  0
LTYPE
  5
15
100
AcDbSymbolTableRecord
100
AcDbLinetypeTableRecord
  2
BYLAYER
 70
0
  3

 72
65
 73
0
 40
0.0
  0
LTYPE
  5
16
100
AcDbSymbolTableRecord
100
AcDbLinetypeTableRecord
  2
CONTINUOUS
 70
64
  3
Solid line
 72
65
 73
0
 40
0.0
  0
LTYPE
  5
1F5
100
AcDbSymbolTableRecord
100
AcDbLinetypeTableRecord
  2
CENTER
 70
64
  3
____ _ ____ _ ____ _ ____ _ ____ _ ____ _ ____
 72
65
 73
4
 40
0.6
 49
0.375
 74
0
 49
-0.075
 74
0
 49
0.075
 74
0
 49
-0.075
 74
0
  0
LTYPE
  5
1F6
100
AcDbSymbolTableRecord
100
AcDbLinetypeTableRecord
  2
HIDDEN
 70
64
  3
- - - - - - - - - - - - - - - - - - - -
 72
65
 73
2
 40
0.2
 49
0.1
 74
0
 49
-0.1
 74
0
  0
LTYPE
  5
1F7
100
AcDbSymbolTableRecord
100
AcDbLinetypeTableRecord
  2
PHANTOM
 70
64
  3
_____ _ _ _____ _ _ _____ _ _ _____
 72
65
 73
6
 40
0.8
 49
0.45
 74
0
 49
-0.05
 74
0
 49
0.1
 74
0
 49
-0.05
 74
0
 49
0.1
 74
0
 49
-0.05
 74
0
  0
LTYPE
  5
1F8
100
AcDbSymbolTableRecord
100
AcDbLinetypeTableRecord
  2
DOT
 70
64
  3
. . . . . . . . . . . . . . . . . . . .
 72
65
 73
2
 40
0.2
 49
0.1
 74
0
 49
-0.1
 74
0
  0
LTYPE
  5
1F9
100
AcDbSymbolTableRecord
100
AcDbLinetypeTableRecord
  2
DASHED
 70
64
  3
- - - - - - - - - - - - - - - - - - - -
 72
65
 73
2
 40
0.2
 49
0.1
 74
0
 49
-0.1
 74
0
  0
ENDTAB
  0
TABLE
  2
LAYER
  5
2
100
AcDbSymbolTable
 70
36
  0
LAYER
  5
10
100
AcDbSymbolTableRecord
100
AcDbLayerTableRecord
  2
0
 70
0
 62
7
  6
CONTINUOUS
370
-3
390
F
  0
LAYER
  5
1FA
100
AcDbSymbolTableRecord
100
AcDbLayerTableRecord
  2
DEFAULT_1
 70
0
 62
7
  6
CENTER
370
-3
390
F
  0
LAYER
  5
1FB
100
AcDbSymbolTableRecord
100
AcDbLayerTableRecord
  2
DEFAULT_2
 70
0
 62
8
  6
HIDDEN
370
-3
390
F
  0
LAYER
  5
1FC
100
AcDbSymbolTableRecord
100
AcDbLayerTableRecord
  2
DEFAULT_3
 70
0
 62
7
  6
PHANTOM
370
-3
390
F
  0
LAYER
  5
1FD
100
AcDbSymbolTableRecord
100
AcDbLayerTableRecord
  2
DEFAULT_COORDINATE_SYSTEM
 70
0
 62
7
  6
CONTINUOUS
370
-3
390
F
  0
LAYER
  5
1FE
100
AcDbSymbolTableRecord
100
AcDbLayerTableRecord
  2
DEFAULT_DATUM_AXES
 70
0
 62
7
  6
CONTINUOUS
370
-3
390
F
  0
LAYER
  5
1FF
100
AcDbSymbolTableRecord
100
AcDbLayerTableRecord
  2
DEFAULT_DATUM_PLANES
 70
0
 62
7
  6
CONTINUOUS
370
-3
390
F
  0
ENDTAB
  0
TABLE
  2
STYLE
  5
3
100
AcDbSymbolTable
 70
1
  0
STYLE
  5
11
100
AcDbSymbolTableRecord
100
AcDbTextStyleTableRecord
  2
STANDARD
 70
0
 40
0.0
 41
0.8
 50
0.0
 71
0
 42
0.2
  3
txt
  4

  0
STYLE
  5
200
100
AcDbSymbolTableRecord
100
AcDbTextStyleTableRecord
  2
TEXTSTYLE_1
 70
0
 40
0.0
 41
0.8
 50
0.0
 71
0
 42
0.2
  3
gdt
  4

  0
ENDTAB
  0
TABLE
  2
VIEW
  5
6
100
AcDbSymbolTable
 70
0
  0
ENDTAB
  0
TABLE
  2
UCS
  5
7
100
AcDbSymbolTable
 70
0
  0
ENDTAB
  0
TABLE
  2
APPID
  5
9
100
AcDbSymbolTable
 70
1
  0
APPID
  5
201
100
AcDbSymbolTableRecord
100
AcDbRegAppTableRecord
  2
ACAD
 70
0
  0
ENDTAB
  0
TABLE
  2
BLOCK_RECORD
  5
1
100
AcDbSymbolTable
 70
0
  0
BLOCK_RECORD
  5
202
100
AcDbSymbolTableRecord
100
AcDbBlockTableRecord
  2
*Model_Space
  0
BLOCK_RECORD
  5
203
100
AcDbSymbolTableRecord
100
AcDbBlockTableRecord
  2
*Paper_Space
  0
BLOCK_RECORD
  5
204
100
AcDbSymbolTableRecord
100
AcDbBlockTableRecord
  2
_FILLED
  0
ENDTAB
  0
TABLE
  2
DIMSTYLE
  5
A
100
AcDbSymbolTable
 70
1
100
AcDbDimStyleTable
 71
0
  0
DIMSTYLE
105
205
100
AcDbSymbolTableRecord
100
AcDbDimStyleTableRecord
  2
STANDARD
 70
0
  3

  4

 40
1.0
 41
0.1
 42
0.0625
 43
0.38
 44
0.125
 45
0.0
 46
0.0
 47
0.001
 48
0.001
140
0.08
141
0.09
142
0.0
143
25.4
144
1.0
145
0.0
146
1.0
147
0.09
 71
1.0
 72
0.0
 73
1
 74
1
 75
0
 76
0
 77
0
 78
4
 79
1
170
1
171
2
172
0
173
0
174
0
175
0
176
0
177
0
178
0
270
2
179
3
271
3
272
3
273
2
274
2
275
0
280
0
281
0
282
0
283
1
284
4
285
0
286
0
287
3
288
0
340
11
278
46
341
204
342
204
343
204
344
204
  0
ENDTAB
  0
ENDSEC
  0
SECTION
  2
BLOCKS
  0
BLOCK
  5
20
100
AcDbEntity
  8
0
100
AcDbBlockBegin
  2
*Model_Space
 70
0
 10
0.0
 20
0.0
 30
0.0
  3
*Model_Space
  1

  0
ENDBLK
  5
21
100
AcDbEntity
  8
0
100
AcDbBlockEnd
  0
BLOCK
  5
1C
100
AcDbEntity
  8
0
100
AcDbBlockBegin
  2
*Paper_Space
 70
0
 10
0.0
 20
0.0
 30
0.0
  3
*Paper_Space
  1

  0
ENDBLK
  5
1D
100
AcDbEntity
  8
0
100
AcDbBlockEnd
  0
BLOCK
  5
206
100
AcDbEntity
  8
0
100
AcDbBlockBegin
  2
_FILLED
 70
64
 10
0.0
 20
0.0
  3
_FILLED
  1

  0
SOLID
  5
207
100
AcDbEntity
  8
0
  6
BYBLOCK
 62
0
100
AcDbTrace
 10
0.0
 20
0.0
 11
-1.0
 21
0.2
 12
-1.0
 22
-0.2
 13
-1.0
 23
-0.2
  0
ENDBLK
  5
208
100
AcDbEntity
  8
0
  6
BYBLOCK
 62
0
100
AcDbBlockEnd
  0
ENDSEC
  0
SECTION
  2
ENTITIES
  0
MTEXT
  5
209
100
AcDbEntity
  8
0
100
AcDbMText
 62
2
  6
CONTINUOUS
  7
STANDARD
 71
3
 72
1
 10
5.1879609161
 20
0.2533073694
 30
0.0
 11
1.0
 21
0.0
 31
0.0
 73
2
 44
0.9
  1
SCALE  .500
 40
0.08
 41
0.704
  0
LINE
  5
20A
100
AcDbEntity
  8
0
100
AcDbLine
 62
7
  6
CONTINUOUS
 10
0.0
 20
0.0
 11
0.0
 21
8.5
  0
LINE
  5
20B
100
AcDbEntity
  8
0
100
AcDbLine
 62
7
  6
CONTINUOUS
 10
0.0
 20
0.0
 11
11.0
 21
0.0
  0
LINE
  5
20C
100
AcDbEntity
  8
0
100
AcDbLine
 62
7
  6
CONTINUOUS
 10
0.0
 20
8.5
 11
11.0
 21
8.5
  0
LINE
  5
20D
100
AcDbEntity
  8
0
100
AcDbLine
 62
7
  6
CONTINUOUS
 10
11.0
 20
0.0
 11
11.0
 21
8.5
  0
LINE
  5
20E
100
AcDbEntity
  8
0
100
AcDbLine
 62
7
  6
CONTINUOUS
 10
6.5629387237
 20
0.3483073694
 11
7.8629383725
 21
0.3483073694
  0
LINE
  5
20F
100
AcDbEntity
  8
0
100
AcDbLine
 62
9
  6
CONTINUOUS
 10
6.5629385481
 20
0.4033073694
 11
7.8629385481
 21
0.4033073694
  0
LINE
  5
210
100
AcDbEntity
  8
0
100
AcDbLine
 62
7
  6
CONTINUOUS
 10
6.5770489213
 20
0.4183073694
 11
7.8488281749
 21
0.4183073694
  0
LINE
  5
211
100
AcDbEntity
  8
0
100
AcDbLine
 62
7
  6
CONTINUOUS
 10
6.7004387463
 20
0.5233073694
 11
7.72543835
 21
0.5233073694
  0
LINE
  5
212
100
AcDbEntity
  8
0
100
AcDbLine
 62
7
  6
CONTINUOUS
 10
6.8579385481
 20
0.6933073694
 11
7.5679385481
 21
0.6933073694
  0
LINE
  5
213
100
AcDbEntity
  8
0
100
AcDbLine
 62
7
  6
CONTINUOUS
 10
2.6829844142
 20
4.5091378927
 11
2.6839440418
 21
4.5239773955
  0
LINE
  5
214
100
AcDbEntity
  8
0
100
AcDbLine
 62
7
  6
CONTINUOUS
 10
2.6966177729
 20
4.5220380421
 11
2.6956581453
 21
4.5071985393
  0
LINE
  5
215
100
AcDbEntity
  8
0
100
AcDbLine
 62
7
  6
CONTINUOUS
 10
2.733110327
 20
4.5164538966
 11
2.7321506994
 21
4.5016143938
  0
LINE
  5
216
100
AcDbEntity
  8
0
100
AcDbLine
 62
7
  6
CONTINUOUS
 10
2.8762177904
 20
6.0782778677
 11
2.8478563866
 21
5.8929352639
  0
LINE
  5
217
100
AcDbEntity
  8
0
100
AcDbLine
 62
7
  6
CONTINUOUS
 10
2.8495414498
 20
5.8775028123
 11
2.8514322101
 21
5.8898589859
  0
LINE
  5
218
100
AcDbEntity
  8
0
100
AcDbLine
 62
7
  6
CONTINUOUS
 10
2.8861605247
 20
5.8870739071
 11
2.8857823726
 21
5.8846026724
  0
LINE
  5
219
100
AcDbEntity
  8
0
100
AcDbLine
 62
9
  6
CONTINUOUS
 10
6.80164485
 20
1.5414665426
 11
7.6242322462
 21
1.5414665426
  0
LINE
  5
21A
100
AcDbEntity
  8
0
100
AcDbLine
 62
7
  6
CONTINUOUS
 10
7.6054383648
 20
1.5683073694
 11
6.8204385481
 21
1.5683073694
  0
LINE
  5
21B
100
AcDbEntity
  8
0
100
AcDbLine
 62
7
  6
CONTINUOUS
 10
2.7890201636
 20
4.5078984894
 11
2.788060536
 21
4.4930589866
  0
LINE
  5
21C
100
AcDbEntity
  8
0
100
AcDbLine
 62
7
  6
CONTINUOUS
 10
2.8576037313
 20
4.4974037288
 11
2.8566441037
 21
4.482564226
  0
LINE
  5
21D
100
AcDbEntity
  8
0
100
AcDbLine
 62
7
  6
CONTINUOUS
 10
2.9305888396
 20
4.4862354378
 11
2.929629212
 21
4.471395935
  0
LINE
  5
21E
100
AcDbEntity
  8
0
100
AcDbLine
 62
7
  6
CONTINUOUS
 10
2.9991724073
 20
4.4757406772
 11
2.9982127797
 21
4.4609011744
  0
LINE
  5
21F
100
AcDbEntity
  8
0
100
AcDbLine
 62
7
  6
CONTINUOUS
 10
2.7871972241
 20
4.5081774383
 11
2.7836753228
 21
4.4937300185
  0
LINE
  5
220
100
AcDbEntity
  8
0
100
AcDbLine
 62
7
  6
CONTINUOUS
 10
2.8431070608
 20
4.4996220311
 11
2.8395851594
 21
4.4851746113
  0
LINE
  5
221
100
AcDbEntity
  8
0
100
AcDbLine
 62
7
  6
CONTINUOUS
 10
2.9116906284
 20
4.4891272705
 11
2.9081687271
 21
4.4746798506
  0
LINE
  5
222
100
AcDbEntity
  8
0
100
AcDbLine
 62
7
  6
CONTINUOUS
 10
2.9846757367
 20
4.4779589795
 11
2.9811538354
 21
4.4635115597
  0
LINE
  5
223
100
AcDbEntity
  8
0
100
AcDbLine
 62
7
  6
CONTINUOUS
 10
3.4480544635
 20
6.0429960429
 11
3.448377234
 21
6.0438362721
  0
LINE
  5
224
100
AcDbEntity
  8
0
100
AcDbLine
 62
7
  6
CONTINUOUS
 10
3.0550822439
 20
4.46718527
 11
3.0541226163
 21
4.4523457672
  0
LINE
  5
225
100
AcDbEntity
  8
0
100
AcDbLine
 62
7
  6
CONTINUOUS
 10
3.3729937639
 20
5.8125779532
 11
3.3726156119
 21
5.8101067185
  0
LINE
  5
226
100
AcDbEntity
  8
0
100
AcDbLine
 62
7
  6
CONTINUOUS
 10
3.4069657745
 20
5.804850405
 11
3.4050750142
 21
5.7924942314
  0
LINE
  5
227
100
AcDbEntity
  8
0
100
AcDbLine
 62
7
  6
CONTINUOUS
 10
3.4112979021
 20
5.8067165964
 11
3.4470394799
 21
6.0402888538
  0
LINE
  5
228
100
AcDbEntity
  8
0
100
AcDbLine
 62
7
  6
CONTINUOUS
 10
3.0532593044
 20
4.4674642189
 11
3.0497374031
 21
4.4530167991
  0
LINE
  5
229
100
AcDbEntity
  8
0
100
AcDbLine
 62
7
  6
CONTINUOUS
 10
3.109169141
 20
4.4589088117
 11
3.1056472397
 21
4.4444613918
  0
LINE
  5
22A
100
AcDbEntity
  8
0
100
AcDbLine
 62
7
  6
CONTINUOUS
 10
3.1456616952
 20
4.4533246662
 11
3.1421397939
 21
4.4388772464
  0
LINE
  5
22B
100
AcDbEntity
  8
0
100
AcDbLine
 62
7
  6
CONTINUOUS
 10
3.1548135249
 20
4.436937893
 11
3.1583354262
 21
4.4513853128
  0
LINE
  5
22C
100
AcDbEntity
  8
0
100
AcDbLine
 62
7
  6
CONTINUOUS
 10
7.5004379758
 20
2.1958917881
 11
6.9254391204
 21
2.1958917881
  0
LINE
  5
22D
100
AcDbEntity
  8
0
100
AcDbLine
 62
7
  6
CONTINUOUS
 10
7.5379385481
 20
2.2226685339
 11
7.5099385481
 21
2.2226685339
  0
LINE
  5
22E
100
AcDbEntity
  8
0
100
AcDbLine
 62
7
  6
CONTINUOUS
 10
6.9159385481
 20
2.2226685339
 11
6.8879385481
 21
2.2226685339
  0
LINE
  5
22F
100
AcDbEntity
  8
0
100
AcDbLine
 62
9
  6
CONTINUOUS
 10
7.5099385481
 20
2.2713216452
 11
7.4388785607
 21
2.2713216452
  0
LINE
  5
230
100
AcDbEntity
  8
0
100
AcDbLine
 62
9
  6
CONTINUOUS
 10
7.2839985355
 20
2.2713216452
 11
7.1418785607
 21
2.2713216452
  0
LINE
  5
231
100
AcDbEntity
  8
0
100
AcDbLine
 62
9
  6
CONTINUOUS
 10
6.9869985355
 20
2.2713216452
 11
6.9159385481
 21
2.2713216452
  0
LINE
  5
232
100
AcDbEntity
  8
0
100
AcDbLine
 62
9
  6
CONTINUOUS
 10
3.5106906964
 20
4.9781045419
 11
3.5083806418
 21
5.4626395158
  0
LINE
  5
233
100
AcDbEntity
  8
0
100
AcDbLine
 62
7
  6
CONTINUOUS
 10
3.5399465929
 20
4.9811085663
 11
3.5376638325
 21
5.4599185585
  0
LINE
  5
234
100
AcDbEntity
  8
0
100
AcDbLine
 62
9
  6
CONTINUOUS
 10
3.5417250556
 20
5.0710694526
 11
3.5419855548
 21
5.0164296204
  0
LINE
  5
235
100
AcDbEntity
  8
0
100
AcDbLine
 62
7
  6
CONTINUOUS
 10
3.5436956101
 20
5.0205490726
 11
3.5434743118
 21
5.066966493
  0
LINE
  5
236
100
AcDbEntity
  8
0
100
AcDbLine
 62
7
  6
CONTINUOUS
 10
3.5419855548
 20
5.0164296204
 11
3.539788771
 21
5.0142117895
  0
LINE
  5
237
100
AcDbEntity
  8
0
100
AcDbLine
 62
9
  6
CONTINUOUS
 10
7.4754485072
 20
2.3873917881
 11
6.950428589
 21
2.3873917881
  0
LINE
  5
238
100
AcDbEntity
  8
0
100
AcDbLine
 62
9
  6
CONTINUOUS
 10
7.0043084906
 20
2.8388543944
 11
7.4215686056
 21
2.8388543944
  0
LINE
  5
239
100
AcDbEntity
  8
0
100
AcDbLine
 62
7
  6
CONTINUOUS
 10
7.0291323293
 20
2.8608917881
 11
7.396744767
 21
2.8608917881
  0
LINE
  5
23A
100
AcDbEntity
  8
0
100
AcDbLine
 62
7
  6
CONTINUOUS
 10
7.3846885481
 20
2.8713917881
 11
7.0411885481
 21
2.8713917881
  0
LINE
  5
23B
100
AcDbEntity
  8
0
100
AcDbLine
 62
7
  6
CONTINUOUS
 10
7.3981885481
 20
3.0258917881
 11
7.3770461672
 21
3.0258917881
  0
LINE
  5
23C
100
AcDbEntity
  8
0
100
AcDbLine
 62
7
  6
CONTINUOUS
 10
7.0488296531
 20
3.0258917881
 11
7.0276885481
 21
3.0258917881
  0
LINE
  5
23D
100
AcDbEntity
  8
0
100
AcDbLine
 62
7
  6
CONTINUOUS
 10
7.4766885481
 20
3.0513917881
 11
7.3995452979
 21
3.0513917881
  0
LINE
  5
23E
100
AcDbEntity
  8
0
100
AcDbLine
 62
7
  6
CONTINUOUS
 10
7.0263309521
 20
3.0513917881
 11
6.9491885481
 21
3.0513917881
  0
LINE
  5
23F
100
AcDbEntity
  8
0
100
AcDbLine
 62
7
  6
CONTINUOUS
 10
7.4916885481
 20
3.0908917881
 11
7.4238414547
 21
3.0908917881
  0
LINE
  5
240
100
AcDbEntity
  8
0
100
AcDbLine
 62
7
  6
CONTINUOUS
 10
7.0020363657
 20
3.0908917881
 11
6.9341885481
 21
3.0908917881
  0
LINE
  5
241
100
AcDbEntity
  8
0
100
AcDbLine
 62
7
  6
CONTINUOUS
 10
7.4916885481
 20
3.2958917881
 11
7.4238407305
 21
3.2958917881
  0
LINE
  5
242
100
AcDbEntity
  8
0
100
AcDbLine
 62
7
  6
CONTINUOUS
 10
7.0020356415
 20
3.2958917881
 11
6.9341885481
 21
3.2958917881
  0
LINE
  5
243
100
AcDbEntity
  8
0
100
AcDbLine
 62
7
  6
CONTINUOUS
 10
7.1968238705
 20
3.4430640714
 11
7.1962404255
 21
3.4430519126
  0
LINE
  5
244
100
AcDbEntity
  8
0
100
AcDbLine
 62
7
  6
CONTINUOUS
 10
7.1968238705
 20
3.4430640714
 11
7.1962404254
 21
3.4430519429
  0
LINE
  5
245
100
AcDbEntity
  8
0
100
AcDbLine
 62
7
  6
CONTINUOUS
 10
7.1962404254
 20
3.4430519429
 11
7.1824385481
 21
3.4427751211
  0
LWPOLYLINE
  5
246
100
AcDbEntity
  8
0
100
AcDbPolyline
 62
7
  6
CONTINUOUS
 90
3
 70
0
 10
7.1871594047
 20
3.4428663805
 10
7.1867204459
 20
3.4428576233
 10
7.1862966132
 20
3.442849183
  0
LINE
  5
247
100
AcDbEntity
  8
0
100
AcDbLine
 62
7
  6
CONTINUOUS
 10
7.1824385481
 20
3.4432755191
 11
7.1968238705
 21
3.4435642828
  0
LWPOLYLINE
  5
248
100
AcDbEntity
  8
0
100
AcDbPolyline
 62
7
  6
CONTINUOUS
 90
3
 70
0
 10
7.1862966067
 20
3.443349533
 10
7.1867204401
 20
3.4433579679
 10
7.1871593994
 20
3.4433667195
  0
LINE
  5
249
100
AcDbEntity
  8
0
100
AcDbLine
 62
7
  6
CONTINUOUS
 10
7.4775347058
 20
3.3358917881
 11
7.3991606283
 21
3.3358917881
  0
LINE
  5
24A
100
AcDbEntity
  8
0
100
AcDbLine
 62
7
  6
CONTINUOUS
 10
7.0267169417
 20
3.3358917881
 11
6.9483423905
 21
3.3358917881
  0
LINE
  5
24B
100
AcDbEntity
  8
0
100
AcDbLine
 62
7
  6
CONTINUOUS
 10
7.4636885481
 20
3.3438917881
 11
7.3927555202
 21
3.3438917881
  0
LINE
  5
24C
100
AcDbEntity
  8
0
100
AcDbLine
 62
7
  6
CONTINUOUS
 10
7.0331218263
 20
3.3438917881
 11
6.9621885481
 21
3.3438917881
  0
LINE
  5
24D
100
AcDbEntity
  8
0
100
AcDbLine
 62
7
  6
CONTINUOUS
 10
7.4766885481
 20
3.3513917881
 11
7.3862022411
 21
3.3513917881
  0
LINE
  5
24E
100
AcDbEntity
  8
0
100
AcDbLine
 62
7
  6
CONTINUOUS
 10
7.0396750487
 20
3.3513917881
 11
6.9491885481
 21
3.3513917881
  0
LINE
  5
24F
100
AcDbEntity
  8
0
100
AcDbLine
 62
7
  6
CONTINUOUS
 10
7.4766885481
 20
3.3870338366
 11
7.3451767595
 21
3.3870338366
  0
LINE
  5
250
100
AcDbEntity
  8
0
100
AcDbLine
 62
7
  6
CONTINUOUS
 10
7.0807003749
 20
3.3870338366
 11
6.9491885481
 21
3.3870338366
  0
LINE
  5
251
100
AcDbEntity
  8
0
100
AcDbLine
 62
7
  6
CONTINUOUS
 10
7.4655787587
 20
3.398143626
 11
7.3272300852
 21
3.398143626
  0
LINE
  5
252
100
AcDbEntity
  8
0
100
AcDbLine
 62
7
  6
CONTINUOUS
 10
7.0986457245
 20
3.398143626
 11
6.9602983375
 21
3.398143626
  0
LINE
  5
253
100
AcDbEntity
  8
0
100
AcDbLine
 62
7
  6
CONTINUOUS
 10
7.4401935262
 20
3.4063917881
 11
7.3109957566
 21
3.4063917881
  0
LINE
  5
254
100
AcDbEntity
  8
0
100
AcDbLine
 62
7
  6
CONTINUOUS
 10
7.1148814986
 20
3.4063917881
 11
6.9856835701
 21
3.4063917881
  0
LINE
  5
255
100
AcDbEntity
  8
0
100
AcDbLine
 62
9
  6
CONTINUOUS
 10
7.1465868365
 20
3.4182964347
 11
7.0153662198
 21
3.4182964347
  0
LINE
  5
256
100
AcDbEntity
  8
0
100
AcDbLine
 62
9
  6
CONTINUOUS
 10
7.2792914998
 20
3.4182964347
 11
7.4105108764
 21
3.4182964347
  0
LINE
  5
257
100
AcDbEntity
  8
0
100
AcDbLine
 62
9
  6
CONTINUOUS
 10
7.1475679726
 20
3.4411237245
 11
6.858412406
 21
3.4411237245
  0
LINE
  5
258
100
AcDbEntity
  8
0
100
AcDbLine
 62
9
  6
CONTINUOUS
 10
7.2783091237
 20
3.4411237245
 11
7.5674646903
 21
3.4411237245
  0
LINE
  5
259
100
AcDbEntity
  8
0
100
AcDbLine
 62
9
  6
CONTINUOUS
 10
7.5534144766
 20
3.4624136448
 11
6.8724626197
 21
3.4624136448
  0
LINE
  5
25A
100
AcDbEntity
  8
0
100
AcDbLine
 62
9
  6
CONTINUOUS
 10
7.5463971755
 20
3.4771669133
 11
6.8794799207
 21
3.4771669133
  0
LWPOLYLINE
  5
25B
100
AcDbEntity
  8
0
100
AcDbPolyline
 62
7
  6
CONTINUOUS
 90
3
 70
0
 10
7.2424883105
 20
3.4427497233
 10
7.2416567596
 20
3.4427689298
 10
7.2412178039
 20
3.4427791045
  0
LWPOLYLINE
  5
25C
100
AcDbEntity
  8
0
100
AcDbPolyline
 62
7
  6
CONTINUOUS
 90
3
 70
0
 10
7.2412178811
 20
3.4432794981
 10
7.2416568292
 20
3.4432693301
 10
7.2424883629
 20
3.4432501365
  0
LINE
  5
25D
100
AcDbEntity
  8
0
100
AcDbLine
 62
7
  6
CONTINUOUS
 10
7.2459385481
 20
3.4426725916
 11
7.2315532257
 21
3.4430080186
  0
LINE
  5
25E
100
AcDbEntity
  8
0
100
AcDbLine
 62
7
  6
CONTINUOUS
 10
7.2315532257
 20
3.4435082662
 11
7.2459385481
 21
3.4431730558
  0
LINE
  5
25F
100
AcDbEntity
  8
0
100
AcDbLine
 62
7
  6
CONTINUOUS
 10
7.2315532257
 20
3.4435082662
 11
7.2321366867
 21
3.4434942271
  0
LINE
  5
260
100
AcDbEntity
  8
0
100
AcDbLine
 62
7
  6
CONTINUOUS
 10
7.1963774822
 20
3.4392765382
 11
7.1979158977
 21
3.4392132456
  0
LINE
  5
261
100
AcDbEntity
  8
0
100
AcDbLine
 62
7
  6
CONTINUOUS
 10
7.0276885481
 20
3.0258917881
 11
6.9491885481
 21
3.0513917881
  0
LINE
  5
262
100
AcDbEntity
  8
0
100
AcDbLine
 62
7
  6
CONTINUOUS
 10
3.5395072247
 20
5.0732662365
 11
3.5417250556
 21
5.0710694526
  0
LINE
  5
263
100
AcDbEntity
  8
0
100
AcDbLine
 62
9
  6
CONTINUOUS
 10
6.9083832597
 20
4.0313374049
 11
7.5174938365
 21
4.0313374049
  0
LINE
  5
264
100
AcDbEntity
  8
0
100
AcDbLine
 62
7
  6
CONTINUOUS
 10
6.9206247729
 20
4.0376685339
 11
7.5052523233
 21
4.0376685339
  0
LINE
  5
265
100
AcDbEntity
  8
0
100
AcDbLine
 62
7
  6
CONTINUOUS
 10
7.4979385481
 20
4.0476685339
 11
6.9279385481
 21
4.0476685339
  0
LINE
  5
266
100
AcDbEntity
  8
0
100
AcDbLine
 62
7
  6
CONTINUOUS
 10
2.8329404433
 20
4.4807378339
 11
2.7930744148
 21
4.4868381935
  0
LINE
  5
267
100
AcDbEntity
  8
0
100
AcDbLine
 62
7
  6
CONTINUOUS
 10
2.7770383556
 20
4.4892920553
 11
2.7006596252
 21
4.5009796435
  0
LINE
  5
268
100
AcDbEntity
  8
0
100
AcDbLine
 62
7
  6
CONTINUOUS
 10
2.6879843441
 20
4.502919234
 11
2.7000205671
 21
4.5010774331
  0
LINE
  5
269
100
AcDbEntity
  8
0
100
AcDbLine
 62
7
  6
CONTINUOUS
 10
2.8616440336
 20
4.4763455673
 11
2.9015379598
 21
4.4702409388
  0
LINE
  5
26A
100
AcDbEntity
  8
0
100
AcDbLine
 62
7
  6
CONTINUOUS
 10
2.9346291419
 20
4.4651772764
 11
2.974523068
 21
4.4590726478
  0
LINE
  5
26B
100
AcDbEntity
  8
0
100
AcDbLine
 62
7
  6
CONTINUOUS
 10
3.0032127096
 20
4.4546825158
 11
3.0431066357
 21
4.4485778872
  0
LINE
  5
26C
100
AcDbEntity
  8
0
100
AcDbLine
 62
7
  6
CONTINUOUS
 10
3.0591225462
 20
4.4461271085
 11
3.1481827575
 21
4.4324989811
  0
LINE
  5
26D
100
AcDbEntity
  8
0
100
AcDbLine
 62
9
  6
CONTINUOUS
 10
2.6829844142
 20
4.5091378927
 11
2.7836753228
 21
4.4937300185
  0
LINE
  5
26E
100
AcDbEntity
  8
0
100
AcDbLine
 62
9
  6
CONTINUOUS
 10
2.788060536
 20
4.4930589866
 11
2.8395851594
 21
4.4851746113
  0
LINE
  5
26F
100
AcDbEntity
  8
0
100
AcDbLine
 62
9
  6
CONTINUOUS
 10
2.8566441037
 20
4.482564226
 11
2.9081687271
 21
4.4746798506
  0
LINE
  5
270
100
AcDbEntity
  8
0
100
AcDbLine
 62
9
  6
CONTINUOUS
 10
2.929629212
 20
4.471395935
 11
2.9811538354
 21
4.4635115597
  0
LINE
  5
271
100
AcDbEntity
  8
0
100
AcDbLine
 62
9
  6
CONTINUOUS
 10
2.9982127797
 20
4.4609011744
 11
3.0497374031
 21
4.4530167991
  0
LINE
  5
272
100
AcDbEntity
  8
0
100
AcDbLine
 62
9
  6
CONTINUOUS
 10
3.0541226163
 20
4.4523457672
 11
3.1548135249
 21
4.436937893
  0
LINE
  5
273
100
AcDbEntity
  8
0
100
AcDbLine
 62
7
  6
CONTINUOUS
 10
2.571707145
 20
4.5411520541
 11
3.270572323
 21
4.4342106542
  0
LINE
  5
274
100
AcDbEntity
  8
0
100
AcDbLine
 62
7
  6
CONTINUOUS
 10
7.4655787587
 20
3.398143626
 11
7.4401935262
 21
3.4063917881
  0
LINE
  5
275
100
AcDbEntity
  8
0
100
AcDbLine
 62
9
  6
CONTINUOUS
 10
2.5356136054
 20
4.660308198
 11
3.3406467818
 21
4.5371208114
  0
LINE
  5
276
100
AcDbEntity
  8
0
100
AcDbLine
 62
9
  6
CONTINUOUS
 10
2.5550515459
 20
4.7080877553
 11
3.3363863517
 21
4.588526729
  0
LINE
  5
277
100
AcDbEntity
  8
0
100
AcDbLine
 62
7
  6
CONTINUOUS
 10
6.9621885481
 20
3.3438917881
 11
6.9491885481
 21
3.3513917881
  0
LINE
  5
278
100
AcDbEntity
  8
0
100
AcDbLine
 62
7
  6
CONTINUOUS
 10
3.4247333326
 20
4.8931730062
 11
3.4199259865
 21
4.8939086335
  0
LINE
  5
279
100
AcDbEntity
  8
0
100
AcDbLine
 62
7
  6
CONTINUOUS
 10
7.4775347058
 20
3.3358917881
 11
7.4636885481
 21
3.3438917881
  0
LINE
  5
27A
100
AcDbEntity
  8
0
100
AcDbLine
 62
7
  6
CONTINUOUS
 10
3.419143553
 20
4.9306895806
 11
3.4913986228
 21
4.9316646628
  0
LINE
  5
27B
100
AcDbEntity
  8
0
100
AcDbLine
 62
9
  6
CONTINUOUS
 10
3.5379596589
 20
5.3978688467
 11
3.541896622
 21
5.3978876164
  0
LINE
  5
27C
100
AcDbEntity
  8
0
100
AcDbLine
 62
7
  6
CONTINUOUS
 10
3.452939726
 20
5.5221434896
 11
3.4472438634
 21
5.523015079
  0
LINE
  5
27D
100
AcDbEntity
  8
0
100
AcDbLine
 62
9
  6
CONTINUOUS
 10
2.7814132845
 20
5.7545742515
 11
3.4333250028
 21
5.6548177406
  0
LINE
  5
27E
100
AcDbEntity
  8
0
100
AcDbLine
 62
9
  6
CONTINUOUS
 10
2.7886179699
 20
5.7966278249
 11
3.4390257354
 21
5.6971014511
  0
LINE
  5
27F
100
AcDbEntity
  8
0
100
AcDbLine
 62
7
  6
CONTINUOUS
 10
3.4967657522
 20
5.5081909378
 11
3.4435785664
 21
5.5173080357
  0
LINE
  5
280
100
AcDbEntity
  8
0
100
AcDbLine
 62
7
  6
CONTINUOUS
 10
7.4766885481
 20
3.3870338366
 11
7.4655787587
 21
3.398143626
  0
LINE
  5
281
100
AcDbEntity
  8
0
100
AcDbLine
 62
7
  6
CONTINUOUS
 10
6.5629385481
 20
0.4033073694
 11
6.5629385481
 21
0.3483073694
  0
LINE
  5
282
100
AcDbEntity
  8
0
100
AcDbLine
 62
7
  6
CONTINUOUS
 10
6.9602983375
 20
3.398143626
 11
6.9856835701
 21
3.4063917881
  0
LINE
  5
283
100
AcDbEntity
  8
0
100
AcDbLine
 62
9
  6
CONTINUOUS
 10
6.9279385481
 20
5.7267126568
 11
7.4979385481
 21
5.7267126568
  0
LINE
  5
284
100
AcDbEntity
  8
0
100
AcDbLine
 62
7
  6
CONTINUOUS
 10
3.4050750142
 20
5.7924942314
 11
2.8495414498
 21
5.8775028123
  0
LINE
  5
285
100
AcDbEntity
  8
0
100
AcDbLine
 62
7
  6
CONTINUOUS
 10
3.4069657745
 20
5.804850405
 11
2.8514322101
 21
5.8898589859
  0
LINE
  5
286
100
AcDbEntity
  8
0
100
AcDbLine
 62
7
  6
CONTINUOUS
 10
3.4112979021
 20
5.8067165964
 11
2.8478563866
 21
5.8929352639
  0
LINE
  5
287
100
AcDbEntity
  8
0
100
AcDbLine
 62
9
  6
CONTINUOUS
 10
3.4347498832
 20
5.9928104474
 11
2.8762177904
 21
6.0782778677
  0
LINE
  5
288
100
AcDbEntity
  8
0
100
AcDbLine
 62
7
  6
CONTINUOUS
 10
6.9159385481
 20
2.2023739349
 11
6.9159385481
 21
2.2901029548
  0
LINE
  5
289
100
AcDbEntity
  8
0
100
AcDbLine
 62
7
  6
CONTINUOUS
 10
6.9279385481
 20
4.0376685339
 11
6.9279385481
 21
5.7267126568
  0
LINE
  5
28A
100
AcDbEntity
  8
0
100
AcDbLine
 62
7
  6
CONTINUOUS
 10
6.9341885481
 20
3.2958917881
 11
6.9341885481
 21
3.0908917881
  0
LINE
  5
28B
100
AcDbEntity
  8
0
100
AcDbLine
 62
7
  6
CONTINUOUS
 10
6.9491885481
 20
3.3513917881
 11
6.9491885481
 21
3.3870338366
  0
LINE
  5
28C
100
AcDbEntity
  8
0
100
AcDbLine
 62
7
  6
CONTINUOUS
 10
7.0411885481
 20
2.8713917881
 11
7.0411885481
 21
3.0258917881
  0
LINE
  5
28D
100
AcDbEntity
  8
0
100
AcDbLine
 62
7
  6
CONTINUOUS
 10
7.0854385481
 20
2.8608917881
 11
7.0854385481
 21
2.8713917881
  0
LINE
  5
28E
100
AcDbEntity
  8
0
100
AcDbLine
 62
7
  6
CONTINUOUS
 10
6.9491885481
 20
3.3870338366
 11
6.9602983375
 21
3.398143626
  0
LINE
  5
28F
100
AcDbEntity
  8
0
100
AcDbLine
 62
7
  6
CONTINUOUS
 10
6.9483423905
 20
3.3358917881
 11
6.9621885481
 21
3.3438917881
  0
LINE
  5
290
100
AcDbEntity
  8
0
100
AcDbLine
 62
7
  6
CONTINUOUS
 10
7.4636885481
 20
3.3438917881
 11
7.4766885481
 21
3.3513917881
  0
LINE
  5
291
100
AcDbEntity
  8
0
100
AcDbLine
 62
7
  6
CONTINUOUS
 10
7.3981885481
 20
3.0258917881
 11
7.4766885481
 21
3.0513917881
  0
LINE
  5
292
100
AcDbEntity
  8
0
100
AcDbLine
 62
7
  6
CONTINUOUS
 10
7.1704385481
 20
3.4304626549
 11
7.1704385481
 21
3.4368751546
  0
LINE
  5
293
100
AcDbEntity
  8
0
100
AcDbLine
 62
7
  6
CONTINUOUS
 10
7.1704385481
 20
3.4386085895
 11
7.1704385481
 21
3.4427099462
  0
LINE
  5
294
100
AcDbEntity
  8
0
100
AcDbLine
 62
7
  6
CONTINUOUS
 10
7.1818238705
 20
3.4403796898
 11
7.1818238705
 21
3.4417318501
  0
LINE
  5
295
100
AcDbEntity
  8
0
100
AcDbLine
 62
7
  6
CONTINUOUS
 10
7.1824385481
 20
3.4309179071
 11
7.1824385481
 21
3.4337619795
  0
LINE
  5
296
100
AcDbEntity
  8
0
100
AcDbLine
 62
7
  6
CONTINUOUS
 10
7.1824385481
 20
3.4427751211
 11
7.1824385481
 21
3.4432755191
  0
LINE
  5
297
100
AcDbEntity
  8
0
100
AcDbLine
 62
7
  6
CONTINUOUS
 10
7.1824385481
 20
3.4369408244
 11
7.1824385481
 21
3.4374450194
  0
LINE
  5
298
100
AcDbEntity
  8
0
100
AcDbLine
 62
9
  6
CONTINUOUS
 10
7.1890569853
 20
3.4395201789
 11
7.1890569853
 21
3.4400226881
  0
LINE
  5
299
100
AcDbEntity
  8
0
100
AcDbLine
 62
9
  6
CONTINUOUS
 10
7.1905008059
 20
3.4365840174
 11
7.1905008059
 21
3.4370884465
  0
LINE
  5
29A
100
AcDbEntity
  8
0
100
AcDbLine
 62
9
  6
CONTINUOUS
 10
7.1968238705
 20
3.4430640714
 11
7.1968238705
 21
3.4435642828
  0
LINE
  5
29B
100
AcDbEntity
  8
0
100
AcDbLine
 62
9
  6
CONTINUOUS
 10
7.1988467114
 20
3.4274613793
 11
7.1988467114
 21
3.4275247163
  0
LINE
  5
29C
100
AcDbEntity
  8
0
100
AcDbLine
 62
9
  6
CONTINUOUS
 10
7.2295303848
 20
3.4272918385
 11
7.2295303848
 21
3.4274741794
  0
LINE
  5
29D
100
AcDbEntity
  8
0
100
AcDbLine
 62
9
  6
CONTINUOUS
 10
7.2315532257
 20
3.4430080186
 11
7.2315532257
 21
3.4435082662
  0
LINE
  5
29E
100
AcDbEntity
  8
0
100
AcDbLine
 62
9
  6
CONTINUOUS
 10
7.2378762904
 20
3.4365069078
 11
7.2378762904
 21
3.4370113875
  0
LINE
  5
29F
100
AcDbEntity
  8
0
100
AcDbLine
 62
7
  6
CONTINUOUS
 10
7.2459385481
 20
3.4308137826
 11
7.2459385481
 21
3.4336582421
  0
LINE
  5
2A0
100
AcDbEntity
  8
0
100
AcDbLine
 62
7
  6
CONTINUOUS
 10
7.2459385481
 20
3.4368375163
 11
7.2459385481
 21
3.437341779
  0
LINE
  5
2A1
100
AcDbEntity
  8
0
100
AcDbLine
 62
7
  6
CONTINUOUS
 10
7.2459385481
 20
3.4426725916
 11
7.2459385481
 21
3.4431730558
  0
LINE
  5
2A2
100
AcDbEntity
  8
0
100
AcDbLine
 62
7
  6
CONTINUOUS
 10
7.2549385481
 20
3.4427372336
 11
7.2549385481
 21
3.441473415
  0
LINE
  5
2A3
100
AcDbEntity
  8
0
100
AcDbLine
 62
7
  6
CONTINUOUS
 10
7.2549385481
 20
3.4369026492
 11
7.2549385481
 21
3.4304903809
  0
LINE
  5
2A4
100
AcDbEntity
  8
0
100
AcDbLine
 62
7
  6
CONTINUOUS
 10
7.3404385481
 20
2.8608917881
 11
7.3404385481
 21
2.8713917881
  0
LINE
  5
2A5
100
AcDbEntity
  8
0
100
AcDbLine
 62
7
  6
CONTINUOUS
 10
7.3846885481
 20
2.8713917881
 11
7.3846885481
 21
3.0258917881
  0
LINE
  5
2A6
100
AcDbEntity
  8
0
100
AcDbLine
 62
7
  6
CONTINUOUS
 10
6.950428589
 20
2.3873917881
 11
7.0043084906
 21
2.8388543944
  0
LINE
  5
2A7
100
AcDbEntity
  8
0
100
AcDbLine
 62
7
  6
CONTINUOUS
 10
7.4754485072
 20
2.3873917881
 11
7.4215686056
 21
2.8388543944
  0
LINE
  5
2A8
100
AcDbEntity
  8
0
100
AcDbLine
 62
7
  6
CONTINUOUS
 10
7.4766885481
 20
3.3513917881
 11
7.4766885481
 21
3.3870338366
  0
LINE
  5
2A9
100
AcDbEntity
  8
0
100
AcDbLine
 62
7
  6
CONTINUOUS
 10
7.4916885481
 20
3.2958917881
 11
7.4916885481
 21
3.0908917881
  0
LINE
  5
2AA
100
AcDbEntity
  8
0
100
AcDbLine
 62
7
  6
CONTINUOUS
 10
7.4979385481
 20
4.0376685339
 11
7.4979385481
 21
5.7267126568
  0
LINE
  5
2AB
100
AcDbEntity
  8
0
100
AcDbLine
 62
7
  6
CONTINUOUS
 10
7.5099385481
 20
2.2023739349
 11
7.5099385481
 21
2.2901029548
  0
LINE
  5
2AC
100
AcDbEntity
  8
0
100
AcDbLine
 62
7
  6
CONTINUOUS
 10
7.8629385481
 20
0.4033073694
 11
7.8629385481
 21
0.3483073694
  0
ARC
  5
2AD
100
AcDbEntity
  8
0
100
AcDbCircle
 62
7
  6
CONTINUOUS
 10
4.000966061
 20
2.7622954872
 40
2.9369724871
100
AcDbArc
 50
349.412565011
 51
13.3637247155
  0
ARC
  5
2AE
100
AcDbEntity
  8
0
100
AcDbCircle
 62
7
  6
CONTINUOUS
 10
5.3403767734
 20
1.0095711286
 40
1.5550617747
100
AcDbArc
 50
348.2654948351
 51
20.0012924602
  0
ARC
  5
2AF
100
AcDbEntity
  8
0
100
AcDbCircle
 62
7
  6
CONTINUOUS
 10
2.5821441416
 20
4.6093581323
 40
0.069
100
AcDbArc
 50
132.4041286657
 51
261.3
  0
ARC
  5
2B0
100
AcDbEntity
  8
0
100
AcDbCircle
 62
7
  6
CONTINUOUS
 10
3.2810093196
 20
4.5024167324
 40
0.069
100
AcDbArc
 50
261.3
 51
30.1958713343
  0
ARC
  5
2B1
100
AcDbEntity
  8
0
100
AcDbCircle
 62
7
  6
CONTINUOUS
 10
2.4951522695
 20
4.7046126029
 40
0.06
100
AcDbArc
 50
312.4041286657
 51
3.3203842552
  0
ARC
  5
2B2
100
AcDbEntity
  8
0
100
AcDbCircle
 62
7
  6
CONTINUOUS
 10
2.9754163406
 20
4.4649102101
 40
0.0059055118
100
AcDbArc
 50
261.3
 51
346.3
  0
ARC
  5
2B3
100
AcDbEntity
  8
0
100
AcDbCircle
 62
7
  6
CONTINUOUS
 10
2.9355224145
 20
4.4710148387
 40
0.0059055118
100
AcDbArc
 50
176.3
 51
261.3
  0
ARC
  5
2B4
100
AcDbEntity
  8
0
100
AcDbCircle
 62
7
  6
CONTINUOUS
 10
3.0439999083
 20
4.4544154495
 40
0.0059055118
100
AcDbArc
 50
261.3
 51
346.3
  0
ARC
  5
2B5
100
AcDbEntity
  8
0
100
AcDbCircle
 62
7
  6
CONTINUOUS
 10
2.6888776167
 20
4.5087567963
 40
0.0059055118
100
AcDbArc
 50
176.3000000044
 51
261.3
  0
ARC
  5
2B6
100
AcDbEntity
  8
0
100
AcDbCircle
 62
7
  6
CONTINUOUS
 10
3.1490760301
 20
4.4383365435
 40
0.0059055118
100
AcDbArc
 50
261.3
 51
346.2999999956
  0
ARC
  5
2B7
100
AcDbEntity
  8
0
100
AcDbCircle
 62
7
  6
CONTINUOUS
 10
3.0041059822
 20
4.4605200781
 40
0.0059055118
100
AcDbArc
 50
176.3
 51
261.3
  0
ARC
  5
2B8
100
AcDbEntity
  8
0
100
AcDbCircle
 62
7
  6
CONTINUOUS
 10
3.0999097449
 20
4.4458600423
 40
0.0059055118
100
AcDbArc
 50
261.3
 51
346.3
  0
ARC
  5
2B9
100
AcDbEntity
  8
0
100
AcDbCircle
 62
7
  6
CONTINUOUS
 10
3.0600158188
 20
4.4519646708
 40
0.0059055118
100
AcDbArc
 50
176.3
 51
261.3
  0
ARC
  5
2BA
100
AcDbEntity
  8
0
100
AcDbCircle
 62
7
  6
CONTINUOUS
 10
3.1364022991
 20
4.4402758968
 40
0.0059055118
100
AcDbArc
 50
261.3
 51
346.3
  0
ARC
  5
2BB
100
AcDbEntity
  8
0
100
AcDbCircle
 62
7
  6
CONTINUOUS
 10
2.7015513477
 20
4.506817443
 40
0.0059055118
100
AcDbArc
 50
176.3
 51
261.3
  0
ARC
  5
2BC
100
AcDbEntity
  8
0
100
AcDbCircle
 62
7
  6
CONTINUOUS
 10
2.7380439019
 20
4.5012332975
 40
0.0059055118
100
AcDbArc
 50
176.3
 51
261.3
  0
ARC
  5
2BD
100
AcDbEntity
  8
0
100
AcDbCircle
 62
7
  6
CONTINUOUS
 10
2.777937828
 20
4.495128669
 40
0.0059055118
100
AcDbArc
 50
261.3
 51
346.3
  0
ARC
  5
2BE
100
AcDbEntity
  8
0
100
AcDbCircle
 62
7
  6
CONTINUOUS
 10
2.7939537385
 20
4.4926778903
 40
0.0059055118
100
AcDbArc
 50
176.3
 51
261.3
  0
ARC
  5
2BF
100
AcDbEntity
  8
0
100
AcDbCircle
 62
7
  6
CONTINUOUS
 10
2.8338476646
 20
4.4865732617
 40
0.0059055118
100
AcDbArc
 50
261.3
 51
346.3
  0
ARC
  5
2C0
100
AcDbEntity
  8
0
100
AcDbCircle
 62
7
  6
CONTINUOUS
 10
2.8625373062
 20
4.4821831297
 40
0.0059055118
100
AcDbArc
 50
176.3
 51
261.3
  0
ARC
  5
2C1
100
AcDbEntity
  8
0
100
AcDbCircle
 62
7
  6
CONTINUOUS
 10
2.9024312323
 20
4.4760785011
 40
0.0059055118
100
AcDbArc
 50
261.3
 51
346.3
  0
ARC
  5
2C2
100
AcDbEntity
  8
0
100
AcDbCircle
 62
7
  6
CONTINUOUS
 10
1.4657499216
 20
5.2961419821
 40
2.0
100
AcDbArc
 50
339.2796157448
 51
348.3762187194
  0
ARC
  5
2C3
100
AcDbEntity
  8
0
100
AcDbCircle
 62
7
  6
CONTINUOUS
 10
1.4657499216
 20
5.2961419821
 40
2.0
100
AcDbArc
 50
6.4883249817
 51
10.3311955299
  0
ARC
  5
2C4
100
AcDbEntity
  8
0
100
AcDbCircle
 62
7
  6
CONTINUOUS
 10
1.541788203
 20
5.3216375153
 40
1.9076024777
100
AcDbArc
 50
356.657344645
 51
4.9393818782
  0
ARC
  5
2C5
100
AcDbEntity
  8
0
100
AcDbCircle
 62
7
  6
CONTINUOUS
 10
2.8568973432
 20
5.8065740394
 40
0.069
100
AcDbArc
 50
81.3
 51
188.2879469452
  0
ARC
  5
2C6
100
AcDbEntity
  8
0
100
AcDbCircle
 62
7
  6
CONTINUOUS
 10
2.7203385966
 20
5.7866816105
 40
0.069
100
AcDbArc
 50
332.2688044701
 51
8.2879469452
  0
ARC
  5
2C7
100
AcDbEntity
  8
0
100
AcDbCircle
 62
7
  6
CONTINUOUS
 10
4.5516940934
 20
4.8239261668
 40
2.0
100
AcDbArc
 50
152.2688044701
 51
183.3203842552
  0
ARC
  5
2C8
100
AcDbEntity
  8
0
100
AcDbCircle
 62
7
  6
CONTINUOUS
 10
3.3925054446
 20
4.5672982714
 40
0.06
100
AcDbArc
 50
159.2796157448
 51
210.1958713343
  0
ARC
  5
2C9
100
AcDbEntity
  8
0
100
AcDbCircle
 62
7
  6
CONTINUOUS
 10
3.4907345593
 20
4.9808727806
 40
0.0492125984
100
AcDbArc
 50
270.7731595888
 51
0.2731595949
  0
ARC
  5
2CA
100
AcDbEntity
  8
0
100
AcDbCircle
 62
7
  6
CONTINUOUS
 10
3.5375691749
 20
5.0668737732
 40
0.0059055118
100
AcDbArc
 50
0.2730396967
 51
45.2730368898
  0
ARC
  5
2CB
100
AcDbEntity
  8
0
100
AcDbCircle
 62
7
  6
CONTINUOUS
 10
3.5377898576
 20
5.0205854831
 40
0.0059055118
100
AcDbArc
 50
315.2732823001
 51
0.2732794932
  0
ARC
  5
2CC
100
AcDbEntity
  8
0
100
AcDbCircle
 62
7
  6
CONTINUOUS
 10
5.1737067311
 20
5.7267126446
 40
2.324231817
100
AcDbArc
 50
0.0000002989
 51
171.2999997011
  0
ARC
  5
2CD
100
AcDbEntity
  8
0
100
AcDbCircle
 62
7
  6
CONTINUOUS
 10
5.173706731
 20
5.7267126446
 40
1.7542318172
100
AcDbArc
 50
0.0000003966
 51
169.5850166645
  0
ARC
  5
2CE
100
AcDbEntity
  8
0
100
AcDbCircle
 62
7
  6
CONTINUOUS
 10
3.6745975687
 20
5.1970500598
 40
0.2288426602
100
AcDbArc
 50
176.6530287093
 51
178.5807003063
  0
ARC
  5
2CF
100
AcDbEntity
  8
0
100
AcDbCircle
 62
7
  6
CONTINUOUS
 10
3.3768451276
 20
5.7270108479
 40
0.069
100
AcDbArc
 50
334.3120530548
 51
81.3
  0
ARC
  5
2D0
100
AcDbEntity
  8
0
100
AcDbCircle
 62
7
  6
CONTINUOUS
 10
3.5012063432
 20
5.6671920543
 40
0.069
100
AcDbArc
 50
154.3120530548
 51
190.3311955299
  0
ARC
  5
2D1
100
AcDbEntity
  8
0
100
AcDbCircle
 62
7
  6
CONTINUOUS
 10
3.488451785
 20
5.4596857031
 40
0.0492125984
100
AcDbArc
 50
0.2731595949
 51
80.2738166472
  0
ARC
  5
2D2
100
AcDbEntity
  8
0
100
AcDbCircle
 62
7
  6
CONTINUOUS
 10
3.518440746
 20
5.3629768313
 40
0.0236220472
100
AcDbArc
 50
326.715849833
 51
33.8304693569
  0
ARC
  5
2D3
100
AcDbEntity
  8
0
100
AcDbCircle
 62
7
  6
CONTINUOUS
 10
3.5182748433
 20
5.3977749979
 40
0.0236220472
100
AcDbArc
 50
326.715849833
 51
33.8304693569
  0
ARC
  5
2D4
100
AcDbEntity
  8
0
100
AcDbCircle
 62
7
  6
CONTINUOUS
 10
3.5181089405
 20
5.4325731645
 40
0.0236220472
100
AcDbArc
 50
326.715849833
 51
33.8304693569
  0
ARC
  5
2D5
100
AcDbEntity
  8
0
100
AcDbCircle
 62
7
  6
CONTINUOUS
 10
3.5180402214
 20
5.4469870371
 40
0.0236220472
100
AcDbArc
 50
342.5067376628
 51
33.8326021211
  0
ARC
  5
2D6
100
AcDbEntity
  8
0
100
AcDbCircle
 62
7
  6
CONTINUOUS
 10
3.5185094651
 20
5.3485629588
 40
0.0236220472
100
AcDbArc
 50
326.715849833
 51
18.0395815271
  0
ARC
  5
2D7
100
AcDbEntity
  8
0
100
AcDbCircle
 62
7
  6
CONTINUOUS
 10
7.5155881543
 20
0.5158688272
 40
0.185
100
AcDbArc
 50
2.3043891819
 51
73.5621513853
  0
ARC
  5
2D8
100
AcDbEntity
  8
0
100
AcDbCircle
 62
7
  6
CONTINUOUS
 10
6.9102889419
 20
0.5158688272
 40
0.185
100
AcDbArc
 50
106.4378486147
 51
177.6956108181
  0
ARC
  5
2D9
100
AcDbEntity
  8
0
100
AcDbCircle
 62
7
  6
CONTINUOUS
 10
7.8488281749
 20
0.5433073694
 40
0.125
100
AcDbArc
 50
189.2068962213
 51
269.5072616272
  0
ARC
  5
2DA
100
AcDbEntity
  8
0
100
AcDbCircle
 62
7
  6
CONTINUOUS
 10
6.5770489213
 20
0.5433073694
 40
0.125
100
AcDbArc
 50
270.4927383728
 51
350.7931037787
  0
ARC
  5
2DB
100
AcDbEntity
  8
0
100
AcDbCircle
 62
7
  6
CONTINUOUS
 10
6.8204385481
 20
1.5483073694
 40
0.02
100
AcDbArc
 50
90.0
 51
200.0012924602
  0
ARC
  5
2DC
100
AcDbEntity
  8
0
100
AcDbCircle
 62
7
  6
CONTINUOUS
 10
7.6054385481
 20
1.5483073694
 40
0.02
100
AcDbArc
 50
339.9987075398
 51
90.0
  0
ARC
  5
2DD
100
AcDbEntity
  8
0
100
AcDbCircle
 62
7
  6
CONTINUOUS
 10
7.8479385481
 20
0.4033073694
 40
0.015
100
AcDbArc
 50
0.0
 51
90.0
  0
ARC
  5
2DE
100
AcDbEntity
  8
0
100
AcDbCircle
 62
7
  6
CONTINUOUS
 10
6.5779385481
 20
0.4033073694
 40
0.015
100
AcDbArc
 50
90.0
 51
180.0
  0
ARC
  5
2DF
100
AcDbEntity
  8
0
100
AcDbCircle
 62
7
  6
CONTINUOUS
 10
6.7175809828
 20
2.4151810356
 40
0.2345
100
AcDbArc
 50
327.7657504522
 51
353.1942133227
  0
ARC
  5
2E0
100
AcDbEntity
  8
0
100
AcDbCircle
 62
7
  6
CONTINUOUS
 10
6.9396885481
 20
2.2426417881
 40
0.04675
100
AcDbArc
 50
239.4678748052
 51
270.0
  0
ARC
  5
2E1
100
AcDbEntity
  8
0
100
AcDbCircle
 62
7
  6
CONTINUOUS
 10
6.8879385481
 20
2.1926685339
 40
0.03
100
AcDbArc
 50
90.0
 51
270.0
  0
ARC
  5
2E2
100
AcDbEntity
  8
0
100
AcDbCircle
 62
7
  6
CONTINUOUS
 10
7.198021012
 20
2.6917738998
 40
0.7473438606
100
AcDbArc
 50
90.0446551133
 51
92.1151144109
  0
ARC
  5
2E3
100
AcDbEntity
  8
0
100
AcDbCircle
 62
7
  6
CONTINUOUS
 10
6.8438725257
 20
3.0891687822
 40
0.68
100
AcDbArc
 50
17.6982774827
 51
21.2739720086
  0
ARC
  5
2E4
100
AcDbEntity
  8
0
100
AcDbCircle
 62
7
  6
CONTINUOUS
 10
7.1739274939
 20
2.8750063201
 40
0.565218909
100
AcDbArc
 50
87.3533215248
 51
87.6001508978
  0
ARC
  5
2E5
100
AcDbEntity
  8
0
100
AcDbCircle
 62
7
  6
CONTINUOUS
 10
7.1739340671
 20
2.8751680589
 40
0.5650570368
100
AcDbArc
 50
87.6001301113
 51
88.4663798498
  0
ARC
  5
2E6
100
AcDbEntity
  8
0
100
AcDbCircle
 62
7
  6
CONTINUOUS
 10
7.1739347006
 20
2.8750530788
 40
0.5646696296
100
AcDbArc
 50
87.7221805793
 51
88.4653917189
  0
ARC
  5
2E7
100
AcDbEntity
  8
0
100
AcDbCircle
 62
7
  6
CONTINUOUS
 10
7.0291323293
 20
2.8358917881
 40
0.025
100
AcDbArc
 50
90.0
 51
173.1942133227
  0
ARC
  5
2E8
100
AcDbEntity
  8
0
100
AcDbCircle
 62
7
  6
CONTINUOUS
 10
7.2129385481
 20
1.8336073694
 40
0.4625
100
AcDbArc
 50
324.9968394447
 51
51.5653491823
  0
ARC
  5
2E9
100
AcDbEntity
  8
0
100
AcDbCircle
 62
7
  6
CONTINUOUS
 10
7.2129385481
 20
1.8336073694
 40
0.4625
100
AcDbArc
 50
128.4346508177
 51
215.0031605553
  0
ARC
  5
2EA
100
AcDbEntity
  8
0
100
AcDbCircle
 62
7
  6
CONTINUOUS
 10
7.7082961134
 20
2.4151810356
 40
0.2345
100
AcDbArc
 50
186.8057866773
 51
212.2342495478
  0
ARC
  5
2EB
100
AcDbEntity
  8
0
100
AcDbCircle
 62
7
  6
CONTINUOUS
 10
7.4861885481
 20
2.2426417881
 40
0.04675
100
AcDbArc
 50
270.0
 51
300.5321251948
  0
ARC
  5
2EC
100
AcDbEntity
  8
0
100
AcDbCircle
 62
7
  6
CONTINUOUS
 10
7.5379385481
 20
2.1926685339
 40
0.03
100
AcDbArc
 50
270.0
 51
90.0
  0
ARC
  5
2ED
100
AcDbEntity
  8
0
100
AcDbCircle
 62
7
  6
CONTINUOUS
 10
7.2129385481
 20
2.6685567803
 40
0.7753350077
100
AcDbArc
 50
88.6231111619
 51
91.1920956682
  0
ARC
  5
2EE
100
AcDbEntity
  8
0
100
AcDbCircle
 62
7
  6
CONTINUOUS
 10
7.2129385481
 20
2.6685567803
 40
0.7753188855
100
AcDbArc
 50
92.2545204889
 51
104.7630312681
  0
ARC
  5
2EF
100
AcDbEntity
  8
0
100
AcDbCircle
 62
7
  6
CONTINUOUS
 10
7.2129385481
 20
2.6685567803
 40
0.7753188855
100
AcDbArc
 50
75.2369687319
 51
87.5605752481
  0
ARC
  5
2F0
100
AcDbEntity
  8
0
100
AcDbCircle
 62
7
  6
CONTINUOUS
 10
7.2129385481
 20
2.6685567803
 40
0.7751750201
100
AcDbArc
 50
88.6239946244
 51
91.1911755502
  0
ARC
  5
2F1
100
AcDbEntity
  8
0
100
AcDbCircle
 62
7
  6
CONTINUOUS
 10
7.2129385481
 20
2.6685567803
 40
0.7748188751
100
AcDbArc
 50
86.8926895707
 51
87.5590000722
  0
ARC
  5
2F2
100
AcDbEntity
  8
0
100
AcDbCircle
 62
7
  6
CONTINUOUS
 10
7.2129385481
 20
2.6685567803
 40
0.7748188751
100
AcDbArc
 50
92.2559761406
 51
93.1443391817
  0
ARC
  5
2F3
100
AcDbEntity
  8
0
100
AcDbCircle
 62
7
  6
CONTINUOUS
 10
7.2129385481
 20
2.6685567803
 40
0.7746749168
100
AcDbArc
 50
88.6231061521
 51
91.1919446428
  0
ARC
  5
2F4
100
AcDbEntity
  8
0
100
AcDbCircle
 62
7
  6
CONTINUOUS
 10
7.2129385481
 20
2.6685567803
 40
0.7746000979
100
AcDbArc
 50
88.6229731319
 51
91.1920597897
  0
ARC
  5
2F5
100
AcDbEntity
  8
0
100
AcDbCircle
 62
7
  6
CONTINUOUS
 10
7.2129385481
 20
2.6685567803
 40
0.7740569257
100
AcDbArc
 50
86.889627857
 51
87.5565957966
  0
ARC
  5
2F6
100
AcDbEntity
  8
0
100
AcDbCircle
 62
7
  6
CONTINUOUS
 10
7.2129385481
 20
2.6685567803
 40
0.7694929332
100
AcDbArc
 50
92.2715987345
 51
93.1661244052
  0
ARC
  5
2F7
100
AcDbEntity
  8
0
100
AcDbCircle
 62
7
  6
CONTINUOUS
 10
7.2129385481
 20
2.6685567803
 40
0.7694929332
100
AcDbArc
 50
86.871161409
 51
87.5420946835
  0
ARC
  5
2F8
100
AcDbEntity
  8
0
100
AcDbCircle
 62
7
  6
CONTINUOUS
 10
7.2129385481
 20
2.6685567803
 40
0.7689891346
100
AcDbArc
 50
92.2730877396
 51
93.1682007883
  0
ARC
  5
2F9
100
AcDbEntity
  8
0
100
AcDbCircle
 62
7
  6
CONTINUOUS
 10
7.2129385481
 20
2.6685567803
 40
0.7689891346
100
AcDbArc
 50
86.8691095275
 51
87.5404834123
  0
ARC
  5
2FA
100
AcDbEntity
  8
0
100
AcDbCircle
 62
7
  6
CONTINUOUS
 10
7.2129385481
 20
2.6685567803
 40
0.7688591381
100
AcDbArc
 50
88.1413005927
 51
91.6723095547
  0
ARC
  5
2FB
100
AcDbEntity
  8
0
100
AcDbCircle
 62
7
  6
CONTINUOUS
 10
7.2129385481
 20
2.6685567803
 40
0.768354924
100
AcDbArc
 50
88.1400804383
 51
91.6734072789
  0
ARC
  5
2FC
100
AcDbEntity
  8
0
100
AcDbCircle
 62
7
  6
CONTINUOUS
 10
7.2129385481
 20
2.6685567803
 40
0.7662813403
100
AcDbArc
 50
87.7562904206
 51
92.0566497773
  0
ARC
  5
2FD
100
AcDbEntity
  8
0
100
AcDbCircle
 62
7
  6
CONTINUOUS
 10
7.5820045705
 20
3.0891687822
 40
0.68
100
AcDbArc
 50
158.7260279914
 51
162.3017225173
  0
ARC
  5
2FE
100
AcDbEntity
  8
0
100
AcDbCircle
 62
7
  6
CONTINUOUS
 10
7.396744767
 20
2.8358917881
 40
0.025
100
AcDbArc
 50
6.8057866773
 51
90.0
  0
ARC
  5
2FF
100
AcDbEntity
  8
0
100
AcDbCircle
 62
7
  6
CONTINUOUS
 10
9.0855003228
 20
1.0095711286
 40
1.5550617747
100
AcDbArc
 50
159.9987075398
 51
191.7345051649
  0
ARC
  5
300
100
AcDbEntity
  8
0
100
AcDbCircle
 62
7
  6
CONTINUOUS
 10
10.4249110352
 20
2.7622954872
 40
2.9369724871
100
AcDbArc
 50
166.6362752845
 51
190.587434989
  0
ARC
  5
301
100
AcDbEntity
  8
0
100
AcDbCircle
 62
7
  6
CONTINUOUS
 10
7.5770879385
 20
3.3124326958
 40
0.68
100
AcDbArc
 50
199.0137742001
 51
202.5744557109
  0
ARC
  5
302
100
AcDbEntity
  8
0
100
AcDbCircle
 62
7
  6
CONTINUOUS
 10
6.8487891577
 20
3.3124326958
 40
0.68
100
AcDbArc
 50
337.4255442891
 51
340.9862257999
  0
ARC
  5
303
100
AcDbEntity
  8
0
100
AcDbCircle
 62
7
  6
CONTINUOUS
 10
7.0939632341
 20
3.7314087377
 40
0.518975314
100
AcDbArc
 50
330.6665205283
 51
35.3047110485
  0
ARC
  5
304
100
AcDbEntity
  8
0
100
AcDbCircle
 62
7
  6
CONTINUOUS
 10
7.3319138621
 20
3.7314087377
 40
0.518975314
100
AcDbArc
 50
144.6952889515
 51
209.3334794717
  0
ARC
  5
305
100
AcDbEntity
  8
0
100
AcDbCircle
 62
7
  6
CONTINUOUS
 10
7.215977097
 20
3.7129221173
 40
0.285769517
100
AcDbArc
 50
272.4086209711
 51
272.7184061403
  0
ARC
  5
306
100
AcDbEntity
  8
0
100
AcDbCircle
 62
7
  6
CONTINUOUS
 10
7.2132618045
 20
3.7114243427
 40
0.2842653563
100
AcDbArc
 50
267.0932849613
 51
267.2192840867
  0
CIRCLE
  5
307
100
AcDbEntity
  8
0
100
AcDbCircle
 62
7
  6
CONTINUOUS
 10
7.2129385481
 20
3.1933917881
 40
0.2344999982
  0
ARC
  5
308
100
AcDbEntity
  8
0
100
AcDbCircle
 62
7
  6
CONTINUOUS
 10
7.2401172332
 20
3.2271089823
 40
0.2162616377
100
AcDbArc
 50
100.6830564131
 51
101.3818884569
  0
CIRCLE
  5
309
100
AcDbEntity
  8
0
100
AcDbCircle
 62
7
  6
CONTINUOUS
 10
7.2129385481
 20
3.1933917881
 40
0.14075
  0
CIRCLE
  5
30A
100
AcDbEntity
  8
0
100
AcDbCircle
 62
7
  6
CONTINUOUS
 10
7.2129385481
 20
3.1933917881
 40
0.13075
  0
CIRCLE
  5
30B
100
AcDbEntity
  8
0
100
AcDbCircle
 62
7
  6
CONTINUOUS
 10
7.2129385481
 20
3.1933917881
 40
0.125
  0
ARC
  5
30C
100
AcDbEntity
  8
0
100
AcDbCircle
 62
7
  6
CONTINUOUS
 10
7.5504385481
 20
3.4451685339
 40
0.0175
100
AcDbArc
 50
346.6362752845
 51
80.2090962064
  0
ARC
  5
30D
100
AcDbEntity
  8
0
100
AcDbCircle
 62
7
  6
CONTINUOUS
 10
6.8754385481
 20
3.4451685339
 40
0.0175
100
AcDbArc
 50
99.7909037936
 51
193.3637247155
  0
ARC
  5
30E
100
AcDbEntity
  8
0
100
AcDbCircle
 62
7
  6
CONTINUOUS
 10
7.4066885481
 20
3.4037916146
 40
0.015
100
AcDbArc
 50
9.982355849
 51
75.2369687319
  0
ARC
  5
30F
100
AcDbEntity
  8
0
100
AcDbCircle
 62
7
  6
CONTINUOUS
 10
7.0191885481
 20
3.4037916146
 40
0.015
100
AcDbArc
 50
104.7630312681
 51
170.017644151
  0
ARC
  5
310
100
AcDbEntity
  8
0
100
AcDbCircle
 62
7
  6
CONTINUOUS
 10
6.9206246108
 20
4.0226685339
 40
0.015
100
AcDbArc
 50
90.0
 51
144.6952889515
  0
ARC
  5
311
100
AcDbEntity
  8
0
100
AcDbCircle
 62
7
  6
CONTINUOUS
 10
7.5052524854
 20
4.0226685339
 40
0.015
100
AcDbArc
 50
35.3047110485
 51
90.0
  0
ARC
  5
312
100
AcDbEntity
  8
0
100
AcDbCircle
 62
7
  6
CONTINUOUS
 10
7.5551150071
 20
3.4722679939
 40
0.01
100
AcDbArc
 50
150.6665205283
 51
260.2090962064
  0
ARC
  5
313
100
AcDbEntity
  8
0
100
AcDbCircle
 62
7
  6
CONTINUOUS
 10
6.8707620891
 20
3.4722679939
 40
0.01
100
AcDbArc
 50
279.7909037936
 51
29.3334794717
  0
SPLINE
  5
314
100
AcDbEntity
  8
0
100
AcDbSpline
 62
7
  6
CONTINUOUS
 70
0
 71
3
 72
12
 73
8
 74
0
 42
0.0000001
 43
0.0000001
 44
0.0000000001
 40
0.0
 40
0.0
 40
0.0
 40
0.0
 40
0.1747589415
 40
0.3442667575
 40
0.6478621224
 40
0.8757410215
 40
1.0
 40
1.0
 40
1.0
 40
1.0
 10
3.4347498832
 20
5.9928104474
 30
0.0
 10
3.4352081822
 20
5.9958054449
 30
0.0
 10
3.436223242
 20
6.0016889815
 30
0.0
 10
3.4385449031
 20
6.0126806656
 30
0.0
 10
3.4416608994
 20
6.0244375126
 30
0.0
 10
3.4451843828
 20
6.0352506465
 30
0.0
 10
3.447285963
 20
6.0409834537
 30
0.0
 10
3.4480544635
 20
6.0429960429
 30
0.0
  0
SPLINE
  5
315
100
AcDbEntity
  8
0
100
AcDbSpline
 62
7
  6
CONTINUOUS
 70
0
 71
3
 72
28
 73
24
 74
0
 42
0.0000001
 43
0.0000001
 44
0.0000000001
 40
0.0
 40
0.0
 40
0.0
 40
0.0
 40
0.0073983256
 40
0.0155308569
 40
0.0248781974
 40
0.0357520131
 40
0.0483412695
 40
0.0627543428
 40
0.0790505971
 40
0.0972575575
 40
0.1173811555
 40
0.1394126962
 40
0.1633310247
 40
0.1891071577
 40
0.2460723916
 40
0.3099405939
 40
0.3802533846
 40
0.4564769658
 40
0.538008029
 40
0.6241790747
 40
0.7142639234
 40
0.8074830469
 40
1.0
 40
1.0
 40
1.0
 40
1.0
 10
3.4199259865
 20
4.8939086335
 30
0.0
 10
3.4198312738
 20
4.8939231266
 30
0.0
 10
3.419636526
 20
4.8939864719
 30
0.0
 10
3.4193676857
 20
4.8941696795
 30
0.0
 10
3.4191140399
 20
4.8944380976
 30
0.0
 10
3.4188739437
 20
4.894790226
 30
0.0
 10
3.4186465402
 20
4.8952258022
 30
0.0
 10
3.4184319292
 20
4.8957444716
 30
0.0
 10
3.4182306091
 20
4.8963455609
 30
0.0
 10
3.4180432304
 20
4.8970280633
 30
0.0
 10
3.4178704978
 20
4.8977907119
 30
0.0
 10
3.4177131536
 20
4.8986320087
 30
0.0
 10
3.4175719057
 20
4.8995502676
 30
0.0
 10
3.4174003231
 20
4.900921061
 30
0.0
 10
3.4172361398
 20
4.9028133889
 30
0.0
 10
3.4171196857
 20
4.9052866664
 30
0.0
 10
3.4170833502
 20
4.9080118212
 30
0.0
 10
3.4171317194
 20
4.9109654956
 30
0.0
 10
3.4172686354
 20
4.9141219471
 30
0.0
 10
3.4174968587
 20
4.9174530402
 30
0.0
 10
3.4178178993
 20
4.9209285307
 30
0.0
 10
3.4183758876
 20
4.9257639568
 30
0.0
 10
3.4189227626
 20
4.9294254435
 30
0.0
 10
3.4193429816
 20
4.9318830486
 30
0.0
  0
SPLINE
  5
316
100
AcDbEntity
  8
0
100
AcDbSpline
 62
7
  6
CONTINUOUS
 70
0
 71
3
 72
28
 73
24
 74
0
 42
0.0000001
 43
0.0000001
 44
0.0000000001
 40
0.0
 40
0.0
 40
0.0
 40
0.0
 40
0.1932242736
 40
0.2869485601
 40
0.3776089063
 40
0.46436
 40
0.5463876487
 40
0.6229309325
 40
0.6933027221
 40
0.7569101029
 40
0.8132729808
 40
0.8386270783
 40
0.8620538753
 40
0.8835362787
 40
0.9030734528
 40
0.920681002
 40
0.9364004841
 40
0.9503052588
 40
0.9625188373
 40
0.9732347236
 40
0.9827507932
 40
0.9914921441
 40
1.0
 40
1.0
 40
1.0
 40
1.0
 10
3.4423065129
 20
5.4858853971
 30
0.0
 10
3.4420915182
 20
5.4883747337
 30
0.0
 10
3.4418564437
 20
5.4920797564
 30
0.0
 10
3.4417311225
 20
5.4969614402
 30
0.0
 10
3.441733315
 20
5.5004679794
 30
0.0
 10
3.4418290276
 20
5.5038219077
 30
0.0
 10
3.4420147063
 20
5.5069892776
 30
0.0
 10
3.442284961
 20
5.5099379832
 30
0.0
 10
3.4426327544
 20
5.5126386861
 30
0.0
 10
3.4430498531
 20
5.5150652094
 30
0.0
 10
3.4434604828
 20
5.5169001677
 30
0.0
 10
3.4438216668
 20
5.518211192
 30
0.0
 10
3.4440945543
 20
5.519078066
 30
0.0
 10
3.4443778556
 20
5.5198620958
 30
0.0
 10
3.4446703699
 20
5.520561897
 30
0.0
 10
3.4449709921
 20
5.5211763721
 30
0.0
 10
3.4452786609
 20
5.5217047355
 30
0.0
 10
3.4455925861
 20
5.5221464826
 30
0.0
 10
3.4459122717
 20
5.5225013854
 30
0.0
 10
3.4462378798
 20
5.5227691004
 30
0.0
 10
3.4465702067
 20
5.5229484538
 30
0.0
 10
3.4469088681
 20
5.5230362618
 30
0.0
 10
3.4471351133
 20
5.5230317201
 30
0.0
 10
3.4472438634
 20
5.523015079
 30
0.0
  0
SPLINE
  5
317
100
AcDbEntity
  8
0
100
AcDbSpline
 62
7
  6
CONTINUOUS
 70
0
 71
3
 72
9
 73
5
 74
0
 42
0.0000001
 43
0.0000001
 44
0.0000000001
 40
0.0
 40
0.0
 40
0.0
 40
0.0
 40
0.4999976178
 40
1.0
 40
1.0
 40
1.0
 40
1.0
 10
3.4193429816
 20
4.9318830486
 30
0.0
 10
3.4269920248
 20
4.9766176497
 30
0.0
 10
3.4391062936
 20
5.0666614526
 30
0.0
 10
3.4446978768
 20
5.1573479797
 30
0.0
 10
3.4458251168
 20
5.2027182452
 30
0.0
  0
SPLINE
  5
318
100
AcDbEntity
  8
0
100
AcDbSpline
 62
7
  6
CONTINUOUS
 70
0
 71
3
 72
27
 73
23
 74
0
 42
0.0000001
 43
0.0000001
 44
0.0000000001
 40
0.0
 40
0.0
 40
0.0
 40
0.0
 40
0.1936802204
 40
0.3799129566
 40
0.5515784071
 40
0.6298797467
 40
0.7021526111
 40
0.7677140212
 40
0.8259487192
 40
0.8763170272
 40
0.8984054296
 40
0.9183654125
 40
0.9361543601
 40
0.9517403384
 40
0.9651007956
 40
0.9762252136
 40
0.9851293386
 40
0.9918709947
 40
0.994482351
 40
0.9966414949
 40
0.9984322798
 40
1.0
 40
1.0
 40
1.0
 40
1.0
 10
7.1968238705
 20
3.4429892363
 30
0.0
 10
7.1958472897
 20
3.4429689153
 30
0.0
 10
7.1939318986
 20
3.4429173994
 30
0.0
 10
7.1911522123
 20
3.4428074589
 30
0.0
 10
7.1889553729
 20
3.4426895676
 30
0.0
 10
7.1873338482
 20
3.4425806019
 30
0.0
 10
7.1862470407
 20
3.4424964089
 30
0.0
 10
7.1852621198
 20
3.4424081158
 30
0.0
 10
7.1843884965
 20
3.4423166088
 30
0.0
 10
7.1837343291
 20
3.4422354185
 30
0.0
 10
7.1832730714
 20
3.442168383
 30
0.0
 10
7.1829751631
 20
3.4421200976
 30
0.0
 10
7.1827105448
 20
3.4420717073
 30
0.0
 10
7.1824798163
 20
3.4420233608
 30
0.0
 10
7.1822835037
 20
3.4419752223
 30
0.0
 10
7.182121892
 20
3.441927489
 30
0.0
 10
7.1819953225
 20
3.4418803164
 30
0.0
 10
7.1819125591
 20
3.4418388825
 30
0.0
 10
7.1818656078
 20
3.4418044608
 30
0.0
 10
7.1818421876
 20
3.4417808128
 30
0.0
 10
7.1818274532
 20
3.4417567935
 30
0.0
 10
7.1818238705
 20
3.4417397567
 30
0.0
 10
7.1818238705
 20
3.4417318501
 30
0.0
  0
SPLINE
  5
319
100
AcDbEntity
  8
0
100
AcDbSpline
 62
7
  6
CONTINUOUS
 70
0
 71
3
 72
21
 73
17
 74
0
 42
0.0000001
 43
0.0000001
 44
0.0000000001
 40
0.0
 40
0.0
 40
0.0
 40
0.0
 40
0.2006704526
 40
0.3795530104
 40
0.4605758787
 40
0.5358884533
 40
0.6054590003
 40
0.6692886126
 40
0.7274263718
 40
0.7799804371
 40
0.8271418835
 40
0.8692184326
 40
0.9066831477
 40
0.9402448671
 40
0.9709093441
 40
1.0
 40
1.0
 40
1.0
 40
1.0
 10
7.1802035729
 20
3.4255838198
 30
0.0
 10
7.1794586962
 20
3.4257459669
 30
0.0
 10
7.1780549199
 20
3.4260769646
 30
0.0
 10
7.1763705969
 20
3.4265537498
 30
0.0
 10
7.1751615646
 20
3.4269542482
 30
0.0
 10
7.1743560894
 20
3.4272509038
 30
0.0
 10
7.1736228717
 20
3.4275532184
 30
0.0
 10
7.1729630698
 20
3.4278606668
 30
0.0
 10
7.1723776682
 20
3.4281726874
 30
0.0
 10
7.1718674823
 20
3.4284887918
 30
0.0
 10
7.1714331562
 20
3.4288085772
 30
0.0
 10
7.1710751706
 20
3.4291318139
 30
0.0
 10
7.170794038
 20
3.429458594
 30
0.0
 10
7.1705905954
 20
3.4297894107
 30
0.0
 10
7.1704666918
 20
3.4301243166
 30
0.0
 10
7.1704385481
 20
3.4303521433
 30
0.0
 10
7.1704385481
 20
3.4304626549
 30
0.0
  0
SPLINE
  5
31A
100
AcDbEntity
  8
0
100
AcDbSpline
 62
7
  6
CONTINUOUS
 70
0
 71
3
 72
20
 73
16
 74
0
 42
0.0000001
 43
0.0000001
 44
0.0000000001
 40
0.0
 40
0.0
 40
0.0
 40
0.0
 40
0.1892119281
 40
0.3710994582
 40
0.5388225225
 40
0.686259316
 40
0.7507492451
 40
0.8083609443
 40
0.8586759872
 40
0.9013892047
 40
0.9363599632
 40
0.9637319376
 40
0.9747797774
 40
0.9842907979
 40
1.0
 40
1.0
 40
1.0
 40
1.0
 10
7.1854385481
 20
3.4343445071
 30
0.0
 10
7.1852419696
 20
3.4343374478
 30
0.0
 10
7.1848566082
 20
3.4343176684
 30
0.0
 10
7.1842982748
 20
3.4342711798
 30
0.0
 10
7.1837850603
 20
3.4342100475
 30
0.0
 10
7.1833952936
 20
3.4341467067
 30
0.0
 10
7.1831209981
 20
3.4340892001
 30
0.0
 10
7.1829469679
 20
3.4340460628
 30
0.0
 10
7.1827967918
 20
3.4340014346
 30
0.0
 10
7.182671651
 20
3.4339557902
 30
0.0
 10
7.1825725709
 20
3.433909542
 30
0.0
 10
7.1825077619
 20
3.4338683996
 30
0.0
 10
7.182471187
 20
3.4338342356
 30
0.0
 10
7.1824479432
 20
3.4338045562
 30
0.0
 10
7.1824385481
 20
3.4337783108
 30
0.0
 10
7.1824385481
 20
3.4337619795
 30
0.0
  0
SPLINE
  5
31B
100
AcDbEntity
  8
0
100
AcDbSpline
 62
7
  6
CONTINUOUS
 70
0
 71
3
 72
20
 73
16
 74
0
 42
0.0000001
 43
0.0000001
 44
0.0000000001
 40
0.0
 40
0.0
 40
0.0
 40
0.0
 40
0.0157202002
 40
0.0252438837
 40
0.036306861
 40
0.0637118003
 40
0.0987142401
 40
0.1414545655
 40
0.1917903486
 40
0.249415328
 40
0.3139106092
 40
0.4613348048
 40
0.6290188722
 40
0.810850596
 40
1.0
 40
1.0
 40
1.0
 40
1.0
 10
7.2459385481
 20
3.4336582421
 30
0.0
 10
7.2459385481
 20
3.4336745939
 30
0.0
 10
7.245929141
 20
3.4337008736
 30
0.0
 10
7.2459058974
 20
3.4337306282
 30
0.0
 10
7.2458693154
 20
3.4337649167
 30
0.0
 10
7.2458044999
 20
3.4338062767
 30
0.0
 10
7.2457054041
 20
3.4338528577
 30
0.0
 10
7.2455802502
 20
3.4338989179
 30
0.0
 10
7.2454300661
 20
3.4339440416
 30
0.0
 10
7.245256035
 20
3.4339877505
 30
0.0
 10
7.2449817649
 20
3.4340461523
 30
0.0
 10
7.2445920367
 20
3.4341107675
 30
0.0
 10
7.2440788518
 20
3.4341735806
 30
0.0
 10
7.2435205292
 20
3.4342218989
 30
0.0
 10
7.2431351455
 20
3.434242941
 30
0.0
 10
7.2429385481
 20
3.4342506438
 30
0.0
  0
SPLINE
  5
31C
100
AcDbEntity
  8
0
100
AcDbSpline
 62
7
  6
CONTINUOUS
 70
0
 71
3
 72
17
 73
13
 74
0
 42
0.0000001
 43
0.0000001
 44
0.0000000001
 40
0.0
 40
0.0
 40
0.0
 40
0.0
 40
0.0273598645
 40
0.0608467826
 40
0.1002707343
 40
0.1454068397
 40
0.2516709361
 40
0.3769997356
 40
0.5182320044
 40
0.6717878328
 40
0.8337571109
 40
1.0
 40
1.0
 40
1.0
 40
1.0
 10
7.2459385481
 20
3.4419099495
 30
0.0
 10
7.2458104681
 20
3.4419403604
 30
0.0
 10
7.2455235006
 20
3.4419989836
 30
0.0
 10
7.2450476224
 20
3.4420786265
 30
0.0
 10
7.2444851726
 20
3.4421580573
 30
0.0
 10
7.2435737169
 20
3.4422689874
 30
0.0
 10
7.2422484681
 20
3.4423992031
 30
0.0
 10
7.2404600523
 20
3.4425394028
 30
0.0
 10
7.2384426069
 20
3.4426664975
 30
0.0
 10
7.2362476724
 20
3.4427770796
 30
0.0
 10
7.2339314114
 20
3.4428681117
 30
0.0
 10
7.2323528657
 20
3.4429139562
 30
0.0
 10
7.2315532257
 20
3.4429331781
 30
0.0
  0
SPLINE
  5
31D
100
AcDbEntity
  8
0
100
AcDbSpline
 62
7
  6
CONTINUOUS
 70
0
 71
3
 72
21
 73
17
 74
0
 42
0.0000001
 43
0.0000001
 44
0.0000000001
 40
0.0
 40
0.0
 40
0.0
 40
0.0
 40
0.0292271068
 40
0.0600180672
 40
0.0936862478
 40
0.1312326574
 40
0.1733651443
 40
0.2205578157
 40
0.2731203208
 40
0.3312459865
 40
0.3950454052
 40
0.4645700668
 40
0.5398236126
 40
0.6207768196
 40
0.7994989541
 40
1.0
 40
1.0
 40
1.0
 40
1.0
 10
7.2549385481
 20
3.4304903809
 30
0.0
 10
7.2549385481
 20
3.430380657
 30
0.0
 10
7.2549108204
 20
3.43015453
 30
0.0
 10
7.2547887213
 20
3.4298219793
 30
0.0
 10
7.2545881874
 20
3.4294933635
 30
0.0
 10
7.2543110255
 20
3.4291686538
 30
0.0
 10
7.2539580646
 20
3.4288473763
 30
0.0
 10
7.2535298122
 20
3.4285294402
 30
0.0
 10
7.2530267392
 20
3.4282150675
 30
0.0
 10
7.2524494726
 20
3.4279046491
 30
0.0
 10
7.2517988044
 20
3.4275986619
 30
0.0
 10
7.2510756907
 20
3.4272976544
 30
0.0
 10
7.2502812565
 20
3.4270021409
 30
0.0
 10
7.2490887125
 20
3.4266029779
 30
0.0
 10
7.2474270342
 20
3.4261273086
 30
0.0
 10
7.2460418873
 20
3.4257966345
 30
0.0
 10
7.2453068326
 20
3.4256345277
 30
0.0
  0
SPLINE
  5
31E
100
AcDbEntity
  8
0
100
AcDbSpline
 62
7
  6
CONTINUOUS
 70
0
 71
3
 72
56
 73
52
 74
0
 42
0.0000001
 43
0.0000001
 44
0.0000000001
 40
0.0
 40
0.0
 40
0.0
 40
0.0
 40
0.0155495948
 40
0.0311818649
 40
0.0469160857
 40
0.0627814399
 40
0.0788136669
 40
0.0950579835
 40
0.1115676593
 40
0.1283938787
 40
0.1369421918
 40
0.1455733402
 40
0.1542762064
 40
0.1630312766
 40
0.1718114414
 40
0.1805856228
 40
0.1893237823
 40
0.1980013348
 40
0.2066019417
 40
0.2151174869
 40
0.2318806336
 40
0.2483357963
 40
0.2645359922
 40
0.2805333763
 40
0.296371355
 40
0.3120843512
 40
0.3276990781
 40
0.3432356215
 40
0.358709791
 40
0.3741341484
 40
0.3895178756
 40
0.4048691059
 40
0.4201934552
 40
0.4507790471
 40
0.4813060386
 40
0.5117934048
 40
0.5422543552
 40
0.5726974168
 40
0.603128985
 40
0.6335534915
 40
0.6943921186
 40
0.7552404555
 40
0.7856790205
 40
0.8161328325
 40
0.8466098094
 40
0.8771213843
 40
0.8923956127
 40
0.9076856298
 40
0.9383239483
 40
0.9690758186
 40
1.0
 40
1.0
 40
1.0
 40
1.0
 10
6.9869985355
 20
2.2713216452
 30
0.0
 10
6.985857616
 20
2.2708327273
 30
0.0
 10
6.983590969
 20
2.2698015199
 30
0.0
 10
6.9802629994
 20
2.2680799638
 30
0.0
 10
6.9770181367
 20
2.2661551905
 30
0.0
 10
6.97388311
 20
2.2639978107
 30
0.0
 10
6.9708959124
 20
2.2615726757
 30
0.0
 10
6.968111758
 20
2.2588396833
 30
0.0
 10
6.9656123096
 20
2.255758561
 30
0.0
 10
6.9638729869
 20
2.2528865913
 30
0.0
 10
6.9627601441
 20
2.2504073944
 30
0.0
 10
6.9620840983
 20
2.2484518501
 30
0.0
 10
6.9615937752
 20
2.2464243595
 30
0.0
 10
6.9613081376
 20
2.2443457119
 30
0.0
 10
6.9612396139
 20
2.2422427962
 30
0.0
 10
6.9613913279
 20
2.240145634
 30
0.0
 10
6.9617564363
 20
2.238083481
 30
0.0
 10
6.962319622
 20
2.2360811991
 30
0.0
 10
6.9630602679
 20
2.2341569597
 30
0.0
 10
6.9642473071
 20
2.2317238508
 30
0.0
 10
6.9660592423
 20
2.2289125836
 30
0.0
 10
6.9686204274
 20
2.2259004408
 30
0.0
 10
6.9714483785
 20
2.2232289829
 30
0.0
 10
6.9744671968
 20
2.2208575391
 30
0.0
 10
6.9776255243
 20
2.2187467373
 30
0.0
 10
6.9808878811
 20
2.2168626014
 30
0.0
 10
6.9842293508
 20
2.2151766375
 30
0.0
 10
6.9876317625
 20
2.2136646677
 30
0.0
 10
6.9910817453
 20
2.212306354
 30
0.0
 10
6.9945694774
 20
2.2110852093
 30
0.0
 10
6.9980870724
 20
2.209985961
 30
0.0
 10
7.001628879
 20
2.2089970913
 30
0.0
 10
7.0063736907
 20
2.2078113011
 30
0.0
 10
7.0123465907
 20
2.2065529662
 30
0.0
 10
7.0195590508
 20
2.2053403629
 30
0.0
 10
7.0267989111
 20
2.2043792041
 30
0.0
 10
7.0340570768
 20
2.203633827
 30
0.0
 10
7.0413273896
 20
2.2030760943
 30
0.0
 10
7.0486055536
 20
2.2026851372
 30
0.0
 10
7.0583153745
 20
2.2023680718
 30
0.0
 10
7.0704608962
 20
2.2023283883
 30
0.0
 10
7.0826005842
 20
2.2027569242
 30
0.0
 10
7.0922968263
 20
2.2034198708
 30
0.0
 10
7.0995598031
 20
2.2040976925
 30
0.0
 10
7.1068068073
 20
2.2049801987
 30
0.0
 10
7.1128240701
 20
2.2059134057
 30
0.0
 10
7.1176184718
 20
2.2068004899
 30
0.0
 10
7.1224029379
 20
2.2077906003
 30
0.0
 10
7.1283529441
 20
2.2092400485
 30
0.0
 10
7.1354069026
 20
2.2113865205
 30
0.0
 10
7.140010801
 20
2.2131488554
 30
0.0
 10
7.142274765
 20
2.2141328528
 30
0.0
  0
SPLINE
  5
31F
100
AcDbEntity
  8
0
100
AcDbSpline
 62
7
  6
CONTINUOUS
 70
0
 71
3
 72
56
 73
52
 74
0
 42
0.0000001
 43
0.0000001
 44
0.0000000001
 40
0.0
 40
0.0
 40
0.0
 40
0.0
 40
0.0155495948
 40
0.0311818649
 40
0.0469160858
 40
0.0627814401
 40
0.0788136672
 40
0.0950579839
 40
0.1115676599
 40
0.1283938796
 40
0.1369421929
 40
0.1455733414
 40
0.1542762077
 40
0.163031278
 40
0.1718114428
 40
0.1805856242
 40
0.1893237836
 40
0.198001336
 40
0.2066019426
 40
0.2151174876
 40
0.2318806338
 40
0.2483357961
 40
0.2645359916
 40
0.2805333755
 40
0.2963713539
 40
0.31208435
 40
0.3276990766
 40
0.3432356199
 40
0.3587097893
 40
0.3741341465
 40
0.3895178738
 40
0.4048691039
 40
0.4201934532
 40
0.450779045
 40
0.4813060364
 40
0.5117934027
 40
0.5422543531
 40
0.5726974146
 40
0.6031289828
 40
0.6335534894
 40
0.6943921165
 40
0.7552404534
 40
0.7856790185
 40
0.8161328306
 40
0.8466098075
 40
0.8771213826
 40
0.8923956111
 40
0.9076856284
 40
0.9383239471
 40
0.9690758179
 40
1.0
 40
1.0
 40
1.0
 40
1.0
 10
7.2839985355
 20
2.2713216452
 30
0.0
 10
7.2828576159
 20
2.2708327273
 30
0.0
 10
7.2805909686
 20
2.2698015198
 30
0.0
 10
7.2772629987
 20
2.2680799635
 30
0.0
 10
7.2740181357
 20
2.2661551899
 30
0.0
 10
7.2708831087
 20
2.2639978098
 30
0.0
 10
7.2678959109
 20
2.2615726743
 30
0.0
 10
7.2651117563
 20
2.2588396815
 30
0.0
 10
7.2626123079
 20
2.2557585586
 30
0.0
 10
7.2608729853
 20
2.2528865883
 30
0.0
 10
7.2597601428
 20
2.250407391
 30
0.0
 10
7.2590840972
 20
2.2484518462
 30
0.0
 10
7.2585937744
 20
2.2464243553
 30
0.0
 10
7.2583081372
 20
2.2443457075
 30
0.0
 10
7.258239614
 20
2.2422427915
 30
0.0
 10
7.2583913285
 20
2.2401456291
 30
0.0
 10
7.2587564375
 20
2.238083476
 30
0.0
 10
7.2593196236
 20
2.2360811941
 30
0.0
 10
7.2600602701
 20
2.2341569547
 30
0.0
 10
7.2612473099
 20
2.2317238459
 30
0.0
 10
7.2630592459
 20
2.2289125788
 30
0.0
 10
7.2656204317
 20
2.2259004363
 30
0.0
 10
7.2684483835
 20
2.2232289786
 30
0.0
 10
7.2714672023
 20
2.2208575351
 30
0.0
 10
7.2746255305
 20
2.2187467334
 30
0.0
 10
7.2778878878
 20
2.2168625978
 30
0.0
 10
7.281229358
 20
2.2151766342
 30
0.0
 10
7.2846317701
 20
2.2136646645
 30
0.0
 10
7.2880817534
 20
2.212306351
 30
0.0
 10
7.291569486
 20
2.2110852065
 30
0.0
 10
7.2950870814
 20
2.2099859584
 30
0.0
 10
7.2986288884
 20
2.2089970888
 30
0.0
 10
7.3033737007
 20
2.2078112988
 30
0.0
 10
7.3093466013
 20
2.2065529641
 30
0.0
 10
7.3165590623
 20
2.2053403612
 30
0.0
 10
7.3237989234
 20
2.2043792026
 30
0.0
 10
7.3310570899
 20
2.2036338258
 30
0.0
 10
7.3383274035
 20
2.2030760934
 30
0.0
 10
7.3456055683
 20
2.2026851365
 30
0.0
 10
7.3553153902
 20
2.2023680716
 30
0.0
 10
7.3674609132
 20
2.2023283886
 30
0.0
 10
7.3796006025
 20
2.2027569251
 30
0.0
 10
7.3892968456
 20
2.2034198724
 30
0.0
 10
7.3965598231
 20
2.2040976947
 30
0.0
 10
7.403806828
 20
2.2049802015
 30
0.0
 10
7.4098240914
 20
2.2059134092
 30
0.0
 10
7.4146184935
 20
2.2068004942
 30
0.0
 10
7.4194029601
 20
2.2077906053
 30
0.0
 10
7.4253529667
 20
2.2092400546
 30
0.0
 10
7.4324069256
 20
2.2113865283
 30
0.0
 10
7.4370108241
 20
2.2131488646
 30
0.0
 10
7.4392747881
 20
2.2141328629
 30
0.0
  0
SPLINE
  5
320
100
AcDbEntity
  8
0
100
AcDbSpline
 62
7
  6
CONTINUOUS
 70
0
 71
3
 72
23
 73
19
 74
0
 42
0.0000001
 43
0.0000001
 44
0.0000000001
 40
0.0
 40
0.0
 40
0.0
 40
0.0
 40
0.0631273989
 40
0.1260876795
 40
0.1888574639
 40
0.2514251032
 40
0.3137917578
 40
0.3759779983
 40
0.4380264738
 40
0.4999999891
 40
0.5619734945
 40
0.6240219597
 40
0.6862082241
 40
0.7485749016
 40
0.8111425506
 40
0.8739123393
 40
0.9368726126
 40
1.0
 40
1.0
 40
1.0
 40
1.0
 10
7.2839985355
 20
2.2713216452
 30
0.0
 10
7.2871026446
 20
2.2726518481
 30
0.0
 10
7.2933345797
 20
2.2752353425
 30
0.0
 10
7.3027812842
 20
2.2788232078
 30
0.0
 10
7.3123264336
 20
2.2820508785
 30
0.0
 10
7.3219757673
 20
2.2848439575
 30
0.0
 10
7.3317280085
 20
2.2871253341
 30
0.0
 10
7.341572175
 20
2.2888207703
 30
0.0
 10
7.3514863365
 20
2.2898669945
 30
0.0
 10
7.3614385458
 20
2.2902208636
 30
0.0
 10
7.3713907547
 20
2.2898669948
 30
0.0
 10
7.3813049163
 20
2.2888207711
 30
0.0
 10
7.3911490848
 20
2.2871253348
 30
0.0
 10
7.4009013289
 20
2.2848439573
 30
0.0
 10
7.4105506646
 20
2.2820508778
 30
0.0
 10
7.4200958145
 20
2.2788232076
 30
0.0
 10
7.4295425176
 20
2.2752353408
 30
0.0
 10
7.4357744522
 20
2.2726518479
 30
0.0
 10
7.4388785607
 20
2.2713216452
 30
0.0
  0
SPLINE
  5
321
100
AcDbEntity
  8
0
100
AcDbSpline
 62
7
  6
CONTINUOUS
 70
0
 71
3
 72
23
 73
19
 74
0
 42
0.0000001
 43
0.0000001
 44
0.0000000001
 40
0.0
 40
0.0
 40
0.0
 40
0.0
 40
0.0631273866
 40
0.1260876588
 40
0.1888574469
 40
0.2514250955
 40
0.3137917729
 40
0.3759780378
 40
0.4380265041
 40
0.5000000109
 40
0.5619735274
 40
0.624022004
 40
0.6862082451
 40
0.7485748998
 40
0.8111425387
 40
0.8739123226
 40
0.936872602
 40
1.0
 40
1.0
 40
1.0
 40
1.0
 10
6.9869985355
 20
2.2713216452
 30
0.0
 10
6.990102644
 20
2.2726518479
 30
0.0
 10
6.9963345785
 20
2.2752353407
 30
0.0
 10
7.0057812815
 20
2.2788232075
 30
0.0
 10
7.0153264313
 20
2.2820508777
 30
0.0
 10
7.0249757669
 20
2.2848439571
 30
0.0
 10
7.034728011
 20
2.2871253347
 30
0.0
 10
7.0445721795
 20
2.2888207711
 30
0.0
 10
7.0544863414
 20
2.2898669948
 30
0.0
 10
7.0644385504
 20
2.2902208636
 30
0.0
 10
7.07439076
 20
2.2898669945
 30
0.0
 10
7.0843049215
 20
2.2888207703
 30
0.0
 10
7.0941490881
 20
2.287125334
 30
0.0
 10
7.1039013294
 20
2.2848439573
 30
0.0
 10
7.113550663
 20
2.2820508784
 30
0.0
 10
7.1230958123
 20
2.2788232077
 30
0.0
 10
7.1325425167
 20
2.2752353424
 30
0.0
 10
7.1387744516
 20
2.2726518481
 30
0.0
 10
7.1418785607
 20
2.2713216452
 30
0.0
  0
LINE
  5
322
100
AcDbEntity
  8
0
100
AcDbLine
 62
7
  6
CONTINUOUS
 10
3.4419557673
 20
5.4908522706
 11
3.4920205293
 21
5.4821791797
  0
SPLINE
  5
323
100
AcDbEntity
  8
0
100
AcDbSpline
 62
9
  6
CONTINUOUS
 70
0
 71
3
 72
17
 73
13
 74
0
 42
0.0000001
 43
0.0000001
 44
0.0000000001
 40
0.0
 40
0.0
 40
0.0
 40
0.0
 40
0.1252609532
 40
0.2504607725
 40
0.3130903361
 40
0.3756939331
 40
0.5007025227
 40
0.6256075398
 40
0.688082631
 40
0.7505383667
 40
0.8752858676
 40
1.0
 40
1.0
 40
1.0
 40
1.0
 10
3.4920205319
 20
5.4821792147
 30
0.0
 10
3.4931579389
 20
5.4819834507
 30
0.0
 10
3.4954010728
 20
5.4813831633
 30
0.0
 10
3.498026718
 20
5.480151589
 30
0.0
 10
3.4999710551
 20
5.4789041153
 30
0.0
 10
3.5017966112
 20
5.4774914879
 30
0.0
 10
3.5038343557
 20
5.4754349911
 30
0.0
 10
3.5054838849
 20
5.4730575503
 30
0.0
 10
3.5065416302
 20
5.4710102117
 30
0.0
 10
3.5074183941
 20
5.4688805971
 30
0.0
 10
3.508166831
 20
5.4660907713
 30
0.0
 10
3.5083760829
 20
5.4637885995
 30
0.0
 10
3.5083806418
 20
5.4626395158
 30
0.0
  0
SPLINE
  5
324
100
AcDbEntity
  8
0
100
AcDbSpline
 62
9
  6
CONTINUOUS
 70
0
 71
3
 72
17
 73
13
 74
0
 42
0.0000001
 43
0.0000001
 44
0.0000000001
 40
0.0
 40
0.0
 40
0.0
 40
0.0
 40
0.1246738351
 40
0.2493929766
 40
0.3118530482
 40
0.3743376107
 40
0.4992443528
 40
0.624268307
 40
0.6868976915
 40
0.7495521287
 40
0.8747618544
 40
1.0
 40
1.0
 40
1.0
 40
1.0
 10
3.5106906964
 20
4.9781045419
 30
0.0
 10
3.5106983336
 20
4.9768206643
 30
0.0
 10
3.5104624121
 20
4.9742447177
 30
0.0
 10
3.5095600635
 20
4.9711414935
 30
0.0
 10
3.508494767
 20
4.9687976062
 30
0.0
 10
3.5072075294
 20
4.9665657202
 30
0.0
 10
3.5051998753
 20
4.9640241837
 30
0.0
 10
3.5027356892
 20
4.9619193532
 30
0.0
 10
3.5005476382
 20
4.9605497267
 30
0.0
 10
3.4982333219
 20
4.959401827
 30
0.0
 10
3.4951447346
 20
4.9584033629
 30
0.0
 10
3.4925622483
 20
4.9581076584
 30
0.0
 10
3.4912726266
 20
4.9580924252
 30
0.0
  0
LINE
  5
325
100
AcDbEntity
  8
0
100
AcDbLine
 62
7
  6
CONTINUOUS
 10
3.4912727574
 20
4.9580821091
 11
3.4234763252
 21
4.9571688301
  0
LINE
  5
326
100
AcDbEntity
  8
0
100
AcDbLine
 62
9
  6
CONTINUOUS
 10
3.4913986224
 20
4.9316647829
 11
3.491272757
 21
4.9580821105
  0
SPLINE
  5
327
100
AcDbEntity
  8
0
100
AcDbSpline
 62
9
  6
CONTINUOUS
 70
0
 71
3
 72
28
 73
24
 74
0
 42
0.0000001
 43
0.0000001
 44
0.0000000001
 40
0.0
 40
0.0
 40
0.0
 40
0.0
 40
0.1798238579
 40
0.3634679035
 40
0.4533897834
 40
0.5400690415
 40
0.6220119639
 40
0.6978452113
 40
0.7663087272
 40
0.8264635786
 40
0.8775661792
 40
0.8996207286
 40
0.9193132075
 40
0.9366380564
 40
0.9516439022
 40
0.9644008944
 40
0.9749960623
 40
0.983556153
 40
0.9902998839
 40
0.9930990141
 40
0.9955922228
 40
0.9978599176
 40
1.0
 40
1.0
 40
1.0
 40
1.0
 10
3.5083806418
 20
5.4626395155
 30
0.0
 10
3.5101617945
 20
5.4626465021
 30
0.0
 10
3.5137621297
 20
5.4626292775
 30
0.0
 10
3.5182521037
 20
5.462524914
 30
0.0
 10
3.5218176029
 20
5.4623829862
 30
0.0
 10
3.5243751112
 20
5.4622498852
 30
0.0
 10
3.5267912643
 20
5.4620900089
 30
0.0
 10
3.5290247257
 20
5.4619059445
 30
0.0
 10
3.5310394827
 20
5.4616998257
 30
0.0
 10
3.532805684
 20
5.4614759255
 30
0.0
 10
3.5341101345
 20
5.4612685675
 30
0.0
 10
3.5350130213
 20
5.4610931637
 30
0.0
 10
3.5355842845
 20
5.4609662203
 30
0.0
 10
3.5360834245
 20
5.4608377531
 30
0.0
 10
3.5365110615
 20
5.4607084146
 30
0.0
 10
3.5368684464
 20
5.4605788167
 30
0.0
 10
3.5371573376
 20
5.4604494321
 30
0.0
 10
3.5373796608
 20
5.4603204722
 30
0.0
 10
3.5375201506
 20
5.4602067398
 30
0.0
 10
3.5375966628
 20
5.4601148067
 30
0.0
 10
3.5376350977
 20
5.4600500908
 30
0.0
 10
3.5376583148
 20
5.4599853029
 30
0.0
 10
3.5376636749
 20
5.4599415227
 30
0.0
 10
3.537663776
 20
5.4599203253
 30
0.0
  0
SPLINE
  5
328
100
AcDbEntity
  8
0
100
AcDbSpline
 62
9
  6
CONTINUOUS
 70
0
 71
3
 72
28
 73
24
 74
0
 42
0.0000001
 43
0.0000001
 44
0.0000000001
 40
0.0
 40
0.0
 40
0.0
 40
0.0
 40
0.0021433769
 40
0.0044142277
 40
0.0069103391
 40
0.0097120716
 40
0.0164601154
 40
0.0250235093
 40
0.0356212337
 40
0.0483802361
 40
0.0633876151
 40
0.0807135505
 40
0.100406771
 40
0.1224618082
 40
0.1735645485
 40
0.2337186177
 40
0.3021806188
 40
0.378011688
 40
0.4599519427
 40
0.5466281069
 40
0.6365466144
 40
0.8201834204
 40
1.0
 40
1.0
 40
1.0
 40
1.0
 10
3.539946536
 20
4.9811074017
 30
0.0
 10
3.5399466374
 20
4.9810861708
 30
0.0
 10
3.5399416965
 20
4.9810422759
 30
0.0
 10
3.5399191011
 20
4.9809771681
 30
0.0
 10
3.5398812873
 20
4.9809119849
 30
0.0
 10
3.5398056649
 20
4.9808191866
 30
0.0
 10
3.5396662753
 20
4.980703936
 30
0.0
 10
3.539445188
 20
4.9805726475
 30
0.0
 10
3.5391575408
 20
4.9804403012
 30
0.0
 10
3.5388014055
 20
4.9803070895
 30
0.0
 10
3.53837502
 20
4.9801734678
 30
0.0
 10
3.5378771277
 20
4.9800400367
 30
0.0
 10
3.5373071012
 20
4.9799074438
 30
0.0
 10
3.5364059346
 20
4.9797231523
 30
0.0
 10
3.5351035248
 20
4.9795030233
 30
0.0
 10
3.533339538
 20
4.9792619199
 30
0.0
 10
3.5313268387
 20
4.9790362539
 30
0.0
 10
3.5290952347
 20
4.9788305897
 30
0.0
 10
3.5266807174
 20
4.9786474081
 30
0.0
 10
3.5241245957
 20
4.9784896946
 30
0.0
 10
3.5205606161
 20
4.978313522
 30
0.0
 10
3.516071843
 20
4.9781661499
 30
0.0
 10
3.5124718345
 20
4.9781145419
 30
0.0
 10
3.5106906964
 20
4.9781045426
 30
0.0
  0
SPLINE
  5
329
100
AcDbEntity
  8
0
100
AcDbSpline
 62
9
  6
CONTINUOUS
 70
0
 71
3
 72
35
 73
31
 74
0
 42
0.0000001
 43
0.0000001
 44
0.0000000001
 40
0.0
 40
0.0
 40
0.0
 40
0.0
 40
0.0001306023
 40
0.0003562948
 40
0.0011760688
 40
0.0025187877
 40
0.0043977564
 40
0.0068214791
 40
0.0097971049
 40
0.0133312555
 40
0.0174303054
 40
0.0221004977
 40
0.0273479992
 40
0.039599357
 40
0.0542330533
 40
0.071297476
 40
0.090824765
 40
0.1127820383
 40
0.1371200023
 40
0.1637893277
 40
0.192731679
 40
0.2238525512
 40
0.2922153882
 40
0.3679830746
 40
0.4499969763
 40
0.536997592
 40
0.6275863239
 40
0.7203741598
 40
0.8141500622
 40
1.0
 40
1.0
 40
1.0
 40
1.0
 10
3.4967663688
 20
5.5081907381
 30
0.0
 10
3.49676524
 20
5.5081909652
 30
0.0
 10
3.4967620619
 20
5.5081893021
 30
0.0
 10
3.496756202
 20
5.5081808715
 30
0.0
 10
3.4967475432
 20
5.5081614083
 30
0.0
 10
3.4967359653
 20
5.5081278168
 30
0.0
 10
3.4967216858
 20
5.5080800812
 30
0.0
 10
3.4967049001
 20
5.5080181687
 30
0.0
 10
3.4966855576
 20
5.507941817
 30
0.0
 10
3.4966636749
 20
5.5078508909
 30
0.0
 10
3.4966392306
 20
5.5077452176
 30
0.0
 10
3.4966122098
 20
5.5076246417
 30
0.0
 10
3.4965705234
 20
5.5074337051
 30
0.0
 10
3.4965120242
 20
5.5071565407
 30
0.0
 10
3.4964343438
 20
5.5067769655
 30
0.0
 10
3.4963458737
 20
5.5063341325
 30
0.0
 10
3.4962466018
 20
5.5058276241
 30
0.0
 10
3.4961366333
 20
5.5052578742
 30
0.0
 10
3.4960162151
 20
5.5046260199
 30
0.0
 10
3.4958856337
 20
5.503933418
 30
0.0
 10
3.4957452442
 20
5.5031818177
 30
0.0
 10
3.4955389831
 20
5.5020686125
 30
0.0
 10
3.4952604684
 20
5.5005489774
 30
0.0
 10
3.4949050084
 20
5.4985873238
 30
0.0
 10
3.4945237305
 20
5.4964633729
 30
0.0
 10
3.4941225402
 20
5.4942102542
 30
0.0
 10
3.4937075491
 20
5.4918631221
 30
0.0
 10
3.4932848023
 20
5.4894567084
 30
0.0
 10
3.4927199119
 20
5.486222623
 30
0.0
 10
3.4922989733
 20
5.4837937588
 30
0.0
 10
3.492020532
 20
5.4821792147
 30
0.0
  0
SPLINE
  5
32A
100
AcDbEntity
  8
0
100
AcDbSpline
 62
9
  6
CONTINUOUS
 70
0
 71
3
 72
13
 73
9
 74
0
 42
0.0000001
 43
0.0000001
 44
0.0000000001
 40
0.0
 40
0.0
 40
0.0
 40
0.0
 40
0.2648913524
 40
0.517500437
 40
0.6402610339
 40
0.7612100538
 40
0.8809280788
 40
1.0
 40
1.0
 40
1.0
 40
1.0
 10
3.5381695806
 20
5.3538376831
 30
0.0
 10
3.5387870752
 20
5.354502256
 30
0.0
 10
3.5398957867
 20
5.3558967652
 30
0.0
 10
3.5409453136
 20
5.3578370517
 30
0.0
 10
3.5415302896
 20
5.3594355091
 30
0.0
 10
3.5418410766
 20
5.3606429505
 30
0.0
 10
3.5420258675
 20
5.3618630692
 30
0.0
 10
3.5420644689
 20
5.3626816706
 30
0.0
 10
3.5420625248
 20
5.3630894498
 30
0.0
  0
SPLINE
  5
32B
100
AcDbEntity
  8
0
100
AcDbSpline
 62
7
  6
CONTINUOUS
 70
0
 71
3
 72
25
 73
21
 74
0
 42
0.0000001
 43
0.0000001
 44
0.0000000001
 40
0.0
 40
0.0
 40
0.0
 40
0.0
 40
0.0052092135
 40
0.011157226
 40
0.018384957
 40
0.027198445
 40
0.0377622777
 40
0.0501649998
 40
0.0644562906
 40
0.0806636294
 40
0.1188535767
 40
0.1647287892
 40
0.2181827883
 40
0.2790525415
 40
0.347122411
 40
0.4221432265
 40
0.5038267145
 40
0.5918539588
 40
0.7855051463
 40
1.0
 40
1.0
 40
1.0
 40
1.0
 10
7.1818238705
 20
3.4408816398
 30
0.0
 10
7.1818238705
 20
3.4408688399
 30
0.0
 10
7.1818299598
 20
3.4408412322
 30
0.0
 10
7.1818552209
 20
3.4408029954
 30
0.0
 10
7.1818952039
 20
3.4407661601
 30
0.0
 10
7.1819499406
 20
3.4407300765
 30
0.0
 10
7.1820195756
 20
3.4406944988
 30
0.0
 10
7.1821041971
 20
3.4406593855
 30
0.0
 10
7.1822038104
 20
3.4406247542
 30
0.0
 10
7.1823656282
 20
3.4405766265
 30
0.0
 10
7.1826054755
 20
3.440519524
 30
0.0
 10
7.1829375258
 20
3.4404565223
 30
0.0
 10
7.1833265865
 20
3.4403962801
 30
0.0
 10
7.1837711311
 20
3.4403390977
 30
0.0
 10
7.1842694251
 20
3.4402852712
 30
0.0
 10
7.1848194668
 20
3.4402350695
 30
0.0
 10
7.1854190399
 20
3.4401887153
 30
0.0
 10
7.186309996
 20
3.4401304788
 30
0.0
 10
7.1875277607
 20
3.440070199
 30
0.0
 10
7.1885301248
 20
3.4400367935
 30
0.0
 10
7.1890569853
 20
3.4400226881
 30
0.0
  0
SPLINE
  5
32C
100
AcDbEntity
  8
0
100
AcDbSpline
 62
9
  6
CONTINUOUS
 70
0
 71
3
 72
13
 73
9
 74
0
 42
0.0000001
 43
0.0000001
 44
0.0000000001
 40
0.0
 40
0.0
 40
0.0
 40
0.0
 40
0.2648913524
 40
0.517500437
 40
0.6402610339
 40
0.7612100538
 40
0.8809280788
 40
1.0
 40
1.0
 40
1.0
 40
1.0
 10
3.5377497372
 20
5.4419000102
 30
0.0
 10
3.5383735404
 20
5.4412413553
 30
0.0
 10
3.539495498
 20
5.439857481
 30
0.0
 10
3.5405634778
 20
5.4379272898
 30
0.0
 10
3.5411636683
 20
5.4363344828
 30
0.0
 10
3.541485954
 20
5.4351300597
 30
0.0
 10
3.5416823703
 20
5.4339117584
 30
0.0
 10
3.5417287752
 20
5.4330935623
 30
0.0
 10
3.5417307193
 20
5.432685783
 30
0.0
  0
SPLINE
  5
32D
100
AcDbEntity
  8
0
100
AcDbSpline
 62
7
  6
CONTINUOUS
 70
0
 71
3
 72
14
 73
10
 74
0
 42
0.0000001
 43
0.0000001
 44
0.0000000001
 40
0.0
 40
0.0
 40
0.0
 40
0.0
 40
0.0789837062
 40
0.1752056595
 40
0.2870387149
 40
0.4124689379
 40
0.5491632676
 40
0.6945307485
 40
1.0
 40
1.0
 40
1.0
 40
1.0
 10
7.1824385481
 20
3.4374450194
 30
0.0
 10
7.1826468382
 20
3.4374014107
 30
0.0
 10
7.183112904
 20
3.4373240973
 30
0.0
 10
7.183881142
 20
3.4372339265
 30
0.0
 10
7.1847767901
 20
3.437160299
 30
0.0
 10
7.1857829137
 20
3.4371049079
 30
0.0
 10
7.1868803217
 20
3.4370690741
 30
0.0
 10
7.1884632375
 20
3.4370482102
 30
0.0
 10
7.189678129
 20
3.437064428
 30
0.0
 10
7.1905008059
 20
3.4370884465
 30
0.0
  0
SPLINE
  5
32E
100
AcDbEntity
  8
0
100
AcDbSpline
 62
7
  6
CONTINUOUS
 70
0
 71
3
 72
25
 73
21
 74
0
 42
0.0000001
 43
0.0000001
 44
0.0000000001
 40
0.0
 40
0.0
 40
0.0
 40
0.0
 40
0.2144909326
 40
0.4081386404
 40
0.4961643577
 40
0.577846488
 40
0.6528661423
 40
0.7209350795
 40
0.7818041682
 40
0.835257821
 40
0.881133074
 40
0.9193235499
 40
0.9355313869
 40
0.949823369
 40
0.9622270176
 40
0.9727920718
 40
0.9816071604
 40
0.9888369784
 40
0.9947876519
 40
1.0
 40
1.0
 40
1.0
 40
1.0
 10
7.1890569853
 20
3.4395201789
 30
0.0
 10
7.1885301238
 20
3.4395342935
 30
0.0
 10
7.1875277578
 20
3.4395677208
 30
0.0
 10
7.1863099918
 20
3.43962804
 30
0.0
 10
7.1854190354
 20
3.4396863145
 30
0.0
 10
7.1848194621
 20
3.439732699
 30
0.0
 10
7.1842694204
 20
3.4397829335
 30
0.0
 10
7.1837711266
 20
3.4398367951
 30
0.0
 10
7.1833265822
 20
3.4398940148
 30
0.0
 10
7.1829375218
 20
3.4399542964
 30
0.0
 10
7.1826054715
 20
3.4400173392
 30
0.0
 10
7.182365625
 20
3.4400744789
 30
0.0
 10
7.1822038083
 20
3.4401226377
 30
0.0
 10
7.182104195
 20
3.4401572917
 30
0.0
 10
7.1820195734
 20
3.440192428
 30
0.0
 10
7.1819499382
 20
3.4402280292
 30
0.0
 10
7.1818952012
 20
3.440264137
 30
0.0
 10
7.1818552182
 20
3.4403009973
 30
0.0
 10
7.1818299585
 20
3.4403392593
 30
0.0
 10
7.1818238705
 20
3.4403668819
 30
0.0
 10
7.1818238705
 20
3.4403796898
 30
0.0
  0
SPLINE
  5
32F
100
AcDbEntity
  8
0
100
AcDbSpline
 62
7
  6
CONTINUOUS
 70
0
 71
3
 72
14
 73
10
 74
0
 42
0.0000001
 43
0.0000001
 44
0.0000000001
 40
0.0
 40
0.0
 40
0.0
 40
0.0
 40
0.3054687096
 40
0.4508359198
 40
0.587529992
 40
0.7129600157
 40
0.8247930528
 40
0.9210153372
 40
1.0
 40
1.0
 40
1.0
 40
1.0
 10
7.1905008059
 20
3.4365840174
 30
0.0
 10
7.1896781281
 20
3.4365599831
 30
0.0
 10
7.1884632346
 20
3.4365437546
 30
0.0
 10
7.1868803164
 20
3.4365646324
 30
0.0
 10
7.1857829074
 20
3.4366004899
 30
0.0
 10
7.1847767836
 20
3.4366559176
 30
0.0
 10
7.1838811359
 20
3.4367295935
 30
0.0
 10
7.1831128987
 20
3.4368198237
 30
0.0
 10
7.1826468357
 20
3.4368971876
 30
0.0
 10
7.1824385481
 20
3.4369408244
 30
0.0
  0
SPLINE
  5
330
100
AcDbEntity
  8
0
100
AcDbSpline
 62
7
  6
CONTINUOUS
 70
0
 71
3
 72
14
 73
10
 74
0
 42
0.0000001
 43
0.0000001
 44
0.0000000001
 40
0.0
 40
0.0
 40
0.0
 40
0.0
 40
0.0789590485
 40
0.1751669535
 40
0.2869957394
 40
0.4124293602
 40
0.5491319776
 40
0.6945099399
 40
1.0
 40
1.0
 40
1.0
 40
1.0
 10
7.2459385481
 20
3.4368375163
 30
0.0
 10
7.2457302227
 20
3.4367945435
 30
0.0
 10
7.245264087
 20
3.4367186784
 30
0.0
 10
7.2444957881
 20
3.4366309353
 30
0.0
 10
7.2436000696
 20
3.4365601663
 30
0.0
 10
7.2425938875
 20
3.436508011
 30
0.0
 10
7.241496456
 20
3.436475728
 30
0.0
 10
7.239913585
 20
3.4364600098
 30
0.0
 10
7.2386988305
 20
3.4364801973
 30
0.0
 10
7.2378762904
 20
3.4365069078
 30
0.0
  0
SPLINE
  5
331
100
AcDbEntity
  8
0
100
AcDbSpline
 62
7
  6
CONTINUOUS
 70
0
 71
3
 72
23
 73
19
 74
0
 42
0.0000001
 43
0.0000001
 44
0.0000000001
 40
0.0
 40
0.0
 40
0.0
 40
0.0
 40
0.0101423065
 40
0.0206483174
 40
0.0318593414
 40
0.0440561227
 40
0.0721761075
 40
0.1061799649
 40
0.1466128843
 40
0.1937075371
 40
0.2475136845
 40
0.3079599286
 40
0.3748897874
 40
0.4480815457
 40
0.5272566586
 40
0.6120878253
 40
0.7971949484
 40
1.0
 40
1.0
 40
1.0
 40
1.0
 10
7.2459385481
 20
3.4308137826
 30
0.0
 10
7.2459385481
 20
3.4307635004
 30
0.0
 10
7.2459281151
 20
3.4306608578
 30
0.0
 10
7.2458816544
 20
3.4305089924
 30
0.0
 10
7.245804879
 20
3.4303585637
 30
0.0
 10
7.2456555303
 20
3.4301503498
 30
0.0
 10
7.2453852183
 20
3.4298955243
 30
0.0
 10
7.2449620988
 20
3.4296113384
 30
0.0
 10
7.2444259203
 20
3.42933428
 30
0.0
 10
7.243778237
 20
3.4290654581
 30
0.0
 10
7.2430211344
 20
3.4288060054
 30
0.0
 10
7.2421577029
 20
3.4285573134
 30
0.0
 10
7.2411916831
 20
3.4283207195
 30
0.0
 10
7.2401274609
 20
3.4280975447
 30
0.0
 10
7.238970009
 20
3.4278890052
 30
0.0
 10
7.2372594299
 20
3.4276243252
 30
0.0
 10
7.2349319623
 20
3.4273433104
 30
0.0
 10
7.2330154139
 20
3.4271798659
 30
0.0
 10
7.2320124612
 20
3.4271091755
 30
0.0
  0
SPLINE
  5
332
100
AcDbEntity
  8
0
100
AcDbSpline
 62
7
  6
CONTINUOUS
 70
0
 71
3
 72
26
 73
22
 74
0
 42
0.0000001
 43
0.0000001
 44
0.0000000001
 40
0.0
 40
0.0
 40
0.0
 40
0.0
 40
0.203332105
 40
0.2983400424
 40
0.3883482556
 40
0.4729815705
 40
0.5519021692
 40
0.6248141318
 40
0.6914662258
 40
0.7516622715
 40
0.8052710848
 40
0.8295892618
 40
0.852252109
 40
0.8732722889
 40
0.8926733199
 40
0.9267713568
 40
0.9551220608
 40
0.9674868588
 40
0.9788971615
 40
0.9896254993
 40
1.0
 40
1.0
 40
1.0
 40
1.0
 10
7.195540599
 20
3.4272321362
 30
0.0
 10
7.194591048
 20
3.4273101611
 30
0.0
 10
7.1931992905
 20
3.4274450188
 30
0.0
 10
7.1913934912
 20
3.4276700371
 30
0.0
 10
7.1901429385
 20
3.4278510785
 30
0.0
 10
7.1889710244
 20
3.4280472586
 30
0.0
 10
7.1878830238
 20
3.4282575631
 30
0.0
 10
7.1868837616
 20
3.4284808948
 30
0.0
 10
7.1859775527
 20
3.4287161084
 30
0.0
 10
7.1851682634
 20
3.4289620218
 30
0.0
 10
7.184558922
 20
3.4291813514
 30
0.0
 10
7.1841239327
 20
3.4293630815
 30
0.0
 10
7.1838346658
 20
3.4294968853
 30
0.0
 10
7.1835718744
 20
3.429632483
 30
0.0
 10
7.1832699944
 20
3.4298081884
 30
0.0
 10
7.182954941
 20
3.4300286743
 30
0.0
 10
7.1827026188
 20
3.4302761017
 30
0.0
 10
7.1825633392
 20
3.4304776238
 30
0.0
 10
7.182491641
 20
3.4306233006
 30
0.0
 10
7.1824482827
 20
3.4307701653
 30
0.0
 10
7.1824385481
 20
3.4308692954
 30
0.0
 10
7.1824385481
 20
3.4309179071
 30
0.0
  0
SPLINE
  5
333
100
AcDbEntity
  8
0
100
AcDbSpline
 62
7
  6
CONTINUOUS
 70
0
 71
3
 72
25
 73
21
 74
0
 42
0.0000001
 43
0.0000001
 44
0.0000000001
 40
0.0
 40
0.0
 40
0.0
 40
0.0
 40
0.0095335078
 40
0.01948452
 40
0.0302288558
 40
0.0420647125
 40
0.0552118707
 40
0.0698264441
 40
0.0860146069
 40
0.1038466773
 40
0.1445953655
 40
0.1922508889
 40
0.2467887655
 40
0.3080646492
 40
0.3758455863
 40
0.4498267921
 40
0.5296429391
 40
0.6148761768
 40
0.7996716861
 40
1.0
 40
1.0
 40
1.0
 40
1.0
 10
7.1824385481
 20
3.4314260828
 30
0.0
 10
7.1824385481
 20
3.4313708856
 30
0.0
 10
7.1824512336
 20
3.4312577184
 30
0.0
 10
7.1825074742
 20
3.4310908011
 30
0.0
 10
7.1826001668
 20
3.4309257704
 30
0.0
 10
7.1827285974
 20
3.4307627665
 30
0.0
 10
7.1828923283
 20
3.4306015951
 30
0.0
 10
7.1830911535
 20
3.4304422277
 30
0.0
 10
7.1833248603
 20
3.4302846873
 30
0.0
 10
7.1836996592
 20
3.4300675341
 30
0.0
 10
7.1842576179
 20
3.4298061096
 30
0.0
 10
7.1850328282
 20
3.4295147835
 30
0.0
 10
7.1859375342
 20
3.4292352145
 30
0.0
 10
7.1869669932
 20
3.4289691879
 30
0.0
 10
7.1881157411
 20
3.428718487
 30
0.0
 10
7.1893773535
 20
3.4284847906
 30
0.0
 10
7.1907446203
 20
3.4282696556
 30
0.0
 10
7.1927525938
 20
3.4280023376
 30
0.0
 10
7.1954629338
 20
3.427729855
 30
0.0
 10
7.1976883427
 20
3.4275835373
 30
0.0
 10
7.1988467114
 20
3.4275247163
 30
0.0
  0
SPLINE
  5
334
100
AcDbEntity
  8
0
100
AcDbSpline
 62
7
  6
CONTINUOUS
 70
0
 71
3
 72
25
 73
21
 74
0
 42
0.0000001
 43
0.0000001
 44
0.0000000001
 40
0.0
 40
0.0
 40
0.0
 40
0.0
 40
0.2004042098
 40
0.3852585888
 40
0.4705123472
 40
0.5503419096
 40
0.6243288078
 40
0.6921073748
 40
0.7533728133
 40
0.8078925505
 40
0.855523125
 40
0.8962415998
 40
0.9140573713
 40
0.9302290092
 40
0.944827424
 40
0.9579596104
 40
0.9697827287
 40
0.980517859
 40
0.9904646202
 40
1.0
 40
1.0
 40
1.0
 40
1.0
 10
7.2295303848
 20
3.4274741794
 30
0.0
 10
7.2306886796
 20
3.427529185
 30
0.0
 10
7.2329139911
 20
3.427668173
 30
0.0
 10
7.2356244625
 20
3.4279317619
 30
0.0
 10
7.2376326068
 20
3.4281925216
 30
0.0
 10
7.2389999548
 20
3.428403197
 30
0.0
 10
7.2402616323
 20
3.4286327881
 30
0.0
 10
7.2414104204
 20
3.4288797596
 30
0.0
 10
7.2424398893
 20
3.4291424509
 30
0.0
 10
7.2433445745
 20
3.4294190937
 30
0.0
 10
7.2441197375
 20
3.4297079154
 30
0.0
 10
7.2446776701
 20
3.429967552
 30
0.0
 10
7.2450524374
 20
3.4301835109
 30
0.0
 10
7.2452861053
 20
3.430340299
 30
0.0
 10
7.2454848937
 20
3.4304990278
 30
0.0
 10
7.245648592
 20
3.4306596763
 30
0.0
 10
7.2457769949
 20
3.4308222751
 30
0.0
 10
7.245869663
 20
3.4309870197
 30
0.0
 10
7.2459258799
 20
3.4311537663
 30
0.0
 10
7.2459385481
 20
3.4312668531
 30
0.0
 10
7.2459385481
 20
3.4313220277
 30
0.0
  0
SPLINE
  5
335
100
AcDbEntity
  8
0
100
AcDbSpline
 62
7
  6
CONTINUOUS
 70
0
 71
3
 72
14
 73
10
 74
0
 42
0.0000001
 43
0.0000001
 44
0.0000000001
 40
0.0
 40
0.0
 40
0.0
 40
0.0
 40
0.3054905564
 40
0.4508687676
 40
0.5875716371
 40
0.7130054409
 40
0.8248342701
 40
0.9210418701
 40
1.0
 40
1.0
 40
1.0
 40
1.0
 10
7.2378762904
 20
3.4370113875
 30
0.0
 10
7.2386988298
 20
3.4369846946
 30
0.0
 10
7.2399135823
 20
3.4369645203
 30
0.0
 10
7.241496451
 20
3.4369802281
 30
0.0
 10
7.2425938814
 20
3.4370124897
 30
0.0
 10
7.2436000633
 20
3.4370646107
 30
0.0
 10
7.2444957821
 20
3.437135333
 30
0.0
 10
7.2452640818
 20
3.4372230184
 30
0.0
 10
7.2457302202
 20
3.437298834
 30
0.0
 10
7.2459385481
 20
3.437341779
 30
0.0
  0
SPLINE
  5
336
100
AcDbEntity
  8
0
100
AcDbSpline
 62
7
  6
CONTINUOUS
 70
0
 71
3
 72
31
 73
27
 74
0
 42
0.0000001
 43
0.0000001
 44
0.0000000001
 40
0.0
 40
0.0
 40
0.0
 40
0.0
 40
0.0594912565
 40
0.1194253897
 40
0.1799608627
 40
0.2413181048
 40
0.2724112468
 40
0.3038308236
 40
0.3356209828
 40
0.3678193012
 40
0.4004436387
 40
0.4334720907
 40
0.4668232093
 40
0.5003484475
 40
0.533855872
 40
0.5671581947
 40
0.6001184406
 40
0.6326665146
 40
0.6647892136
 40
0.696509354
 40
0.7278672365
 40
0.7589076134
 40
0.8201797063
 40
0.8806528822
 40
0.9405427966
 40
1.0
 40
1.0
 40
1.0
 40
1.0
 10
7.142274765
 20
2.2141328528
 30
0.0
 10
7.1437489992
 20
2.2147736063
 30
0.0
 10
7.1466719517
 20
2.2161465217
 30
0.0
 10
7.1509245726
 20
2.2185137902
 30
0.0
 10
7.1550094376
 20
2.2212550761
 30
0.0
 10
7.1581968089
 20
2.2239032105
 30
0.0
 10
7.1605564145
 20
2.2262802397
 30
0.0
 10
7.1622176997
 20
2.2282156576
 30
0.0
 10
7.1637331205
 20
2.2303051381
 30
0.0
 10
7.1650662011
 20
2.2325544574
 30
0.0
 10
7.166172952
 20
2.2349614772
 30
0.0
 10
7.167004415
 20
2.2375109829
 30
0.0
 10
7.1675132945
 20
2.2401698383
 30
0.0
 10
7.1676647543
 20
2.2428863215
 30
0.0
 10
7.1674474797
 20
2.2455969408
 30
0.0
 10
7.1668776412
 20
2.2482394949
 30
0.0
 10
7.1659931123
 20
2.2507653137
 30
0.0
 10
7.1648422053
 20
2.2531446914
 30
0.0
 10
7.1634733571
 20
2.2553651672
 30
0.0
 10
7.1619293228
 20
2.2574264125
 30
0.0
 10
7.1602451837
 20
2.2593351867
 30
0.0
 10
7.1578607859
 20
2.2616795125
 30
0.0
 10
7.1546514119
 20
2.2642916987
 30
0.0
 10
7.1505488418
 20
2.2669966011
 30
0.0
 10
7.1462839047
 20
2.2693334004
 30
0.0
 10
7.1433552273
 20
2.2706888497
 30
0.0
 10
7.1418785607
 20
2.2713216452
 30
0.0
  0
SPLINE
  5
337
100
AcDbEntity
  8
0
100
AcDbSpline
 62
7
  6
CONTINUOUS
 70
0
 71
3
 72
31
 73
27
 74
0
 42
0.0000001
 43
0.0000001
 44
0.0000000001
 40
0.0
 40
0.0
 40
0.0
 40
0.0
 40
0.0594912574
 40
0.119425392
 40
0.1799608671
 40
0.2413181121
 40
0.2724112558
 40
0.3038308346
 40
0.335620996
 40
0.3678193168
 40
0.4004436564
 40
0.4334721102
 40
0.4668232298
 40
0.5003484679
 40
0.5338558913
 40
0.5671582121
 40
0.6001184557
 40
0.6326665275
 40
0.6647892244
 40
0.6965093629
 40
0.7278672439
 40
0.7589076194
 40
0.8201797102
 40
0.8806528845
 40
0.9405427977
 40
1.0
 40
1.0
 40
1.0
 40
1.0
 10
7.4392747881
 20
2.2141328629
 30
0.0
 10
7.4407490217
 20
2.2147736166
 30
0.0
 10
7.4436719729
 20
2.2161465326
 30
0.0
 10
7.4479245917
 20
2.2185138019
 30
0.0
 10
7.4520094545
 20
2.2212550887
 30
0.0
 10
7.4551968237
 20
2.2239032239
 30
0.0
 10
7.4575564275
 20
2.2262802537
 30
0.0
 10
7.4592177111
 20
2.2282156722
 30
0.0
 10
7.4607331303
 20
2.230305153
 30
0.0
 10
7.4620662091
 20
2.2325544727
 30
0.0
 10
7.463172958
 20
2.2349614927
 30
0.0
 10
7.464004419
 20
2.2375109983
 30
0.0
 10
7.4645132963
 20
2.2401698533
 30
0.0
 10
7.464664754
 20
2.2428863358
 30
0.0
 10
7.4644474777
 20
2.245596954
 30
0.0
 10
7.4638776378
 20
2.2482395068
 30
0.0
 10
7.4629931079
 20
2.2507653241
 30
0.0
 10
7.4618422003
 20
2.2531447004
 30
0.0
 10
7.4604733518
 20
2.2553651749
 30
0.0
 10
7.4589293175
 20
2.257426419
 30
0.0
 10
7.4572451785
 20
2.2593351921
 30
0.0
 10
7.4548607812
 20
2.2616795166
 30
0.0
 10
7.4516514079
 20
2.2642917016
 30
0.0
 10
7.447548839
 20
2.2669966027
 30
0.0
 10
7.4432839032
 20
2.2693334011
 30
0.0
 10
7.4403552268
 20
2.27068885
 30
0.0
 10
7.4388785607
 20
2.2713216452
 30
0.0
  0
ENDSEC
  0
SECTION
  2
OBJECTS
  0
DICTIONARY
  5
C
100
AcDbDictionary
280
0
281
1
  3
ACAD_GROUP
350
D
  3
ACAD_MLINESTYLE
350
17
  3
ACAD_LAYOUT
350
1A
  3
ACAD_PLOTSETTINGS
350
19
  3
ACAD_PLOTSTYLENAME
350
E
  0
DICTIONARY
  5
D
102
{ACAD_REACTORS
330
C
102
}
100
AcDbDictionary
280
0
281
1
  0
ACDBDICTIONARYWDFLT
  5
E
102
{ACAD_REACTORS
330
C
102
}
100
AcDbDictionary
281
1
  3
Normal
350
F
100
AcDbDictionaryWithDefault
340
F
  0
DICTIONARY
  5
17
102
{ACAD_REACTORS
330
C
102
}
100
AcDbDictionary
280
0
281
1
  3
Standard
350
18
  0
DICTIONARY
  5
19
102
{ACAD_REACTORS
330
C
102
}
100
AcDbDictionary
281
1
  0
DICTIONARY
  5
1A
102
{ACAD_REACTORS
330
C
102
}
100
AcDbDictionary
281
1
  3
Model
350
338
  3
Layout1
350
339
  0
ACDBPLACEHOLDER
  5
F
102
{ACAD_REACTORS
330
E
102
}
  0
MLINESTYLE
  5
18
102
{ACAD_REACTORS
330
17
102
}
100
AcDbMlineStyle
  2
STANDARD
 70
0
  3

 62
256
 51
90.0
 52
90.0
 71
2
 49
0.5
 62
256
  6
BYLAYER
 49
-0.5
 62
256
  6
BYLAYER
  0
LAYOUT
  5
338
102
{ACAD_REACTORS
330
1A
102
}
100
AcDbPlotSettings
  1

  2
none_device
  4
ANSI_A_(11.00_x_8.50_Inches)
  6

 40
0.0
 41
0.0
 42
0.0
 43
0.0
 44
279.4
 45
215.9
 46
0.0
 47
0.0
 48
0.0
 49
0.0
140
0.0
141
0.0
142
1.0
143
1.0
 70
1024
 72
0
 73
0
 74
0
  7

 75
0
147
1.0
148
0.0
149
0.0
100
AcDbLayout
  1
Model
 70
0
 71
0
 10
0.0
 20
0.0
 11
11.0
 21
8.5
 12
0.0
 22
0.0
 32
0.0
 14
0.0
 24
0.0
 34
0.0
 15
0.0
 25
0.0
 35
0.0
146
0.0
 13
0.0
 23
0.0
 33
0.0
 16
1.0
 26
0.0
 36
0.0
 17
0.0
 27
1.0
 37
0.0
 76
0
330
202
345
0
346
0
  0
LAYOUT
  5
339
102
{ACAD_REACTORS
330
1A
102
}
100
AcDbPlotSettings
  1

  2
none_device
  4
ANSI_A_(11.00_x_8.50_Inches)
  6

 40
0.0
 41
0.0
 42
0.0
 43
0.0
 44
279.4
 45
215.9
 46
0.0
 47
0.0
 48
0.0
 49
0.0
140
0.0
141
0.0
142
1.0
143
1.0
 70
0
 72
0
 73
0
 74
0
  7

 75
0
147
1.0
148
0.0
149
0.0
100
AcDbLayout
  1
Layout1
 70
0
 71
1
 10
0.0
 20
0.0
 11
11.0
 21
8.5
 12
0.0
 22
0.0
 32
0.0
 14
0.0
 24
0.0
 34
0.0
 15
0.0
 25
0.0
 35
0.0
146
0.0
 13
0.0
 23
0.0
 33
0.0
 16
1.0
 26
0.0
 36
0.0
 17
0.0
 27
1.0
 37
0.0
 76
0
330
203
345
0
346
0
  0
ENDSEC
  0
EOF
