999
DXF file: 1200-2400_front.dxf
999
Pro/ENGINEER 2019352 by Parametric Technology Corporation
  0
SECTION
  2
HEADER
  9
$ACADVER
  1
AC1032
  9
$DWGCODEPAGE
  3
ANSI_1252
  9
$EXTMAX
 10
11.0
 20
8.5
 30
0.0
  9
$EXTMIN
 10
0.0
 20
0.0
 30
0.0
  9
$LIMMIN
 10
0.0
 20
0.0
  9
$LIMMAX
 10
11.0
 20
8.5
  9
$VIEWCTR
 10
5.5
 20
4.25
  9
$VIEWSIZE
 40
8.5
  9
$CLAYER
  8
0
  9
$LTSCALE
 40
0.605
  9
$CELTYPE
  6
BYLAYER
  9
$DIMSCALE
 40
1.0
  9
$DIMASZ
 40
0.1
  9
$DIMEXO
 40
0.0625
  9
$DIMDLI
 40
0.418
  9
$DIMEXE
 40
0.125
  9
$DIMCEN
 40
0.099
  9
$DIMLFAC
 40
1.0
  9
$DIMBLK
  1
_FILLED
  9
$DIMALT
 70
1
  9
$DIMALTD
 70
2
  9
$DIMALTTD
 70
2
  9
$DIMALTF
 40
25.4
  9
$DIMTXT
 40
0.08
  9
$DIMTOL
 70
1
  9
$DIMLIM
 70
0
  9
$DIMTFAC
 40
1.0
  9
$DIMTP
 40
0.001
  9
$DIMTM
 40
0.001
  9
$DIMGAP
 40
0.09
  9
$DIMDSEP
 70
46
  9
$AUNITS
 70
0
  9
$PDMODE
 70
3
  9
$PDSIZE
 40
0.3125
  9
$HANDSEED
  5
26F
  9
$TILEMODE
 70
1
  9
$MEASUREMENT
 70
0
  9
$INSUNITS
 70
1
  0
ENDSEC
  0
SECTION
  2
CLASSES
  0
CLASS
  1
ACDBDICTIONARYWDFLT
  2
AcDbDictionaryWithDefault
  3
AutoCAD 2000
 90
0
 91
1
280
0
281
0
  0
CLASS
  1
ACDBPLACEHOLDER
  2
AcDbPlaceHolder
  3
AutoCAD 2000
 90
0
 91
1
280
0
281
0
  0
CLASS
  1
LAYOUT
  2
AcDbLayout
  3
AutoCAD 2000
 90
0
 91
0
280
0
281
0
  0
ENDSEC
  0
SECTION
  2
TABLES
  0
TABLE
  2
VPORT
  5
8
100
AcDbSymbolTable
 70
2
  0
VPORT
  5
1F4
100
AcDbSymbolTableRecord
100
AcDbViewportTableRecord
  2
*ACTIVE
 70
0
 10
0.0
 20
0.0
 11
1.0
 21
1.0
 12
5.5
 22
4.25
 13
0.0
 23
0.0
 14
1.0
 24
1.0
 15
0.0
 25
0.0
 16
0.0
 26
0.0
 36
1.0
 17
0.0
 27
0.0
 37
0.0
 40
8.5
 41
1.2941176471
 42
50.0
 43
0.0
 44
0.0
 50
0.0
 51
0.0
 71
0
 72
100
 73
1
 74
1
 75
0
 76
0
 77
0
 78
0
  0
ENDTAB
  0
TABLE
  2
LTYPE
  5
5
100
AcDbSymbolTable
 70
6
  0
LTYPE
  5
14
100
AcDbSymbolTableRecord
100
AcDbLinetypeTableRecord
  2
BYBLOCK
 70
0
  3

 72
65
 73
0
 40
0.0
  0
LTYPE
  5
15
100
AcDbSymbolTableRecord
100
AcDbLinetypeTableRecord
  2
BYLAYER
 70
0
  3

 72
65
 73
0
 40
0.0
  0
LTYPE
  5
16
100
AcDbSymbolTableRecord
100
AcDbLinetypeTableRecord
  2
CONTINUOUS
 70
64
  3
Solid line
 72
65
 73
0
 40
0.0
  0
LTYPE
  5
1F5
100
AcDbSymbolTableRecord
100
AcDbLinetypeTableRecord
  2
CENTER
 70
64
  3
____ _ ____ _ ____ _ ____ _ ____ _ ____ _ ____
 72
65
 73
4
 40
0.6
 49
0.375
 74
0
 49
-0.075
 74
0
 49
0.075
 74
0
 49
-0.075
 74
0
  0
LTYPE
  5
1F6
100
AcDbSymbolTableRecord
100
AcDbLinetypeTableRecord
  2
HIDDEN
 70
64
  3
- - - - - - - - - - - - - - - - - - - -
 72
65
 73
2
 40
0.2
 49
0.1
 74
0
 49
-0.1
 74
0
  0
LTYPE
  5
1F7
100
AcDbSymbolTableRecord
100
AcDbLinetypeTableRecord
  2
PHANTOM
 70
64
  3
_____ _ _ _____ _ _ _____ _ _ _____
 72
65
 73
6
 40
0.8
 49
0.45
 74
0
 49
-0.05
 74
0
 49
0.1
 74
0
 49
-0.05
 74
0
 49
0.1
 74
0
 49
-0.05
 74
0
  0
LTYPE
  5
1F8
100
AcDbSymbolTableRecord
100
AcDbLinetypeTableRecord
  2
DOT
 70
64
  3
. . . . . . . . . . . . . . . . . . . .
 72
65
 73
2
 40
0.2
 49
0.1
 74
0
 49
-0.1
 74
0
  0
LTYPE
  5
1F9
100
AcDbSymbolTableRecord
100
AcDbLinetypeTableRecord
  2
DASHED
 70
64
  3
- - - - - - - - - - - - - - - - - - - -
 72
65
 73
2
 40
0.2
 49
0.1
 74
0
 49
-0.1
 74
0
  0
ENDTAB
  0
TABLE
  2
LAYER
  5
2
100
AcDbSymbolTable
 70
36
  0
LAYER
  5
10
100
AcDbSymbolTableRecord
100
AcDbLayerTableRecord
  2
0
 70
0
 62
7
  6
CONTINUOUS
370
-3
390
F
  0
LAYER
  5
1FA
100
AcDbSymbolTableRecord
100
AcDbLayerTableRecord
  2
DEFAULT_1
 70
0
 62
7
  6
CENTER
370
-3
390
F
  0
LAYER
  5
1FB
100
AcDbSymbolTableRecord
100
AcDbLayerTableRecord
  2
DEFAULT_2
 70
0
 62
8
  6
HIDDEN
370
-3
390
F
  0
LAYER
  5
1FC
100
AcDbSymbolTableRecord
100
AcDbLayerTableRecord
  2
DEFAULT_3
 70
0
 62
7
  6
PHANTOM
370
-3
390
F
  0
LAYER
  5
1FD
100
AcDbSymbolTableRecord
100
AcDbLayerTableRecord
  2
06___PRT_ALL_SURFS
 70
0
 62
7
  6
CONTINUOUS
370
-3
390
F
  0
LAYER
  5
1FE
100
AcDbSymbolTableRecord
100
AcDbLayerTableRecord
  2
ALL_FEATURES
 70
0
 62
7
  6
CONTINUOUS
370
-3
390
F
  0
LAYER
  5
1FF
100
AcDbSymbolTableRecord
100
AcDbLayerTableRecord
  2
AXES_FEATURES
 70
0
 62
7
  6
CONTINUOUS
370
-3
390
F
  0
LAYER
  5
200
100
AcDbSymbolTableRecord
100
AcDbLayerTableRecord
  2
DEFAULT_COORDINATE_SYSTEM
 70
0
 62
7
  6
CONTINUOUS
370
-3
390
F
  0
LAYER
  5
201
100
AcDbSymbolTableRecord
100
AcDbLayerTableRecord
  2
DEFAULT_DATUM_AXES
 70
0
 62
7
  6
CONTINUOUS
370
-3
390
F
  0
LAYER
  5
202
100
AcDbSymbolTableRecord
100
AcDbLayerTableRecord
  2
DEFAULT_DATUM_CURVES
 70
0
 62
7
  6
CONTINUOUS
370
-3
390
F
  0
LAYER
  5
203
100
AcDbSymbolTableRecord
100
AcDbLayerTableRecord
  2
DEFAULT_DATUM_PLANES
 70
0
 62
7
  6
CONTINUOUS
370
-3
390
F
  0
LAYER
  5
204
100
AcDbSymbolTableRecord
100
AcDbLayerTableRecord
  2
DEFAULT_SURFACES
 70
0
 62
7
  6
CONTINUOUS
370
-3
390
F
  0
LAYER
  5
205
100
AcDbSymbolTableRecord
100
AcDbLayerTableRecord
  2
DIMENSIONS
 70
0
 62
7
  6
CONTINUOUS
370
-3
390
F
  0
LAYER
  5
206
100
AcDbSymbolTableRecord
100
AcDbLayerTableRecord
  2
INTF_BLANK
 70
0
 62
7
  6
CONTINUOUS
370
-3
390
F
  0
LAYER
  5
207
100
AcDbSymbolTableRecord
100
AcDbLayerTableRecord
  2
PLATED_SURFACE_AREA
 70
0
 62
7
  6
CONTINUOUS
370
-3
390
F
  0
LAYER
  5
208
100
AcDbSymbolTableRecord
100
AcDbLayerTableRecord
  2
SHELL
 70
0
 62
7
  6
CONTINUOUS
370
-3
390
F
  0
LAYER
  5
209
100
AcDbSymbolTableRecord
100
AcDbLayerTableRecord
  2
XSEC_DATUMS
 70
0
 62
7
  6
CONTINUOUS
370
-3
390
F
  0
LAYER
  5
20A
100
AcDbSymbolTableRecord
100
AcDbLayerTableRecord
  2
___SHELL
 70
0
 62
7
  6
CONTINUOUS
370
-3
390
F
  0
ENDTAB
  0
TABLE
  2
STYLE
  5
3
100
AcDbSymbolTable
 70
1
  0
STYLE
  5
11
100
AcDbSymbolTableRecord
100
AcDbTextStyleTableRecord
  2
STANDARD
 70
0
 40
0.0
 41
0.8
 50
0.0
 71
0
 42
0.2
  3
txt
  4

  0
STYLE
  5
20B
100
AcDbSymbolTableRecord
100
AcDbTextStyleTableRecord
  2
TEXTSTYLE_1
 70
0
 40
0.0
 41
0.8
 50
0.0
 71
0
 42
0.2
  3
gdt
  4

  0
ENDTAB
  0
TABLE
  2
VIEW
  5
6
100
AcDbSymbolTable
 70
0
  0
ENDTAB
  0
TABLE
  2
UCS
  5
7
100
AcDbSymbolTable
 70
0
  0
ENDTAB
  0
TABLE
  2
APPID
  5
9
100
AcDbSymbolTable
 70
1
  0
APPID
  5
20C
100
AcDbSymbolTableRecord
100
AcDbRegAppTableRecord
  2
ACAD
 70
0
  0
ENDTAB
  0
TABLE
  2
BLOCK_RECORD
  5
1
100
AcDbSymbolTable
 70
0
  0
BLOCK_RECORD
  5
20D
100
AcDbSymbolTableRecord
100
AcDbBlockTableRecord
  2
*Model_Space
  0
BLOCK_RECORD
  5
20E
100
AcDbSymbolTableRecord
100
AcDbBlockTableRecord
  2
*Paper_Space
  0
BLOCK_RECORD
  5
20F
100
AcDbSymbolTableRecord
100
AcDbBlockTableRecord
  2
_FILLED
  0
ENDTAB
  0
TABLE
  2
DIMSTYLE
  5
A
100
AcDbSymbolTable
 70
1
100
AcDbDimStyleTable
 71
0
  0
DIMSTYLE
105
210
100
AcDbSymbolTableRecord
100
AcDbDimStyleTableRecord
  2
STANDARD
 70
0
  3

  4

 40
1.0
 41
0.1
 42
0.0625
 43
0.38
 44
0.125
 45
0.0
 46
0.0
 47
0.001
 48
0.001
140
0.08
141
0.09
142
0.0
143
25.4
144
1.0
145
0.0
146
1.0
147
0.09
 71
1.0
 72
0.0
 73
1
 74
1
 75
0
 76
0
 77
0
 78
4
 79
1
170
1
171
2
172
0
173
0
174
0
175
0
176
0
177
0
178
0
270
2
179
3
271
3
272
3
273
2
274
2
275
0
280
0
281
0
282
0
283
1
284
4
285
0
286
0
287
3
288
0
340
11
278
46
341
20F
342
20F
343
20F
344
20F
  0
ENDTAB
  0
ENDSEC
  0
SECTION
  2
BLOCKS
  0
BLOCK
  5
20
100
AcDbEntity
  8
0
100
AcDbBlockBegin
  2
*Model_Space
 70
0
 10
0.0
 20
0.0
 30
0.0
  3
*Model_Space
  1

  0
ENDBLK
  5
21
100
AcDbEntity
  8
0
100
AcDbBlockEnd
  0
BLOCK
  5
1C
100
AcDbEntity
  8
0
100
AcDbBlockBegin
  2
*Paper_Space
 70
0
 10
0.0
 20
0.0
 30
0.0
  3
*Paper_Space
  1

  0
ENDBLK
  5
1D
100
AcDbEntity
  8
0
100
AcDbBlockEnd
  0
BLOCK
  5
211
100
AcDbEntity
  8
0
100
AcDbBlockBegin
  2
_FILLED
 70
64
 10
0.0
 20
0.0
  3
_FILLED
  1

  0
SOLID
  5
212
100
AcDbEntity
  8
0
  6
BYBLOCK
 62
0
100
AcDbTrace
 10
0.0
 20
0.0
 11
-1.0
 21
0.2
 12
-1.0
 22
-0.2
 13
-1.0
 23
-0.2
  0
ENDBLK
  5
213
100
AcDbEntity
  8
0
  6
BYBLOCK
 62
0
100
AcDbBlockEnd
  0
ENDSEC
  0
SECTION
  2
ENTITIES
  0
MTEXT
  5
214
100
AcDbEntity
  8
0
100
AcDbMText
 62
2
  6
CONTINUOUS
  7
STANDARD
 71
3
 72
1
 10
5.214691813
 20
2.7889201694
 30
0.0
 11
1.0
 21
0.0
 31
0.0
 73
2
 44
0.9
  1
SCALE 1.000
 40
0.08
 41
0.704
  0
LINE
  5
215
100
AcDbEntity
  8
0
100
AcDbLine
 62
7
  6
CONTINUOUS
 10
0.0
 20
0.0
 11
0.0
 21
8.5
  0
LINE
  5
216
100
AcDbEntity
  8
0
100
AcDbLine
 62
7
  6
CONTINUOUS
 10
0.0
 20
0.0
 11
11.0
 21
0.0
  0
LINE
  5
217
100
AcDbEntity
  8
0
100
AcDbLine
 62
7
  6
CONTINUOUS
 10
0.0
 20
8.5
 11
11.0
 21
8.5
  0
LINE
  5
218
100
AcDbEntity
  8
0
100
AcDbLine
 62
7
  6
CONTINUOUS
 10
11.0
 20
0.0
 11
11.0
 21
8.5
  0
LINE
  5
219
100
AcDbEntity
  8
0
100
AcDbLine
 62
7
  6
CONTINUOUS
 10
1.6922724303
 20
5.2887770832
 11
1.1698530475
 21
4.3839201694
  0
LINE
  5
21A
100
AcDbEntity
  8
0
100
AcDbLine
 62
7
  6
CONTINUOUS
 10
1.1698530475
 20
4.3839201694
 11
1.6922724303
 21
3.4790632555
  0
LINE
  5
21B
100
AcDbEntity
  8
0
100
AcDbLine
 62
7
  6
CONTINUOUS
 10
1.464691813
 20
3.0848820637
 11
1.6922724303
 21
3.4790632555
  0
LINE
  5
21C
100
AcDbEntity
  8
0
100
AcDbLine
 62
7
  6
CONTINUOUS
 10
2.7371111958
 20
5.2887770832
 11
2.964691813
 21
5.6829582751
  0
LINE
  5
21D
100
AcDbEntity
  8
0
100
AcDbLine
 62
7
  6
CONTINUOUS
 10
1.6607240158
 20
3.4244023152
 11
1.6922724303
 21
3.4790632555
  0
LINE
  5
21E
100
AcDbEntity
  8
0
100
AcDbLine
 62
7
  6
CONTINUOUS
 10
1.464691813
 20
5.6829582751
 11
1.6922724303
 21
5.2887770832
  0
LINE
  5
21F
100
AcDbEntity
  8
0
100
AcDbLine
 62
7
  6
CONTINUOUS
 10
2.964691813
 20
3.0848820637
 11
2.7371111958
 21
3.4790632555
  0
LINE
  5
220
100
AcDbEntity
  8
0
100
AcDbLine
 62
7
  6
CONTINUOUS
 10
1.6607081029
 20
5.3434305762
 11
1.6922724303
 21
5.2887770832
  0
LINE
  5
221
100
AcDbEntity
  8
0
100
AcDbLine
 62
7
  6
CONTINUOUS
 10
2.7686748964
 20
3.4244108119
 11
2.7371111958
 21
3.4790632555
  0
LINE
  5
222
100
AcDbEntity
  8
0
100
AcDbLine
 62
7
  6
CONTINUOUS
 10
2.7371111958
 20
3.4790632555
 11
3.2595305786
 21
4.3839201694
  0
LINE
  5
223
100
AcDbEntity
  8
0
100
AcDbLine
 62
7
  6
CONTINUOUS
 10
3.2595305786
 20
4.3839201694
 11
2.7371111958
 21
5.2887770832
  0
LINE
  5
224
100
AcDbEntity
  8
0
100
AcDbLine
 62
7
  6
CONTINUOUS
 10
1.6922724303
 20
3.4790632555
 11
2.7371111958
 21
3.4790632555
  0
LINE
  5
225
100
AcDbEntity
  8
0
100
AcDbLine
 62
7
  6
CONTINUOUS
 10
7.6922724303
 20
3.4790632555
 11
8.7371111958
 21
3.4790632555
  0
LINE
  5
226
100
AcDbEntity
  8
0
100
AcDbLine
 62
7
  6
CONTINUOUS
 10
9.714691813
 20
4.3839201694
 11
9.2595305786
 21
4.3839201694
  0
LINE
  5
227
100
AcDbEntity
  8
0
100
AcDbLine
 62
7
  6
CONTINUOUS
 10
3.714691813
 20
4.3839201694
 11
3.2595305786
 21
4.3839201694
  0
LINE
  5
228
100
AcDbEntity
  8
0
100
AcDbLine
 62
7
  6
CONTINUOUS
 10
0.714691813
 20
4.3839201694
 11
1.1698530475
 21
4.3839201694
  0
LINE
  5
229
100
AcDbEntity
  8
0
100
AcDbLine
 62
7
  6
CONTINUOUS
 10
6.714691813
 20
4.3839201694
 11
7.1698530475
 21
4.3839201694
  0
LINE
  5
22A
100
AcDbEntity
  8
0
100
AcDbLine
 62
7
  6
CONTINUOUS
 10
1.1067410416
 20
4.3839114266
 11
1.1698530475
 21
4.3839201694
  0
LINE
  5
22B
100
AcDbEntity
  8
0
100
AcDbLine
 62
7
  6
CONTINUOUS
 10
7.1067410416
 20
4.3839114266
 11
7.1698530475
 21
4.3839201694
  0
LINE
  5
22C
100
AcDbEntity
  8
0
100
AcDbLine
 62
7
  6
CONTINUOUS
 10
3.3912774005
 20
4.3839201694
 11
3.2595305786
 21
4.3839201694
  0
LINE
  5
22D
100
AcDbEntity
  8
0
100
AcDbLine
 62
7
  6
CONTINUOUS
 10
9.3912774005
 20
4.3839201694
 11
9.2595305786
 21
4.3839201694
  0
LINE
  5
22E
100
AcDbEntity
  8
0
100
AcDbLine
 62
7
  6
CONTINUOUS
 10
3.5989617886
 20
4.3838675938
 11
3.5439662874
 21
4.3839201694
  0
LINE
  5
22F
100
AcDbEntity
  8
0
100
AcDbLine
 62
7
  6
CONTINUOUS
 10
9.5989617886
 20
4.3838675938
 11
9.5439662874
 21
4.3839201694
  0
LINE
  5
230
100
AcDbEntity
  8
0
100
AcDbLine
 62
7
  6
CONTINUOUS
 10
8.7371111958
 20
5.2887770832
 11
7.6922724303
 21
5.2887770832
  0
LINE
  5
231
100
AcDbEntity
  8
0
100
AcDbLine
 62
7
  6
CONTINUOUS
 10
2.7371111958
 20
5.2887770832
 11
1.6922724303
 21
5.2887770832
  0
LINE
  5
232
100
AcDbEntity
  8
0
100
AcDbLine
 62
7
  6
CONTINUOUS
 10
7.6922724303
 20
5.2887770832
 11
7.1698530475
 21
4.3839201694
  0
LINE
  5
233
100
AcDbEntity
  8
0
100
AcDbLine
 62
7
  6
CONTINUOUS
 10
7.1698530475
 20
4.3839201694
 11
7.6922724303
 21
3.4790632555
  0
LINE
  5
234
100
AcDbEntity
  8
0
100
AcDbLine
 62
7
  6
CONTINUOUS
 10
7.464691813
 20
3.0848820637
 11
7.6922724303
 21
3.4790632555
  0
LINE
  5
235
100
AcDbEntity
  8
0
100
AcDbLine
 62
7
  6
CONTINUOUS
 10
8.7371111958
 20
5.2887770832
 11
8.964691813
 21
5.6829582751
  0
LINE
  5
236
100
AcDbEntity
  8
0
100
AcDbLine
 62
7
  6
CONTINUOUS
 10
7.6607240158
 20
3.4244023152
 11
7.6922724303
 21
3.4790632555
  0
LINE
  5
237
100
AcDbEntity
  8
0
100
AcDbLine
 62
7
  6
CONTINUOUS
 10
7.464691813
 20
5.6829582751
 11
7.6922724303
 21
5.2887770832
  0
LINE
  5
238
100
AcDbEntity
  8
0
100
AcDbLine
 62
7
  6
CONTINUOUS
 10
8.964691813
 20
3.0848820637
 11
8.7371111958
 21
3.4790632555
  0
LINE
  5
239
100
AcDbEntity
  8
0
100
AcDbLine
 62
7
  6
CONTINUOUS
 10
7.6607081029
 20
5.3434305762
 11
7.6922724303
 21
5.2887770832
  0
LINE
  5
23A
100
AcDbEntity
  8
0
100
AcDbLine
 62
7
  6
CONTINUOUS
 10
8.7686748964
 20
3.4244108119
 11
8.7371111958
 21
3.4790632555
  0
LINE
  5
23B
100
AcDbEntity
  8
0
100
AcDbLine
 62
7
  6
CONTINUOUS
 10
8.7371111958
 20
3.4790632555
 11
9.2595305786
 21
4.3839201694
  0
LINE
  5
23C
100
AcDbEntity
  8
0
100
AcDbLine
 62
7
  6
CONTINUOUS
 10
9.2595305786
 20
4.3839201694
 11
8.7371111958
 21
5.2887770832
  0
ARC
  5
23D
100
AcDbEntity
  8
0
100
AcDbCircle
 62
7
  6
CONTINUOUS
 10
2.2146940241
 20
4.3839181687
 40
0.6251023144
100
AcDbArc
 50
86.4844995969
 51
176.3760726516
  0
ARC
  5
23E
100
AcDbEntity
  8
0
100
AcDbCircle
 62
7
  6
CONTINUOUS
 10
1.9027164984
 20
4.0621848711
 40
0.4271907306
100
AcDbArc
 50
223.4430698096
 51
224.5958506923
  0
ARC
  5
23F
100
AcDbEntity
  8
0
100
AcDbCircle
 62
7
  6
CONTINUOUS
 10
1.8480583513
 20
4.0083580749
 40
0.3504780565
100
AcDbArc
 50
224.6034930921
 51
225.7895888401
  0
ARC
  5
240
100
AcDbEntity
  8
0
100
AcDbCircle
 62
7
  6
CONTINUOUS
 10
2.214691813
 20
3.2964201694
 40
0.2055
100
AcDbArc
 50
81.8073990936
 51
98.1926013172
  0
CIRCLE
  5
241
100
AcDbEntity
  8
0
100
AcDbCircle
 62
7
  6
CONTINUOUS
 10
2.214691813
 20
4.3839201694
 40
1.5
  0
CIRCLE
  5
242
100
AcDbEntity
  8
0
100
AcDbCircle
 62
7
  6
CONTINUOUS
 10
2.214691813
 20
4.3839201694
 40
0.885
  0
CIRCLE
  5
243
100
AcDbEntity
  8
0
100
AcDbCircle
 62
7
  6
CONTINUOUS
 10
2.214691813
 20
4.3839201694
 40
0.875
  0
CIRCLE
  5
244
100
AcDbEntity
  8
0
100
AcDbCircle
 62
7
  6
CONTINUOUS
 10
2.214691813
 20
4.3839201694
 40
0.8149999989
  0
CIRCLE
  5
245
100
AcDbEntity
  8
0
100
AcDbCircle
 62
7
  6
CONTINUOUS
 10
2.214691813
 20
4.3839201694
 40
0.63
  0
CIRCLE
  5
246
100
AcDbEntity
  8
0
100
AcDbCircle
 62
7
  6
CONTINUOUS
 10
2.214691813
 20
4.3839201694
 40
0.58
  0
ARC
  5
247
100
AcDbEntity
  8
0
100
AcDbCircle
 62
7
  6
CONTINUOUS
 10
2.214691813
 20
5.4714201694
 40
0.2055
100
AcDbArc
 50
261.8073990936
 51
278.1926013172
  0
ARC
  5
248
100
AcDbEntity
  8
0
100
AcDbCircle
 62
7
  6
CONTINUOUS
 10
1.127191813
 20
4.3839201694
 40
0.2055
100
AcDbArc
 50
351.8210796236
 51
8.1789207993
  0
ARC
  5
249
100
AcDbEntity
  8
0
100
AcDbCircle
 62
7
  6
CONTINUOUS
 10
3.302191813
 20
4.3839201694
 40
0.2055
100
AcDbArc
 50
171.8210796236
 51
188.1789207993
  0
ARC
  5
24A
100
AcDbEntity
  8
0
100
AcDbCircle
 62
7
  6
CONTINUOUS
 10
8.2146940241
 20
4.3839181687
 40
0.6251023144
100
AcDbArc
 50
86.4844995969
 51
176.3760726516
  0
ARC
  5
24B
100
AcDbEntity
  8
0
100
AcDbCircle
 62
7
  6
CONTINUOUS
 10
7.9027164984
 20
4.0621848711
 40
0.4271907305
100
AcDbArc
 50
223.4430698095
 51
224.5958506923
  0
ARC
  5
24C
100
AcDbEntity
  8
0
100
AcDbCircle
 62
7
  6
CONTINUOUS
 10
7.8480583513
 20
4.0083580749
 40
0.3504780565
100
AcDbArc
 50
224.6034930922
 51
225.7895888401
  0
ARC
  5
24D
100
AcDbEntity
  8
0
100
AcDbCircle
 62
7
  6
CONTINUOUS
 10
8.214691813
 20
3.2964201694
 40
0.2055
100
AcDbArc
 50
81.8073990936
 51
98.1926013172
  0
CIRCLE
  5
24E
100
AcDbEntity
  8
0
100
AcDbCircle
 62
7
  6
CONTINUOUS
 10
8.214691813
 20
4.3839201694
 40
1.5
  0
CIRCLE
  5
24F
100
AcDbEntity
  8
0
100
AcDbCircle
 62
7
  6
CONTINUOUS
 10
8.214691813
 20
4.3839201694
 40
0.885
  0
CIRCLE
  5
250
100
AcDbEntity
  8
0
100
AcDbCircle
 62
7
  6
CONTINUOUS
 10
8.214691813
 20
4.3839201694
 40
0.875
  0
CIRCLE
  5
251
100
AcDbEntity
  8
0
100
AcDbCircle
 62
7
  6
CONTINUOUS
 10
8.214691813
 20
4.3839201694
 40
0.8149999989
  0
CIRCLE
  5
252
100
AcDbEntity
  8
0
100
AcDbCircle
 62
7
  6
CONTINUOUS
 10
8.214691813
 20
4.3839201694
 40
0.63
  0
CIRCLE
  5
253
100
AcDbEntity
  8
0
100
AcDbCircle
 62
7
  6
CONTINUOUS
 10
8.214691813
 20
4.3839201694
 40
0.58
  0
ARC
  5
254
100
AcDbEntity
  8
0
100
AcDbCircle
 62
7
  6
CONTINUOUS
 10
8.214691813
 20
5.4714201694
 40
0.2055
100
AcDbArc
 50
261.8073990936
 51
278.1926013172
  0
ARC
  5
255
100
AcDbEntity
  8
0
100
AcDbCircle
 62
7
  6
CONTINUOUS
 10
7.127191813
 20
4.3839201694
 40
0.2055
100
AcDbArc
 50
351.8210796236
 51
8.1789207993
  0
ARC
  5
256
100
AcDbEntity
  8
0
100
AcDbCircle
 62
7
  6
CONTINUOUS
 10
9.302191813
 20
4.3839201694
 40
0.2055
100
AcDbArc
 50
171.8210796236
 51
188.1789207993
  0
SPLINE
  5
257
100
AcDbEntity
  8
0
100
AcDbSpline
 62
7
  6
CONTINUOUS
 70
0
 71
3
 72
33
 73
29
 74
0
 42
0.0000001
 43
0.0000001
 44
0.0000000001
 40
0.0
 40
0.0
 40
0.0
 40
0.0
 40
0.0312457672
 40
0.0625034809
 40
0.093757131
 40
0.1250074867
 40
0.1874835999
 40
0.2499600496
 40
0.2812124677
 40
0.3124647161
 40
0.3437165919
 40
0.3749684395
 40
0.4374459645
 40
0.4999316675
 40
0.5311934837
 40
0.562457929
 40
0.5937231257
 40
0.624988037
 40
0.6562515359
 40
0.6875127068
 40
0.7187715158
 40
0.7500280364
 40
0.8125064577
 40
0.874982428
 40
0.9062346332
 40
0.9374911816
 40
0.9687527792
 40
1.0
 40
1.0
 40
1.0
 40
1.0
 10
2.2530243737
 20
5.0078437423
 30
0.0
 10
2.265295705
 20
5.0066363088
 30
0.0
 10
2.2897776025
 20
5.0034917076
 30
0.0
 10
2.3261521794
 20
4.9966088143
 30
0.0
 10
2.3620568902
 20
4.9875715778
 30
0.0
 10
2.4091075195
 20
4.9726982893
 30
0.0
 10
2.4661297414
 20
4.9488721946
 30
0.0
 10
2.519887964
 20
4.9183830124
 30
0.0
 10
2.5604373511
 20
4.8902610318
 30
0.0
 10
2.5895315202
 20
4.86736548
 30
0.0
 10
2.6171848242
 20
4.8427490896
 30
0.0
 10
2.6519871423
 20
4.8077644632
 30
0.0
 10
2.691404157
 20
4.7601532789
 30
0.0
 10
2.7247184943
 20
4.7080820689
 30
0.0
 10
2.747382315
 20
4.6642329606
 30
0.0
 10
2.7623308054
 20
4.630346037
 30
0.0
 10
2.7751636071
 20
4.5956025513
 30
0.0
 10
2.7858192062
 20
4.5601306796
 30
0.0
 10
2.7942582775
 20
4.524068763
 30
0.0
 10
2.8004396356
 20
4.487554612
 30
0.0
 10
2.8043336645
 20
4.45072761
 30
0.0
 10
2.8064531096
 20
4.4014198041
 30
0.0
 10
2.8033047856
 20
4.3396816831
 30
0.0
 10
2.792428825
 20
4.2788271149
 30
0.0
 10
2.7791867507
 20
4.2312864563
 30
0.0
 10
2.7670122218
 20
4.1963138472
 30
0.0
 10
2.7526406296
 20
4.1621905061
 30
0.0
 10
2.7416322266
 20
4.1400929105
 30
0.0
 10
2.7357834661
 20
4.1292370543
 30
0.0
  0
SPLINE
  5
258
100
AcDbEntity
  8
0
100
AcDbSpline
 62
7
  6
CONTINUOUS
 70
0
 71
3
 72
39
 73
35
 74
0
 42
0.0000001
 43
0.0000001
 44
0.0000000001
 40
0.0
 40
0.0
 40
0.0
 40
0.0
 40
0.0312342528
 40
0.0624926902
 40
0.0937524063
 40
0.1250035806
 40
0.1562513185
 40
0.1875003002
 40
0.2187513037
 40
0.2500023642
 40
0.2812523882
 40
0.3125022338
 40
0.3437521481
 40
0.3750025883
 40
0.406253256
 40
0.437503545
 40
0.4687538474
 40
0.5000038658
 40
0.5312535914
 40
0.5625034235
 40
0.593753044
 40
0.6250027707
 40
0.6562525482
 40
0.6875020189
 40
0.7187518356
 40
0.7500020841
 40
0.7812526365
 40
0.812502577
 40
0.8437500978
 40
0.8749970464
 40
0.906248781
 40
0.9375088605
 40
0.9687660463
 40
1.0
 40
1.0
 40
1.0
 40
1.0
 10
2.4026363461
 20
3.8352154651
 30
0.0
 10
2.3911404981
 20
3.8307623393
 30
0.0
 10
2.367847639
 20
3.8225874196
 30
0.0
 10
2.3322010427
 20
3.8125683442
 30
0.0
 10
2.2959822682
 20
3.8048301503
 30
0.0
 10
2.2593501693
 20
3.799407128
 30
0.0
 10
2.2224531172
 20
3.7963068426
 30
0.0
 10
2.1854341195
 20
3.7955417926
 30
0.0
 10
2.1484390967
 20
3.7971031627
 30
0.0
 10
2.1116141277
 20
3.8009793517
 30
0.0
 10
2.0751052275
 20
3.8071565225
 30
0.0
 10
2.0390528017
 20
3.8155964714
 30
0.0
 10
2.0035961904
 20
3.8262666183
 30
0.0
 10
1.9688711419
 20
3.8391196066
 30
0.0
 10
1.9350075166
 20
3.8540959665
 30
0.0
 10
1.9021366495
 20
3.8711410192
 30
0.0
 10
1.8703789828
 20
3.890178896
 30
0.0
 10
1.839852144
 20
3.9111333262
 30
0.0
 10
1.8106718476
 20
3.9339249884
 30
0.0
 10
1.7829396486
 20
3.9584576518
 30
0.0
 10
1.7567595134
 20
3.9846402505
 30
0.0
 10
1.7322252233
 20
4.0123706855
 30
0.0
 10
1.7094198171
 20
4.041539408
 30
0.0
 10
1.68842964
 20
4.0720404231
 30
0.0
 10
1.6693230183
 20
4.1037552961
 30
0.0
 10
1.6521655675
 20
4.1365661545
 30
0.0
 10
1.6370207718
 20
4.1703530984
 30
0.0
 10
1.6239315023
 20
4.2049868965
 30
0.0
 10
1.6129441193
 20
4.240342281
 30
0.0
 10
1.604094793
 20
4.2762930242
 30
0.0
 10
1.5974054541
 20
4.3127124834
 30
0.0
 10
1.5929034904
 20
4.3494708554
 30
0.0
 10
1.5905934511
 20
4.3864230998
 30
0.0
 10
1.5905146282
 20
4.4111054422
 30
0.0
 10
1.5908416335
 20
4.4234292001
 30
0.0
  0
SPLINE
  5
259
100
AcDbEntity
  8
0
100
AcDbSpline
 62
7
  6
CONTINUOUS
 70
0
 71
3
 72
15
 73
11
 74
0
 42
0.0000001
 43
0.0000001
 44
0.0000000001
 40
0.0
 40
0.0
 40
0.0
 40
0.0
 40
0.1316138752
 40
0.2612069567
 40
0.3884110256
 40
0.5130313128
 40
0.6352018141
 40
0.7555961771
 40
0.8758268891
 40
1.0
 40
1.0
 40
1.0
 40
1.0
 10
1.3307780812
 20
4.4246580977
 30
0.0
 10
1.3313568806
 20
4.423082543
 30
0.0
 10
1.3325014717
 20
4.4199540929
 30
0.0
 10
1.3341535629
 20
4.415284018
 30
0.0
 10
1.3356805561
 20
4.4106650124
 30
0.0
 10
1.3370286471
 20
4.4060885817
 30
0.0
 10
1.3381444499
 20
4.4015384376
 30
0.0
 10
1.3389804952
 20
4.3969845411
 30
0.0
 10
1.3395045143
 20
4.3923576925
 30
0.0
 10
1.3396310907
 20
4.3892409894
 30
0.0
 10
1.3396589433
 20
4.3876576226
 30
0.0
  0
SPLINE
  5
25A
100
AcDbEntity
  8
0
100
AcDbSpline
 62
7
  6
CONTINUOUS
 70
0
 71
3
 72
15
 73
11
 74
0
 42
0.0000001
 43
0.0000001
 44
0.0000000001
 40
0.0
 40
0.0
 40
0.0
 40
0.0
 40
0.124161196
 40
0.2443822019
 40
0.3647758554
 40
0.4869474057
 40
0.611571882
 40
0.7387819659
 40
0.8683812483
 40
1.0
 40
1.0
 40
1.0
 40
1.0
 10
2.2109543598
 20
5.2589530391
 30
0.0
 10
2.2093699071
 20
5.2589809108
 30
0.0
 10
2.2062510413
 20
5.2591076403
 30
0.0
 10
2.2016208968
 20
5.2596324173
 30
0.0
 10
2.1970636473
 20
5.2604696003
 30
0.0
 10
2.1925100438
 20
5.2615869207
 30
0.0
 10
2.1879300685
 20
5.2629366858
 30
0.0
 10
2.1833074399
 20
5.2644655002
 30
0.0
 10
2.1786336048
 20
5.2661192267
 30
0.0
 10
2.1755026509
 20
5.2672649652
 30
0.0
 10
2.1739257897
 20
5.2678441946
 30
0.0
  0
SPLINE
  5
25B
100
AcDbEntity
  8
0
100
AcDbSpline
 62
7
  6
CONTINUOUS
 70
0
 71
3
 72
15
 73
11
 74
0
 42
0.0000001
 43
0.0000001
 44
0.0000000001
 40
0.0
 40
0.0
 40
0.0
 40
0.0
 40
0.1316182459
 40
0.2612165218
 40
0.3884254779
 40
0.5130490205
 40
0.6352199111
 40
0.7556110996
 40
0.8758349516
 40
1.0
 40
1.0
 40
1.0
 40
1.0
 10
2.2554592779
 20
5.2678447521
 30
0.0
 10
2.2538823845
 20
5.2672654321
 30
0.0
 10
2.2507512939
 20
5.2661197316
 30
0.0
 10
2.2460773352
 20
5.264465855
 30
0.0
 10
2.2414545484
 20
5.2629370164
 30
0.0
 10
2.23687444
 20
5.2615871454
 30
0.0
 10
2.232320711
 20
5.2604697591
 30
0.0
 10
2.2277632947
 20
5.2596324675
 30
0.0
 10
2.2231329095
 20
5.2591076492
 30
0.0
 10
2.2200138322
 20
5.2589809128
 30
0.0
 10
2.2184292663
 20
5.2589530391
 30
0.0
  0
SPLINE
  5
25C
100
AcDbEntity
  8
0
100
AcDbSpline
 62
7
  6
CONTINUOUS
 70
0
 71
3
 72
15
 73
11
 74
0
 42
0.0000001
 43
0.0000001
 44
0.0000000001
 40
0.0
 40
0.0
 40
0.0
 40
0.0
 40
0.1241692081
 40
0.2443970075
 40
0.3647938332
 40
0.4869649889
 40
0.6115862387
 40
0.7387914728
 40
0.8683855905
 40
1.0
 40
1.0
 40
1.0
 40
1.0
 10
3.0897246828
 20
4.3876576226
 30
0.0
 10
3.0897525335
 20
4.3892408838
 30
0.0
 10
3.0898791036
 20
4.3923573902
 30
0.0
 10
3.0904030871
 20
4.3969840202
 30
0.0
 10
3.0912390313
 20
4.4015377719
 30
0.0
 10
3.0923547782
 20
4.4060878134
 30
0.0
 10
3.0937027747
 20
4.410664134
 30
0.0
 10
3.0952297559
 20
4.4152830053
 30
0.0
 10
3.0968817053
 20
4.4199529822
 30
0.0
 10
3.0980263468
 20
4.42308131
 30
0.0
 10
3.098605057
 20
4.4246568417
 30
0.0
  0
SPLINE
  5
25D
100
AcDbEntity
  8
0
100
AcDbSpline
 62
7
  6
CONTINUOUS
 70
0
 71
3
 72
15
 73
11
 74
0
 42
0.0000001
 43
0.0000001
 44
0.0000000001
 40
0.0
 40
0.0
 40
0.0
 40
0.0
 40
0.1316138752
 40
0.2612069567
 40
0.3884110256
 40
0.5130313128
 40
0.6352018141
 40
0.7555961771
 40
0.8758268891
 40
1.0
 40
1.0
 40
1.0
 40
1.0
 10
3.0986055449
 20
4.343182241
 30
0.0
 10
3.0980267455
 20
4.3447577958
 30
0.0
 10
3.0968821544
 20
4.3478862458
 30
0.0
 10
3.0952300632
 20
4.3525563207
 30
0.0
 10
3.09370307
 20
4.3571753264
 30
0.0
 10
3.092354979
 20
4.3617517571
 30
0.0
 10
3.0912391762
 20
4.3663019012
 30
0.0
 10
3.0904031309
 20
4.3708557977
 30
0.0
 10
3.0898791117
 20
4.3754826462
 30
0.0
 10
3.0897525354
 20
4.3785993494
 30
0.0
 10
3.0897246828
 20
4.3801827162
 30
0.0
  0
SPLINE
  5
25E
100
AcDbEntity
  8
0
100
AcDbSpline
 62
7
  6
CONTINUOUS
 70
0
 71
3
 72
15
 73
11
 74
0
 42
0.0000001
 43
0.0000001
 44
0.0000000001
 40
0.0
 40
0.0
 40
0.0
 40
0.0
 40
0.124161196
 40
0.244382202
 40
0.3647758554
 40
0.4869474057
 40
0.6115718821
 40
0.738781966
 40
0.8683812483
 40
1.0
 40
1.0
 40
1.0
 40
1.0
 10
2.2184292663
 20
3.5088872997
 30
0.0
 10
2.220013719
 20
3.508859428
 30
0.0
 10
2.2231325848
 20
3.5087326985
 30
0.0
 10
2.2277627293
 20
3.5082079215
 30
0.0
 10
2.2323199788
 20
3.5073707385
 30
0.0
 10
2.2368735823
 20
3.506253418
 30
0.0
 10
2.2414535576
 20
3.504903653
 30
0.0
 10
2.2460761862
 20
3.5033748386
 30
0.0
 10
2.2507500213
 20
3.5017211121
 30
0.0
 10
2.2538809752
 20
3.5005753735
 30
0.0
 10
2.2554578364
 20
3.4999961442
 30
0.0
  0
SPLINE
  5
25F
100
AcDbEntity
  8
0
100
AcDbSpline
 62
7
  6
CONTINUOUS
 70
0
 71
3
 72
15
 73
11
 74
0
 42
0.0000001
 43
0.0000001
 44
0.0000000001
 40
0.0
 40
0.0
 40
0.0
 40
0.0
 40
0.1316182459
 40
0.2612165217
 40
0.3884254779
 40
0.5130490205
 40
0.6352199111
 40
0.7556110995
 40
0.8758349515
 40
1.0
 40
1.0
 40
1.0
 40
1.0
 10
2.1739243482
 20
3.4999955867
 30
0.0
 10
2.1755012416
 20
3.5005749066
 30
0.0
 10
2.1786323323
 20
3.5017206072
 30
0.0
 10
2.183306291
 20
3.5033744838
 30
0.0
 10
2.1879290777
 20
3.5049033224
 30
0.0
 10
2.1925091862
 20
3.5062531934
 30
0.0
 10
2.1970629151
 20
3.5073705797
 30
0.0
 10
2.2016203314
 20
3.5082078713
 30
0.0
 10
2.2062507166
 20
3.5087326896
 30
0.0
 10
2.2093697939
 20
3.508859426
 30
0.0
 10
2.2109543598
 20
3.5088872997
 30
0.0
  0
SPLINE
  5
260
100
AcDbEntity
  8
0
100
AcDbSpline
 62
7
  6
CONTINUOUS
 70
0
 71
3
 72
15
 73
11
 74
0
 42
0.0000001
 43
0.0000001
 44
0.0000000001
 40
0.0
 40
0.0
 40
0.0
 40
0.0
 40
0.1241692081
 40
0.2443970075
 40
0.3647938332
 40
0.4869649889
 40
0.6115862387
 40
0.7387914728
 40
0.8683855905
 40
1.0
 40
1.0
 40
1.0
 40
1.0
 10
1.3396589433
 20
4.3801827162
 30
0.0
 10
1.3396310926
 20
4.378599455
 30
0.0
 10
1.3395045225
 20
4.3754829486
 30
0.0
 10
1.338980539
 20
4.3708563186
 30
0.0
 10
1.3381445948
 20
4.3663025669
 30
0.0
 10
1.3370288479
 20
4.3617525254
 30
0.0
 10
1.3356808514
 20
4.3571762048
 30
0.0
 10
1.3341538702
 20
4.3525573335
 30
0.0
 10
1.3325019208
 20
4.3478873566
 30
0.0
 10
1.3313572793
 20
4.3447590288
 30
0.0
 10
1.3307785691
 20
4.343183497
 30
0.0
  0
LINE
  5
261
100
AcDbEntity
  8
0
100
AcDbLine
 62
7
  6
CONTINUOUS
 10
1.5925512615
 20
3.7684342181
 11
1.586512638
 21
3.774807468
  0
SPLINE
  5
262
100
AcDbEntity
  8
0
100
AcDbSpline
 62
7
  6
CONTINUOUS
 70
0
 71
3
 72
33
 73
29
 74
0
 42
0.0000001
 43
0.0000001
 44
0.0000000001
 40
0.0
 40
0.0
 40
0.0
 40
0.0
 40
0.0312457672
 40
0.0625034809
 40
0.093757131
 40
0.1250074867
 40
0.1874835999
 40
0.2499600496
 40
0.2812124677
 40
0.3124647161
 40
0.3437165919
 40
0.3749684395
 40
0.4374459645
 40
0.4999316675
 40
0.5311934837
 40
0.562457929
 40
0.5937231257
 40
0.624988037
 40
0.6562515359
 40
0.6875127068
 40
0.7187715158
 40
0.7500280364
 40
0.8125064577
 40
0.874982428
 40
0.9062346332
 40
0.9374911816
 40
0.9687527792
 40
1.0
 40
1.0
 40
1.0
 40
1.0
 10
8.2530243737
 20
5.0078437423
 30
0.0
 10
8.265295705
 20
5.0066363088
 30
0.0
 10
8.2897776025
 20
5.0034917076
 30
0.0
 10
8.3261521794
 20
4.9966088143
 30
0.0
 10
8.3620568902
 20
4.9875715778
 30
0.0
 10
8.4091075195
 20
4.9726982893
 30
0.0
 10
8.4661297414
 20
4.9488721946
 30
0.0
 10
8.519887964
 20
4.9183830124
 30
0.0
 10
8.5604373511
 20
4.8902610318
 30
0.0
 10
8.5895315202
 20
4.86736548
 30
0.0
 10
8.6171848242
 20
4.8427490896
 30
0.0
 10
8.6519871423
 20
4.8077644632
 30
0.0
 10
8.691404157
 20
4.7601532789
 30
0.0
 10
8.7247184943
 20
4.7080820689
 30
0.0
 10
8.747382315
 20
4.6642329606
 30
0.0
 10
8.7623308054
 20
4.630346037
 30
0.0
 10
8.7751636071
 20
4.5956025513
 30
0.0
 10
8.7858192062
 20
4.5601306796
 30
0.0
 10
8.7942582775
 20
4.524068763
 30
0.0
 10
8.8004396356
 20
4.487554612
 30
0.0
 10
8.8043336645
 20
4.45072761
 30
0.0
 10
8.8064531096
 20
4.4014198041
 30
0.0
 10
8.8033047856
 20
4.3396816831
 30
0.0
 10
8.792428825
 20
4.2788271149
 30
0.0
 10
8.7791867507
 20
4.2312864563
 30
0.0
 10
8.7670122218
 20
4.1963138472
 30
0.0
 10
8.7526406296
 20
4.1621905061
 30
0.0
 10
8.7416322266
 20
4.1400929105
 30
0.0
 10
8.7357834661
 20
4.1292370543
 30
0.0
  0
SPLINE
  5
263
100
AcDbEntity
  8
0
100
AcDbSpline
 62
7
  6
CONTINUOUS
 70
0
 71
3
 72
39
 73
35
 74
0
 42
0.0000001
 43
0.0000001
 44
0.0000000001
 40
0.0
 40
0.0
 40
0.0
 40
0.0
 40
0.0312342528
 40
0.0624926902
 40
0.0937524063
 40
0.1250035806
 40
0.1562513185
 40
0.1875003002
 40
0.2187513037
 40
0.2500023642
 40
0.2812523882
 40
0.3125022338
 40
0.3437521481
 40
0.3750025883
 40
0.406253256
 40
0.437503545
 40
0.4687538474
 40
0.5000038658
 40
0.5312535914
 40
0.5625034235
 40
0.593753044
 40
0.6250027707
 40
0.6562525482
 40
0.6875020189
 40
0.7187518356
 40
0.7500020841
 40
0.7812526365
 40
0.812502577
 40
0.8437500978
 40
0.8749970464
 40
0.906248781
 40
0.9375088605
 40
0.9687660463
 40
1.0
 40
1.0
 40
1.0
 40
1.0
 10
8.4026363461
 20
3.8352154651
 30
0.0
 10
8.3911404981
 20
3.8307623393
 30
0.0
 10
8.367847639
 20
3.8225874196
 30
0.0
 10
8.3322010427
 20
3.8125683442
 30
0.0
 10
8.2959822682
 20
3.8048301503
 30
0.0
 10
8.2593501693
 20
3.799407128
 30
0.0
 10
8.2224531172
 20
3.7963068426
 30
0.0
 10
8.1854341195
 20
3.7955417926
 30
0.0
 10
8.1484390967
 20
3.7971031627
 30
0.0
 10
8.1116141277
 20
3.8009793517
 30
0.0
 10
8.0751052275
 20
3.8071565225
 30
0.0
 10
8.0390528017
 20
3.8155964714
 30
0.0
 10
8.0035961904
 20
3.8262666183
 30
0.0
 10
7.9688711419
 20
3.8391196066
 30
0.0
 10
7.9350075166
 20
3.8540959665
 30
0.0
 10
7.9021366495
 20
3.8711410192
 30
0.0
 10
7.8703789828
 20
3.890178896
 30
0.0
 10
7.839852144
 20
3.9111333262
 30
0.0
 10
7.8106718476
 20
3.9339249884
 30
0.0
 10
7.7829396486
 20
3.9584576518
 30
0.0
 10
7.7567595134
 20
3.9846402505
 30
0.0
 10
7.7322252233
 20
4.0123706855
 30
0.0
 10
7.7094198171
 20
4.041539408
 30
0.0
 10
7.68842964
 20
4.0720404231
 30
0.0
 10
7.6693230183
 20
4.1037552961
 30
0.0
 10
7.6521655675
 20
4.1365661545
 30
0.0
 10
7.6370207718
 20
4.1703530984
 30
0.0
 10
7.6239315023
 20
4.2049868965
 30
0.0
 10
7.6129441193
 20
4.240342281
 30
0.0
 10
7.604094793
 20
4.2762930242
 30
0.0
 10
7.5974054541
 20
4.3127124834
 30
0.0
 10
7.5929034904
 20
4.3494708554
 30
0.0
 10
7.5905934511
 20
4.3864230998
 30
0.0
 10
7.5905146282
 20
4.4111054422
 30
0.0
 10
7.5908416335
 20
4.4234292001
 30
0.0
  0
SPLINE
  5
264
100
AcDbEntity
  8
0
100
AcDbSpline
 62
7
  6
CONTINUOUS
 70
0
 71
3
 72
15
 73
11
 74
0
 42
0.0000001
 43
0.0000001
 44
0.0000000001
 40
0.0
 40
0.0
 40
0.0
 40
0.0
 40
0.1316138752
 40
0.2612069567
 40
0.3884110256
 40
0.5130313128
 40
0.6352018141
 40
0.7555961771
 40
0.8758268891
 40
1.0
 40
1.0
 40
1.0
 40
1.0
 10
7.3307780812
 20
4.4246580977
 30
0.0
 10
7.3313568806
 20
4.423082543
 30
0.0
 10
7.3325014717
 20
4.4199540929
 30
0.0
 10
7.3341535629
 20
4.415284018
 30
0.0
 10
7.3356805561
 20
4.4106650124
 30
0.0
 10
7.3370286471
 20
4.4060885817
 30
0.0
 10
7.3381444499
 20
4.4015384376
 30
0.0
 10
7.3389804952
 20
4.3969845411
 30
0.0
 10
7.3395045143
 20
4.3923576925
 30
0.0
 10
7.3396310907
 20
4.3892409894
 30
0.0
 10
7.3396589433
 20
4.3876576226
 30
0.0
  0
SPLINE
  5
265
100
AcDbEntity
  8
0
100
AcDbSpline
 62
7
  6
CONTINUOUS
 70
0
 71
3
 72
15
 73
11
 74
0
 42
0.0000001
 43
0.0000001
 44
0.0000000001
 40
0.0
 40
0.0
 40
0.0
 40
0.0
 40
0.124161196
 40
0.2443822019
 40
0.3647758554
 40
0.4869474057
 40
0.611571882
 40
0.7387819659
 40
0.8683812483
 40
1.0
 40
1.0
 40
1.0
 40
1.0
 10
8.2109543598
 20
5.2589530391
 30
0.0
 10
8.2093699071
 20
5.2589809108
 30
0.0
 10
8.2062510413
 20
5.2591076403
 30
0.0
 10
8.2016208968
 20
5.2596324173
 30
0.0
 10
8.1970636473
 20
5.2604696003
 30
0.0
 10
8.1925100438
 20
5.2615869207
 30
0.0
 10
8.1879300685
 20
5.2629366858
 30
0.0
 10
8.1833074399
 20
5.2644655002
 30
0.0
 10
8.1786336048
 20
5.2661192267
 30
0.0
 10
8.1755026509
 20
5.2672649652
 30
0.0
 10
8.1739257897
 20
5.2678441946
 30
0.0
  0
SPLINE
  5
266
100
AcDbEntity
  8
0
100
AcDbSpline
 62
7
  6
CONTINUOUS
 70
0
 71
3
 72
15
 73
11
 74
0
 42
0.0000001
 43
0.0000001
 44
0.0000000001
 40
0.0
 40
0.0
 40
0.0
 40
0.0
 40
0.1316182459
 40
0.2612165218
 40
0.3884254779
 40
0.5130490205
 40
0.6352199111
 40
0.7556110996
 40
0.8758349516
 40
1.0
 40
1.0
 40
1.0
 40
1.0
 10
8.2554592779
 20
5.2678447521
 30
0.0
 10
8.2538823845
 20
5.2672654321
 30
0.0
 10
8.2507512939
 20
5.2661197316
 30
0.0
 10
8.2460773352
 20
5.264465855
 30
0.0
 10
8.2414545484
 20
5.2629370164
 30
0.0
 10
8.23687444
 20
5.2615871454
 30
0.0
 10
8.232320711
 20
5.2604697591
 30
0.0
 10
8.2277632947
 20
5.2596324675
 30
0.0
 10
8.2231329095
 20
5.2591076492
 30
0.0
 10
8.2200138322
 20
5.2589809128
 30
0.0
 10
8.2184292663
 20
5.2589530391
 30
0.0
  0
SPLINE
  5
267
100
AcDbEntity
  8
0
100
AcDbSpline
 62
7
  6
CONTINUOUS
 70
0
 71
3
 72
15
 73
11
 74
0
 42
0.0000001
 43
0.0000001
 44
0.0000000001
 40
0.0
 40
0.0
 40
0.0
 40
0.0
 40
0.1241692081
 40
0.2443970075
 40
0.3647938332
 40
0.4869649889
 40
0.6115862387
 40
0.7387914728
 40
0.8683855905
 40
1.0
 40
1.0
 40
1.0
 40
1.0
 10
9.0897246828
 20
4.3876576226
 30
0.0
 10
9.0897525335
 20
4.3892408838
 30
0.0
 10
9.0898791036
 20
4.3923573902
 30
0.0
 10
9.0904030871
 20
4.3969840202
 30
0.0
 10
9.0912390313
 20
4.4015377719
 30
0.0
 10
9.0923547782
 20
4.4060878134
 30
0.0
 10
9.0937027747
 20
4.410664134
 30
0.0
 10
9.0952297559
 20
4.4152830053
 30
0.0
 10
9.0968817053
 20
4.4199529822
 30
0.0
 10
9.0980263468
 20
4.42308131
 30
0.0
 10
9.098605057
 20
4.4246568417
 30
0.0
  0
SPLINE
  5
268
100
AcDbEntity
  8
0
100
AcDbSpline
 62
7
  6
CONTINUOUS
 70
0
 71
3
 72
15
 73
11
 74
0
 42
0.0000001
 43
0.0000001
 44
0.0000000001
 40
0.0
 40
0.0
 40
0.0
 40
0.0
 40
0.1316138752
 40
0.2612069567
 40
0.3884110256
 40
0.5130313128
 40
0.6352018141
 40
0.7555961771
 40
0.8758268891
 40
1.0
 40
1.0
 40
1.0
 40
1.0
 10
9.0986055449
 20
4.343182241
 30
0.0
 10
9.0980267455
 20
4.3447577958
 30
0.0
 10
9.0968821544
 20
4.3478862458
 30
0.0
 10
9.0952300632
 20
4.3525563207
 30
0.0
 10
9.09370307
 20
4.3571753264
 30
0.0
 10
9.092354979
 20
4.3617517571
 30
0.0
 10
9.0912391762
 20
4.3663019012
 30
0.0
 10
9.0904031309
 20
4.3708557977
 30
0.0
 10
9.0898791117
 20
4.3754826462
 30
0.0
 10
9.0897525354
 20
4.3785993494
 30
0.0
 10
9.0897246828
 20
4.3801827162
 30
0.0
  0
SPLINE
  5
269
100
AcDbEntity
  8
0
100
AcDbSpline
 62
7
  6
CONTINUOUS
 70
0
 71
3
 72
15
 73
11
 74
0
 42
0.0000001
 43
0.0000001
 44
0.0000000001
 40
0.0
 40
0.0
 40
0.0
 40
0.0
 40
0.124161196
 40
0.244382202
 40
0.3647758554
 40
0.4869474057
 40
0.6115718821
 40
0.738781966
 40
0.8683812483
 40
1.0
 40
1.0
 40
1.0
 40
1.0
 10
8.2184292663
 20
3.5088872997
 30
0.0
 10
8.220013719
 20
3.508859428
 30
0.0
 10
8.2231325848
 20
3.5087326985
 30
0.0
 10
8.2277627293
 20
3.5082079215
 30
0.0
 10
8.2323199788
 20
3.5073707385
 30
0.0
 10
8.2368735823
 20
3.506253418
 30
0.0
 10
8.2414535576
 20
3.504903653
 30
0.0
 10
8.2460761862
 20
3.5033748386
 30
0.0
 10
8.2507500213
 20
3.5017211121
 30
0.0
 10
8.2538809752
 20
3.5005753735
 30
0.0
 10
8.2554578364
 20
3.4999961442
 30
0.0
  0
SPLINE
  5
26A
100
AcDbEntity
  8
0
100
AcDbSpline
 62
7
  6
CONTINUOUS
 70
0
 71
3
 72
15
 73
11
 74
0
 42
0.0000001
 43
0.0000001
 44
0.0000000001
 40
0.0
 40
0.0
 40
0.0
 40
0.0
 40
0.1316182459
 40
0.2612165217
 40
0.3884254779
 40
0.5130490205
 40
0.6352199111
 40
0.7556110995
 40
0.8758349515
 40
1.0
 40
1.0
 40
1.0
 40
1.0
 10
8.1739243482
 20
3.4999955867
 30
0.0
 10
8.1755012416
 20
3.5005749066
 30
0.0
 10
8.1786323323
 20
3.5017206072
 30
0.0
 10
8.183306291
 20
3.5033744838
 30
0.0
 10
8.1879290777
 20
3.5049033224
 30
0.0
 10
8.1925091862
 20
3.5062531934
 30
0.0
 10
8.1970629151
 20
3.5073705797
 30
0.0
 10
8.2016203314
 20
3.5082078713
 30
0.0
 10
8.2062507166
 20
3.5087326896
 30
0.0
 10
8.2093697939
 20
3.508859426
 30
0.0
 10
8.2109543598
 20
3.5088872997
 30
0.0
  0
SPLINE
  5
26B
100
AcDbEntity
  8
0
100
AcDbSpline
 62
7
  6
CONTINUOUS
 70
0
 71
3
 72
15
 73
11
 74
0
 42
0.0000001
 43
0.0000001
 44
0.0000000001
 40
0.0
 40
0.0
 40
0.0
 40
0.0
 40
0.1241692081
 40
0.2443970075
 40
0.3647938332
 40
0.4869649889
 40
0.6115862387
 40
0.7387914728
 40
0.8683855905
 40
1.0
 40
1.0
 40
1.0
 40
1.0
 10
7.3396589433
 20
4.3801827162
 30
0.0
 10
7.3396310926
 20
4.378599455
 30
0.0
 10
7.3395045225
 20
4.3754829486
 30
0.0
 10
7.338980539
 20
4.3708563186
 30
0.0
 10
7.3381445948
 20
4.3663025669
 30
0.0
 10
7.3370288479
 20
4.3617525254
 30
0.0
 10
7.3356808514
 20
4.3571762048
 30
0.0
 10
7.3341538702
 20
4.3525573335
 30
0.0
 10
7.3325019208
 20
4.3478873566
 30
0.0
 10
7.3313572793
 20
4.3447590288
 30
0.0
 10
7.3307785691
 20
4.343183497
 30
0.0
  0
LINE
  5
26C
100
AcDbEntity
  8
0
100
AcDbLine
 62
7
  6
CONTINUOUS
 10
7.5925512615
 20
3.7684342181
 11
7.586512638
 21
3.774807468
  0
ENDSEC
  0
SECTION
  2
OBJECTS
  0
DICTIONARY
  5
C
100
AcDbDictionary
280
0
281
1
  3
ACAD_GROUP
350
D
  3
ACAD_MLINESTYLE
350
17
  3
ACAD_LAYOUT
350
1A
  3
ACAD_PLOTSETTINGS
350
19
  3
ACAD_PLOTSTYLENAME
350
E
  0
DICTIONARY
  5
D
102
{ACAD_REACTORS
330
C
102
}
100
AcDbDictionary
280
0
281
1
  0
ACDBDICTIONARYWDFLT
  5
E
102
{ACAD_REACTORS
330
C
102
}
100
AcDbDictionary
281
1
  3
Normal
350
F
100
AcDbDictionaryWithDefault
340
F
  0
DICTIONARY
  5
17
102
{ACAD_REACTORS
330
C
102
}
100
AcDbDictionary
280
0
281
1
  3
Standard
350
18
  0
DICTIONARY
  5
19
102
{ACAD_REACTORS
330
C
102
}
100
AcDbDictionary
281
1
  0
DICTIONARY
  5
1A
102
{ACAD_REACTORS
330
C
102
}
100
AcDbDictionary
281
1
  3
Model
350
26D
  3
Layout1
350
26E
  0
ACDBPLACEHOLDER
  5
F
102
{ACAD_REACTORS
330
E
102
}
  0
MLINESTYLE
  5
18
102
{ACAD_REACTORS
330
17
102
}
100
AcDbMlineStyle
  2
STANDARD
 70
0
  3

 62
256
 51
90.0
 52
90.0
 71
2
 49
0.5
 62
256
  6
BYLAYER
 49
-0.5
 62
256
  6
BYLAYER
  0
LAYOUT
  5
26D
102
{ACAD_REACTORS
330
1A
102
}
100
AcDbPlotSettings
  1

  2
none_device
  4
ANSI_A_(11.00_x_8.50_Inches)
  6

 40
0.0
 41
0.0
 42
0.0
 43
0.0
 44
279.4
 45
215.9
 46
0.0
 47
0.0
 48
0.0
 49
0.0
140
0.0
141
0.0
142
1.0
143
1.0
 70
1024
 72
0
 73
0
 74
0
  7

 75
0
147
1.0
148
0.0
149
0.0
100
AcDbLayout
  1
Model
 70
0
 71
0
 10
0.0
 20
0.0
 11
11.0
 21
8.5
 12
0.0
 22
0.0
 32
0.0
 14
0.0
 24
0.0
 34
0.0
 15
0.0
 25
0.0
 35
0.0
146
0.0
 13
0.0
 23
0.0
 33
0.0
 16
1.0
 26
0.0
 36
0.0
 17
0.0
 27
1.0
 37
0.0
 76
0
330
20D
345
0
346
0
  0
LAYOUT
  5
26E
102
{ACAD_REACTORS
330
1A
102
}
100
AcDbPlotSettings
  1

  2
none_device
  4
ANSI_A_(11.00_x_8.50_Inches)
  6

 40
0.0
 41
0.0
 42
0.0
 43
0.0
 44
279.4
 45
215.9
 46
0.0
 47
0.0
 48
0.0
 49
0.0
140
0.0
141
0.0
142
1.0
143
1.0
 70
0
 72
0
 73
0
 74
0
  7

 75
0
147
1.0
148
0.0
149
0.0
100
AcDbLayout
  1
Layout1
 70
0
 71
1
 10
0.0
 20
0.0
 11
11.0
 21
8.5
 12
0.0
 22
0.0
 32
0.0
 14
0.0
 24
0.0
 34
0.0
 15
0.0
 25
0.0
 35
0.0
146
0.0
 13
0.0
 23
0.0
 33
0.0
 16
1.0
 26
0.0
 36
0.0
 17
0.0
 27
1.0
 37
0.0
 76
0
330
20E
345
0
346
0
  0
ENDSEC
  0
EOF
