999
DXF file: 122ls_right.dxf
999
Pro/ENGINEER 2018400 by Parametric Technology Corporation
  0
SECTION
  2
HEADER
  9
$ACADVER
  1
AC1027
  9
$DWGCODEPAGE
  3
ANSI_1252
  9
$EXTMAX
 10
11.0
 20
8.5
 30
0.0
  9
$EXTMIN
 10
0.0
 20
0.0
 30
0.0
  9
$LIMMIN
 10
0.0
 20
0.0
  9
$LIMMAX
 10
11.0
 20
8.5
  9
$VIEWCTR
 10
5.5
 20
4.25
  9
$VIEWSIZE
 40
8.5
  9
$CLAYER
  8
0
  9
$LTSCALE
 40
0.605
  9
$CELTYPE
  6
BYLAYER
  9
$DIMSCALE
 40
1.0
  9
$DIMASZ
 40
0.1
  9
$DIMEXO
 40
0.0625
  9
$DIMDLI
 40
0.418
  9
$DIMEXE
 40
0.125
  9
$DIMCEN
 40
0.099
  9
$DIMLFAC
 40
1.0
  9
$DIMBLK
  1
_FILLED
  9
$DIMALT
 70
1
  9
$DIMALTD
 70
1
  9
$DIMALTTD
 70
2
  9
$DIMALTF
 40
25.4
  9
$DIMTXT
 40
0.08
  9
$DIMTOL
 70
1
  9
$DIMLIM
 70
0
  9
$DIMTFAC
 40
1.0
  9
$DIMTP
 40
0.01
  9
$DIMTM
 40
0.01
  9
$DIMGAP
 40
0.09
  9
$DIMDSEP
 70
46
  9
$AUNITS
 70
0
  9
$PDMODE
 70
3
  9
$PDSIZE
 40
0.3125
  9
$HANDSEED
  5
3FA
  9
$TILEMODE
 70
1
  9
$MEASUREMENT
 70
0
  9
$INSUNITS
 70
1
  0
ENDSEC
  0
SECTION
  2
CLASSES
  0
CLASS
  1
ACDBDICTIONARYWDFLT
  2
AcDbDictionaryWithDefault
  3
AutoCAD 2000
 90
0
 91
1
280
0
281
0
  0
CLASS
  1
ACDBPLACEHOLDER
  2
AcDbPlaceHolder
  3
AutoCAD 2000
 90
0
 91
1
280
0
281
0
  0
CLASS
  1
LAYOUT
  2
AcDbLayout
  3
AutoCAD 2000
 90
0
 91
0
280
0
281
0
  0
ENDSEC
  0
SECTION
  2
TABLES
  0
TABLE
  2
VPORT
  5
8
100
AcDbSymbolTable
 70
2
  0
VPORT
  5
1F4
100
AcDbSymbolTableRecord
100
AcDbViewportTableRecord
  2
*ACTIVE
 70
0
 10
0.0
 20
0.0
 11
1.0
 21
1.0
 12
5.5
 22
4.25
 13
0.0
 23
0.0
 14
1.0
 24
1.0
 15
0.0
 25
0.0
 16
0.0
 26
0.0
 36
1.0
 17
0.0
 27
0.0
 37
0.0
 40
8.5
 41
1.2941176471
 42
50.0
 43
0.0
 44
0.0
 50
0.0
 51
0.0
 71
0
 72
100
 73
1
 74
1
 75
0
 76
0
 77
0
 78
0
  0
ENDTAB
  0
TABLE
  2
LTYPE
  5
5
100
AcDbSymbolTable
 70
6
  0
LTYPE
  5
14
100
AcDbSymbolTableRecord
100
AcDbLinetypeTableRecord
  2
BYBLOCK
 70
0
  3

 72
65
 73
0
 40
0.0
  0
LTYPE
  5
15
100
AcDbSymbolTableRecord
100
AcDbLinetypeTableRecord
  2
BYLAYER
 70
0
  3

 72
65
 73
0
 40
0.0
  0
LTYPE
  5
16
100
AcDbSymbolTableRecord
100
AcDbLinetypeTableRecord
  2
CONTINUOUS
 70
64
  3
Solid line
 72
65
 73
0
 40
0.0
  0
LTYPE
  5
1F5
100
AcDbSymbolTableRecord
100
AcDbLinetypeTableRecord
  2
CENTER
 70
64
  3
____ _ ____ _ ____ _ ____ _ ____ _ ____ _ ____
 72
65
 73
4
 40
0.6
 49
0.375
 74
0
 49
-0.075
 74
0
 49
0.075
 74
0
 49
-0.075
 74
0
  0
LTYPE
  5
1F6
100
AcDbSymbolTableRecord
100
AcDbLinetypeTableRecord
  2
HIDDEN
 70
64
  3
- - - - - - - - - - - - - - - - - - - -
 72
65
 73
2
 40
0.2
 49
0.1
 74
0
 49
-0.1
 74
0
  0
LTYPE
  5
1F7
100
AcDbSymbolTableRecord
100
AcDbLinetypeTableRecord
  2
PHANTOM
 70
64
  3
_____ _ _ _____ _ _ _____ _ _ _____
 72
65
 73
6
 40
0.8
 49
0.45
 74
0
 49
-0.05
 74
0
 49
0.1
 74
0
 49
-0.05
 74
0
 49
0.1
 74
0
 49
-0.05
 74
0
  0
LTYPE
  5
1F8
100
AcDbSymbolTableRecord
100
AcDbLinetypeTableRecord
  2
DOT
 70
64
  3
. . . . . . . . . . . . . . . . . . . .
 72
65
 73
2
 40
0.2
 49
0.1
 74
0
 49
-0.1
 74
0
  0
LTYPE
  5
1F9
100
AcDbSymbolTableRecord
100
AcDbLinetypeTableRecord
  2
DASHED
 70
64
  3
- - - - - - - - - - - - - - - - - - - -
 72
65
 73
2
 40
0.2
 49
0.1
 74
0
 49
-0.1
 74
0
  0
ENDTAB
  0
TABLE
  2
LAYER
  5
2
100
AcDbSymbolTable
 70
36
  0
LAYER
  5
10
100
AcDbSymbolTableRecord
100
AcDbLayerTableRecord
  2
0
 70
0
 62
7
  6
CONTINUOUS
370
-3
390
F
  0
LAYER
  5
1FA
100
AcDbSymbolTableRecord
100
AcDbLayerTableRecord
  2
DEFAULT_1
 70
0
 62
7
  6
CENTER
370
-3
390
F
  0
LAYER
  5
1FB
100
AcDbSymbolTableRecord
100
AcDbLayerTableRecord
  2
DEFAULT_2
 70
0
 62
8
  6
HIDDEN
370
-3
390
F
  0
LAYER
  5
1FC
100
AcDbSymbolTableRecord
100
AcDbLayerTableRecord
  2
DEFAULT_3
 70
0
 62
7
  6
PHANTOM
370
-3
390
F
  0
LAYER
  5
1FD
100
AcDbSymbolTableRecord
100
AcDbLayerTableRecord
  2
ALL_ASSEMBLY_MEMBERS
 70
0
 62
7
  6
CONTINUOUS
370
-3
390
F
  0
LAYER
  5
1FE
100
AcDbSymbolTableRecord
100
AcDbLayerTableRecord
  2
ALL_FEATURES
 70
0
 62
7
  6
CONTINUOUS
370
-3
390
F
  0
LAYER
  5
1FF
100
AcDbSymbolTableRecord
100
AcDbLayerTableRecord
  2
AXES_FEATURES
 70
0
 62
7
  6
CONTINUOUS
370
-3
390
F
  0
LAYER
  5
200
100
AcDbSymbolTableRecord
100
AcDbLayerTableRecord
  2
CHAMFER_FEATURES
 70
0
 62
7
  6
CONTINUOUS
370
-3
390
F
  0
LAYER
  5
201
100
AcDbSymbolTableRecord
100
AcDbLayerTableRecord
  2
COSMETIC_SKETCHES
 70
0
 62
7
  6
CONTINUOUS
370
-3
390
F
  0
LAYER
  5
202
100
AcDbSymbolTableRecord
100
AcDbLayerTableRecord
  2
CUT_FEATURES
 70
0
 62
7
  6
CONTINUOUS
370
-3
390
F
  0
LAYER
  5
203
100
AcDbSymbolTableRecord
100
AcDbLayerTableRecord
  2
DATUM_PLANES
 70
0
 62
7
  6
CONTINUOUS
370
-3
390
F
  0
LAYER
  5
204
100
AcDbSymbolTableRecord
100
AcDbLayerTableRecord
  2
DEFAULT_COORDINATE_SYSTEM
 70
0
 62
7
  6
CONTINUOUS
370
-3
390
F
  0
LAYER
  5
205
100
AcDbSymbolTableRecord
100
AcDbLayerTableRecord
  2
DEFAULT_DATUM_AXES
 70
0
 62
7
  6
CONTINUOUS
370
-3
390
F
  0
LAYER
  5
206
100
AcDbSymbolTableRecord
100
AcDbLayerTableRecord
  2
DEFAULT_DATUM_PLANES
 70
0
 62
7
  6
CONTINUOUS
370
-3
390
F
  0
LAYER
  5
207
100
AcDbSymbolTableRecord
100
AcDbLayerTableRecord
  2
DIMENSIONS
 70
0
 62
7
  6
CONTINUOUS
370
-3
390
F
  0
LAYER
  5
208
100
AcDbSymbolTableRecord
100
AcDbLayerTableRecord
  2
DRAFT_FEATURES
 70
0
 62
7
  6
CONTINUOUS
370
-3
390
F
  0
LAYER
  5
209
100
AcDbSymbolTableRecord
100
AcDbLayerTableRecord
  2
NOTES
 70
0
 62
7
  6
CONTINUOUS
370
-3
390
F
  0
LAYER
  5
20A
100
AcDbSymbolTableRecord
100
AcDbLayerTableRecord
  2
PART_REFERENCE_DIMENSIONS
 70
0
 62
7
  6
CONTINUOUS
370
-3
390
F
  0
LAYER
  5
20B
100
AcDbSymbolTableRecord
100
AcDbLayerTableRecord
  2
PROTRUSION_FEATURES
 70
0
 62
7
  6
CONTINUOUS
370
-3
390
F
  0
LAYER
  5
20C
100
AcDbSymbolTableRecord
100
AcDbLayerTableRecord
  2
QUILT
 70
0
 62
7
  6
CONTINUOUS
370
-3
390
F
  0
LAYER
  5
20D
100
AcDbSymbolTableRecord
100
AcDbLayerTableRecord
  2
QUILTS
 70
0
 62
7
  6
CONTINUOUS
370
-3
390
F
  0
LAYER
  5
20E
100
AcDbSymbolTableRecord
100
AcDbLayerTableRecord
  2
REFERENCE_DIMENSIONS
 70
0
 62
7
  6
CONTINUOUS
370
-3
390
F
  0
LAYER
  5
20F
100
AcDbSymbolTableRecord
100
AcDbLayerTableRecord
  2
ROUND_FEATURES
 70
0
 62
7
  6
CONTINUOUS
370
-3
390
F
  0
LAYER
  5
210
100
AcDbSymbolTableRecord
100
AcDbLayerTableRecord
  2
SHELL_FEATURES
 70
0
 62
7
  6
CONTINUOUS
370
-3
390
F
  0
LAYER
  5
211
100
AcDbSymbolTableRecord
100
AcDbLayerTableRecord
  2
THREADS
 70
0
 62
7
  6
CONTINUOUS
370
-3
390
F
  0
ENDTAB
  0
TABLE
  2
STYLE
  5
3
100
AcDbSymbolTable
 70
1
  0
STYLE
  5
11
100
AcDbSymbolTableRecord
100
AcDbTextStyleTableRecord
  2
STANDARD
 70
0
 40
0.0
 41
0.8
 50
0.0
 71
0
 42
0.2
  3
txt
  4

  0
STYLE
  5
212
100
AcDbSymbolTableRecord
100
AcDbTextStyleTableRecord
  2
TEXTSTYLE_1
 70
0
 40
0.0
 41
0.8
 50
0.0
 71
0
 42
0.2
  3
gdt
  4

  0
ENDTAB
  0
TABLE
  2
VIEW
  5
6
100
AcDbSymbolTable
 70
0
  0
ENDTAB
  0
TABLE
  2
UCS
  5
7
100
AcDbSymbolTable
 70
0
  0
ENDTAB
  0
TABLE
  2
APPID
  5
9
100
AcDbSymbolTable
 70
1
  0
APPID
  5
213
100
AcDbSymbolTableRecord
100
AcDbRegAppTableRecord
  2
ACAD
 70
0
  0
ENDTAB
  0
TABLE
  2
BLOCK_RECORD
  5
1
100
AcDbSymbolTable
 70
0
  0
BLOCK_RECORD
  5
214
100
AcDbSymbolTableRecord
100
AcDbBlockTableRecord
  2
*Model_Space
  0
BLOCK_RECORD
  5
215
100
AcDbSymbolTableRecord
100
AcDbBlockTableRecord
  2
*Paper_Space
  0
BLOCK_RECORD
  5
216
100
AcDbSymbolTableRecord
100
AcDbBlockTableRecord
  2
_FILLED
  0
ENDTAB
  0
TABLE
  2
DIMSTYLE
  5
A
100
AcDbSymbolTable
 70
1
100
AcDbDimStyleTable
 71
0
  0
DIMSTYLE
105
217
100
AcDbSymbolTableRecord
100
AcDbDimStyleTableRecord
  2
STANDARD
 70
0
  3

  4

 40
1.0
 41
0.1
 42
0.0625
 43
0.38
 44
0.125
 45
0.0
 46
0.0
 47
0.01
 48
0.01
140
0.08
141
0.09
142
0.0
143
25.4
144
1.0
145
0.0
146
1.0
147
0.09
 71
1.0
 72
0.0
 73
1
 74
1
 75
0
 76
0
 77
0
 78
4
 79
1
170
1
171
1
172
0
173
0
174
0
175
0
176
0
177
0
178
0
270
2
179
2
271
2
272
2
273
2
274
2
275
0
280
0
281
0
282
0
283
1
284
4
285
0
286
0
287
3
288
0
340
11
278
46
341
216
342
216
343
216
344
216
  0
ENDTAB
  0
ENDSEC
  0
SECTION
  2
BLOCKS
  0
BLOCK
  5
20
100
AcDbEntity
  8
0
100
AcDbBlockBegin
  2
*Model_Space
 70
0
 10
0.0
 20
0.0
 30
0.0
  3
*Model_Space
  1

  0
ENDBLK
  5
21
100
AcDbEntity
  8
0
100
AcDbBlockEnd
  0
BLOCK
  5
1C
100
AcDbEntity
  8
0
100
AcDbBlockBegin
  2
*Paper_Space
 70
0
 10
0.0
 20
0.0
 30
0.0
  3
*Paper_Space
  1

  0
ENDBLK
  5
1D
100
AcDbEntity
  8
0
100
AcDbBlockEnd
  0
BLOCK
  5
218
100
AcDbEntity
  8
0
100
AcDbBlockBegin
  2
_FILLED
 70
64
 10
0.0
 20
0.0
  3
_FILLED
  1

  0
SOLID
  5
219
100
AcDbEntity
  8
0
  6
BYBLOCK
 62
0
100
AcDbTrace
 10
0.0
 20
0.0
 11
-1.0
 21
0.2
 12
-1.0
 22
-0.2
 13
-1.0
 23
-0.2
  0
ENDBLK
  5
21A
100
AcDbEntity
  8
0
  6
BYBLOCK
 62
0
100
AcDbBlockEnd
  0
ENDSEC
  0
SECTION
  2
ENTITIES
  0
MTEXT
  5
21B
100
AcDbEntity
  8
0
100
AcDbMText
 62
2
  6
CONTINUOUS
  7
STANDARD
 71
3
 72
1
 10
5.3276631671
 20
2.078367236
 30
0.0
 11
1.0
 21
0.0
 31
0.0
 73
2
 44
0.9
  1
SCALE  .500
 40
0.08
 41
0.704
  0
LINE
  5
21C
100
AcDbEntity
  8
0
100
AcDbLine
 62
7
  6
CONTINUOUS
 10
0.0
 20
0.0
 11
0.0
 21
8.5
  0
LINE
  5
21D
100
AcDbEntity
  8
0
100
AcDbLine
 62
7
  6
CONTINUOUS
 10
0.0
 20
0.0
 11
11.0
 21
0.0
  0
LINE
  5
21E
100
AcDbEntity
  8
0
100
AcDbLine
 62
7
  6
CONTINUOUS
 10
0.0
 20
8.5
 11
11.0
 21
8.5
  0
LINE
  5
21F
100
AcDbEntity
  8
0
100
AcDbLine
 62
7
  6
CONTINUOUS
 10
11.0
 20
0.0
 11
11.0
 21
8.5
  0
LINE
  5
220
100
AcDbEntity
  8
ALL_ASSEMBLY_MEMBERS
100
AcDbLine
 62
7
  6
CONTINUOUS
 10
5.3083928571
 20
2.7118998447
 11
4.6308928571
 21
2.7118998447
  0
LINE
  5
221
100
AcDbEntity
  8
ALL_ASSEMBLY_MEMBERS
100
AcDbLine
 62
7
  6
CONTINUOUS
 10
4.4920267063
 20
2.7638998447
 11
5.4472590079
 21
2.7638998447
  0
LINE
  5
222
100
AcDbEntity
  8
ALL_ASSEMBLY_MEMBERS
100
AcDbLine
 62
7
  6
CONTINUOUS
 10
4.4571428571
 20
2.8262836939
 11
4.5660571435
 21
2.8262836939
  0
LINE
  5
223
100
AcDbEntity
  8
ALL_ASSEMBLY_MEMBERS
100
AcDbLine
 62
7
  6
CONTINUOUS
 10
4.8607285707
 20
2.8262836939
 11
5.0785571435
 21
2.8262836939
  0
LINE
  5
224
100
AcDbEntity
  8
ALL_ASSEMBLY_MEMBERS
100
AcDbLine
 62
7
  6
CONTINUOUS
 10
5.3732285707
 20
2.8262836939
 11
5.4821428571
 21
2.8262836939
  0
LINE
  5
225
100
AcDbEntity
  8
ALL_ASSEMBLY_MEMBERS
100
AcDbLine
 62
7
  6
CONTINUOUS
 10
5.4481404494
 20
2.8488998447
 11
5.4256404494
 21
2.8488998447
  0
LINE
  5
226
100
AcDbEntity
  8
ALL_ASSEMBLY_MEMBERS
100
AcDbLine
 62
7
  6
CONTINUOUS
 10
4.5136452649
 20
2.8488998447
 11
4.4911452649
 21
2.8488998447
  0
LINE
  5
227
100
AcDbEntity
  8
ALL_ASSEMBLY_MEMBERS
100
AcDbLine
 62
7
  6
CONTINUOUS
 10
5.0204790001
 20
2.8788998447
 11
4.9188067142
 21
2.8788998447
  0
LINE
  5
228
100
AcDbEntity
  8
ALL_ASSEMBLY_MEMBERS
100
AcDbLine
 62
7
  6
CONTINUOUS
 10
4.9178653017
 20
2.8888998447
 11
5.0196428571
 21
2.8888998447
  0
LINE
  5
229
100
AcDbEntity
  8
ALL_ASSEMBLY_MEMBERS
100
AcDbLine
 62
7
  6
CONTINUOUS
 10
4.8884039191
 20
2.8988998447
 11
5.0508817952
 21
2.8988998447
  0
LINE
  5
22A
100
AcDbEntity
  8
ALL_ASSEMBLY_MEMBERS
100
AcDbLine
 62
7
  6
CONTINUOUS
 10
4.4571428571
 20
3.0638998447
 11
5.4821428571
 21
3.0638998447
  0
LINE
  5
22B
100
AcDbEntity
  8
ALL_ASSEMBLY_MEMBERS
100
AcDbLine
 62
7
  6
CONTINUOUS
 10
4.4895928571
 20
3.0738998447
 11
5.4496928571
 21
3.0738998447
  0
LINE
  5
22C
100
AcDbEntity
  8
ALL_FEATURES
100
AcDbLine
 62
7
  6
CONTINUOUS
 10
4.5098093722
 20
3.0850028181
 11
4.5290304502
 21
3.0738998447
  0
LINE
  5
22D
100
AcDbEntity
  8
ALL_FEATURES
100
AcDbLine
 62
7
  6
CONTINUOUS
 10
4.5098091641
 20
3.1300506846
 11
4.5344275899
 21
3.1158297258
  0
LINE
  5
22E
100
AcDbEntity
  8
ALL_FEATURES
100
AcDbLine
 62
7
  6
CONTINUOUS
 10
5.3257042012
 20
3.147853578
 11
5.0392422403
 21
3.147853578
  0
LINE
  5
22F
100
AcDbEntity
  8
ALL_FEATURES
100
AcDbLine
 62
7
  6
CONTINUOUS
 10
5.035438281
 20
3.1620613876
 11
4.5383084214
 21
3.1620589411
  0
LINE
  5
230
100
AcDbEntity
  8
ALL_FEATURES
100
AcDbLine
 62
7
  6
CONTINUOUS
 10
5.4001178571
 20
3.1648998447
 11
4.5391678571
 21
3.1648998447
  0
LINE
  5
231
100
AcDbEntity
  8
ALL_FEATURES
100
AcDbLine
 62
7
  6
CONTINUOUS
 10
4.5391678571
 20
3.1893998447
 11
5.4001178571
 21
3.1893998447
  0
LINE
  5
232
100
AcDbEntity
  8
ALL_FEATURES
100
AcDbLine
 62
7
  6
CONTINUOUS
 10
4.5334071227
 20
3.1614733988
 11
4.534441238
 21
3.1608759966
  0
LINE
  5
233
100
AcDbEntity
  8
ALL_FEATURES
100
AcDbLine
 62
7
  6
CONTINUOUS
 10
3.7661428571
 20
4.3538998447
 11
3.7661428571
 21
4.4788998447
  0
LINE
  5
234
100
AcDbEntity
  8
ALL_FEATURES
100
AcDbLine
 62
7
  6
CONTINUOUS
 10
5.4475195787
 20
6.1900101666
 11
5.456294634
 21
6.1933800587
  0
LINE
  5
235
100
AcDbEntity
  8
ALL_FEATURES
100
AcDbLine
 62
7
  6
CONTINUOUS
 10
5.5177676588
 20
6.173584312
 11
5.534520885
 21
6.1790572071
  0
LINE
  5
236
100
AcDbEntity
  8
ALL_FEATURES
100
AcDbLine
 62
7
  6
CONTINUOUS
 10
5.4546880525
 20
3.3423998447
 11
4.4845976618
 21
3.3423998447
  0
LINE
  5
237
100
AcDbEntity
  8
ALL_FEATURES
100
AcDbLine
 62
7
  6
CONTINUOUS
 10
5.4546880525
 20
3.3719248447
 11
4.4845976618
 21
3.3719248447
  0
LINE
  5
238
100
AcDbEntity
  8
ALL_ASSEMBLY_MEMBERS
100
AcDbLine
 62
7
  6
CONTINUOUS
 10
3.8321428571
 20
4.6018998447
 11
3.8403210486
 21
4.4788998447
  0
LINE
  5
239
100
AcDbEntity
  8
ALL_FEATURES
100
AcDbLine
 62
7
  6
CONTINUOUS
 10
3.8446428571
 20
4.9963998447
 11
3.8446428571
 21
4.9788998447
  0
LINE
  5
23A
100
AcDbEntity
  8
ALL_ASSEMBLY_MEMBERS
100
AcDbLine
 62
7
  6
CONTINUOUS
 10
3.9008928571
 20
4.9388998447
 11
3.9008928571
 21
4.9788998447
  0
LINE
  5
23B
100
AcDbEntity
  8
ALL_FEATURES
100
AcDbLine
 62
7
  6
CONTINUOUS
 10
5.4001178571
 20
3.1648998447
 11
5.4253836885
 21
3.1503126102
  0
LINE
  5
23C
100
AcDbEntity
  8
ALL_FEATURES
100
AcDbLine
 62
7
  6
CONTINUOUS
 10
5.4194881023
 20
3.0738998447
 11
5.4048619332
 21
3.0823483533
  0
LINE
  5
23D
100
AcDbEntity
  8
ALL_FEATURES
100
AcDbLine
 62
7
  6
CONTINUOUS
 10
5.4294739968
 20
3.1131692981
 11
5.4048469388
 21
3.1273949224
  0
LINE
  5
23E
100
AcDbEntity
  8
ALL_FEATURES
100
AcDbLine
 62
7
  6
CONTINUOUS
 10
4.0396428571
 20
4.1138998447
 11
4.0396428571
 21
4.2601498447
  0
LINE
  5
23F
100
AcDbEntity
  8
ALL_FEATURES
100
AcDbLine
 62
7
  6
CONTINUOUS
 10
4.3446428571
 20
3.8038998447
 11
4.0396428571
 21
4.1138998447
  0
LINE
  5
240
100
AcDbEntity
  8
ALL_FEATURES
100
AcDbLine
 62
7
  6
CONTINUOUS
 10
4.1202990221
 20
4.9388998447
 11
4.1425047418
 21
4.6850873074
  0
LINE
  5
241
100
AcDbEntity
  8
ALL_FEATURES
100
AcDbLine
 62
7
  6
CONTINUOUS
 10
4.1771428571
 20
6.4913998447
 11
4.1771428571
 21
6.4755389171
  0
LINE
  5
242
100
AcDbEntity
  8
ALL_FEATURES
100
AcDbLine
 62
7
  6
CONTINUOUS
 10
5.5946428571
 20
3.8038998447
 11
4.3446428571
 21
3.8038998447
  0
LINE
  5
243
100
AcDbEntity
  8
ALL_FEATURES
100
AcDbLine
 62
7
  6
CONTINUOUS
 10
4.5391678571
 20
3.1893998447
 11
4.4895976618
 21
3.3423998447
  0
LINE
  5
244
100
AcDbEntity
  8
ALL_FEATURES
100
AcDbLine
 62
7
  6
CONTINUOUS
 10
4.4845976618
 20
3.3719248447
 11
4.3446428571
 21
3.8038998447
  0
LINE
  5
245
100
AcDbEntity
  8
ALL_FEATURES
100
AcDbLine
 62
7
  6
CONTINUOUS
 10
4.3326750466
 20
6.2356367598
 11
4.3326750466
 21
6.219819215
  0
LINE
  5
246
100
AcDbEntity
  8
ALL_ASSEMBLY_MEMBERS
100
AcDbLine
 62
7
  6
CONTINUOUS
 10
4.8914581255
 20
5.6582665461
 11
4.8913928571
 21
5.6581498447
  0
LINE
  5
247
100
AcDbEntity
  8
ALL_ASSEMBLY_MEMBERS
100
AcDbLine
 62
7
  6
CONTINUOUS
 10
4.8914581581
 20
5.6582577498
 11
4.8913928571
 21
5.6581498447
  0
LINE
  5
248
100
AcDbEntity
  8
ALL_FEATURES
100
AcDbLine
 62
7
  6
CONTINUOUS
 10
5.6591235169
 20
6.2481010316
 11
5.6591855338
 21
6.2481707225
  0
LINE
  5
249
100
AcDbEntity
  8
ALL_FEATURES
100
AcDbLine
 62
7
  6
CONTINUOUS
 10
4.4180580833
 20
6.2396952044
 11
4.4180580833
 21
6.219819215
  0
LINE
  5
24A
100
AcDbEntity
  8
ALL_ASSEMBLY_MEMBERS
100
AcDbLine
 62
7
  6
CONTINUOUS
 10
4.4571428571
 20
3.0638998447
 11
4.4571428571
 21
2.7745646287
  0
LINE
  5
24B
100
AcDbEntity
  8
ALL_ASSEMBLY_MEMBERS
100
AcDbLine
 62
7
  6
CONTINUOUS
 10
4.4821428571
 20
6.0431498447
 11
4.4821428571
 21
6.0556498447
  0
LINE
  5
24C
100
AcDbEntity
  8
ALL_FEATURES
100
AcDbLine
 62
7
  6
CONTINUOUS
 10
4.4845976618
 20
3.3423998447
 11
4.4845976618
 21
3.3719248447
  0
LINE
  5
24D
100
AcDbEntity
  8
ALL_ASSEMBLY_MEMBERS
100
AcDbLine
 62
7
  6
CONTINUOUS
 10
4.4895928571
 20
3.0638998447
 11
4.4895928571
 21
3.0738998447
  0
LINE
  5
24E
100
AcDbEntity
  8
ALL_ASSEMBLY_MEMBERS
100
AcDbLine
 62
7
  6
CONTINUOUS
 10
4.4911452649
 20
3.0638998447
 11
4.4911452649
 21
2.8488998447
  0
LINE
  5
24F
100
AcDbEntity
  8
ALL_ASSEMBLY_MEMBERS
100
AcDbLine
 62
7
  6
CONTINUOUS
 10
4.5080596472
 20
3.0638998447
 11
4.5080596472
 21
2.8488998447
  0
LINE
  5
250
100
AcDbEntity
  8
ALL_FEATURES
100
AcDbLine
 62
7
  6
CONTINUOUS
 10
4.5096428571
 20
3.0851955617
 11
4.5096428571
 21
3.0904584809
  0
LINE
  5
251
100
AcDbEntity
  8
ALL_FEATURES
100
AcDbLine
 62
7
  6
CONTINUOUS
 10
4.5096428571
 20
3.1302426458
 11
4.5096428571
 21
3.135495908
  0
LINE
  5
252
100
AcDbEntity
  8
ALL_ASSEMBLY_MEMBERS
100
AcDbLine
 62
7
  6
CONTINUOUS
 10
4.5136452649
 20
3.0638998447
 11
4.5136452649
 21
2.8488998447
  0
LINE
  5
253
100
AcDbEntity
  8
ALL_FEATURES
100
AcDbLine
 62
7
  6
CONTINUOUS
 10
4.5228863498
 20
6.1464762578
 11
4.5228863498
 21
6.126610191
  0
LINE
  5
254
100
AcDbEntity
  8
ALL_FEATURES
100
AcDbLine
 62
7
  6
CONTINUOUS
 10
4.5321428571
 20
5.9713998447
 11
4.5321428571
 21
5.9553998447
  0
LINE
  5
255
100
AcDbEntity
  8
ALL_FEATURES
100
AcDbLine
 62
7
  6
CONTINUOUS
 10
4.534250385
 20
3.1160343993
 11
4.534250282
 21
3.1046678619
  0
LINE
  5
256
100
AcDbEntity
  8
ALL_FEATURES
100
AcDbLine
 62
7
  6
CONTINUOUS
 10
4.53426352
 20
3.1610812679
 11
4.5342634509
 21
3.1497147219
  0
LINE
  5
257
100
AcDbEntity
  8
ALL_FEATURES
100
AcDbLine
 62
7
  6
CONTINUOUS
 10
4.5391678571
 20
3.1893998447
 11
4.5391678571
 21
3.1648998447
  0
LINE
  5
258
100
AcDbEntity
  8
ALL_FEATURES
100
AcDbLine
 62
7
  6
CONTINUOUS
 10
5.6596296297
 20
6.2486803227
 11
5.6596428571
 21
6.2486960462
  0
LINE
  5
259
100
AcDbEntity
  8
ALL_FEATURES
100
AcDbLine
 62
7
  6
CONTINUOUS
 10
5.6594880564
 20
6.2485155769
 11
5.6596428571
 21
6.2486960462
  0
LINE
  5
25A
100
AcDbEntity
  8
ALL_FEATURES
100
AcDbLine
 62
7
  6
CONTINUOUS
 10
5.6596170516
 20
6.2486658811
 11
5.6594502572
 21
6.2484728719
  0
LINE
  5
25B
100
AcDbEntity
  8
ALL_FEATURES
100
AcDbLine
 62
7
  6
CONTINUOUS
 10
5.6594880564
 20
6.2485155769
 11
5.6591235169
 21
6.2481010316
  0
LINE
  5
25C
100
AcDbEntity
  8
ALL_FEATURES
100
AcDbLine
 62
7
  6
CONTINUOUS
 10
5.659641363
 20
6.2486886946
 11
5.659123136
 21
6.2481040428
  0
LINE
  5
25D
100
AcDbEntity
  8
ALL_FEATURES
100
AcDbLine
 62
7
  6
CONTINUOUS
 10
5.8996428571
 20
4.1138998447
 11
4.0396428571
 21
4.1138998447
  0
LINE
  5
25E
100
AcDbEntity
  8
ALL_ASSEMBLY_MEMBERS
100
AcDbLine
 62
7
  6
CONTINUOUS
 10
4.5571428571
 20
6.0023998447
 11
4.5571428571
 21
6.021135002
  0
LINE
  5
25F
100
AcDbEntity
  8
ALL_ASSEMBLY_MEMBERS
100
AcDbLine
 62
7
  6
CONTINUOUS
 10
4.5571428571
 20
6.0776646875
 11
4.5571428571
 21
6.0963998447
  0
LINE
  5
260
100
AcDbEntity
  8
ALL_FEATURES
100
AcDbLine
 62
7
  6
CONTINUOUS
 10
4.5574340808
 20
6.2396952044
 11
4.5574340808
 21
6.219819215
  0
LINE
  5
261
100
AcDbEntity
  8
ALL_ASSEMBLY_MEMBERS
100
AcDbLine
 62
7
  6
CONTINUOUS
 10
4.5660571435
 20
2.8262836939
 11
4.5660571435
 21
3.0638998447
  0
LINE
  5
262
100
AcDbEntity
  8
ALL_FEATURES
100
AcDbLine
 62
7
  6
CONTINUOUS
 10
4.5798614822
 20
6.1482552086
 11
4.5798614822
 21
6.126610191
  0
LINE
  5
263
100
AcDbEntity
  8
ALL_ASSEMBLY_MEMBERS
100
AcDbLine
 62
7
  6
CONTINUOUS
 10
4.6308928571
 20
2.7118998447
 11
4.6308928571
 21
2.7638998447
  0
LINE
  5
264
100
AcDbEntity
  8
ALL_FEATURES
100
AcDbLine
 62
7
  6
CONTINUOUS
 10
4.6749911313
 20
6.1482552086
 11
4.6749911313
 21
6.126610191
  0
LINE
  5
265
100
AcDbEntity
  8
ALL_FEATURES
100
AcDbLine
 62
7
  6
CONTINUOUS
 10
5.8996428571
 20
4.2601498447
 11
4.0396428571
 21
4.2601498447
  0
LINE
  5
266
100
AcDbEntity
  8
ALL_FEATURES
100
AcDbLine
 62
7
  6
CONTINUOUS
 10
3.8286428571
 20
4.2913998447
 11
6.1106428571
 21
4.2913998447
  0
LINE
  5
267
100
AcDbEntity
  8
ALL_FEATURES
100
AcDbLine
 62
7
  6
CONTINUOUS
 10
5.0392422403
 20
3.147853578
 11
5.035438281
 21
3.1620613876
  0
LINE
  5
268
100
AcDbEntity
  8
ALL_FEATURES
100
AcDbLine
 62
7
  6
CONTINUOUS
 10
4.2071428571
 20
6.4413998447
 11
4.2335186114
 21
6.3381903716
  0
LINE
  5
269
100
AcDbEntity
  8
ALL_FEATURES
100
AcDbLine
 62
7
  6
CONTINUOUS
 10
4.7371599454
 20
6.2356120179
 11
4.7371599454
 21
6.219819215
  0
LINE
  5
26A
100
AcDbEntity
  8
ALL_FEATURES
100
AcDbLine
 62
7
  6
CONTINUOUS
 10
4.7989633442
 20
6.1482552086
 11
4.7989633442
 21
6.126610191
  0
LINE
  5
26B
100
AcDbEntity
  8
ALL_FEATURES
100
AcDbLine
 62
7
  6
CONTINUOUS
 10
3.7661428571
 20
4.3538998447
 11
6.1731428571
 21
4.3538998447
  0
LINE
  5
26C
100
AcDbEntity
  8
ALL_FEATURES
100
AcDbLine
 62
7
  6
CONTINUOUS
 10
4.85739147
 20
6.119424835
 11
4.8574950366
 21
6.1170165215
  0
LINE
  5
26D
100
AcDbEntity
  8
ALL_ASSEMBLY_MEMBERS
100
AcDbLine
 62
7
  6
CONTINUOUS
 10
4.8607285707
 20
3.0638998447
 11
4.8607285707
 21
2.8262836939
  0
LINE
  5
26E
100
AcDbEntity
  8
ALL_ASSEMBLY_MEMBERS
100
AcDbLine
 62
7
  6
CONTINUOUS
 10
4.8884039191
 20
2.8988998447
 11
4.8884039191
 21
3.0638998447
  0
LINE
  5
26F
100
AcDbEntity
  8
ALL_ASSEMBLY_MEMBERS
100
AcDbLine
 62
7
  6
CONTINUOUS
 10
4.8913928571
 20
5.9553998447
 11
4.8913928571
 21
5.7526498447
  0
LINE
  5
270
100
AcDbEntity
  8
ALL_ASSEMBLY_MEMBERS
100
AcDbLine
 62
7
  6
CONTINUOUS
 10
4.8913928571
 20
5.6581498447
 11
4.8913928571
 21
5.4236498447
  0
LINE
  5
271
100
AcDbEntity
  8
ALL_ASSEMBLY_MEMBERS
100
AcDbLine
 62
7
  6
CONTINUOUS
 10
4.9096428571
 20
3.0638998447
 11
4.9096428571
 21
2.8988998447
  0
LINE
  5
272
100
AcDbEntity
  8
ALL_FEATURES
100
AcDbLine
 62
7
  6
CONTINUOUS
 10
4.9396428571
 20
6.126610191
 11
4.9396428571
 21
6.219819215
  0
LINE
  5
273
100
AcDbEntity
  8
ALL_FEATURES
100
AcDbLine
 62
7
  6
CONTINUOUS
 10
6.1731428571
 20
4.4788998447
 11
3.7661428571
 21
4.4788998447
  0
LINE
  5
274
100
AcDbEntity
  8
ALL_ASSEMBLY_MEMBERS
100
AcDbLine
 62
7
  6
CONTINUOUS
 10
6.1071428571
 20
4.6018998447
 11
3.8321428571
 21
4.6018998447
  0
LINE
  5
275
100
AcDbEntity
  8
ALL_FEATURES
100
AcDbLine
 62
7
  6
CONTINUOUS
 10
4.9996428571
 20
6.126610191
 11
4.9996428571
 21
6.219819215
  0
LINE
  5
276
100
AcDbEntity
  8
ALL_ASSEMBLY_MEMBERS
100
AcDbLine
 62
7
  6
CONTINUOUS
 10
5.0296428571
 20
3.0638998447
 11
5.0296428571
 21
2.8988998447
  0
LINE
  5
277
100
AcDbEntity
  8
ALL_ASSEMBLY_MEMBERS
100
AcDbLine
 62
7
  6
CONTINUOUS
 10
5.0478928571
 20
5.9553998447
 11
5.0478928571
 21
5.4236498447
  0
LINE
  5
278
100
AcDbEntity
  8
ALL_ASSEMBLY_MEMBERS
100
AcDbLine
 62
7
  6
CONTINUOUS
 10
5.0508817952
 20
3.0638998447
 11
5.0508817952
 21
2.8988998447
  0
LINE
  5
279
100
AcDbEntity
  8
ALL_ASSEMBLY_MEMBERS
100
AcDbLine
 62
7
  6
CONTINUOUS
 10
5.0785571435
 20
2.8262836939
 11
5.0785571435
 21
3.0638998447
  0
LINE
  5
27A
100
AcDbEntity
  8
ALL_FEATURES
100
AcDbLine
 62
7
  6
CONTINUOUS
 10
5.0817906752
 20
6.1170081205
 11
5.0818942443
 21
6.119424835
  0
LINE
  5
27B
100
AcDbEntity
  8
ALL_FEATURES
100
AcDbLine
 62
7
  6
CONTINUOUS
 10
4.1425047418
 20
4.6850873074
 11
5.7967809725
 21
4.6850873074
  0
LINE
  5
27C
100
AcDbEntity
  8
ALL_FEATURES
100
AcDbLine
 62
7
  6
CONTINUOUS
 10
5.14032237
 20
6.1482552086
 11
5.14032237
 21
6.126610191
  0
LINE
  5
27D
100
AcDbEntity
  8
ALL_FEATURES
100
AcDbLine
 62
7
  6
CONTINUOUS
 10
5.2021257689
 20
6.2355868985
 11
5.2021257689
 21
6.219819215
  0
LINE
  5
27E
100
AcDbEntity
  8
ALL_FEATURES
100
AcDbLine
 62
7
  6
CONTINUOUS
 10
5.264294583
 20
6.1482552086
 11
5.264294583
 21
6.126610191
  0
LINE
  5
27F
100
AcDbEntity
  8
ALL_FEATURES
100
AcDbLine
 62
7
  6
CONTINUOUS
 10
5.7321428571
 20
6.4413998447
 11
5.7057671029
 21
6.3381903716
  0
LINE
  5
280
100
AcDbEntity
  8
ALL_FEATURES
100
AcDbLine
 62
7
  6
CONTINUOUS
 10
5.4253836885
 20
3.1503126102
 11
5.4253847738
 21
3.1502135404
  0
LINE
  5
281
100
AcDbEntity
  8
ALL_ASSEMBLY_MEMBERS
100
AcDbLine
 62
7
  6
CONTINUOUS
 10
5.3083928571
 20
2.7118998447
 11
5.3083928571
 21
2.7638998447
  0
LINE
  5
282
100
AcDbEntity
  8
ALL_FEATURES
100
AcDbLine
 62
7
  6
CONTINUOUS
 10
5.3594242321
 20
6.1482552086
 11
5.3594242321
 21
6.126610191
  0
LINE
  5
283
100
AcDbEntity
  8
ALL_ASSEMBLY_MEMBERS
100
AcDbLine
 62
7
  6
CONTINUOUS
 10
5.3732285707
 20
3.0638998447
 11
5.3732285707
 21
2.8262836939
  0
LINE
  5
284
100
AcDbEntity
  8
ALL_FEATURES
100
AcDbLine
 62
7
  6
CONTINUOUS
 10
5.3818516335
 20
6.2396952044
 11
5.3818516335
 21
6.219819215
  0
LINE
  5
285
100
AcDbEntity
  8
ALL_ASSEMBLY_MEMBERS
100
AcDbLine
 62
7
  6
CONTINUOUS
 10
5.3821428571
 20
6.0023998447
 11
5.3821428571
 21
6.021135002
  0
LINE
  5
286
100
AcDbEntity
  8
ALL_ASSEMBLY_MEMBERS
100
AcDbLine
 62
7
  6
CONTINUOUS
 10
5.3821428571
 20
6.0776646875
 11
5.3821428571
 21
6.0963998447
  0
LINE
  5
287
100
AcDbEntity
  8
ALL_FEATURES
100
AcDbLine
 62
7
  6
CONTINUOUS
 10
5.4001178571
 20
3.1893998447
 11
5.4001178571
 21
3.1648998447
  0
LINE
  5
288
100
AcDbEntity
  8
ALL_FEATURES
100
AcDbLine
 62
7
  6
CONTINUOUS
 10
5.4050246328
 20
3.1271896311
 11
5.4050245056
 21
3.1385561799
  0
LINE
  5
289
100
AcDbEntity
  8
ALL_FEATURES
100
AcDbLine
 62
7
  6
CONTINUOUS
 10
5.4050379855
 20
3.0821450964
 11
5.4050378817
 21
3.093511611
  0
LINE
  5
28A
100
AcDbEntity
  8
ALL_FEATURES
100
AcDbLine
 62
7
  6
CONTINUOUS
 10
5.4071428571
 20
5.9713998447
 11
5.4071428571
 21
5.9553998447
  0
LINE
  5
28B
100
AcDbEntity
  8
ALL_FEATURES
100
AcDbLine
 62
7
  6
CONTINUOUS
 10
5.4163993645
 20
6.1465344817
 11
5.4163993645
 21
6.126610191
  0
LINE
  5
28C
100
AcDbEntity
  8
ALL_ASSEMBLY_MEMBERS
100
AcDbLine
 62
7
  6
CONTINUOUS
 10
5.4256404494
 20
3.0638998447
 11
5.4256404494
 21
2.8488998447
  0
LINE
  5
28D
100
AcDbEntity
  8
ALL_FEATURES
100
AcDbLine
 62
7
  6
CONTINUOUS
 10
5.4296428571
 20
3.1077183495
 11
5.4296428571
 21
3.1129746695
  0
LINE
  5
28E
100
AcDbEntity
  8
ALL_ASSEMBLY_MEMBERS
100
AcDbLine
 62
7
  6
CONTINUOUS
 10
5.4312260671
 20
3.0638998447
 11
5.4312260671
 21
2.8488998447
  0
LINE
  5
28F
100
AcDbEntity
  8
ALL_ASSEMBLY_MEMBERS
100
AcDbLine
 62
7
  6
CONTINUOUS
 10
6.0383928571
 20
4.9388998447
 11
3.9008928571
 21
4.9388998447
  0
LINE
  5
290
100
AcDbEntity
  8
ALL_FEATURES
100
AcDbLine
 62
7
  6
CONTINUOUS
 10
3.8446428571
 20
4.9788998447
 11
6.0946428571
 21
4.9788998447
  0
LINE
  5
291
100
AcDbEntity
  8
ALL_FEATURES
100
AcDbLine
 62
7
  6
CONTINUOUS
 10
3.8446428571
 20
4.9963998447
 11
6.0946428571
 21
4.9963998447
  0
LINE
  5
292
100
AcDbEntity
  8
ALL_ASSEMBLY_MEMBERS
100
AcDbLine
 62
7
  6
CONTINUOUS
 10
5.4481404494
 20
3.0638998447
 11
5.4481404494
 21
2.8488998447
  0
LINE
  5
293
100
AcDbEntity
  8
ALL_ASSEMBLY_MEMBERS
100
AcDbLine
 62
7
  6
CONTINUOUS
 10
5.4496928571
 20
3.0638998447
 11
5.4496928571
 21
3.0738998447
  0
LINE
  5
294
100
AcDbEntity
  8
ALL_FEATURES
100
AcDbLine
 62
7
  6
CONTINUOUS
 10
5.4546880525
 20
3.3423998447
 11
5.4546880525
 21
3.3719248447
  0
LINE
  5
295
100
AcDbEntity
  8
ALL_ASSEMBLY_MEMBERS
100
AcDbLine
 62
7
  6
CONTINUOUS
 10
5.4571428571
 20
6.0431498447
 11
5.4571428571
 21
6.0556498447
  0
LINE
  5
296
100
AcDbEntity
  8
ALL_ASSEMBLY_MEMBERS
100
AcDbLine
 62
7
  6
CONTINUOUS
 10
5.4821428571
 20
2.7745646287
 11
5.4821428571
 21
3.0638998447
  0
LINE
  5
297
100
AcDbEntity
  8
ALL_FEATURES
100
AcDbLine
 62
7
  6
CONTINUOUS
 10
5.521227631
 20
6.2396952044
 11
5.521227631
 21
6.219819215
  0
LINE
  5
298
100
AcDbEntity
  8
ALL_FEATURES
100
AcDbLine
 62
7
  6
CONTINUOUS
 10
4.5098152304
 20
3.1356946714
 11
4.5096428571
 21
3.135495908
  0
LINE
  5
299
100
AcDbEntity
  8
ALL_FEATURES
100
AcDbLine
 62
7
  6
CONTINUOUS
 10
4.2801621974
 20
6.2481010316
 11
4.2796443513
 21
6.2486886946
  0
LINE
  5
29A
100
AcDbEntity
  8
ALL_FEATURES
100
AcDbLine
 62
7
  6
CONTINUOUS
 10
4.2796443514
 20
6.2486886944
 11
4.2801625782
 21
6.2481040428
  0
LINE
  5
29B
100
AcDbEntity
  8
ALL_FEATURES
100
AcDbLine
 62
7
  6
CONTINUOUS
 10
4.2801001805
 20
6.2481707225
 11
4.2797976579
 21
6.2485155769
  0
LWPOLYLINE
  5
29C
100
AcDbEntity
  8
ALL_FEATURES
100
AcDbPolyline
 62
7
  6
CONTINUOUS
 90
3
 70
0
 10
4.279835457
 20
6.2484728719
 10
4.2796560846
 20
6.2486803227
 10
4.2796428571
 20
6.2486960462
  0
LINE
  5
29D
100
AcDbEntity
  8
ALL_FEATURES
100
AcDbLine
 62
7
  6
CONTINUOUS
 10
4.2796428571
 20
6.2486960462
 11
4.2796686627
 21
6.2486658811
  0
LINE
  5
29E
100
AcDbEntity
  8
ALL_ASSEMBLY_MEMBERS
100
AcDbLine
 62
7
  6
CONTINUOUS
 10
4.8913928571
 20
5.7526498447
 11
4.891458685
 21
5.7525410576
  0
LINE
  5
29F
100
AcDbEntity
  8
ALL_ASSEMBLY_MEMBERS
100
AcDbLine
 62
7
  6
CONTINUOUS
 10
4.8913928571
 20
5.7526498447
 11
4.8914583945
 21
5.7525326499
  0
LINE
  5
2A0
100
AcDbEntity
  8
ALL_FEATURES
100
AcDbLine
 62
7
  6
CONTINUOUS
 10
5.6066106677
 20
6.2356361418
 11
5.6066106677
 21
6.219819215
  0
LINE
  5
2A1
100
AcDbEntity
  8
ALL_FEATURES
100
AcDbLine
 62
7
  6
CONTINUOUS
 10
4.5098118771
 20
3.0906517531
 11
4.5096428571
 21
3.0904584809
  0
LINE
  5
2A2
100
AcDbEntity
  8
ALL_FEATURES
100
AcDbLine
 62
7
  6
CONTINUOUS
 10
5.7621428571
 20
6.4913998447
 11
5.7621428571
 21
6.4755389171
  0
LINE
  5
2A3
100
AcDbEntity
  8
ALL_FEATURES
100
AcDbLine
 62
7
  6
CONTINUOUS
 10
5.8189866922
 20
4.9388998447
 11
5.7967809725
 21
4.6850873074
  0
LINE
  5
2A4
100
AcDbEntity
  8
ALL_FEATURES
100
AcDbLine
 62
7
  6
CONTINUOUS
 10
5.4546880525
 20
3.3719248447
 11
5.5946428571
 21
3.8038998447
  0
LINE
  5
2A5
100
AcDbEntity
  8
ALL_FEATURES
100
AcDbLine
 62
7
  6
CONTINUOUS
 10
5.4001178571
 20
3.1893998447
 11
5.4496880525
 21
3.3423998447
  0
LINE
  5
2A6
100
AcDbEntity
  8
ALL_ASSEMBLY_MEMBERS
100
AcDbLine
 62
7
  6
CONTINUOUS
 10
4.8913928571
 20
5.4236498447
 11
5.0478928571
 21
5.4236498447
  0
LINE
  5
2A7
100
AcDbEntity
  8
ALL_FEATURES
100
AcDbLine
 62
7
  6
CONTINUOUS
 10
5.8996428571
 20
4.1138998447
 11
5.8996428571
 21
4.2601498447
  0
LINE
  5
2A8
100
AcDbEntity
  8
ALL_FEATURES
100
AcDbLine
 62
7
  6
CONTINUOUS
 10
5.5946428571
 20
3.8038998447
 11
5.8996428571
 21
4.1138998447
  0
LINE
  5
2A9
100
AcDbEntity
  8
ALL_FEATURES
100
AcDbLine
 62
7
  6
CONTINUOUS
 10
4.5344407599
 20
3.1499196338
 11
4.5098152303
 21
3.1356947943
  0
LINE
  5
2AA
100
AcDbEntity
  8
ALL_FEATURES
100
AcDbLine
 62
7
  6
CONTINUOUS
 10
4.5391678571
 20
3.1648998447
 11
4.533836112
 21
3.1618215603
  0
LINE
  5
2AB
100
AcDbEntity
  8
ALL_ASSEMBLY_MEMBERS
100
AcDbLine
 62
7
  6
CONTINUOUS
 10
6.0383928571
 20
4.9388998447
 11
6.0383928571
 21
4.9788998447
  0
LINE
  5
2AC
100
AcDbEntity
  8
ALL_FEATURES
100
AcDbLine
 62
7
  6
CONTINUOUS
 10
6.0946428571
 20
4.9963998447
 11
6.0946428571
 21
4.9788998447
  0
LINE
  5
2AD
100
AcDbEntity
  8
ALL_FEATURES
100
AcDbLine
 62
7
  6
CONTINUOUS
 10
6.1731428571
 20
4.3538998447
 11
6.1731428571
 21
4.4788998447
  0
LINE
  5
2AE
100
AcDbEntity
  8
ALL_ASSEMBLY_MEMBERS
100
AcDbLine
 62
7
  6
CONTINUOUS
 10
6.1071428571
 20
4.6018998447
 11
6.0989646657
 21
4.4788998447
  0
LINE
  5
2AF
100
AcDbEntity
  8
ALL_FEATURES
100
AcDbLine
 62
7
  6
CONTINUOUS
 10
4.5344270841
 20
3.1048721801
 11
4.5098118763
 21
3.0906537797
  0
LWPOLYLINE
  5
2B0
100
AcDbEntity
  8
ALL_FEATURES
100
AcDbPolyline
 62
7
  6
CONTINUOUS
 90
3
 70
0
 10
4.5395487764
 20
6.1027073023
 10
4.5391981401
 20
6.1028694822
 10
4.5385957047
 20
6.1031603965
  0
LINE
  5
2B1
100
AcDbEntity
  8
ALL_FEATURES
100
AcDbLine
 62
7
  6
CONTINUOUS
 10
4.5396428187
 20
6.1026611892
 11
4.5385960417
 21
6.1031602254
  0
LINE
  5
2B2
100
AcDbEntity
  8
ALL_FEATURES
100
AcDbLine
 62
7
  6
CONTINUOUS
 10
5.4294786512
 20
3.1075292784
 11
5.4296428571
 21
3.1077183495
  0
LINE
  5
2B3
100
AcDbEntity
  8
ALL_ASSEMBLY_MEMBERS
100
AcDbLine
 62
7
  6
CONTINUOUS
 10
5.3927886015
 20
6.0334967064
 11
5.4571428571
 21
6.0431498447
  0
LINE
  5
2B4
100
AcDbEntity
  8
ALL_FEATURES
100
AcDbLine
 62
7
  6
CONTINUOUS
 10
4.5321428571
 20
5.9553998447
 11
5.4071428571
 21
5.9553998447
  0
LINE
  5
2B5
100
AcDbEntity
  8
ALL_ASSEMBLY_MEMBERS
100
AcDbLine
 62
7
  6
CONTINUOUS
 10
4.5464971128
 20
6.0334967064
 11
4.4821428571
 21
6.0431498447
  0
LINE
  5
2B6
100
AcDbEntity
  8
ALL_FEATURES
100
AcDbLine
 62
7
  6
CONTINUOUS
 10
4.4047648293
 20
6.1790572071
 11
4.4215180523
 21
6.1735843015
  0
LINE
  5
2B7
100
AcDbEntity
  8
ALL_FEATURES
100
AcDbLine
 62
7
  6
CONTINUOUS
 10
4.4829910803
 20
6.1933800587
 11
4.491766429
 21
6.1900100465
  0
LINE
  5
2B8
100
AcDbEntity
  8
ALL_FEATURES
100
AcDbLine
 62
7
  6
CONTINUOUS
 10
5.4048468393
 20
3.1383509045
 11
5.4253833791
 21
3.1502143455
  0
LINE
  5
2B9
100
AcDbEntity
  8
ALL_ASSEMBLY_MEMBERS
100
AcDbLine
 62
7
  6
CONTINUOUS
 10
4.4821428571
 20
6.0556498447
 11
4.5464971128
 21
6.0653029831
  0
LINE
  5
2BA
100
AcDbEntity
  8
ALL_FEATURES
100
AcDbLine
 62
7
  6
CONTINUOUS
 10
4.5321428571
 20
5.9713998447
 11
5.4071428571
 21
5.9713998447
  0
LINE
  5
2BB
100
AcDbEntity
  8
ALL_ASSEMBLY_MEMBERS
100
AcDbLine
 62
7
  6
CONTINUOUS
 10
5.3821428571
 20
6.0023998447
 11
4.5571428571
 21
6.0023998447
  0
LINE
  5
2BC
100
AcDbEntity
  8
ALL_ASSEMBLY_MEMBERS
100
AcDbLine
 62
7
  6
CONTINUOUS
 10
5.3821428571
 20
6.021135002
 11
4.5571428571
 21
6.021135002
  0
LINE
  5
2BD
100
AcDbEntity
  8
ALL_ASSEMBLY_MEMBERS
100
AcDbLine
 62
7
  6
CONTINUOUS
 10
5.3927886015
 20
6.0334967064
 11
4.5464971128
 21
6.0334967064
  0
LINE
  5
2BE
100
AcDbEntity
  8
ALL_ASSEMBLY_MEMBERS
100
AcDbLine
 62
7
  6
CONTINUOUS
 10
5.4571428571
 20
6.0431498447
 11
4.4821428571
 21
6.0431498447
  0
LINE
  5
2BF
100
AcDbEntity
  8
ALL_ASSEMBLY_MEMBERS
100
AcDbLine
 62
7
  6
CONTINUOUS
 10
5.4571428571
 20
6.0556498447
 11
4.4821428571
 21
6.0556498447
  0
LINE
  5
2C0
100
AcDbEntity
  8
ALL_ASSEMBLY_MEMBERS
100
AcDbLine
 62
7
  6
CONTINUOUS
 10
5.3927886015
 20
6.0653029831
 11
4.5464971128
 21
6.0653029831
  0
LINE
  5
2C1
100
AcDbEntity
  8
ALL_ASSEMBLY_MEMBERS
100
AcDbLine
 62
7
  6
CONTINUOUS
 10
5.3821428571
 20
6.0776646875
 11
4.5571428571
 21
6.0776646875
  0
LINE
  5
2C2
100
AcDbEntity
  8
ALL_ASSEMBLY_MEMBERS
100
AcDbLine
 62
7
  6
CONTINUOUS
 10
5.3821428571
 20
6.0963998447
 11
4.5571428571
 21
6.0963998447
  0
LINE
  5
2C3
100
AcDbEntity
  8
ALL_ASSEMBLY_MEMBERS
100
AcDbLine
 62
7
  6
CONTINUOUS
 10
5.4571428571
 20
6.0556498447
 11
5.3927886015
 21
6.0653029831
  0
LINE
  5
2C4
100
AcDbEntity
  8
ALL_FEATURES
100
AcDbLine
 62
7
  6
CONTINUOUS
 10
5.4048617598
 20
3.0933082768
 11
5.4294786517
 21
3.1075282091
  0
LINE
  5
2C5
100
AcDbEntity
  8
ALL_FEATURES
100
AcDbLine
 62
7
  6
CONTINUOUS
 10
4.6201105228
 20
6.1199841668
 11
4.6185826118
 21
6.1196911808
  0
LINE
  5
2C6
100
AcDbEntity
  8
ALL_FEATURES
100
AcDbLine
 62
7
  6
CONTINUOUS
 10
4.9404400016
 20
6.119424835
 11
4.85739147
 21
6.119424835
  0
LINE
  5
2C7
100
AcDbEntity
  8
ALL_FEATURES
100
AcDbLine
 62
7
  6
CONTINUOUS
 10
4.8018443378
 20
6.119424835
 11
4.7269251751
 21
6.119424835
  0
LINE
  5
2C8
100
AcDbEntity
  8
ALL_FEATURES
100
AcDbLine
 62
7
  6
CONTINUOUS
 10
4.6796739622
 20
6.119424835
 11
4.620217778
 21
6.119424835
  0
LINE
  5
2C9
100
AcDbEntity
  8
ALL_FEATURES
100
AcDbLine
 62
7
  6
CONTINUOUS
 10
4.5858877624
 20
6.119424835
 11
4.5477145423
 21
6.119424835
  0
LINE
  5
2CA
100
AcDbEntity
  8
ALL_FEATURES
100
AcDbLine
 62
7
  6
CONTINUOUS
 10
4.529666185
 20
6.119424835
 11
4.5165125898
 21
6.119424835
  0
LINE
  5
2CB
100
AcDbEntity
  8
ALL_FEATURES
100
AcDbLine
 62
7
  6
CONTINUOUS
 10
4.9988457127
 20
6.119424835
 11
5.0818942443
 21
6.119424835
  0
LINE
  5
2CC
100
AcDbEntity
  8
ALL_FEATURES
100
AcDbLine
 62
7
  6
CONTINUOUS
 10
5.1374413765
 20
6.119424835
 11
5.2123605392
 21
6.119424835
  0
LINE
  5
2CD
100
AcDbEntity
  8
ALL_FEATURES
100
AcDbLine
 62
7
  6
CONTINUOUS
 10
5.2596117521
 20
6.119424835
 11
5.3190679362
 21
6.119424835
  0
LINE
  5
2CE
100
AcDbEntity
  8
ALL_FEATURES
100
AcDbLine
 62
7
  6
CONTINUOUS
 10
5.3533979519
 20
6.119424835
 11
5.391571172
 21
6.119424835
  0
LINE
  5
2CF
100
AcDbEntity
  8
ALL_FEATURES
100
AcDbLine
 62
7
  6
CONTINUOUS
 10
5.4096195293
 20
6.119424835
 11
5.4227731245
 21
6.119424835
  0
LINE
  5
2D0
100
AcDbEntity
  8
ALL_FEATURES
100
AcDbLine
 62
7
  6
CONTINUOUS
 10
5.2514515869
 20
6.1316581472
 11
5.2186116908
 21
6.1316581472
  0
LINE
  5
2D1
100
AcDbEntity
  8
ALL_FEATURES
100
AcDbLine
 62
7
  6
CONTINUOUS
 10
5.1312296011
 20
6.1316581472
 11
5.0847615856
 21
6.1316581472
  0
LINE
  5
2D2
100
AcDbEntity
  8
ALL_FEATURES
100
AcDbLine
 62
7
  6
CONTINUOUS
 10
4.9951903789
 20
6.1316581472
 11
4.9440953655
 21
6.1316581472
  0
LINE
  5
2D3
100
AcDbEntity
  8
ALL_FEATURES
100
AcDbLine
 62
7
  6
CONTINUOUS
 10
4.8545241287
 20
6.1316581472
 11
4.8080561459
 21
6.1316581472
  0
LINE
  5
2D4
100
AcDbEntity
  8
ALL_FEATURES
100
AcDbLine
 62
7
  6
CONTINUOUS
 10
4.7206740235
 20
6.1316581472
 11
4.6878341595
 21
6.1316581472
  0
LINE
  5
2D5
100
AcDbEntity
  8
ALL_FEATURES
100
AcDbLine
 62
7
  6
CONTINUOUS
 10
5.1347269561
 20
6.1363998447
 11
5.0861729711
 21
6.1363998447
  0
LINE
  5
2D6
100
AcDbEntity
  8
ALL_FEATURES
100
AcDbLine
 62
7
  6
CONTINUOUS
 10
4.9974237371
 20
6.1363998447
 11
4.941861916
 21
6.1363998447
  0
LINE
  5
2D7
100
AcDbEntity
  8
ALL_FEATURES
100
AcDbLine
 62
7
  6
CONTINUOUS
 10
4.8531127432
 20
6.1363998447
 11
4.8045586936
 21
6.1363998447
  0
LINE
  5
2D8
100
AcDbEntity
  8
ALL_FEATURES
100
AcDbLine
 62
7
  6
CONTINUOUS
 10
5.4485258332
 20
6.1462144012
 11
5.4343581419
 21
6.1462144012
  0
LINE
  5
2D9
100
AcDbEntity
  8
ALL_FEATURES
100
AcDbLine
 62
7
  6
CONTINUOUS
 10
5.4158171222
 20
6.1462144012
 11
5.3747008806
 21
6.1462144012
  0
LINE
  5
2DA
100
AcDbEntity
  8
ALL_FEATURES
100
AcDbLine
 62
7
  6
CONTINUOUS
 10
5.3394337655
 20
6.1462144012
 11
5.2753937179
 21
6.1462144012
  0
LINE
  5
2DB
100
AcDbEntity
  8
ALL_FEATURES
100
AcDbLine
 62
7
  6
CONTINUOUS
 10
5.2268526982
 20
6.1462144012
 11
5.1461575305
 21
6.1462144012
  0
LINE
  5
2DC
100
AcDbEntity
  8
ALL_FEATURES
100
AcDbLine
 62
7
  6
CONTINUOUS
 10
5.0890941396
 20
6.1462144012
 11
4.9996428571
 21
6.1462144012
  0
LINE
  5
2DD
100
AcDbEntity
  8
ALL_FEATURES
100
AcDbLine
 62
7
  6
CONTINUOUS
 10
4.9396428571
 20
6.1462144012
 11
4.8501915747
 21
6.1462144012
  0
LINE
  5
2DE
100
AcDbEntity
  8
ALL_FEATURES
100
AcDbLine
 62
7
  6
CONTINUOUS
 10
4.7931281837
 20
6.1462144012
 11
4.7124330161
 21
6.1462144012
  0
LINE
  5
2DF
100
AcDbEntity
  8
ALL_FEATURES
100
AcDbLine
 62
7
  6
CONTINUOUS
 10
4.6638919964
 20
6.1462144012
 11
4.5998519488
 21
6.1462144012
  0
LINE
  5
2E0
100
AcDbEntity
  8
ALL_FEATURES
100
AcDbLine
 62
7
  6
CONTINUOUS
 10
4.5645848337
 20
6.1462144012
 11
4.5234685921
 21
6.1462144012
  0
LINE
  5
2E1
100
AcDbEntity
  8
ALL_FEATURES
100
AcDbLine
 62
7
  6
CONTINUOUS
 10
4.5049275724
 20
6.1462144012
 11
4.4907598811
 21
6.1462144012
  0
LINE
  5
2E2
100
AcDbEntity
  8
ALL_FEATURES
100
AcDbLine
 62
7
  6
CONTINUOUS
 10
4.49033518
 20
6.1464762578
 11
4.5045236577
 21
6.1464762578
  0
LINE
  5
2E3
100
AcDbEntity
  8
ALL_FEATURES
100
AcDbLine
 62
7
  6
CONTINUOUS
 10
4.5230646773
 20
6.1464762578
 11
4.5642412432
 21
6.1464762578
  0
LINE
  5
2E4
100
AcDbEntity
  8
ALL_FEATURES
100
AcDbLine
 62
7
  6
CONTINUOUS
 10
4.5995083584
 20
6.1464762578
 11
4.6636423634
 21
6.1464762578
  0
LINE
  5
2E5
100
AcDbEntity
  8
ALL_FEATURES
100
AcDbLine
 62
7
  6
CONTINUOUS
 10
4.7121833831
 20
6.1464762578
 11
4.7929969439
 21
6.1464762578
  0
LINE
  5
2E6
100
AcDbEntity
  8
ALL_FEATURES
100
AcDbLine
 62
7
  6
CONTINUOUS
 10
4.8500603349
 20
6.1464762578
 11
4.9396428571
 21
6.1464762578
  0
LINE
  5
2E7
100
AcDbEntity
  8
ALL_FEATURES
100
AcDbLine
 62
7
  6
CONTINUOUS
 10
4.9996428571
 20
6.1464762578
 11
5.0892253794
 21
6.1464762578
  0
LINE
  5
2E8
100
AcDbEntity
  8
ALL_FEATURES
100
AcDbLine
 62
7
  6
CONTINUOUS
 10
5.1462887704
 20
6.1464762578
 11
5.2271023312
 21
6.1464762578
  0
LINE
  5
2E9
100
AcDbEntity
  8
ALL_FEATURES
100
AcDbLine
 62
7
  6
CONTINUOUS
 10
5.2756433509
 20
6.1464762578
 11
5.3397773559
 21
6.1464762578
  0
LINE
  5
2EA
100
AcDbEntity
  8
ALL_FEATURES
100
AcDbLine
 62
7
  6
CONTINUOUS
 10
5.375044471
 20
6.1464762578
 11
5.4162210369
 21
6.1464762578
  0
LINE
  5
2EB
100
AcDbEntity
  8
ALL_FEATURES
100
AcDbLine
 62
7
  6
CONTINUOUS
 10
5.4347620566
 20
6.1464762578
 11
5.4489505343
 21
6.1464762578
  0
LINE
  5
2EC
100
AcDbEntity
  8
ALL_FEATURES
100
AcDbLine
 62
7
  6
CONTINUOUS
 10
4.9396650771
 20
6.1476103513
 11
4.9996206875
 21
6.1476103513
  0
LINE
  5
2ED
100
AcDbEntity
  8
ALL_FEATURES
100
AcDbLine
 62
7
  6
CONTINUOUS
 10
4.3854425405
 20
6.1790572071
 11
4.4047648293
 21
6.1790572071
  0
LINE
  5
2EE
100
AcDbEntity
  8
ALL_FEATURES
100
AcDbLine
 62
7
  6
CONTINUOUS
 10
4.423305849
 20
6.1790572071
 11
4.4793813153
 21
6.1790572071
  0
LINE
  5
2EF
100
AcDbEntity
  8
ALL_FEATURES
100
AcDbLine
 62
7
  6
CONTINUOUS
 10
4.5146484304
 20
6.1790572071
 11
4.6019880168
 21
6.1790572071
  0
LINE
  5
2F0
100
AcDbEntity
  8
ALL_FEATURES
100
AcDbLine
 62
7
  6
CONTINUOUS
 10
4.6505290364
 20
6.1790572071
 11
4.7605833357
 21
6.1790572071
  0
LINE
  5
2F1
100
AcDbEntity
  8
ALL_FEATURES
100
AcDbLine
 62
7
  6
CONTINUOUS
 10
4.8176467267
 20
6.1790572071
 11
4.9396428571
 21
6.1790572071
  0
LINE
  5
2F2
100
AcDbEntity
  8
ALL_FEATURES
100
AcDbLine
 62
7
  6
CONTINUOUS
 10
4.9996428571
 20
6.1790572071
 11
5.1216389876
 21
6.1790572071
  0
LINE
  5
2F3
100
AcDbEntity
  8
ALL_FEATURES
100
AcDbLine
 62
7
  6
CONTINUOUS
 10
5.1787023786
 20
6.1790572071
 11
5.2887566778
 21
6.1790572071
  0
LINE
  5
2F4
100
AcDbEntity
  8
ALL_FEATURES
100
AcDbLine
 62
7
  6
CONTINUOUS
 10
5.3372976975
 20
6.1790572071
 11
5.4246372839
 21
6.1790572071
  0
LINE
  5
2F5
100
AcDbEntity
  8
ALL_FEATURES
100
AcDbLine
 62
7
  6
CONTINUOUS
 10
5.459904399
 20
6.1790572071
 11
5.5159798653
 21
6.1790572071
  0
LINE
  5
2F6
100
AcDbEntity
  8
ALL_FEATURES
100
AcDbLine
 62
7
  6
CONTINUOUS
 10
5.534520885
 20
6.1790572071
 11
5.5538431738
 21
6.1790572071
  0
LINE
  5
2F7
100
AcDbEntity
  8
ALL_FEATURES
100
AcDbLine
 62
7
  6
CONTINUOUS
 10
5.3191751914
 20
6.1199841668
 11
5.320700454
 21
6.1196916887
  0
LINE
  5
2F8
100
AcDbEntity
  8
ALL_FEATURES
100
AcDbLine
 62
7
  6
CONTINUOUS
 10
4.2335186114
 20
6.3381903715
 11
5.7057671029
 21
6.3381903715
  0
LINE
  5
2F9
100
AcDbEntity
  8
ALL_FEATURES
100
AcDbLine
 62
7
  6
CONTINUOUS
 10
5.7321428571
 20
6.4413998447
 11
4.2071428571
 21
6.4413998447
  0
LINE
  5
2FA
100
AcDbEntity
  8
ALL_FEATURES
100
AcDbLine
 62
7
  6
CONTINUOUS
 10
4.1771428571
 20
6.4755389171
 11
5.7621428571
 21
6.4755389171
  0
LINE
  5
2FB
100
AcDbEntity
  8
ALL_FEATURES
100
AcDbLine
 62
7
  6
CONTINUOUS
 10
4.1771428571
 20
6.4913998447
 11
5.7621428571
 21
6.4913998447
  0
ARC
  5
2FC
100
AcDbEntity
  8
ALL_FEATURES
100
AcDbCircle
 62
7
  6
CONTINUOUS
 10
3.8286428571
 20
4.3538998447
 40
0.0625
100
AcDbArc
 50
180.0
 51
270.0
  0
ARC
  5
2FD
100
AcDbEntity
  8
ALL_ASSEMBLY_MEMBERS
100
AcDbCircle
 62
7
  6
CONTINUOUS
 10
4.4920267063
 20
2.8262836939
 40
0.0623838492
100
AcDbArc
 50
236.0008381472
 51
270.0
  0
ARC
  5
2FE
100
AcDbEntity
  8
ALL_FEATURES
100
AcDbCircle
 62
7
  6
CONTINUOUS
 10
4.0083928571
 20
4.2601498447
 40
0.03125
100
AcDbArc
 50
0.0
 51
90.0
  0
ARC
  5
2FF
100
AcDbEntity
  8
ALL_ASSEMBLY_MEMBERS
100
AcDbCircle
 62
7
  6
CONTINUOUS
 10
4.9196428571
 20
2.8988998447
 40
0.01
100
AcDbArc
 50
180.0
 51
270.0
  0
ARC
  5
300
100
AcDbEntity
  8
ALL_FEATURES
100
AcDbCircle
 62
7
  6
CONTINUOUS
 10
3.5584398629
 20
5.2103129851
 40
1.3207527042
100
AcDbArc
 50
43.4979476766
 51
43.9291987754
  0
ARC
  5
301
100
AcDbEntity
  8
ALL_FEATURES
100
AcDbCircle
 62
7
  6
CONTINUOUS
 10
4.4911728861
 20
4.7155918173
 40
0.35
100
AcDbArc
 50
185.0
 51
198.9578027601
  0
ARC
  5
302
100
AcDbEntity
  8
ALL_FEATURES
100
AcDbCircle
 62
7
  6
CONTINUOUS
 10
4.7736853566
 20
6.3564635477
 40
0.340195102
100
AcDbArc
 50
222.5047692654
 51
224.1686597788
  0
ARC
  5
303
100
AcDbEntity
  8
ALL_FEATURES
100
AcDbCircle
 62
7
  6
CONTINUOUS
 10
4.7308959666
 20
5.8713998447
 40
0.265
100
AcDbArc
 50
92.7505260439
 51
99.5733070559
  0
ARC
  5
304
100
AcDbEntity
  8
ALL_FEATURES
100
AcDbCircle
 62
7
  6
CONTINUOUS
 10
4.4730843042
 20
6.4196740154
 40
0.258176389
100
AcDbArc
 50
221.6474713125
 51
230.7236670069
  0
ARC
  5
305
100
AcDbEntity
  8
ALL_FEATURES
100
AcDbCircle
 62
7
  6
CONTINUOUS
 10
4.954658087
 20
6.3123134032
 40
0.2292999494
100
AcDbArc
 50
199.0701392801
 51
200.2819806419
  0
ARC
  5
306
100
AcDbEntity
  8
ALL_FEATURES
100
AcDbCircle
 62
7
  6
CONTINUOUS
 10
4.4522696975
 20
6.3941868951
 40
0.2252698418
100
AcDbArc
 50
230.7179996646
 51
252.7432926549
  0
ARC
  5
307
100
AcDbEntity
  8
ALL_FEATURES
100
AcDbCircle
 62
7
  6
CONTINUOUS
 10
4.4515127382
 20
6.3938999817
 40
0.225
100
AcDbArc
 50
194.3354354195
 51
220.1937761409
  0
ARC
  5
308
100
AcDbEntity
  8
ALL_FEATURES
100
AcDbCircle
 62
7
  6
CONTINUOUS
 10
4.9379737996
 20
6.306191956
 40
0.2115281827
100
AcDbArc
 50
200.2932344341
 51
201.2006485316
  0
ARC
  5
309
100
AcDbEntity
  8
ALL_FEATURES
100
AcDbCircle
 62
7
  6
CONTINUOUS
 10
4.3889151306
 20
5.9868189606
 40
0.2068854057
100
AcDbArc
 50
39.8636598065
 51
42.5080676603
  0
ARC
  5
30A
100
AcDbEntity
  8
ALL_FEATURES
100
AcDbCircle
 62
7
  6
CONTINUOUS
 10
4.6867069115
 20
6.2101005297
 40
0.1355971328
100
AcDbArc
 50
218.0045085702
 51
221.9678844811
  0
ARC
  5
30B
100
AcDbEntity
  8
ALL_FEATURES
100
AcDbCircle
 62
7
  6
CONTINUOUS
 10
4.5696428571
 20
6.1713998447
 40
0.075
100
AcDbArc
 50
246.4218215218
 51
261.8593806278
  0
ARC
  5
30C
100
AcDbEntity
  8
ALL_FEATURES
100
AcDbCircle
 62
7
  6
CONTINUOUS
 10
4.1586018258
 20
6.4289949145
 40
0.0501010381
100
AcDbArc
 50
14.3354354195
 51
68.2798930161
  0
ARC
  5
30D
100
AcDbEntity
  8
ALL_ASSEMBLY_MEMBERS
100
AcDbCircle
 62
7
  6
CONTINUOUS
 10
4.9146428571
 20
5.7053998447
 40
0.046875
100
AcDbArc
 50
115.7006088262
 51
244.3000583486
  0
ARC
  5
30E
100
AcDbEntity
  8
ALL_FEATURES
100
AcDbCircle
 62
7
  6
CONTINUOUS
 10
4.9658382442
 20
6.1484450401
 40
0.0338212345
100
AcDbArc
 50
326.5852567087
 51
348.3143674719
  0
ARC
  5
30F
100
AcDbEntity
  8
ALL_FEATURES
100
AcDbCircle
 62
7
  6
CONTINUOUS
 10
4.9665578562
 20
6.148296538
 40
0.0330864596
100
AcDbArc
 50
348.3138006449
 51
356.0164843388
  0
ARC
  5
310
100
AcDbEntity
  8
ALL_FEATURES
100
AcDbCircle
 62
7
  6
CONTINUOUS
 10
4.966644713
 20
6.1266341143
 40
0.0329981528
100
AcDbArc
 50
347.3805079148
 51
359.9584611869
  0
ARC
  5
311
100
AcDbEntity
  8
ALL_FEATURES
100
AcDbCircle
 62
7
  6
CONTINUOUS
 10
4.5881428571
 20
6.0028998447
 40
0.0315
100
AcDbArc
 50
270.0
 51
359.0896945578
  0
ARC
  5
312
100
AcDbEntity
  8
ALL_ASSEMBLY_MEMBERS
100
AcDbCircle
 62
7
  6
CONTINUOUS
 10
4.5446428571
 20
6.021135002
 40
0.0125
100
AcDbArc
 50
0.0
 51
81.4692343901
  0
ARC
  5
313
100
AcDbEntity
  8
ALL_ASSEMBLY_MEMBERS
100
AcDbCircle
 62
7
  6
CONTINUOUS
 10
4.5446428571
 20
6.0776646875
 40
0.0125
100
AcDbArc
 50
278.5307656099
 51
360.0
  0
ARC
  5
314
100
AcDbEntity
  8
ALL_FEATURES
100
AcDbCircle
 62
7
  6
CONTINUOUS
 10
4.7213460267
 20
6.1281262594
 40
0.008001224
100
AcDbArc
 50
302.7873362766
 51
305.8325069354
  0
ARC
  5
315
100
AcDbEntity
  8
ALL_FEATURES
100
AcDbCircle
 62
7
  6
CONTINUOUS
 10
6.1106428571
 20
4.3538998447
 40
0.0625
100
AcDbArc
 50
270.0
 51
360.0
  0
ARC
  5
316
100
AcDbEntity
  8
ALL_ASSEMBLY_MEMBERS
100
AcDbCircle
 62
7
  6
CONTINUOUS
 10
5.4472590079
 20
2.8262836939
 40
0.0623838492
100
AcDbArc
 50
270.0
 51
303.9991618528
  0
ARC
  5
317
100
AcDbEntity
  8
ALL_FEATURES
100
AcDbCircle
 62
7
  6
CONTINUOUS
 10
5.9308928571
 20
4.2601498447
 40
0.03125
100
AcDbArc
 50
90.0
 51
180.0
  0
ARC
  5
318
100
AcDbEntity
  8
ALL_ASSEMBLY_MEMBERS
100
AcDbCircle
 62
7
  6
CONTINUOUS
 10
5.0196428571
 20
2.8988998447
 40
0.01
100
AcDbArc
 50
270.0
 51
360.0
  0
ARC
  5
319
100
AcDbEntity
  8
ALL_FEATURES
100
AcDbCircle
 62
7
  6
CONTINUOUS
 10
6.3774084633
 20
5.2135993828
 40
1.3159971049
100
AcDbArc
 50
136.0700220181
 51
136.5028315299
  0
ARC
  5
31A
100
AcDbEntity
  8
ALL_FEATURES
100
AcDbCircle
 62
7
  6
CONTINUOUS
 10
5.4481128282
 20
4.7155918173
 40
0.35
100
AcDbArc
 50
341.0421972399
 51
355.0
  0
ARC
  5
31B
100
AcDbEntity
  8
ALL_FEATURES
100
AcDbCircle
 62
7
  6
CONTINUOUS
 10
5.1671672025
 20
6.354985131
 40
0.3380410978
100
AcDbArc
 50
315.8260386743
 51
317.5005322814
  0
ARC
  5
31C
100
AcDbEntity
  8
ALL_FEATURES
100
AcDbCircle
 62
7
  6
CONTINUOUS
 10
5.2083897477
 20
5.8713998447
 40
0.265
100
AcDbArc
 50
80.4266950594
 51
87.249473956
  0
ARC
  5
31D
100
AcDbEntity
  8
ALL_FEATURES
100
AcDbCircle
 62
7
  6
CONTINUOUS
 10
5.4661983083
 20
6.4196774204
 40
0.2581809885
100
AcDbArc
 50
309.2763874767
 51
318.3552607035
  0
ARC
  5
31E
100
AcDbEntity
  8
ALL_FEATURES
100
AcDbCircle
 62
7
  6
CONTINUOUS
 10
4.9878667539
 20
6.3111549595
 40
0.2258600936
100
AcDbArc
 50
339.7077392474
 51
340.9342102645
  0
ARC
  5
31F
100
AcDbEntity
  8
ALL_FEATURES
100
AcDbCircle
 62
7
  6
CONTINUOUS
 10
5.4870159573
 20
6.3941868832
 40
0.2252698594
100
AcDbArc
 50
287.2567226866
 51
309.2820139553
  0
ARC
  5
320
100
AcDbEntity
  8
ALL_FEATURES
100
AcDbCircle
 62
7
  6
CONTINUOUS
 10
5.4877729761
 20
6.3938999817
 40
0.225
100
AcDbArc
 50
319.8062238591
 51
345.6645645805
  0
ARC
  5
321
100
AcDbEntity
  8
ALL_FEATURES
100
AcDbCircle
 62
7
  6
CONTINUOUS
 10
5.0035332468
 20
6.3053504827
 40
0.2091528849
100
AcDbArc
 50
338.7941776049
 51
339.7107379176
  0
ARC
  5
322
100
AcDbEntity
  8
ALL_FEATURES
100
AcDbCircle
 62
7
  6
CONTINUOUS
 10
5.5464648907
 20
5.9902364344
 40
0.2016970673
100
AcDbArc
 50
137.4579144588
 51
140.1703580744
  0
ARC
  5
323
100
AcDbEntity
  8
ALL_FEATURES
100
AcDbCircle
 62
7
  6
CONTINUOUS
 10
5.2549261375
 20
6.2081318454
 40
0.1325353988
100
AcDbArc
 50
317.9863171387
 51
322.04128981
  0
ARC
  5
324
100
AcDbEntity
  8
ALL_ASSEMBLY_MEMBERS
100
AcDbCircle
 62
7
  6
CONTINUOUS
 10
4.9696428571
 20
5.4236498447
 40
0.07825
100
AcDbArc
 50
180.0
 51
360.0
  0
ARC
  5
325
100
AcDbEntity
  8
ALL_FEATURES
100
AcDbCircle
 62
7
  6
CONTINUOUS
 10
5.3696428571
 20
6.1713998447
 40
0.075
100
AcDbArc
 50
278.1406193722
 51
293.5781784782
  0
ARC
  5
326
100
AcDbEntity
  8
ALL_FEATURES
100
AcDbCircle
 62
7
  6
CONTINUOUS
 10
5.7806838885
 20
6.4289949145
 40
0.0501010381
100
AcDbArc
 50
111.7201069839
 51
165.6645645805
  0
ARC
  5
327
100
AcDbEntity
  8
ALL_FEATURES
100
AcDbCircle
 62
7
  6
CONTINUOUS
 10
5.3143721823
 20
6.1591770787
 40
0.0400161085
100
AcDbArc
 50
284.3393610223
 51
287.4218053389
  0
ARC
  5
328
100
AcDbEntity
  8
ALL_FEATURES
100
AcDbCircle
 62
7
  6
CONTINUOUS
 10
4.9734475657
 20
6.14844509
 40
0.0338213418
100
AcDbArc
 50
191.7023087197
 51
213.4147246743
  0
ARC
  5
329
100
AcDbEntity
  8
ALL_FEATURES
100
AcDbCircle
 62
7
  6
CONTINUOUS
 10
4.9728580627
 20
6.1483137014
 40
0.033217444
100
AcDbArc
 50
183.6061695905
 51
191.6866285625
  0
ARC
  5
32A
100
AcDbEntity
  8
ALL_FEATURES
100
AcDbCircle
 62
7
  6
CONTINUOUS
 10
4.9726410015
 20
6.1266341143
 40
0.032998153
100
AcDbArc
 50
180.0415388507
 51
192.6194920476
  0
ARC
  5
32B
100
AcDbEntity
  8
ALL_FEATURES
100
AcDbCircle
 62
7
  6
CONTINUOUS
 10
5.3511428571
 20
6.0028998447
 40
0.0315
100
AcDbArc
 50
180.9103054422
 51
270.0
  0
ARC
  5
32C
100
AcDbEntity
  8
ALL_FEATURES
100
AcDbCircle
 62
7
  6
CONTINUOUS
 10
5.0953648039
 20
6.1333403103
 40
0.0126151021
100
AcDbArc
 50
213.6374678651
 51
221.7598197467
  0
ARC
  5
32D
100
AcDbEntity
  8
ALL_ASSEMBLY_MEMBERS
100
AcDbCircle
 62
7
  6
CONTINUOUS
 10
5.3946428571
 20
6.021135002
 40
0.0125
100
AcDbArc
 50
98.5307656099
 51
180.0
  0
ARC
  5
32E
100
AcDbEntity
  8
ALL_ASSEMBLY_MEMBERS
100
AcDbCircle
 62
7
  6
CONTINUOUS
 10
5.3946428571
 20
6.0776646875
 40
0.0125
100
AcDbArc
 50
180.0
 51
261.4692343901
  0
SPLINE
  5
32F
100
AcDbEntity
  8
ALL_ASSEMBLY_MEMBERS
100
AcDbSpline
 62
7
  6
CONTINUOUS
 70
0
 71
3
 72
29
 73
25
 74
0
 42
0.0000001
 43
0.0000001
 44
0.0000000001
 40
0.0
 40
0.0
 40
0.0
 40
0.0
 40
0.0061053437
 40
0.0171286132
 40
0.0527548287
 40
0.1039918146
 40
0.1677763423
 40
0.2414476869
 40
0.2813034114
 40
0.322835795
 40
0.409839594
 40
0.4547438289
 40
0.5000536794
 40
0.5453645512
 40
0.590265726
 40
0.677263312
 40
0.7187901626
 40
0.7586426179
 40
0.832303488
 40
0.896074834
 40
0.9472947618
 40
0.982898853
 40
0.9939085796
 40
1.0
 40
1.0
 40
1.0
 40
1.0
 10
4.891458685
 20
5.7525410576
 30
0.0
 10
4.8915645969
 20
5.7523656515
 30
0.0
 10
4.891860316
 20
5.7518726922
 30
0.0
 10
4.892765689
 20
5.750351178
 30
0.0
 10
4.8944089126
 20
5.7475062466
 30
0.0
 10
4.8968237639
 20
5.7430632975
 30
0.0
 10
4.8996224746
 20
5.7373800234
 30
0.0
 10
4.9019383551
 20
5.731892609
 30
0.0
 10
4.9036742928
 20
5.7269848364
 30
0.0
 10
4.9053027391
 20
5.7215716813
 30
0.0
 10
4.9065155379
 20
5.7158604128
 30
0.0
 10
4.9071558624
 20
5.7099432472
 30
0.0
 10
4.9073260361
 20
5.7053938749
 30
0.0
 10
4.9071548624
 20
5.7008446548
 30
0.0
 10
4.906513927
 20
5.6949278342
 30
0.0
 10
4.9053000577
 20
5.6892172904
 30
0.0
 10
4.9036710013
 20
5.6838048532
 30
0.0
 10
4.9019346967
 20
5.6788978972
 30
0.0
 10
4.8996186921
 20
5.6734115232
 30
0.0
 10
4.8968202325
 20
5.6677296512
 30
0.0
 10
4.8944060377
 20
5.6632883466
 30
0.0
 10
4.8927636073
 20
5.6604450014
 30
0.0
 10
4.8918590834
 20
5.6589249187
 30
0.0
 10
4.8915638357
 20
5.6584327515
 30
0.0
 10
4.8914581581
 20
5.6582577498
 30
0.0
  0
SPLINE
  5
330
100
AcDbEntity
  8
ALL_ASSEMBLY_MEMBERS
100
AcDbSpline
 62
7
  6
CONTINUOUS
 70
0
 71
3
 72
14
 73
10
 74
0
 42
0.0000001
 43
0.0000001
 44
0.0000000001
 40
0.0
 40
0.0
 40
0.0
 40
0.0
 40
0.1026260971
 40
0.1868375022
 40
0.2966554336
 40
0.4328703161
 40
0.5956997584
 40
0.7849933006
 40
1.0
 40
1.0
 40
1.0
 40
1.0
 10
5.0214204101
 20
2.8888998447
 30
0.0
 10
5.0213705351
 20
2.8888998447
 30
0.0
 10
5.0212948526
 20
2.8888213321
 30
0.0
 10
5.0212302767
 20
2.8886980895
 30
0.0
 10
5.021170255
 20
2.8885470313
 30
0.0
 10
5.0211127768
 20
2.888357363
 30
0.0
 10
5.0210556638
 20
2.8881267008
 30
0.0
 10
5.0210002837
 20
2.8878567258
 30
0.0
 10
5.0209665132
 20
2.8876631194
 30
0.0
 10
5.0209497102
 20
2.8875599887
 30
0.0
  0
SPLINE
  5
331
100
AcDbEntity
  8
ALL_ASSEMBLY_MEMBERS
100
AcDbSpline
 62
7
  6
CONTINUOUS
 70
0
 71
3
 72
12
 73
8
 74
0
 42
0.0000001
 43
0.0000001
 44
0.0000000001
 40
0.0
 40
0.0
 40
0.0
 40
0.0
 40
0.0845648112
 40
0.1844170701
 40
0.4235682623
 40
0.7020916932
 40
1.0
 40
1.0
 40
1.0
 40
1.0
 10
5.0209497102
 20
2.8875599887
 30
0.0
 10
5.0209103658
 20
2.8873185071
 30
0.0
 10
5.0208378157
 20
2.8867897326
 30
0.0
 10
5.0207094584
 20
2.8855708774
 30
0.0
 10
5.0205876343
 20
2.8837878357
 30
0.0
 10
5.0204991085
 20
2.8814296111
 30
0.0
 10
5.0204790001
 20
2.8797617631
 30
0.0
 10
5.0204790001
 20
2.8788998447
 30
0.0
  0
SPLINE
  5
332
100
AcDbEntity
  8
ALL_ASSEMBLY_MEMBERS
100
AcDbSpline
 62
7
  6
CONTINUOUS
 70
0
 71
3
 72
14
 73
10
 74
0
 42
0.0000001
 43
0.0000001
 44
0.0000000001
 40
0.0
 40
0.0
 40
0.0
 40
0.0
 40
0.2500801255
 40
0.3751253005
 40
0.500140468
 40
0.6251224972
 40
0.7500785992
 40
0.8750223265
 40
1.0
 40
1.0
 40
1.0
 40
1.0
 10
5.0508817952
 20
2.8988998447
 30
0.0
 10
5.0488782766
 20
2.8964826215
 30
0.0
 10
5.0458661613
 20
2.8928563074
 30
0.0
 10
5.0414554812
 20
2.8883799272
 30
0.0
 10
5.0378725579
 20
2.8853134998
 30
0.0
 10
5.0339651271
 20
2.882666497
 30
0.0
 10
5.0297230966
 20
2.8805855714
 30
0.0
 10
5.0251932625
 20
2.8792266134
 30
0.0
 10
5.0220480142
 20
2.8788999085
 30
0.0
 10
5.0204790001
 20
2.8788998447
 30
0.0
  0
SPLINE
  5
333
100
AcDbEntity
  8
ALL_ASSEMBLY_MEMBERS
100
AcDbSpline
 62
7
  6
CONTINUOUS
 70
0
 71
3
 72
15
 73
11
 74
0
 42
0.0000001
 43
0.0000001
 44
0.0000000001
 40
0.0
 40
0.0
 40
0.0
 40
0.0
 40
0.2667636761
 40
0.3947935858
 40
0.4573277866
 40
0.5189196012
 40
0.6398406836
 40
0.7590077029
 40
0.8783922124
 40
1.0
 40
1.0
 40
1.0
 40
1.0
 10
5.0508817952
 20
2.8988998447
 30
0.0
 10
5.0484692086
 20
2.8980586339
 30
0.0
 10
5.0449176206
 20
2.8967588951
 30
0.0
 10
5.0408335659
 20
2.8951753315
 30
0.0
 10
5.0385912757
 20
2.8942780689
 30
0.0
 10
5.0364191264
 20
2.8933889709
 30
0.0
 10
5.0337531508
 20
2.8922749333
 30
0.0
 10
5.0305661046
 20
2.8909711305
 30
0.0
 10
5.0273159666
 20
2.8898104605
 30
0.0
 10
5.0250633019
 20
2.8892637601
 30
0.0
 10
5.0239112511
 20
2.8890922512
 30
0.0
  0
LINE
  5
334
100
AcDbEntity
  8
ALL_ASSEMBLY_MEMBERS
100
AcDbLine
 62
7
  6
CONTINUOUS
 10
5.0239112511
 20
2.8890922512
 11
5.0214204101
 21
2.8888998447
  0
SPLINE
  5
335
100
AcDbEntity
  8
ALL_ASSEMBLY_MEMBERS
100
AcDbSpline
 62
7
  6
CONTINUOUS
 70
0
 71
3
 72
15
 73
11
 74
0
 42
0.0000001
 43
0.0000001
 44
0.0000000001
 40
0.0
 40
0.0
 40
0.0
 40
0.0
 40
0.1249558739
 40
0.2498776072
 40
0.3748184927
 40
0.4997927337
 40
0.6248114127
 40
0.7498666901
 40
0.8749394035
 40
1.0
 40
1.0
 40
1.0
 40
1.0
 10
4.9188067142
 20
2.8788998447
 30
0.0
 10
4.9172379342
 20
2.8788998201
 30
0.0
 10
4.9140931502
 20
2.8792265282
 30
0.0
 10
4.9095639112
 20
2.8805852203
 30
0.0
 10
4.9053221574
 20
2.882665693
 30
0.0
 10
4.9014146868
 20
2.8853123924
 30
0.0
 10
4.8978313983
 20
2.8883787534
 30
0.0
 10
4.894522874
 20
2.891736208
 30
0.0
 10
4.8914114958
 20
2.8952744689
 30
0.0
 10
4.8894059436
 20
2.8976910667
 30
0.0
 10
4.8884039191
 20
2.8988998447
 30
0.0
  0
SPLINE
  5
336
100
AcDbEntity
  8
ALL_ASSEMBLY_MEMBERS
100
AcDbSpline
 62
7
  6
CONTINUOUS
 70
0
 71
3
 72
58
 73
54
 74
0
 42
0.0000001
 43
0.0000001
 44
0.0000000001
 40
0.0
 40
0.0
 40
0.0
 40
0.0
 40
0.008817022
 40
0.0176175414
 40
0.0263214528
 40
0.0349176183
 40
0.0434100311
 40
0.0517900977
 40
0.068276746
 40
0.0764084732
 40
0.0844792714
 40
0.0924977614
 40
0.100468652
 40
0.1162953329
 40
0.1320022593
 40
0.1476187395
 40
0.163164053
 40
0.1786545598
 40
0.1941005711
 40
0.2095116662
 40
0.2248940095
 40
0.2555915664
 40
0.2862265156
 40
0.3168188882
 40
0.3473821319
 40
0.3779251564
 40
0.4389719141
 40
0.499997069
 40
0.5610222652
 40
0.5915427631
 40
0.6220723153
 40
0.6526154037
 40
0.6831786459
 40
0.7137712808
 40
0.7444063306
 40
0.7751039049
 40
0.805894521
 40
0.8213408421
 40
0.8368313008
 40
0.8523769475
 40
0.8679934374
 40
0.8837010967
 40
0.8995278373
 40
0.9074993354
 40
0.9155181575
 40
0.9317150965
 40
0.9482016681
 40
0.9565834364
 40
0.965078894
 40
0.9736762992
 40
0.9823815677
 40
0.9911828877
 40
1.0
 40
1.0
 40
1.0
 40
1.0
 10
4.8607285707
 20
2.8262836939
 30
0.0
 10
4.8607285707
 20
2.8253016308
 30
0.0
 10
4.8605956171
 20
2.8233373432
 30
0.0
 10
4.8600356985
 20
2.8204525428
 30
0.0
 10
4.8591402157
 20
2.8176795975
 30
0.0
 10
4.8579565495
 20
2.8150562631
 30
0.0
 10
4.8565414157
 20
2.8125930122
 30
0.0
 10
4.8544171321
 20
2.8095400334
 30
0.0
 10
4.8519753783
 20
2.8067746709
 30
0.0
 10
4.8493318072
 20
2.8042696071
 30
0.0
 10
4.8472752257
 20
2.8025214785
 30
0.0
 10
4.8451519306
 20
2.8008850205
 30
0.0
 10
4.8422555851
 20
2.7988415631
 30
0.0
 10
4.8385146101
 20
2.7965172913
 30
0.0
 10
4.833884059
 20
2.7940337469
 30
0.0
 10
4.8291539552
 20
2.7918198267
 30
0.0
 10
4.8243498205
 20
2.7898354283
 30
0.0
 10
4.8194872535
 20
2.7880543366
 30
0.0
 10
4.814579758
 20
2.7864494494
 30
0.0
 10
4.8096358494
 20
2.7850034302
 30
0.0
 10
4.8030107264
 20
2.7832636995
 30
0.0
 10
4.7946672613
 20
2.7814049334
 30
0.0
 10
4.7845884758
 20
2.7795890565
 30
0.0
 10
4.7744685201
 20
2.7781229272
 30
0.0
 10
4.7643205013
 20
2.7769558101
 30
0.0
 10
4.7507675137
 20
2.7757459724
 30
0.0
 10
4.7337895345
 20
2.774805616
 30
0.0
 10
4.713394949
 20
2.774444319
 30
0.0
 10
4.696399708
 20
2.7747446515
 30
0.0
 10
4.6828163102
 20
2.775370273
 30
0.0
 10
4.6726361267
 20
2.776047578
 30
0.0
 10
4.6624689762
 20
2.7769554843
 30
0.0
 10
4.6523209365
 20
2.7781225871
 30
0.0
 10
4.6422009228
 20
2.779588259
 30
0.0
 10
4.6321218768
 20
2.7814041192
 30
0.0
 10
4.6221034671
 20
2.7836366064
 30
0.0
 10
4.6138378879
 20
2.7859163709
 30
0.0
 10
4.607301735
 20
2.7880529344
 30
0.0
 10
4.6024391823
 20
2.7898343201
 30
0.0
 10
4.5976348189
 20
2.7918182434
 30
0.0
 10
4.592904732
 20
2.794032465
 30
0.0
 10
4.5882736963
 20
2.7965153199
 30
0.0
 10
4.5845328281
 20
2.7988400297
 30
0.0
 10
4.5816361453
 20
2.8008832597
 30
0.0
 10
4.5787954037
 20
2.8030718879
 30
0.0
 10
4.5754082531
 20
2.8060975889
 30
0.0
 10
4.5723700459
 20
2.8095377445
 30
0.0
 10
4.5702455302
 20
2.8125913934
 30
0.0
 10
4.5688296862
 20
2.8150549568
 30
0.0
 10
4.5676456451
 20
2.8176788459
 30
0.0
 10
4.5667502836
 20
2.8204522235
 30
0.0
 10
4.5661901956
 20
2.8233372337
 30
0.0
 10
4.5660571435
 20
2.8253016207
 30
0.0
 10
4.5660571435
 20
2.8262836939
 30
0.0
  0
SPLINE
  5
337
100
AcDbEntity
  8
ALL_ASSEMBLY_MEMBERS
100
AcDbSpline
 62
7
  6
CONTINUOUS
 70
0
 71
3
 72
58
 73
54
 74
0
 42
0.0000001
 43
0.0000001
 44
0.0000000001
 40
0.0
 40
0.0
 40
0.0
 40
0.0
 40
0.0088170331
 40
0.0176176357
 40
0.026321649
 40
0.0349178208
 40
0.0434103093
 40
0.0517904178
 40
0.068277085
 40
0.0764088309
 40
0.084479612
 40
0.0924981171
 40
0.1004690231
 40
0.116295687
 40
0.1320026239
 40
0.1476190974
 40
0.1631644076
 40
0.1786549065
 40
0.1941009145
 40
0.209511996
 40
0.2248943402
 40
0.2555918782
 40
0.2862268037
 40
0.3168191629
 40
0.3473823872
 40
0.3779253872
 40
0.4389721021
 40
0.4999972103
 40
0.5610223558
 40
0.5915428272
 40
0.6220723499
 40
0.6526154073
 40
0.6831786163
 40
0.7137712159
 40
0.7444062346
 40
0.7751037719
 40
0.8058943596
 40
0.8213406831
 40
0.8368311273
 40
0.8523767862
 40
0.8679932761
 40
0.8837009674
 40
0.8995277214
 40
0.9074992278
 40
0.9155180477
 40
0.9317149684
 40
0.9482014845
 40
0.956583265
 40
0.965078713
 40
0.973676084
 40
0.9823814597
 40
0.9911828731
 40
1.0
 40
1.0
 40
1.0
 40
1.0
 10
5.3732285707
 20
2.8262836939
 30
0.0
 10
5.3732285707
 20
2.8253016296
 30
0.0
 10
5.3730956053
 20
2.8233373315
 30
0.0
 10
5.37253567
 20
2.8204525137
 30
0.0
 10
5.3716402087
 20
2.8176795393
 30
0.0
 10
5.3704565251
 20
2.8150561883
 30
0.0
 10
5.3690413581
 20
2.8125929413
 30
0.0
 10
5.3669170751
 20
2.8095399439
 30
0.0
 10
5.3644752928
 20
2.806774593
 30
0.0
 10
5.3618317166
 20
2.8042695327
 30
0.0
 10
5.359775144
 20
2.8025213903
 30
0.0
 10
5.3576518317
 20
2.8008849518
 30
0.0
 10
5.3547554789
 20
2.7988415031
 30
0.0
 10
5.3510145099
 20
2.7965172193
 30
0.0
 10
5.3463839489
 20
2.7940336959
 30
0.0
 10
5.3416538446
 20
2.7918197776
 30
0.0
 10
5.3368497099
 20
2.7898353843
 30
0.0
 10
5.331987143
 20
2.7880542971
 30
0.0
 10
5.3270796476
 20
2.7864494193
 30
0.0
 10
5.3221357434
 20
2.7850033912
 30
0.0
 10
5.3155106175
 20
2.783263685
 30
0.0
 10
5.3071671583
 20
2.7814049172
 30
0.0
 10
5.2970883805
 20
2.7795890316
 30
0.0
 10
5.2869684292
 20
2.7781229159
 30
0.0
 10
5.2768204158
 20
2.7769558093
 30
0.0
 10
5.2632674395
 20
2.7757459552
 30
0.0
 10
5.246289472
 20
2.7748056159
 30
0.0
 10
5.2258949024
 20
2.7744443218
 30
0.0
 10
5.2088996756
 20
2.7747446598
 30
0.0
 10
5.1953162893
 20
2.7753702704
 30
0.0
 10
5.1851361161
 20
2.7760475826
 30
0.0
 10
5.1749689758
 20
2.7769554842
 30
0.0
 10
5.1648209474
 20
2.7781225878
 30
0.0
 10
5.1547009449
 20
2.7795882586
 30
0.0
 10
5.1446219088
 20
2.7814041075
 30
0.0
 10
5.1346035104
 20
2.7836365982
 30
0.0
 10
5.1263379419
 20
2.7859163709
 30
0.0
 10
5.1198017832
 20
2.7880529034
 30
0.0
 10
5.1149392384
 20
2.7898343101
 30
0.0
 10
5.1101348651
 20
2.7918182087
 30
0.0
 10
5.1054047814
 20
2.7940324486
 30
0.0
 10
5.1007737308
 20
2.796515286
 30
0.0
 10
5.0970328628
 20
2.7988400081
 30
0.0
 10
5.0941361758
 20
2.8008832354
 30
0.0
 10
5.0912954344
 20
2.8030718616
 30
0.0
 10
5.0879082871
 20
2.8060975538
 30
0.0
 10
5.0848700861
 20
2.8095377057
 30
0.0
 10
5.0827455689
 20
2.8125913454
 30
0.0
 10
5.0813297013
 20
2.8150548908
 30
0.0
 10
5.0801456508
 20
2.8176787854
 30
0.0
 10
5.0792503171
 20
2.8204521912
 30
0.0
 10
5.0786902094
 20
2.8233372201
 30
0.0
 10
5.0785571435
 20
2.8253016191
 30
0.0
 10
5.0785571435
 20
2.8262836939
 30
0.0
  0
SPLINE
  5
338
100
AcDbEntity
  8
ALL_ASSEMBLY_MEMBERS
100
AcDbSpline
 62
7
  6
CONTINUOUS
 70
0
 71
3
 72
14
 73
10
 74
0
 42
0.0000001
 43
0.0000001
 44
0.0000000001
 40
0.0
 40
0.0
 40
0.0
 40
0.0
 40
0.1026262965
 40
0.1868377222
 40
0.2966556407
 40
0.4328704874
 40
0.5956998788
 40
0.7849933612
 40
1.0
 40
1.0
 40
1.0
 40
1.0
 10
4.9178653041
 20
2.8888998447
 30
0.0
 10
4.9179151789
 20
2.8888998447
 30
0.0
 10
4.9179908612
 20
2.8888213328
 30
0.0
 10
4.9180554369
 20
2.888698091
 30
0.0
 10
4.9181154584
 20
2.888547034
 30
0.0
 10
4.9181729364
 20
2.888357367
 30
0.0
 10
4.9182300492
 20
2.8881267065
 30
0.0
 10
4.9182854292
 20
2.8878567334
 30
0.0
 10
4.9183191996
 20
2.8876631284
 30
0.0
 10
4.9183360026
 20
2.8875599985
 30
0.0
  0
SPLINE
  5
339
100
AcDbEntity
  8
ALL_ASSEMBLY_MEMBERS
100
AcDbSpline
 62
7
  6
CONTINUOUS
 70
0
 71
3
 72
12
 73
8
 74
0
 42
0.0000001
 43
0.0000001
 44
0.0000000001
 40
0.0
 40
0.0
 40
0.0
 40
0.0
 40
0.0845646424
 40
0.1844167916
 40
0.4235679283
 40
0.7020914844
 40
1.0
 40
1.0
 40
1.0
 40
1.0
 10
4.9183360026
 20
2.8875599985
 30
0.0
 10
4.9183753471
 20
2.8873185171
 30
0.0
 10
4.9184478975
 20
2.8867897429
 30
0.0
 10
4.9185762552
 20
2.8855708872
 30
0.0
 10
4.9186980797
 20
2.8837878436
 30
0.0
 10
4.9187866058
 20
2.8814296155
 30
0.0
 10
4.9188067142
 20
2.8797617647
 30
0.0
 10
4.9188067142
 20
2.8788998447
 30
0.0
  0
LINE
  5
33A
100
AcDbEntity
  8
ALL_ASSEMBLY_MEMBERS
100
AcDbLine
 62
7
  6
CONTINUOUS
 10
4.9178653041
 20
2.8888998447
 11
4.9157086116
 21
2.889045446
  0
SPLINE
  5
33B
100
AcDbEntity
  8
ALL_ASSEMBLY_MEMBERS
100
AcDbSpline
 62
7
  6
CONTINUOUS
 70
0
 71
3
 72
18
 73
14
 74
0
 42
0.0000001
 43
0.0000001
 44
0.0000000001
 40
0.0
 40
0.0
 40
0.0
 40
0.0
 40
0.1219040138
 40
0.1818590639
 40
0.2414411789
 40
0.3009338277
 40
0.3605999397
 40
0.4206869127
 40
0.481419908
 40
0.6054054488
 40
0.733327623
 40
0.8651601674
 40
1.0
 40
1.0
 40
1.0
 40
1.0
 10
4.9157086116
 20
2.889045446
 30
0.0
 10
4.9145372846
 20
2.8891986908
 30
0.0
 10
4.9128106596
 20
2.8895939684
 30
0.0
 10
4.910583001
 20
2.8903083566
 30
0.0
 10
4.9089523618
 20
2.8909021611
 30
0.0
 10
4.907340679
 20
2.8915367841
 30
0.0
 10
4.9057330435
 20
2.8921945996
 30
0.0
 10
4.904118493
 20
2.8928670697
 30
0.0
 10
4.9019274546
 20
2.893776499
 30
0.0
 10
4.8991211922
 20
2.8949185544
 30
0.0
 10
4.8956529528
 20
2.8962604502
 30
0.0
 10
4.8920699194
 20
2.8975961073
 30
0.0
 10
4.889637119
 20
2.8984678873
 30
0.0
 10
4.8884039191
 20
2.8988998447
 30
0.0
  0
SPLINE
  5
33C
100
AcDbEntity
  8
ALL_FEATURES
100
AcDbSpline
 62
7
  6
CONTINUOUS
 70
0
 71
3
 72
36
 73
32
 74
0
 42
0.0000001
 43
0.0000001
 44
0.0000000001
 40
0.0
 40
0.0
 40
0.0
 40
0.0
 40
0.1900764076
 40
0.2829482227
 40
0.3735328143
 40
0.4611444135
 40
0.5449651222
 40
0.6241365563
 40
0.6977881763
 40
0.7650868036
 40
0.8251965386
 40
0.8522897409
 40
0.8772923579
 40
0.9001427519
 40
0.9207786748
 40
0.9391368931
 40
0.9551532704
 40
0.9687704055
 40
0.9746698717
 40
0.9799596516
 40
0.9846370196
 40
0.9886992393
 40
0.992143563
 40
0.9949672325
 40
0.997167479
 40
0.9980329506
 40
0.9987415235
 40
0.9992928489
 40
0.9996865777
 40
0.9999223619
 40
1.0
 40
1.0
 40
1.0
 40
1.0
 10
4.5165125898
 20
6.119424835
 30
0.0
 10
4.5177655728
 20
6.1181043175
 30
0.0
 10
4.5197008683
 20
6.1162035007
 30
0.0
 10
4.5223765312
 20
6.1138283967
 30
0.0
 10
4.5243752961
 20
6.1121709496
 30
0.0
 10
4.5263601066
 20
6.1106348815
 30
0.0
 10
4.5283033714
 20
6.1092257442
 30
0.0
 10
4.5301771524
 20
6.1079502972
 30
0.0
 10
4.5319541804
 20
6.1068156122
 30
0.0
 10
4.5336046442
 20
6.1058233791
 30
0.0
 10
4.5348909164
 20
6.105091721
 30
0.0
 10
4.5358337292
 20
6.104576073
 30
0.0
 10
4.5364669343
 20
6.1042380632
 30
0.0
 10
4.5370484963
 20
6.1039347009
 30
0.0
 10
4.5375760199
 20
6.1036653862
 30
0.0
 10
4.5380471124
 20
6.1034295176
 30
0.0
 10
4.538459457
 20
6.1032264835
 30
0.0
 10
4.5387654794
 20
6.103077637
 30
0.0
 10
4.5389795013
 20
6.1029745112
 30
0.0
 10
4.5391165466
 20
6.1029088699
 30
0.0
 10
4.5392378581
 20
6.1028511078
 30
0.0
 10
4.539343318
 20
6.1028011814
 30
0.0
 10
4.5394328452
 20
6.102759047
 30
0.0
 10
4.5395062532
 20
6.1027246618
 30
0.0
 10
4.5395574788
 20
6.1027008461
 30
0.0
 10
4.5395901173
 20
6.1026856293
 30
0.0
 10
4.5396088967
 20
6.1026770679
 30
0.0
 10
4.5396224652
 20
6.1026704245
 30
0.0
 10
4.539634543
 20
6.1026656508
 30
0.0
 10
4.5396375087
 20
6.1026628328
 30
0.0
 10
4.5396434877
 20
6.1026615137
 30
0.0
 10
4.5396428187
 20
6.1026611892
 30
0.0
  0
SPLINE
  5
33D
100
AcDbEntity
  8
ALL_FEATURES
100
AcDbSpline
 62
7
  6
CONTINUOUS
 70
0
 71
3
 72
18
 73
14
 74
0
 42
0.0000001
 43
0.0000001
 44
0.0000000001
 40
0.0
 40
0.0
 40
0.0
 40
0.0
 40
0.1858137224
 40
0.3620778505
 40
0.5248353941
 40
0.6698736175
 40
0.7927882684
 40
0.84472831
 40
0.8898439771
 40
0.9278408751
 40
0.9585745704
 40
0.9823230451
 40
1.0
 40
1.0
 40
1.0
 40
1.0
 10
4.5477145423
 20
6.119424835
 30
0.0
 10
4.5485743686
 20
6.118393177
 30
0.0
 10
4.5502863289
 20
6.1164130893
 30
0.0
 10
4.5528535691
 20
6.1136198774
 30
0.0
 10
4.5552886208
 20
6.1111073181
 30
0.0
 10
4.5574930747
 20
6.1089093202
 30
0.0
 10
4.5591343641
 20
6.107280768
 30
0.0
 10
4.5602414075
 20
6.1061395809
 30
0.0
 10
4.5609032189
 20
6.1054217934
 30
0.0
 10
4.5614346294
 20
6.1047932461
 30
0.0
 10
4.5618268498
 20
6.1042501571
 30
0.0
 10
4.5620771291
 20
6.1037916276
 30
0.0
 10
4.5621561573
 20
6.1034948299
 30
0.0
 10
4.5621564536
 20
6.1033670681
 30
0.0
  0
SPLINE
  5
33E
100
AcDbEntity
  8
ALL_FEATURES
100
AcDbSpline
 62
7
  6
CONTINUOUS
 70
0
 71
3
 72
14
 73
10
 74
0
 42
0.0000001
 43
0.0000001
 44
0.0000000001
 40
0.0
 40
0.0
 40
0.0
 40
0.0
 40
0.3288502435
 40
0.4777090225
 40
0.6135257276
 40
0.7345732021
 40
0.8394890669
 40
0.9275821933
 40
1.0
 40
1.0
 40
1.0
 40
1.0
 10
4.620217778
 20
6.119424835
 30
0.0
 10
4.6211414973
 20
6.1179734543
 30
0.0
 10
4.622497236
 20
6.1158739211
 30
0.0
 10
4.6242005849
 20
6.1131534068
 30
0.0
 10
4.6252908867
 20
6.111331944
 30
0.0
 10
4.6262030772
 20
6.1096729767
 30
0.0
 10
4.6269034748
 20
6.108184382
 30
0.0
 10
4.6273601278
 20
6.1068700781
 30
0.0
 10
4.6274935824
 20
6.1060314716
 30
0.0
 10
4.6274939785
 20
6.1056526145
 30
0.0
  0
SPLINE
  5
33F
100
AcDbEntity
  8
ALL_FEATURES
100
AcDbSpline
 62
7
  6
CONTINUOUS
 70
0
 71
3
 72
11
 73
7
 74
0
 42
0.0000001
 43
0.0000001
 44
0.0000000001
 40
0.0
 40
0.0
 40
0.0
 40
0.0
 40
0.2872294686
 40
0.5513707964
 40
0.7893083072
 40
1.0
 40
1.0
 40
1.0
 40
1.0
 10
4.7269251751
 20
6.119424835
 30
0.0
 10
4.7272555696
 20
6.1185487893
 30
0.0
 10
4.7278657328
 20
6.1168577656
 30
0.0
 10
4.7286169411
 20
6.1143950459
 30
0.0
 10
4.7291189561
 20
6.112123672
 30
0.0
 10
4.7292604242
 20
6.1106611802
 30
0.0
 10
4.7292605674
 20
6.1099743913
 30
0.0
  0
SPLINE
  5
340
100
AcDbEntity
  8
ALL_FEATURES
100
AcDbSpline
 62
7
  6
CONTINUOUS
 70
0
 71
3
 72
9
 73
5
 74
0
 42
0.0000001
 43
0.0000001
 44
0.0000000001
 40
0.0
 40
0.0
 40
0.0
 40
0.0
 40
0.2567159183
 40
1.0
 40
1.0
 40
1.0
 40
1.0
 10
4.6151285973
 20
6.126610191
 30
0.0
 10
4.615591847
 20
6.1260157617
 30
0.0
 10
4.6173707649
 20
6.1236805088
 30
0.0
 10
4.6190462107
 20
6.1212656434
 30
0.0
 10
4.620217778
 20
6.119424835
 30
0.0
  0
SPLINE
  5
341
100
AcDbEntity
  8
ALL_FEATURES
100
AcDbSpline
 62
7
  6
CONTINUOUS
 70
0
 71
3
 72
9
 73
5
 74
0
 42
0.0000001
 43
0.0000001
 44
0.0000000001
 40
0.0
 40
0.0
 40
0.0
 40
0.0
 40
0.2574020751
 40
1.0
 40
1.0
 40
1.0
 40
1.0
 10
4.7235321509
 20
6.126610191
 30
0.0
 10
4.7238682583
 20
6.1260165799
 30
0.0
 10
4.7251330424
 20
6.1236876811
 30
0.0
 10
4.7262307012
 20
6.1212662423
 30
0.0
 10
4.7269251751
 20
6.119424835
 30
0.0
  0
SPLINE
  5
342
100
AcDbEntity
  8
ALL_FEATURES
100
AcDbSpline
 62
7
  6
CONTINUOUS
 70
0
 71
3
 72
9
 73
5
 74
0
 42
0.0000001
 43
0.0000001
 44
0.0000000001
 40
0.0
 40
0.0
 40
0.0
 40
0.0
 40
0.2545257145
 40
1.0
 40
1.0
 40
1.0
 40
1.0
 10
4.8560267352
 20
6.126610191
 30
0.0
 10
4.8562039475
 20
6.1260148659
 30
0.0
 10
4.8568425176
 20
6.123659323
 30
0.0
 10
4.8572447239
 20
6.121238152
 30
0.0
 10
4.85739147
 20
6.119424835
 30
0.0
  0
SPLINE
  5
343
100
AcDbEntity
  8
ALL_FEATURES
100
AcDbSpline
 62
7
  6
CONTINUOUS
 70
0
 71
3
 72
9
 73
5
 74
0
 42
0.0000001
 43
0.0000001
 44
0.0000000001
 40
0.0
 40
0.0
 40
0.0
 40
0.0
 40
0.2460671081
 40
1.0
 40
1.0
 40
1.0
 40
1.0
 10
5.0818942443
 20
6.119424835
 30
0.0
 10
5.0819426839
 20
6.1200233944
 30
0.0
 10
5.0822069427
 20
6.1224501701
 30
0.0
 10
5.0827340416
 20
6.124846722
 30
0.0
 10
5.0832589791
 20
6.126610191
 30
0.0
  0
SPLINE
  5
344
100
AcDbEntity
  8
ALL_FEATURES
100
AcDbSpline
 62
7
  6
CONTINUOUS
 70
0
 71
3
 72
9
 73
5
 74
0
 42
0.0000001
 43
0.0000001
 44
0.0000000001
 40
0.0
 40
0.0
 40
0.0
 40
0.0
 40
0.2427214298
 40
1.0
 40
1.0
 40
1.0
 40
1.0
 10
5.2123605392
 20
6.119424835
 30
0.0
 10
5.2125875367
 20
6.1200267222
 30
0.0
 10
5.213575889
 20
6.1224862894
 30
0.0
 10
5.2147647086
 20
6.1248637397
 30
0.0
 10
5.2157535634
 20
6.126610191
 30
0.0
  0
SPLINE
  5
345
100
AcDbEntity
  8
ALL_FEATURES
100
AcDbSpline
 62
7
  6
CONTINUOUS
 70
0
 71
3
 72
9
 73
5
 74
0
 42
0.0000001
 43
0.0000001
 44
0.0000000001
 40
0.0
 40
0.0
 40
0.0
 40
0.0
 40
0.2430643205
 40
1.0
 40
1.0
 40
1.0
 40
1.0
 10
5.3190679362
 20
6.119424835
 30
0.0
 10
5.3194510586
 20
6.1200268105
 30
0.0
 10
5.3210598605
 20
6.1224826102
 30
0.0
 10
5.3227911973
 20
6.1248574805
 30
0.0
 10
5.324157117
 20
6.126610191
 30
0.0
  0
SPLINE
  5
346
100
AcDbEntity
  8
ALL_FEATURES
100
AcDbSpline
 62
7
  6
CONTINUOUS
 70
0
 71
3
 72
19
 73
15
 74
0
 42
0.0000001
 43
0.0000001
 44
0.0000000001
 40
0.0
 40
0.0
 40
0.0
 40
0.0
 40
0.0176817952
 40
0.0414352636
 40
0.0721672172
 40
0.1101627645
 40
0.1552857614
 40
0.2072335449
 40
0.2656547139
 40
0.3301434063
 40
0.4751751453
 40
0.6379276464
 40
0.8141851231
 40
1.0
 40
1.0
 40
1.0
 40
1.0
 10
5.3771292317
 20
6.1033670857
 30
0.0
 10
5.3771295468
 20
6.1034948822
 30
0.0
 10
5.3772087006
 20
6.1037917283
 30
0.0
 10
5.3774590873
 20
6.1042502494
 30
0.0
 10
5.3778512314
 20
6.104793406
 30
0.0
 10
5.3783825757
 20
6.1054220525
 30
0.0
 10
5.3790445194
 20
6.106139852
 30
0.0
 10
5.3798269427
 20
6.1069466411
 30
0.0
 10
5.3807185548
 20
6.1078423356
 30
0.0
 10
5.3820915679
 20
6.1092080356
 30
0.0
 10
5.3839973754
 20
6.1111074078
 30
0.0
 10
5.386432238
 20
6.1136199505
 30
0.0
 10
5.3889994624
 20
6.1164130705
 30
0.0
 10
5.3907113413
 20
6.1183931717
 30
0.0
 10
5.391571172
 20
6.119424835
 30
0.0
  0
SPLINE
  5
347
100
AcDbEntity
  8
ALL_FEATURES
100
AcDbSpline
 62
7
  6
CONTINUOUS
 70
0
 71
3
 72
9
 73
5
 74
0
 42
0.0000001
 43
0.0000001
 44
0.0000000001
 40
0.0
 40
0.0
 40
0.0
 40
0.0
 40
0.472065057
 40
1.0
 40
1.0
 40
1.0
 40
1.0
 10
5.319116297
 20
6.1195058925
 30
0.0
 10
5.3199395873
 20
6.119572453
 30
0.0
 10
5.3216764778
 20
6.1198057971
 30
0.0
 10
5.3233877609
 20
6.1201790296
 30
0.0
 10
5.3242827577
 20
6.1204076393
 30
0.0
  0
SPLINE
  5
348
100
AcDbEntity
  8
ALL_FEATURES
100
AcDbSpline
 62
7
  6
CONTINUOUS
 70
0
 71
3
 72
11
 73
7
 74
0
 42
0.0000001
 43
0.0000001
 44
0.0000000001
 40
0.0
 40
0.0
 40
0.0
 40
0.0
 40
0.2348582917
 40
0.4838263225
 40
0.7406305485
 40
1.0
 40
1.0
 40
1.0
 40
1.0
 10
5.3263531625
 20
6.1209966511
 30
0.0
 10
5.3277079218
 20
6.1214210598
 30
0.0
 10
5.3304556082
 20
6.1224387648
 30
0.0
 10
5.3344883325
 20
6.1244004361
 30
0.0
 10
5.3384186491
 20
6.1268546173
 30
0.0
 10
5.3408795936
 20
6.1287846968
 30
0.0
 10
5.3420571466
 20
6.129819837
 30
0.0
  0
SPLINE
  5
349
100
AcDbEntity
  8
ALL_FEATURES
100
AcDbSpline
 62
7
  6
CONTINUOUS
 70
0
 71
3
 72
14
 73
10
 74
0
 42
0.0000001
 43
0.0000001
 44
0.0000000001
 40
0.0
 40
0.0
 40
0.0
 40
0.0
 40
0.0724455302
 40
0.1605438549
 40
0.2654706968
 40
0.3865355542
 40
0.522347003
 40
0.6711797565
 40
1.0
 40
1.0
 40
1.0
 40
1.0
 10
5.3117916979
 20
6.1056526943
 30
0.0
 10
5.311792167
 20
6.106031694
 30
0.0
 10
5.3119259186
 20
6.1068704163
 30
0.0
 10
5.3123824599
 20
6.108184968
 30
0.0
 10
5.3130828759
 20
6.1096737523
 30
0.0
 10
5.3139951742
 20
6.1113327844
 30
0.0
 10
5.3150856978
 20
6.1131540153
 30
0.0
 10
5.3167889006
 20
6.1158742156
 30
0.0
 10
5.3181443071
 20
6.1179735958
 30
0.0
 10
5.3190679362
 20
6.119424835
 30
0.0
  0
LINE
  5
34A
100
AcDbEntity
  8
ALL_FEATURES
100
AcDbLine
 62
7
  6
CONTINUOUS
 10
5.2132552608
 20
6.121639685
 11
5.2142679174
 21
6.1210144735
  0
LINE
  5
34B
100
AcDbEntity
  8
ALL_FEATURES
100
AcDbLine
 62
7
  6
CONTINUOUS
 10
5.2142679174
 20
6.1210144735
 11
5.2170738844
 21
6.1199923585
  0
SPLINE
  5
34C
100
AcDbEntity
  8
ALL_FEATURES
100
AcDbSpline
 62
7
  6
CONTINUOUS
 70
0
 71
3
 72
19
 73
15
 74
0
 42
0.0000001
 43
0.0000001
 44
0.0000000001
 40
0.0
 40
0.0
 40
0.0
 40
0.0
 40
0.046516249
 40
0.0965699451
 40
0.150060205
 40
0.2067907015
 40
0.3285319
 40
0.4586967252
 40
0.5936742327
 40
0.6619731896
 40
0.7303498051
 40
0.7985196805
 40
0.866288357
 40
1.0
 40
1.0
 40
1.0
 40
1.0
 10
5.2170738844
 20
6.1199923585
 30
0.0
 10
5.2176025392
 20
6.1198654649
 30
0.0
 10
5.218713949
 20
6.119658303
 30
0.0
 10
5.2204601786
 20
6.119479453
 30
0.0
 10
5.2223338194
 20
6.1194188666
 30
0.0
 10
5.2250451704
 20
6.119495333
 30
0.0
 10
5.2286369026
 20
6.1199010792
 30
0.0
 10
5.2330645799
 20
6.1208522416
 30
0.0
 10
5.2367786016
 20
6.1220604886
 30
0.0
 10
5.2397062085
 20
6.1232930451
 30
0.0
 10
5.241856239
 20
6.1243496837
 30
0.0
 10
5.2439311229
 20
6.1255353534
 30
0.0
 10
5.2465625764
 20
6.1272721993
 30
0.0
 10
5.2484015329
 20
6.1287574186
 30
0.0
 10
5.2495476473
 20
6.129819837
 30
0.0
  0
SPLINE
  5
34D
100
AcDbEntity
  8
ALL_FEATURES
100
AcDbSpline
 62
7
  6
CONTINUOUS
 70
0
 71
3
 72
11
 73
7
 74
0
 42
0.0000001
 43
0.0000001
 44
0.0000000001
 40
0.0
 40
0.0
 40
0.0
 40
0.0
 40
0.2106914412
 40
0.4486196747
 40
0.712758721
 40
1.0
 40
1.0
 40
1.0
 40
1.0
 10
5.2100250444
 20
6.1099743088
 30
0.0
 10
5.2100252191
 20
6.1106611027
 30
0.0
 10
5.2101667931
 20
6.1121235642
 30
0.0
 10
5.2106687841
 20
6.1143949187
 30
0.0
 10
5.211419967
 20
6.1168576718
 30
0.0
 10
5.2120301283
 20
6.1185487457
 30
0.0
 10
5.2123605392
 20
6.119424835
 30
0.0
  0
LINE
  5
34E
100
AcDbEntity
  8
ALL_FEATURES
100
AcDbLine
 62
7
  6
CONTINUOUS
 10
5.4006728883
 20
6.1031519858
 11
5.3996428956
 21
6.1026611892
  0
SPLINE
  5
34F
100
AcDbEntity
  8
ALL_FEATURES
100
AcDbSpline
 62
7
  6
CONTINUOUS
 70
0
 71
3
 72
11
 73
7
 74
0
 42
0.0000001
 43
0.0000001
 44
0.0000000001
 40
0.0
 40
0.0
 40
0.0
 40
0.0
 40
0.2452511601
 40
0.4921775843
 40
0.7430481284
 40
1.0
 40
1.0
 40
1.0
 40
1.0
 10
4.7356913015
 20
6.2277752039
 30
0.0
 10
4.7356909755
 20
6.2287616584
 30
0.0
 10
4.7358243207
 20
6.2307440257
 30
0.0
 10
4.7364322478
 20
6.2336794475
 30
0.0
 10
4.7374532836
 20
6.2365485663
 30
0.0
 10
4.7384129913
 20
6.2383615876
 30
0.0
 10
4.7389623691
 20
6.2392369973
 30
0.0
  0
SPLINE
  5
350
100
AcDbEntity
  8
ALL_FEATURES
100
AcDbSpline
 62
7
  6
CONTINUOUS
 70
0
 71
3
 72
28
 73
24
 74
0
 42
0.0000001
 43
0.0000001
 44
0.0000000001
 40
0.0
 40
0.0
 40
0.0
 40
0.0
 40
0.0512446559
 40
0.1051443362
 40
0.1334205383
 40
0.162705918
 40
0.1931632794
 40
0.2248320747
 40
0.2576906741
 40
0.2917178748
 40
0.3267161826
 40
0.3624124175
 40
0.3985644955
 40
0.4349185606
 40
0.4711889059
 40
0.5072340771
 40
0.5781325196
 40
0.646927534
 40
0.7767329351
 40
0.8373844325
 40
0.8949284961
 40
0.9492035059
 40
1.0
 40
1.0
 40
1.0
 40
1.0
 10
4.7389623691
 20
6.2392369973
 30
0.0
 10
4.7396042874
 20
6.2402598663
 30
0.0
 10
4.7411057411
 20
6.2422493541
 30
0.0
 10
4.7434457896
 20
6.2443797784
 30
0.0
 10
4.7456286548
 20
6.2458476554
 30
0.0
 10
4.7474646479
 20
6.246821558
 30
0.0
 10
4.7494695541
 20
6.2476208549
 30
0.0
 10
4.7516301067
 20
6.2482222698
 30
0.0
 10
4.7539263956
 20
6.2486002722
 30
0.0
 10
4.7563283312
 20
6.248729276
 30
0.0
 10
4.7587974203
 20
6.2486152201
 30
0.0
 10
4.76129352
 20
6.2482575503
 30
0.0
 10
4.7637782526
 20
6.2476718324
 30
0.0
 10
4.7662215657
 20
6.2468886317
 30
0.0
 10
4.768599251
 20
6.2459318538
 30
0.0
 10
4.7716424668
 20
6.2444684973
 30
0.0
 10
4.7752124749
 20
6.2423511957
 30
0.0
 10
4.7803338948
 20
6.2385844815
 30
0.0
 10
4.7847867421
 20
6.2343549678
 30
0.0
 10
4.7885236692
 20
6.2298559
 30
0.0
 10
4.7908604316
 20
6.2265241006
 30
0.0
 10
4.7927808679
 20
6.2232021808
 30
0.0
 10
4.7938003214
 20
6.2209390286
 30
0.0
 10
4.7942233363
 20
6.219819215
 30
0.0
  0
SPLINE
  5
351
100
AcDbEntity
  8
ALL_FEATURES
100
AcDbSpline
 62
7
  6
CONTINUOUS
 70
0
 71
3
 72
9
 73
5
 74
0
 42
0.0000001
 43
0.0000001
 44
0.0000000001
 40
0.0
 40
0.0
 40
0.0
 40
0.0
 40
0.2453223844
 40
1.0
 40
1.0
 40
1.0
 40
1.0
 10
4.5547093235
 20
6.2447239805
 30
0.0
 10
4.5549017877
 20
6.2442974606
 30
0.0
 10
4.5557183234
 20
6.242573422
 30
0.0
 10
4.5566611429
 20
6.240909575
 30
0.0
 10
4.5574340808
 20
6.2396952044
 30
0.0
  0
LINE
  5
352
100
AcDbEntity
  8
ALL_FEATURES
100
AcDbLine
 62
7
  6
CONTINUOUS
 10
4.5517041898
 20
6.235644601
 11
4.5520742588
 21
6.2392369973
  0
SPLINE
  5
353
100
AcDbEntity
  8
ALL_FEATURES
100
AcDbSpline
 62
7
  6
CONTINUOUS
 70
0
 71
3
 72
10
 73
6
 74
0
 42
0.0000001
 43
0.0000001
 44
0.0000000001
 40
0.0
 40
0.0
 40
0.0
 40
0.0
 40
0.4994457416
 40
0.7483531376
 40
1.0
 40
1.0
 40
1.0
 40
1.0
 10
4.5520742588
 20
6.2392369973
 30
0.0
 10
4.5523071297
 20
6.2403136689
 30
0.0
 10
4.5528351078
 20
6.2419006714
 30
0.0
 10
4.5539405613
 20
6.2438154956
 30
0.0
 10
4.5546282084
 20
6.244685863
 30
0.0
 10
4.5550051122
 20
6.2450932923
 30
0.0
  0
SPLINE
  5
354
100
AcDbEntity
  8
ALL_FEATURES
100
AcDbSpline
 62
7
  6
CONTINUOUS
 70
0
 71
3
 72
26
 73
22
 74
0
 42
0.0000001
 43
0.0000001
 44
0.0000000001
 40
0.0
 40
0.0
 40
0.0
 40
0.0
 40
0.0216696436
 40
0.0439557114
 40
0.0671419836
 40
0.0914509815
 40
0.11707138
 40
0.1442014802
 40
0.1729076823
 40
0.2031116838
 40
0.2674173743
 40
0.3356015247
 40
0.4059013694
 40
0.4770020235
 40
0.5479757557
 40
0.6181741357
 40
0.6871178325
 40
0.7544115109
 40
0.8826363214
 40
0.9428989172
 40
1.0
 40
1.0
 40
1.0
 40
1.0
 10
4.5550051122
 20
6.2450932923
 30
0.0
 10
4.5553107862
 20
6.2454237229
 30
0.0
 10
4.5559739677
 20
6.2460555809
 30
0.0
 10
4.5571040529
 20
6.2468797266
 30
0.0
 10
4.5583829264
 20
6.2475713087
 30
0.0
 10
4.5598056491
 20
6.2481146434
 30
0.0
 10
4.5613650522
 20
6.2484940852
 30
0.0
 10
4.5630495893
 20
6.2486904792
 30
0.0
 10
4.5648399778
 20
6.2487017687
 30
0.0
 10
4.5673925401
 20
6.2484704156
 30
0.0
 10
4.570701304
 20
6.2477103822
 30
0.0
 10
4.5746573174
 20
6.2462394213
 30
0.0
 10
4.5785679309
 20
6.2443124552
 30
0.0
 10
4.5823642682
 20
6.2420585021
 30
0.0
 10
4.5860062842
 20
6.2395683378
 30
0.0
 10
4.5894756493
 20
6.2369171789
 30
0.0
 10
4.5927581871
 20
6.2341555135
 30
0.0
 10
4.5968081695
 20
6.2304422802
 30
0.0
 10
4.6005066073
 20
6.2266169682
 30
0.0
 10
4.6038018434
 20
6.2227207479
 30
0.0
 10
4.6052829666
 20
6.2207824755
 30
0.0
 10
4.6059751005
 20
6.219819215
 30
0.0
  0
SPLINE
  5
355
100
AcDbEntity
  8
ALL_FEATURES
100
AcDbSpline
 62
7
  6
CONTINUOUS
 70
0
 71
3
 72
9
 73
5
 74
0
 42
0.0000001
 43
0.0000001
 44
0.0000000001
 40
0.0
 40
0.0
 40
0.0
 40
0.0
 40
0.4878152221
 40
1.0
 40
1.0
 40
1.0
 40
1.0
 10
4.4114554799
 20
6.2486789431
 30
0.0
 10
4.4123912522
 20
6.2471241563
 30
0.0
 10
4.4144653801
 20
6.2440289461
 30
0.0
 10
4.4168025597
 20
6.2411283574
 30
0.0
 10
4.4180580833
 20
6.2396952044
 30
0.0
  0
SPLINE
  5
356
100
AcDbEntity
  8
ALL_FEATURES
100
AcDbSpline
 62
7
  6
CONTINUOUS
 70
0
 71
3
 72
28
 73
24
 74
0
 42
0.0000001
 43
0.0000001
 44
0.0000000001
 40
0.0
 40
0.0
 40
0.0
 40
0.0
 40
0.019995851
 40
0.0388910951
 40
0.0568137168
 40
0.0740483479
 40
0.0911178031
 40
0.1086954793
 40
0.1275079152
 40
0.148276773
 40
0.1714478852
 40
0.1971712803
 40
0.2254304031
 40
0.2560085466
 40
0.2885657601
 40
0.3227498074
 40
0.3948690438
 40
0.4702229911
 40
0.5473779432
 40
0.6252145425
 40
0.7029520726
 40
0.8554893245
 40
1.0
 40
1.0
 40
1.0
 40
1.0
 10
4.4056910995
 20
6.2424182953
 30
0.0
 10
4.4056911914
 20
6.2428268393
 30
0.0
 10
4.4057333715
 20
6.2436224665
 30
0.0
 10
4.4059449222
 20
6.2447676758
 30
0.0
 10
4.4063154041
 20
6.2458139321
 30
0.0
 10
4.4068602635
 20
6.2467404058
 30
0.0
 10
4.4075937677
 20
6.2475189295
 30
0.0
 10
4.4085164337
 20
6.2481218757
 30
0.0
 10
4.4096219297
 20
6.2485265999
 30
0.0
 10
4.4108983316
 20
6.2487109488
 30
0.0
 10
4.4123262801
 20
6.2486801815
 30
0.0
 10
4.4138879909
 20
6.2484400319
 30
0.0
 10
4.4155599835
 20
6.2479947749
 30
0.0
 10
4.4173204465
 20
6.2473673616
 30
0.0
 10
4.4191467896
 20
6.2465781922
 30
0.0
 10
4.4216877332
 20
6.2453137289
 30
0.0
 10
4.4248977936
 20
6.2434432957
 30
0.0
 10
4.4287228642
 20
6.2409042231
 30
0.0
 10
4.4325271622
 20
6.2381315652
 30
0.0
 10
4.4362760296
 20
6.2352054163
 30
0.0
 10
4.4411311943
 20
6.2311974117
 30
0.0
 10
4.4468687924
 20
6.2261228758
 30
0.0
 10
4.4512490268
 20
6.2219185316
 30
0.0
 10
4.4533251984
 20
6.219819215
 30
0.0
  0
LINE
  5
357
100
AcDbEntity
  8
ALL_FEATURES
100
AcDbLine
 62
7
  6
CONTINUOUS
 10
5.5880696481
 20
6.219819215
 11
5.6109616862
 21
6.2392369973
  0
SPLINE
  5
358
100
AcDbEntity
  8
ALL_FEATURES
100
AcDbSpline
 62
7
  6
CONTINUOUS
 70
0
 71
3
 72
22
 73
18
 74
0
 42
0.0000001
 43
0.0000001
 44
0.0000000001
 40
0.0
 40
0.0
 40
0.0
 40
0.0
 40
0.1974804677
 40
0.3827375051
 40
0.5509770797
 40
0.6265856478
 40
0.6953514396
 40
0.7563762784
 40
0.8088401914
 40
0.8522596756
 40
0.8707146247
 40
0.8872121228
 40
0.915415632
 40
0.9281636278
 40
0.9407782548
 40
0.9678168553
 40
1.0
 40
1.0
 40
1.0
 40
1.0
 10
5.6109616862
 20
6.2392369973
 30
0.0
 10
5.6120010512
 20
6.2400809603
 30
0.0
 10
5.6140266849
 20
6.2417030395
 30
0.0
 10
5.6169970747
 20
6.2439686408
 30
0.0
 10
5.6193732143
 20
6.2456496086
 30
0.0
 10
5.6211616917
 20
6.2467877872
 30
0.0
 10
5.6223684672
 20
6.2474837813
 30
0.0
 10
5.6234739424
 20
6.2480381145
 30
0.0
 10
5.6244617472
 20
6.2484365661
 30
0.0
 10
5.6252144289
 20
6.2486370338
 30
0.0
 10
5.6257442425
 20
6.2486931749
 30
0.0
 10
5.6261724709
 20
6.248686067
 30
0.0
 10
5.6265621425
 20
6.2485921157
 30
0.0
 10
5.6268675632
 20
6.2483895101
 30
0.0
 10
5.6271104688
 20
6.2481256939
 30
0.0
 10
5.6273046029
 20
6.2476646206
 30
0.0
 10
5.6273395112
 20
6.2472606007
 30
0.0
 10
5.6273397872
 20
6.2470424081
 30
0.0
  0
SPLINE
  5
359
100
AcDbEntity
  8
ALL_FEATURES
100
AcDbSpline
 62
7
  6
CONTINUOUS
 70
0
 71
3
 72
11
 73
7
 74
0
 42
0.0000001
 43
0.0000001
 44
0.0000000001
 40
0.0
 40
0.0
 40
0.0
 40
0.0
 40
0.248518855
 40
0.4979568587
 40
0.7484266689
 40
1.0
 40
1.0
 40
1.0
 40
1.0
 10
5.5159798653
 20
6.1790572071
 30
0.0
 10
5.5225409941
 20
6.1812006695
 30
0.0
 10
5.5354810359
 20
6.1861586006
 30
0.0
 10
5.5540874499
 20
6.1954999017
 30
0.0
 10
5.5717529551
 20
6.2066765155
 30
0.0
 10
5.5827723958
 20
6.2152628692
 30
0.0
 10
5.5880696481
 20
6.219819215
 30
0.0
  0
SPLINE
  5
35A
100
AcDbEntity
  8
ALL_FEATURES
100
AcDbSpline
 62
7
  6
CONTINUOUS
 70
0
 71
3
 72
15
 73
11
 74
0
 42
0.0000001
 43
0.0000001
 44
0.0000000001
 40
0.0
 40
0.0
 40
0.0
 40
0.0
 40
0.1180123199
 40
0.2409394399
 40
0.4956481404
 40
0.6249664782
 40
0.7536168749
 40
0.8795725454
 40
0.9407005642
 40
1.0
 40
1.0
 40
1.0
 40
1.0
 10
5.4859605159
 20
6.219819215
 30
0.0
 10
5.487104065
 20
6.2209755124
 30
0.0
 10
5.4894732148
 20
6.2233024382
 30
0.0
 10
5.4944645268
 20
6.2279655014
 30
0.0
 10
5.4997342818
 20
6.2325570864
 30
0.0
 10
5.5052446759
 20
6.2369800112
 30
0.0
 10
5.5094830392
 20
6.2401485223
 30
0.0
 10
5.5130816786
 20
6.2425983663
 30
0.0
 10
5.5159775401
 20
6.2443720149
 30
0.0
 10
5.5174254837
 20
6.2451841957
 30
0.0
 10
5.5181477879
 20
6.2455663575
 30
0.0
  0
SPLINE
  5
35B
100
AcDbEntity
  8
ALL_FEATURES
100
AcDbSpline
 62
7
  6
CONTINUOUS
 70
0
 71
3
 72
21
 73
17
 74
0
 42
0.0000001
 43
0.0000001
 44
0.0000000001
 40
0.0
 40
0.0
 40
0.0
 40
0.0
 40
0.1822030194
 40
0.2670381922
 40
0.3467210105
 40
0.4206084022
 40
0.4883283122
 40
0.5499966742
 40
0.6060611771
 40
0.6573757155
 40
0.7054271089
 40
0.7518306052
 40
0.7980243409
 40
0.8941296632
 40
0.9457434119
 40
1.0
 40
1.0
 40
1.0
 40
1.0
 10
5.5181477879
 20
6.2455663575
 30
0.0
 10
5.5192188226
 20
6.2461330282
 30
0.0
 10
5.5208201414
 20
6.2469088013
 30
0.0
 10
5.5229727988
 20
6.2477384773
 30
0.0
 10
5.5244876369
 20
6.2482110486
 30
0.0
 10
5.5259250664
 20
6.2485358326
 30
0.0
 10
5.5272701111
 20
6.248697418
 30
0.0
 10
5.5285070013
 20
6.248693765
 30
0.0
 10
5.5296236696
 20
6.2485260022
 30
0.0
 10
5.5306078842
 20
6.2481897803
 30
0.0
 10
5.5314502143
 20
6.247696408
 30
0.0
 10
5.5321481307
 20
6.2470637039
 30
0.0
 10
5.5328948441
 20
6.2460458512
 30
0.0
 10
5.5333498849
 20
6.2448114854
 30
0.0
 10
5.5335610923
 20
6.2434841006
 30
0.0
 10
5.5335943344
 20
6.2427789774
 30
0.0
 10
5.5335944492
 20
6.2424181545
 30
0.0
  0
SPLINE
  5
35C
100
AcDbEntity
  8
ALL_FEATURES
100
AcDbSpline
 62
7
  6
CONTINUOUS
 70
0
 71
3
 72
9
 73
5
 74
0
 42
0.0000001
 43
0.0000001
 44
0.0000000001
 40
0.0
 40
0.0
 40
0.0
 40
0.0
 40
0.4952579749
 40
1.0
 40
1.0
 40
1.0
 40
1.0
 10
5.4246372839
 20
6.1790572071
 30
0.0
 10
5.4308836566
 20
6.1814561167
 30
0.0
 10
5.4431985325
 20
6.1871082693
 30
0.0
 10
5.4547305291
 20
6.1942157398
 30
0.0
 10
5.4603188676
 20
6.1981238814
 30
0.0
  0
SPLINE
  5
35D
100
AcDbEntity
  8
ALL_FEATURES
100
AcDbSpline
 62
7
  6
CONTINUOUS
 70
0
 71
3
 72
9
 73
5
 74
0
 42
0.0000001
 43
0.0000001
 44
0.0000000001
 40
0.0
 40
0.0
 40
0.0
 40
0.0
 40
0.4955707326
 40
1.0
 40
1.0
 40
1.0
 40
1.0
 10
5.4603188676
 20
6.1981238814
 30
0.0
 10
5.4648704065
 20
6.2013069488
 30
0.0
 10
5.4737555469
 20
6.2081674524
 30
0.0
 10
5.4819851654
 20
6.2157995476
 30
0.0
 10
5.4859605159
 20
6.219819215
 30
0.0
  0
SPLINE
  5
35E
100
AcDbEntity
  8
ALL_FEATURES
100
AcDbSpline
 62
7
  6
CONTINUOUS
 70
0
 71
3
 72
28
 73
24
 74
0
 42
0.0000001
 43
0.0000001
 44
0.0000000001
 40
0.0
 40
0.0
 40
0.0
 40
0.0
 40
0.0573057331
 40
0.1178161969
 40
0.18106086
 40
0.2466464939
 40
0.3142499135
 40
0.3835082909
 40
0.4540094103
 40
0.5252605592
 40
0.5965676548
 40
0.6669636988
 40
0.7350246617
 40
0.7676538675
 40
0.7990032331
 40
0.8289068709
 40
0.8572742494
 40
0.884059559
 40
0.9093409394
 40
0.9333484363
 40
0.9562999011
 40
0.9784239655
 40
1.0
 40
1.0
 40
1.0
 40
1.0
 10
5.3333106138
 20
6.219819215
 30
0.0
 10
5.3340103659
 20
6.220793078
 30
0.0
 10
5.335508832
 20
6.2227527002
 30
0.0
 10
5.3379584319
 20
6.2256449137
 30
0.0
 10
5.3406512036
 20
6.2285531297
 30
0.0
 10
5.3435696277
 20
6.2314496352
 30
0.0
 10
5.3466992556
 20
6.2343068193
 30
0.0
 10
5.3500279758
 20
6.2370928855
 30
0.0
 10
5.3535473915
 20
6.2397627355
 30
0.0
 10
5.3572414461
 20
6.2422638157
 30
0.0
 10
5.3610914672
 20
6.2445157938
 30
0.0
 10
5.3650512317
 20
6.2464231552
 30
0.0
 10
5.3684326047
 20
6.2476300928
 30
0.0
 10
5.3711196206
 20
6.2482837944
 30
0.0
 10
5.3730619613
 20
6.2485950778
 30
0.0
 10
5.3749363557
 20
6.248717597
 30
0.0
 10
5.3767184453
 20
6.2486536734
 30
0.0
 10
5.3783870765
 20
6.2484034889
 30
0.0
 10
5.379923276
 20
6.2479693109
 30
0.0
 10
5.3813165119
 20
6.2473716033
 30
0.0
 10
5.3825615458
 20
6.2466282545
 30
0.0
 10
5.383655209
 20
6.2457562537
 30
0.0
 10
5.3842916473
 20
6.2450955406
 30
0.0
 10
5.3845839421
 20
6.244751418
 30
0.0
  0
SPLINE
  5
35F
100
AcDbEntity
  8
ALL_FEATURES
100
AcDbSpline
 62
7
  6
CONTINUOUS
 70
0
 71
3
 72
9
 73
5
 74
0
 42
0.0000001
 43
0.0000001
 44
0.0000000001
 40
0.0
 40
0.0
 40
0.0
 40
0.0
 40
0.4988285003
 40
1.0
 40
1.0
 40
1.0
 40
1.0
 10
5.3845839421
 20
6.244751418
 30
0.0
 10
5.3852836323
 20
6.2439276634
 30
0.0
 10
5.3864420966
 20
6.2420570612
 30
0.0
 10
5.3870755487
 20
6.2399629222
 30
0.0
 10
5.3872810441
 20
6.2388966629
 30
0.0
  0
LINE
  5
360
100
AcDbEntity
  8
ALL_FEATURES
100
AcDbLine
 62
7
  6
CONTINUOUS
 10
5.3872810441
 20
6.2388966629
 11
5.387581529
 21
6.2356445987
  0
SPLINE
  5
361
100
AcDbEntity
  8
ALL_FEATURES
100
AcDbSpline
 62
7
  6
CONTINUOUS
 70
0
 71
3
 72
11
 73
7
 74
0
 42
0.0000001
 43
0.0000001
 44
0.0000000001
 40
0.0
 40
0.0
 40
0.0
 40
0.0
 40
0.2309111615
 40
0.4737943334
 40
0.7299480872
 40
1.0
 40
1.0
 40
1.0
 40
1.0
 10
5.2887566778
 20
6.1790572071
 30
0.0
 10
5.2928999943
 20
6.1812473531
 30
0.0
 10
5.3010868899
 20
6.1863565421
 30
0.0
 10
5.3125843566
 20
6.1957531961
 30
0.0
 10
5.3234829592
 20
6.2069699641
 30
0.0
 10
5.3301123701
 20
6.2153681369
 30
0.0
 10
5.3333106138
 20
6.219819215
 30
0.0
  0
SPLINE
  5
362
100
AcDbEntity
  8
ALL_FEATURES
100
AcDbSpline
 62
7
  6
CONTINUOUS
 70
0
 71
3
 72
28
 73
24
 74
0
 42
0.0000001
 43
0.0000001
 44
0.0000000001
 40
0.0
 40
0.0
 40
0.0
 40
0.0
 40
0.0508905925
 40
0.1052953725
 40
0.1629981005
 40
0.2238309728
 40
0.3540592314
 40
0.4230902152
 40
0.4942141231
 40
0.5303655876
 40
0.5667106108
 40
0.6031150844
 40
0.6392875183
 40
0.674938872
 40
0.7098331629
 40
0.743722561
 40
0.776403842
 40
0.8078654605
 40
0.8381261062
 40
0.8672264496
 40
0.895330017
 40
0.9489529867
 40
1.0
 40
1.0
 40
1.0
 40
1.0
 10
5.1450623779
 20
6.219819215
 30
0.0
 10
5.145488869
 20
6.2209482305
 30
0.0
 10
5.1465181392
 20
6.223230194
 30
0.0
 10
5.1484593234
 20
6.226578833
 30
0.0
 10
5.1508229723
 20
6.2299370566
 30
0.0
 10
5.1546053981
 20
6.2344702192
 30
0.0
 10
5.1591149782
 20
6.2387266005
 30
0.0
 10
5.1643036991
 20
6.2425056953
 30
0.0
 10
5.1679221562
 20
6.2446199778
 30
0.0
 10
5.1710053772
 20
6.2460717944
 30
0.0
 10
5.1734124168
 20
6.2470139337
 30
0.0
 10
5.1758837029
 20
6.2477744924
 30
0.0
 10
5.1783925653
 20
6.2483305123
 30
0.0
 10
5.1809066213
 20
6.2486537129
 30
0.0
 10
5.1833864609
 20
6.2487243207
 30
0.0
 10
5.1857908391
 20
6.2485490263
 30
0.0
 10
5.1880816855
 20
6.2481253454
 30
0.0
 10
5.1902291591
 20
6.2474768377
 30
0.0
 10
5.1922155195
 20
6.2466332563
 30
0.0
 10
5.1940295928
 20
6.2456190519
 30
0.0
 10
5.1961806857
 20
6.2441021125
 30
0.0
 10
5.1984763117
 20
6.2419172643
 30
0.0
 10
5.1999371379
 20
6.2398922588
 30
0.0
 10
5.2005584577
 20
6.2388532688
 30
0.0
  0
SPLINE
  5
363
100
AcDbEntity
  8
ALL_FEATURES
100
AcDbSpline
 62
7
  6
CONTINUOUS
 70
0
 71
3
 72
11
 73
7
 74
0
 42
0.0000001
 43
0.0000001
 44
0.0000000001
 40
0.0
 40
0.0
 40
0.0
 40
0.0
 40
0.2564358624
 40
0.5072451037
 40
0.7544002496
 40
1.0
 40
1.0
 40
1.0
 40
1.0
 10
5.2005584577
 20
6.2388532688
 30
0.0
 10
5.2010681329
 20
6.2380009744
 30
0.0
 10
5.2019584995
 20
6.2362413175
 30
0.0
 10
5.2029061755
 20
6.2334687871
 30
0.0
 10
5.2034707019
 20
6.2306369634
 30
0.0
 10
5.2035947226
 20
6.2287263169
 30
0.0
 10
5.2035944386
 20
6.2277752172
 30
0.0
  0
SPLINE
  5
364
100
AcDbEntity
  8
ALL_FEATURES
100
AcDbSpline
 62
7
  6
CONTINUOUS
 70
0
 71
3
 72
15
 73
11
 74
0
 42
0.0000001
 43
0.0000001
 44
0.0000000001
 40
0.0
 40
0.0
 40
0.0
 40
0.0
 40
0.0990891024
 40
0.2053308724
 40
0.3189426344
 40
0.4400617687
 40
0.5687687844
 40
0.7050817186
 40
0.8488916936
 40
1.0
 40
1.0
 40
1.0
 40
1.0
 10
5.1216389876
 20
6.1790572071
 30
0.0
 10
5.1227413992
 20
6.1801656288
 30
0.0
 10
5.1249258716
 20
6.1825631966
 30
0.0
 10
5.1280358366
 20
6.1865234902
 30
0.0
 10
5.1310830564
 20
6.1909606294
 30
0.0
 10
5.1340598379
 20
6.1958642956
 30
0.0
 10
5.1369604997
 20
6.2012239269
 30
0.0
 10
5.1397782183
 20
6.2070279844
 30
0.0
 10
5.1425066253
 20
6.2132619984
 30
0.0
 10
5.1442199181
 20
6.2175890389
 30
0.0
 10
5.1450623779
 20
6.219819215
 30
0.0
  0
SPLINE
  5
365
100
AcDbEntity
  8
ALL_FEATURES
100
AcDbSpline
 62
7
  6
CONTINUOUS
 70
0
 71
3
 72
19
 73
15
 74
0
 42
0.0000001
 43
0.0000001
 44
0.0000000001
 40
0.0
 40
0.0
 40
0.0
 40
0.0
 40
0.0769775499
 40
0.1532373717
 40
0.2275681195
 40
0.2997252272
 40
0.4366491059
 40
0.5016955548
 40
0.5645085691
 40
0.6838102024
 40
0.7954544627
 40
0.8487571367
 40
0.9005319934
 40
1.0
 40
1.0
 40
1.0
 40
1.0
 10
4.9696428572
 20
6.2486906708
 30
0.0
 10
4.9708139639
 20
6.2486906708
 30
0.0
 10
4.9731476963
 20
6.2485294589
 30
0.0
 10
4.9765524545
 20
6.2478561546
 30
0.0
 10
4.9797768825
 20
6.2467851355
 30
0.0
 10
4.9836917549
 20
6.2449619136
 30
0.0
 10
4.9871859054
 20
6.2426283746
 30
0.0
 10
4.9901977012
 20
6.2399478253
 30
0.0
 10
4.9927907245
 20
6.2372192523
 30
0.0
 10
4.9954667662
 20
6.2336147502
 30
0.0
 10
4.9974680365
 20
6.229757451
 30
0.0
 10
4.9985900697
 20
6.2266524304
 30
0.0
 10
4.9993807927
 20
6.2236401912
 30
0.0
 10
4.9996428571
 20
6.2213324828
 30
0.0
 10
4.9996428571
 20
6.219819215
 30
0.0
  0
SPLINE
  5
366
100
AcDbEntity
  8
ALL_FEATURES
100
AcDbSpline
 62
7
  6
CONTINUOUS
 70
0
 71
3
 72
23
 73
19
 74
0
 42
0.0000001
 43
0.0000001
 44
0.0000000001
 40
0.0
 40
0.0
 40
0.0
 40
0.0
 40
0.0317929343
 40
0.0584761521
 40
0.0709615625
 40
0.0836209897
 40
0.1118480025
 40
0.1284663514
 40
0.1470865014
 40
0.1908620048
 40
0.243707932
 40
0.3051285555
 40
0.3742401499
 40
0.450066546
 40
0.5317410918
 40
0.6183845011
 40
0.803291053
 40
1.0
 40
1.0
 40
1.0
 40
1.0
 10
4.3119455851
 20
6.2470427736
 30
0.0
 10
4.3119459125
 20
6.2472640283
 30
0.0
 10
4.3119822443
 20
6.2476737201
 30
0.0
 10
4.3121842765
 20
6.2481396191
 30
0.0
 10
4.3124351708
 20
6.2484034924
 30
0.0
 10
4.3127510276
 20
6.2486055776
 30
0.0
 10
4.313154012
 20
6.2486920752
 30
0.0
 10
4.3135956403
 20
6.2486899537
 30
0.0
 10
4.3141427272
 20
6.2486217459
 30
0.0
 10
4.3149185583
 20
6.2484048334
 30
0.0
 10
4.3159354652
 20
6.2479821205
 30
0.0
 10
4.3170719994
 20
6.2473994943
 30
0.0
 10
4.3183113897
 20
6.2466729895
 30
0.0
 10
4.3196375472
 20
6.2458188823
 30
0.0
 10
4.3210365887
 20
6.2448544169
 30
0.0
 10
4.3230266312
 20
6.2434110866
 30
0.0
 10
4.3256116517
 20
6.2414260288
 30
0.0
 10
4.3276812649
 20
6.2397615926
 30
0.0
 10
4.3287423543
 20
6.2388966629
 30
0.0
  0
LINE
  5
367
100
AcDbEntity
  8
ALL_FEATURES
100
AcDbLine
 62
7
  6
CONTINUOUS
 10
4.3287423543
 20
6.2388966629
 11
4.3512160662
 21
6.219819215
  0
SPLINE
  5
368
100
AcDbEntity
  8
ALL_FEATURES
100
AcDbSpline
 62
7
  6
CONTINUOUS
 70
0
 71
3
 72
16
 73
12
 74
0
 42
0.0000001
 43
0.0000001
 44
0.0000000001
 40
0.0
 40
0.0
 40
0.0
 40
0.0
 40
0.099570073
 40
0.2045986735
 40
0.3163486168
 40
0.435753195
 40
0.5635711093
 40
0.700561811
 40
0.7727296598
 40
0.847077172
 40
1.0
 40
1.0
 40
1.0
 40
1.0
 10
4.9396428571
 20
6.219819215
 30
0.0
 10
4.9396428571
 20
6.2213332126
 30
0.0
 10
4.9399974418
 20
6.2244508377
 30
0.0
 10
4.9414567672
 20
6.2290598355
 30
0.0
 10
4.9438203561
 20
6.2336188381
 30
0.0
 10
4.9470907487
 20
6.2380180539
 30
0.0
 10
4.9513098348
 20
6.2420973955
 30
0.0
 10
4.9555974098
 20
6.2449664341
 30
0.0
 10
4.959515071
 20
6.2467850946
 30
0.0
 10
4.9638414273
 20
6.2482258515
 30
0.0
 10
4.9673176124
 20
6.2486906708
 30
0.0
 10
4.9696428572
 20
6.2486906708
 30
0.0
  0
SPLINE
  5
369
100
AcDbEntity
  8
ALL_FEATURES
100
AcDbSpline
 62
7
  6
CONTINUOUS
 70
0
 71
3
 72
15
 73
11
 74
0
 42
0.0000001
 43
0.0000001
 44
0.0000000001
 40
0.0
 40
0.0
 40
0.0
 40
0.0
 40
0.1511083315
 40
0.2949183674
 40
0.4312313694
 40
0.5599383783
 40
0.6810574557
 40
0.7946691633
 40
0.9009109053
 40
1.0
 40
1.0
 40
1.0
 40
1.0
 10
4.7942233363
 20
6.219819215
 30
0.0
 10
4.7950657963
 20
6.2175890385
 30
0.0
 10
4.7967790898
 20
6.2132619969
 30
0.0
 10
4.7995074982
 20
6.2070279808
 30
0.0
 10
4.8023252173
 20
6.2012239214
 30
0.0
 10
4.8052258792
 20
6.1958642901
 30
0.0
 10
4.8082026603
 20
6.1909606257
 30
0.0
 10
4.8112498789
 20
6.1865234884
 30
0.0
 10
4.8143598431
 20
6.1825631961
 30
0.0
 10
4.8165443152
 20
6.1801656287
 30
0.0
 10
4.8176467267
 20
6.1790572071
 30
0.0
  0
SPLINE
  5
36A
100
AcDbEntity
  8
ALL_FEATURES
100
AcDbSpline
 62
7
  6
CONTINUOUS
 70
0
 71
3
 72
11
 73
7
 74
0
 42
0.0000001
 43
0.0000001
 44
0.0000000001
 40
0.0
 40
0.0
 40
0.0
 40
0.0
 40
0.2700519985
 40
0.5262058102
 40
0.7690888748
 40
1.0
 40
1.0
 40
1.0
 40
1.0
 10
4.6059751005
 20
6.219819215
 30
0.0
 10
4.6091733452
 20
6.2153681354
 30
0.0
 10
4.615802759
 20
6.2069699612
 30
0.0
 10
4.6267013613
 20
6.195753192
 30
0.0
 10
4.6381988274
 20
6.18635654
 30
0.0
 10
4.6463857206
 20
6.1812473527
 30
0.0
 10
4.6505290364
 20
6.1790572071
 30
0.0
  0
SPLINE
  5
36B
100
AcDbEntity
  8
ALL_FEATURES
100
AcDbSpline
 62
7
  6
CONTINUOUS
 70
0
 71
3
 72
9
 73
5
 74
0
 42
0.0000001
 43
0.0000001
 44
0.0000000001
 40
0.0
 40
0.0
 40
0.0
 40
0.0
 40
0.5044302908
 40
1.0
 40
1.0
 40
1.0
 40
1.0
 10
4.4533251984
 20
6.219819215
 30
0.0
 10
4.4573014494
 20
6.215798637
 30
0.0
 10
4.4655329961
 20
6.2081649046
 30
0.0
 10
4.4744203512
 20
6.2013031317
 30
0.0
 10
4.4789730386
 20
6.198119551
 30
0.0
  0
SPLINE
  5
36C
100
AcDbEntity
  8
ALL_FEATURES
100
AcDbSpline
 62
7
  6
CONTINUOUS
 70
0
 71
3
 72
9
 73
5
 74
0
 42
0.0000001
 43
0.0000001
 44
0.0000000001
 40
0.0
 40
0.0
 40
0.0
 40
0.0
 40
0.5047410016
 40
1.0
 40
1.0
 40
1.0
 40
1.0
 10
4.4789730386
 20
6.198119551
 30
0.0
 10
4.4845604929
 20
6.1942123836
 30
0.0
 10
4.4960905698
 20
6.187106626
 30
0.0
 10
4.5084032072
 20
6.1814556753
 30
0.0
 10
4.5146484304
 20
6.1790572071
 30
0.0
  0
SPLINE
  5
36D
100
AcDbEntity
  8
ALL_FEATURES
100
AcDbSpline
 62
7
  6
CONTINUOUS
 70
0
 71
3
 72
11
 73
7
 74
0
 42
0.0000001
 43
0.0000001
 44
0.0000000001
 40
0.0
 40
0.0
 40
0.0
 40
0.0
 40
0.2515734174
 40
0.5020432835
 40
0.751481182
 40
1.0
 40
1.0
 40
1.0
 40
1.0
 10
4.3512160662
 20
6.219819215
 30
0.0
 10
4.3565133204
 20
6.2152628676
 30
0.0
 10
4.3675327652
 20
6.2066765129
 30
0.0
 10
4.3851982705
 20
6.1954998974
 30
0.0
 10
4.4038046831
 20
6.1861585986
 30
0.0
 10
4.4167447211
 20
6.1812006692
 30
0.0
 10
4.423305849
 20
6.1790572071
 30
0.0
  0
LINE
  5
36E
100
AcDbEntity
  8
ALL_FEATURES
100
AcDbLine
 62
7
  6
CONTINUOUS
 10
4.49033518
 20
6.1464762578
 11
4.4907598811
 21
6.1462144012
  0
LINE
  5
36F
100
AcDbEntity
  8
ALL_FEATURES
100
AcDbLine
 62
7
  6
CONTINUOUS
 10
4.5230646773
 20
6.1464762578
 11
4.5234685921
 21
6.1462144012
  0
LINE
  5
370
100
AcDbEntity
  8
ALL_FEATURES
100
AcDbLine
 62
7
  6
CONTINUOUS
 10
4.5995083584
 20
6.1464762578
 11
4.5998519488
 21
6.1462144012
  0
LINE
  5
371
100
AcDbEntity
  8
ALL_FEATURES
100
AcDbLine
 62
7
  6
CONTINUOUS
 10
4.7121833831
 20
6.1464762578
 11
4.7124330161
 21
6.1462144012
  0
LINE
  5
372
100
AcDbEntity
  8
ALL_FEATURES
100
AcDbLine
 62
7
  6
CONTINUOUS
 10
4.8500603349
 20
6.1464762578
 11
4.8501915747
 21
6.1462144012
  0
LINE
  5
373
100
AcDbEntity
  8
ALL_FEATURES
100
AcDbLine
 62
7
  6
CONTINUOUS
 10
5.0890941396
 20
6.1462144012
 11
5.0892253794
 21
6.1464762578
  0
LINE
  5
374
100
AcDbEntity
  8
ALL_FEATURES
100
AcDbLine
 62
7
  6
CONTINUOUS
 10
5.2268526982
 20
6.1462144012
 11
5.2271023312
 21
6.1464762578
  0
LINE
  5
375
100
AcDbEntity
  8
ALL_FEATURES
100
AcDbLine
 62
7
  6
CONTINUOUS
 10
5.3394337655
 20
6.1462144012
 11
5.3397773559
 21
6.1464762578
  0
LINE
  5
376
100
AcDbEntity
  8
ALL_FEATURES
100
AcDbLine
 62
7
  6
CONTINUOUS
 10
5.4158171222
 20
6.1462144012
 11
5.4162210369
 21
6.1464762578
  0
LINE
  5
377
100
AcDbEntity
  8
ALL_FEATURES
100
AcDbLine
 62
7
  6
CONTINUOUS
 10
5.4485258332
 20
6.1462144012
 11
5.4489505343
 21
6.1464762578
  0
SPLINE
  5
378
100
AcDbEntity
  8
ALL_FEATURES
100
AcDbSpline
 62
7
  6
CONTINUOUS
 70
0
 71
3
 72
34
 73
30
 74
0
 42
0.0000001
 43
0.0000001
 44
0.0000000001
 40
0.0
 40
0.0
 40
0.0
 40
0.0
 40
0.0000803324
 40
0.0003182855
 40
0.0007135852
 40
0.00126595
 40
0.0019750979
 40
0.0028407472
 40
0.0050404241
 40
0.0078627358
 40
0.011305444
 40
0.0153663187
 40
0.0200431377
 40
0.0312357527
 40
0.0448654488
 40
0.0608976925
 40
0.0792703201
 40
0.0999192889
 40
0.1227814578
 40
0.1477946684
 40
0.1748975815
 40
0.2350306991
 40
0.3023515601
 40
0.3760135254
 40
0.4551826856
 40
0.5389950762
 40
0.6265952316
 40
0.8099756243
 40
1.0
 40
1.0
 40
1.0
 40
1.0
 10
5.3996428956
 20
6.1026611892
 30
0.0
 10
5.3996435878
 20
6.1026608536
 30
0.0
 10
5.3996464197
 20
6.1026636113
 30
0.0
 10
5.3996525965
 20
6.1026649822
 30
0.0
 10
5.3996629484
 20
6.1026705297
 30
0.0
 10
5.3996773525
 20
6.1026767953
 30
0.0
 10
5.3996958514
 20
6.102685477
 30
0.0
 10
5.3997286445
 20
6.1027006121
 30
0.0
 10
5.3997797527
 20
6.1027244745
 30
0.0
 10
5.3998531496
 20
6.1027588688
 30
0.0
 10
5.3999425918
 20
6.1028010556
 30
0.0
 10
5.4000479885
 20
6.1028510385
 30
0.0
 10
5.4002202687
 20
6.1029331994
 30
0.0
 10
5.4004748471
 20
6.1030556747
 30
0.0
 10
5.4008267278
 20
6.1032267346
 30
0.0
 10
5.4012394716
 20
6.1034298601
 30
0.0
 10
5.4017109355
 20
6.1036658842
 30
0.0
 10
5.4022387781
 20
6.1039353672
 30
0.0
 10
5.4028206076
 20
6.1042389141
 30
0.0
 10
5.4034540371
 20
6.1045771172
 30
0.0
 10
5.4043971352
 20
6.1050930585
 30
0.0
 10
5.4056837609
 20
6.1058250908
 30
0.0
 10
5.4073345835
 20
6.1068176676
 30
0.0
 10
5.4091119108
 20
6.1079523242
 30
0.0
 10
5.4109855526
 20
6.1092278729
 30
0.0
 10
5.4129283625
 20
6.1106371892
 30
0.0
 10
5.4156157927
 20
6.1127171345
 30
0.0
 10
5.4189673243
 20
6.1155962565
 30
0.0
 10
5.4215205164
 20
6.1181047126
 30
0.0
 10
5.4227731245
 20
6.119424835
 30
0.0
  0
SPLINE
  5
379
100
AcDbEntity
  8
ALL_FEATURES
100
AcDbSpline
 62
7
  6
CONTINUOUS
 70
0
 71
3
 72
15
 73
11
 74
0
 42
0.0000001
 43
0.0000001
 44
0.0000000001
 40
0.0
 40
0.0
 40
0.0
 40
0.0
 40
0.1108885161
 40
0.2234002743
 40
0.3396186194
 40
0.4612652942
 40
0.5890064943
 40
0.7223950456
 40
0.8601208261
 40
1.0
 40
1.0
 40
1.0
 40
1.0
 10
4.9452166764
 20
6.129819837
 30
0.0
 10
4.9457800684
 20
6.128966829
 30
0.0
 10
4.9470451131
 20
6.1273295385
 30
0.0
 10
4.9493377891
 20
6.1251782223
 30
0.0
 10
4.9520252169
 20
6.1233629299
 30
0.0
 10
4.9550726765
 20
6.1218988294
 30
0.0
 10
4.9584283629
 20
6.1207816787
 30
0.0
 10
4.9620275906
 20
6.1200003354
 30
0.0
 10
4.9657928874
 20
6.1195395548
 30
0.0
 10
4.968353327
 20
6.1194383205
 30
0.0
 10
4.9696428571
 20
6.1194383205
 30
0.0
  0
SPLINE
  5
37A
100
AcDbEntity
  8
ALL_FEATURES
100
AcDbSpline
 62
7
  6
CONTINUOUS
 70
0
 71
3
 72
22
 73
18
 74
0
 42
0.0000001
 43
0.0000001
 44
0.0000000001
 40
0.0
 40
0.0
 40
0.0
 40
0.0
 40
0.1306643094
 40
0.2679483126
 40
0.3389864111
 40
0.410796328
 40
0.4824219023
 40
0.5528062742
 40
0.6208615477
 40
0.6856328874
 40
0.7463673498
 40
0.8027778185
 40
0.8551013816
 40
0.9043416143
 40
0.9283115074
 40
0.9521141469
 40
1.0
 40
1.0
 40
1.0
 40
1.0
 10
4.8096465974
 20
6.129819837
 30
0.0
 10
4.8111590157
 20
6.1281658014
 30
0.0
 10
4.8147020574
 20
6.1251530542
 30
0.0
 10
4.8199464145
 20
6.122531596
 30
0.0
 10
4.8245176914
 20
6.1210353461
 30
0.0
 10
4.8281065509
 20
6.1202051756
 30
0.0
 10
4.8317382272
 20
6.1196678123
 30
0.0
 10
4.835336115
 20
6.1194154976
 30
0.0
 10
4.838825324
 20
6.1194394063
 30
0.0
 10
4.8421361585
 20
6.1197425177
 30
0.0
 10
4.8452061825
 20
6.1203333637
 30
0.0
 10
4.8479827712
 20
6.1212230678
 30
0.0
 10
4.8504210889
 20
6.1224323779
 30
0.0
 10
4.8521592737
 20
6.1237270903
 30
0.0
 10
4.853333216
 20
6.1249100903
 30
0.0
 10
4.8543678107
 20
6.1261864208
 30
0.0
 10
4.8549996883
 20
6.1272516916
 30
0.0
 10
4.8553583647
 20
6.127990617
 30
0.0
  0
SPLINE
  5
37B
100
AcDbEntity
  8
ALL_FEATURES
100
AcDbSpline
 62
7
  6
CONTINUOUS
 70
0
 71
3
 72
19
 73
15
 74
0
 42
0.0000001
 43
0.0000001
 44
0.0000000001
 40
0.0
 40
0.0
 40
0.0
 40
0.0
 40
0.1337825994
 40
0.2015870983
 40
0.2697940645
 40
0.3382069955
 40
0.4065406297
 40
0.5415795706
 40
0.6717712836
 40
0.7934754781
 40
0.8501621161
 40
0.9035916107
 40
0.95356952
 40
1.0
 40
1.0
 40
1.0
 40
1.0
 10
4.689738067
 20
6.129819837
 30
0.0
 10
4.6908864111
 20
6.1287553516
 30
0.0
 10
4.6927291206
 20
6.1272674113
 30
0.0
 10
4.6953662468
 20
6.1255279914
 30
0.0
 10
4.6974457524
 20
6.1243410089
 30
0.0
 10
4.6996005034
 20
6.123283423
 30
0.0
 10
4.7025344094
 20
6.122050241
 30
0.0
 10
4.7062559957
 20
6.1208426464
 30
0.0
 10
4.7106913631
 20
6.119893869
 30
0.0
 10
4.7142880313
 20
6.1194914956
 30
0.0
 10
4.7170016797
 20
6.1194188858
 30
0.0
 10
4.7188757637
 20
6.119482768
 30
0.0
 10
4.720621501
 20
6.1196653703
 30
0.0
 10
4.7217320783
 20
6.1198755169
 30
0.0
 10
4.7222601038
 20
6.1200040134
 30
0.0
  0
SPLINE
  5
37C
100
AcDbEntity
  8
ALL_FEATURES
100
AcDbSpline
 62
7
  6
CONTINUOUS
 70
0
 71
3
 72
9
 73
5
 74
0
 42
0.0000001
 43
0.0000001
 44
0.0000000001
 40
0.0
 40
0.0
 40
0.0
 40
0.0
 40
0.2692879341
 40
1.0
 40
1.0
 40
1.0
 40
1.0
 10
4.7222601038
 20
6.1200040134
 30
0.0
 10
4.7225829574
 20
6.1200825808
 30
0.0
 10
4.7237712646
 20
6.1204119336
 30
0.0
 10
4.7249209519
 20
6.1209113773
 30
0.0
 10
4.7256788688
 20
6.1213997399
 30
0.0
  0
SPLINE
  5
37D
100
AcDbEntity
  8
ALL_FEATURES
100
AcDbSpline
 62
7
  6
CONTINUOUS
 70
0
 71
3
 72
14
 73
10
 74
0
 42
0.0000001
 43
0.0000001
 44
0.0000000001
 40
0.0
 40
0.0
 40
0.0
 40
0.0
 40
0.1332827912
 40
0.2663502703
 40
0.3982318523
 40
0.5279069162
 40
0.7757603327
 40
0.8914956619
 40
1.0
 40
1.0
 40
1.0
 40
1.0
 10
4.5972285677
 20
6.129819837
 30
0.0
 10
4.5979548827
 20
6.1291813622
 30
0.0
 10
4.5994512716
 20
6.1279556318
 30
0.0
 10
4.6018051893
 20
6.1262766459
 30
0.0
 10
4.6042424311
 20
6.1247696378
 30
0.0
 10
4.6075093497
 20
6.1230369764
 30
0.0
 10
4.6108211936
 20
6.121652035
 30
0.0
 10
4.614091019
 20
6.1206268019
 30
0.0
 10
4.6156713528
 20
6.1202344589
 30
0.0
 10
4.6164412696
 20
6.1200700941
 30
0.0
  0
LINE
  5
37E
100
AcDbEntity
  8
ALL_FEATURES
100
AcDbLine
 62
7
  6
CONTINUOUS
 10
4.6164412696
 20
6.1200700941
 11
4.6201720378
 21
6.1195058992
  0
SPLINE
  5
37F
100
AcDbEntity
  8
ALL_FEATURES
100
AcDbSpline
 62
7
  6
CONTINUOUS
 70
0
 71
3
 72
11
 73
7
 74
0
 42
0.0000001
 43
0.0000001
 44
0.0000000001
 40
0.0
 40
0.0
 40
0.0
 40
0.0
 40
0.2573825667
 40
0.5114457249
 40
0.7597151082
 40
1.0
 40
1.0
 40
1.0
 40
1.0
 10
4.5972285677
 20
6.129819837
 30
0.0
 10
4.5955943965
 20
6.131256372
 30
0.0
 10
4.5924229617
 20
6.1341981173
 30
0.0
 10
4.5879233152
 20
6.1387835439
 30
0.0
 10
4.5837292333
 20
6.1434574132
 30
0.0
 10
4.5811101006
 20
6.1466530159
 30
0.0
 10
4.5798614822
 20
6.1482552086
 30
0.0
  0
SPLINE
  5
380
100
AcDbEntity
  8
ALL_FEATURES
100
AcDbSpline
 62
7
  6
CONTINUOUS
 70
0
 71
3
 72
11
 73
7
 74
0
 42
0.0000001
 43
0.0000001
 44
0.0000000001
 40
0.0
 40
0.0
 40
0.0
 40
0.0
 40
0.2643571602
 40
0.5199618454
 40
0.7655479239
 40
1.0
 40
1.0
 40
1.0
 40
1.0
 10
4.689738067
 20
6.129819837
 30
0.0
 10
4.6882069549
 20
6.1312391383
 30
0.0
 10
4.685305074
 20
6.1341514122
 30
0.0
 10
4.6813652163
 20
6.1387442005
 30
0.0
 10
4.677915074
 20
6.1434248878
 30
0.0
 10
4.6759034242
 20
6.1466439759
 30
0.0
 10
4.6749911313
 20
6.1482552086
 30
0.0
  0
SPLINE
  5
381
100
AcDbEntity
  8
ALL_FEATURES
100
AcDbSpline
 62
7
  6
CONTINUOUS
 70
0
 71
3
 72
11
 73
7
 74
0
 42
0.0000001
 43
0.0000001
 44
0.0000000001
 40
0.0
 40
0.0
 40
0.0
 40
0.0
 40
0.2666813857
 40
0.521912265
 40
0.7661656932
 40
1.0
 40
1.0
 40
1.0
 40
1.0
 10
4.8096465974
 20
6.129819837
 30
0.0
 10
4.8083584987
 20
6.1312285485
 30
0.0
 10
4.80598879
 20
6.1341281368
 30
0.0
 10
4.8029940349
 20
6.1387346141
 30
0.0
 10
4.8006263727
 20
6.1434306918
 30
0.0
 10
4.7994408609
 20
6.1466510444
 30
0.0
 10
4.7989633442
 20
6.1482552086
 30
0.0
  0
SPLINE
  5
382
100
AcDbEntity
  8
ALL_FEATURES
100
AcDbSpline
 62
7
  6
CONTINUOUS
 70
0
 71
3
 72
11
 73
7
 74
0
 42
0.0000001
 43
0.0000001
 44
0.0000000001
 40
0.0
 40
0.0
 40
0.0
 40
0.0
 40
0.2338337785
 40
0.4780868836
 40
0.7333184845
 40
1.0
 40
1.0
 40
1.0
 40
1.0
 10
5.14032237
 20
6.1482552086
 30
0.0
 10
5.1398448545
 20
6.146651048
 30
0.0
 10
5.1386593435
 20
6.1434307018
 30
0.0
 10
5.1362916871
 20
6.1387346223
 30
0.0
 10
5.1332969283
 20
6.1341281425
 30
0.0
 10
5.1309272162
 20
6.1312285492
 30
0.0
 10
5.1296391169
 20
6.129819837
 30
0.0
  0
SPLINE
  5
383
100
AcDbEntity
  8
ALL_FEATURES
100
AcDbSpline
 62
7
  6
CONTINUOUS
 70
0
 71
3
 72
11
 73
7
 74
0
 42
0.0000001
 43
0.0000001
 44
0.0000000001
 40
0.0
 40
0.0
 40
0.0
 40
0.0
 40
0.2344515493
 40
0.4800372996
 40
0.7356427102
 40
1.0
 40
1.0
 40
1.0
 40
1.0
 10
5.264294583
 20
6.1482552086
 30
0.0
 10
5.2633822922
 20
6.1466439795
 30
0.0
 10
5.2613706449
 20
6.1434248978
 30
0.0
 10
5.2579205071
 20
6.1387442085
 30
0.0
 10
5.2539806455
 20
6.1341514179
 30
0.0
 10
5.2510787602
 20
6.131239139
 30
0.0
 10
5.2495476473
 20
6.129819837
 30
0.0
  0
SPLINE
  5
384
100
AcDbEntity
  8
ALL_FEATURES
100
AcDbSpline
 62
7
  6
CONTINUOUS
 70
0
 71
3
 72
11
 73
7
 74
0
 42
0.0000001
 43
0.0000001
 44
0.0000000001
 40
0.0
 40
0.0
 40
0.0
 40
0.0
 40
0.2402843546
 40
0.4885534243
 40
0.7426173066
 40
1.0
 40
1.0
 40
1.0
 40
1.0
 10
5.3594242321
 20
6.1482552086
 30
0.0
 10
5.3581756165
 20
6.1466530195
 30
0.0
 10
5.3555564876
 20
6.143457423
 30
0.0
 10
5.3513624089
 20
6.1387835522
 30
0.0
 10
5.3468627585
 20
6.1341981231
 30
0.0
 10
5.3436913186
 20
6.1312563727
 30
0.0
 10
5.3420571466
 20
6.129819837
 30
0.0
  0
LINE
  5
385
100
AcDbEntity
  8
ALL_FEATURES
100
AcDbLine
 62
7
  6
CONTINUOUS
 10
5.0837623313
 20
6.1283421426
 11
5.0848619848
 21
6.1263523498
  0
SPLINE
  5
386
100
AcDbEntity
  8
ALL_FEATURES
100
AcDbSpline
 62
7
  6
CONTINUOUS
 70
0
 71
3
 72
21
 73
17
 74
0
 42
0.0000001
 43
0.0000001
 44
0.0000000001
 40
0.0
 40
0.0
 40
0.0
 40
0.0
 40
0.047027073
 40
0.0959826108
 40
0.1480217428
 40
0.2037604236
 40
0.2633334407
 40
0.3264646087
 40
0.3925774673
 40
0.4609204461
 40
0.5306177286
 40
0.6008030508
 40
0.7393626425
 40
0.8068046075
 40
0.872678885
 40
1.0
 40
1.0
 40
1.0
 40
1.0
 10
5.0859546537
 20
6.1249385322
 30
0.0
 10
5.0864541628
 20
6.1243800728
 30
0.0
 10
5.0875816572
 20
6.1233327192
 30
0.0
 10
5.0895691769
 20
6.1220444083
 30
0.0
 10
5.091857983
 20
6.1210243213
 30
0.0
 10
5.0944189403
 20
6.1202609615
 30
0.0
 10
5.0972188376
 20
6.1197424076
 30
0.0
 10
5.1002173411
 20
6.1194605828
 30
0.0
 10
5.1033677706
 20
6.1194084585
 30
0.0
 10
5.1066182192
 20
6.1195842305
 30
0.0
 10
5.109913466
 20
6.119993851
 30
0.0
 10
5.114267981
 20
6.1208532221
 30
0.0
 10
5.1184832527
 20
6.1222019905
 30
0.0
 10
5.1223881385
 20
6.1240925844
 30
0.0
 10
5.1259243616
 20
6.1262795927
 30
0.0
 10
5.1282702437
 20
6.1283227874
 30
0.0
 10
5.1296391169
 20
6.129819837
 30
0.0
  0
SPLINE
  5
387
100
AcDbEntity
  8
ALL_FEATURES
100
AcDbSpline
 62
7
  6
CONTINUOUS
 70
0
 71
3
 72
15
 73
11
 74
0
 42
0.0000001
 43
0.0000001
 44
0.0000000001
 40
0.0
 40
0.0
 40
0.0
 40
0.0
 40
0.1398773472
 40
0.2775983528
 40
0.4109827964
 40
0.5387206898
 40
0.660364677
 40
0.7765913433
 40
0.8891094358
 40
1.0
 40
1.0
 40
1.0
 40
1.0
 10
4.9696428571
 20
6.1194383205
 30
0.0
 10
4.9709323702
 20
6.1194383205
 30
0.0
 10
4.9734927475
 20
6.1195395511
 30
0.0
 10
4.9772579505
 20
6.1200003035
 30
0.0
 10
4.980857054
 20
6.1207816486
 30
0.0
 10
4.9842127187
 20
6.1218985916
 30
0.0
 10
4.9872601271
 20
6.1233628383
 30
0.0
 10
4.9899477542
 20
6.1251780265
 30
0.0
 10
4.9922405146
 20
6.1273294886
 30
0.0
 10
4.9935056356
 20
6.1289668134
 30
0.0
 10
4.9940690379
 20
6.129819837
 30
0.0
  0
SPLINE
  5
388
100
AcDbEntity
  8
ALL_FEATURES
100
AcDbSpline
 62
7
  6
CONTINUOUS
 70
0
 71
3
 72
14
 73
10
 74
0
 42
0.0000001
 43
0.0000001
 44
0.0000000001
 40
0.0
 40
0.0
 40
0.0
 40
0.0
 40
0.0997647447
 40
0.2064994241
 40
0.3204091455
 40
0.4416175775
 40
0.5701946988
 40
0.7061616711
 40
1.0
 40
1.0
 40
1.0
 40
1.0
 10
5.1773235711
 20
6.1933800587
 30
0.0
 10
5.1783160717
 20
6.19437795
 30
0.0
 10
5.1802836235
 20
6.1965309115
 30
0.0
 10
5.1830901539
 20
6.2000781248
 30
0.0
 10
5.1858430596
 20
6.2040413099
 30
0.0
 10
5.1885351423
 20
6.2084117669
 30
0.0
 10
5.1911613302
 20
6.2131804018
 30
0.0
 10
5.1946589372
 20
6.2202407114
 30
0.0
 10
5.1970241595
 20
6.2258312989
 30
0.0
 10
5.1985237725
 20
6.2296958453
 30
0.0
  0
SPLINE
  5
389
100
AcDbEntity
  8
ALL_FEATURES
100
AcDbSpline
 62
7
  6
CONTINUOUS
 70
0
 71
3
 72
9
 73
5
 74
0
 42
0.0000001
 43
0.0000001
 44
0.0000000001
 40
0.0
 40
0.0
 40
0.0
 40
0.0
 40
0.254928311
 40
1.0
 40
1.0
 40
1.0
 40
1.0
 10
5.3818516335
 20
6.2396952044
 30
0.0
 10
5.3821136086
 20
6.2401067962
 30
0.0
 10
5.3831130937
 20
6.241739036
 30
0.0
 10
5.3839984881
 20
6.2434415232
 30
0.0
 10
5.3845843378
 20
6.2447415649
 30
0.0
  0
SPLINE
  5
38A
100
AcDbEntity
  8
ALL_FEATURES
100
AcDbSpline
 62
7
  6
CONTINUOUS
 70
0
 71
3
 72
11
 73
7
 74
0
 42
0.0000001
 43
0.0000001
 44
0.0000000001
 40
0.0
 40
0.0
 40
0.0
 40
0.0
 40
0.2279116358
 40
0.469709366
 40
0.7268996357
 40
1.0
 40
1.0
 40
1.0
 40
1.0
 10
5.3346750497
 20
6.1933800587
 30
0.0
 10
5.3391615967
 20
6.1957515872
 30
0.0
 10
5.3480114913
 20
6.2014167257
 30
0.0
 10
5.360277566
 20
6.2120482234
 30
0.0
 10
5.3717520156
 20
6.224904953
 30
0.0
 10
5.3785864466
 20
6.2345652364
 30
0.0
 10
5.3818516335
 20
6.2396952044
 30
0.0
  0
SPLINE
  5
38B
100
AcDbEntity
  8
ALL_FEATURES
100
AcDbSpline
 62
7
  6
CONTINUOUS
 70
0
 71
3
 72
9
 73
5
 74
0
 42
0.0000001
 43
0.0000001
 44
0.0000000001
 40
0.0
 40
0.0
 40
0.0
 40
0.0
 40
0.5122112081
 40
1.0
 40
1.0
 40
1.0
 40
1.0
 10
5.521227631
 20
6.2396952044
 30
0.0
 10
5.522483599
 20
6.2411288647
 30
0.0
 10
5.5248214652
 20
6.2440303494
 30
0.0
 10
5.5268961034
 20
6.247126582
 30
0.0
 10
5.5278319869
 20
6.2486818274
 30
0.0
  0
SPLINE
  5
38C
100
AcDbEntity
  8
ALL_FEATURES
100
AcDbSpline
 62
7
  6
CONTINUOUS
 70
0
 71
3
 72
11
 73
7
 74
0
 42
0.0000001
 43
0.0000001
 44
0.0000000001
 40
0.0
 40
0.0
 40
0.0
 40
0.0
 40
0.2420529267
 40
0.4889842366
 40
0.7415054896
 40
1.0
 40
1.0
 40
1.0
 40
1.0
 10
5.456294634
 20
6.1933800587
 30
0.0
 10
5.46235766
 20
6.195708507
 30
0.0
 10
5.4743069263
 20
6.2012305823
 30
0.0
 10
5.4912109939
 20
6.2118161307
 30
0.0
 10
5.5070481932
 20
6.2246489101
 30
0.0
 10
5.5166571707
 20
6.2344781231
 30
0.0
 10
5.521227631
 20
6.2396952044
 30
0.0
  0
SPLINE
  5
38D
100
AcDbEntity
  8
ALL_FEATURES
100
AcDbSpline
 62
7
  6
CONTINUOUS
 70
0
 71
3
 72
11
 73
7
 74
0
 42
0.0000001
 43
0.0000001
 44
0.0000000001
 40
0.0
 40
0.0
 40
0.0
 40
0.0
 40
0.2584943601
 40
0.5110155125
 40
0.757947007
 40
1.0
 40
1.0
 40
1.0
 40
1.0
 10
4.4180580833
 20
6.2396952044
 30
0.0
 10
4.422628541
 20
6.2344781261
 30
0.0
 10
4.4322375113
 20
6.2246489154
 30
0.0
 10
4.448074711
 20
6.2118161393
 30
0.0
 10
4.4649787803
 20
6.2012305863
 30
0.0
 10
4.4769280526
 20
6.1957085077
 30
0.0
 10
4.4829910803
 20
6.1933800587
 30
0.0
  0
SPLINE
  5
38E
100
AcDbEntity
  8
ALL_FEATURES
100
AcDbSpline
 62
7
  6
CONTINUOUS
 70
0
 71
3
 72
11
 73
7
 74
0
 42
0.0000001
 43
0.0000001
 44
0.0000000001
 40
0.0
 40
0.0
 40
0.0
 40
0.0
 40
0.2731002145
 40
0.5302903809
 40
0.7720882988
 40
1.0
 40
1.0
 40
1.0
 40
1.0
 10
4.5574340808
 20
6.2396952044
 30
0.0
 10
4.5606992659
 20
6.2345652392
 30
0.0
 10
4.5675336913
 20
6.2249049586
 30
0.0
 10
4.5790081417
 20
6.2120482318
 30
0.0
 10
4.5912742173
 20
6.2014167301
 30
0.0
 10
4.6001241163
 20
6.1957515879
 30
0.0
 10
4.6046106646
 20
6.1933800587
 30
0.0
  0
SPLINE
  5
38F
100
AcDbEntity
  8
ALL_FEATURES
100
AcDbSpline
 62
7
  6
CONTINUOUS
 70
0
 71
3
 72
14
 73
10
 74
0
 42
0.0000001
 43
0.0000001
 44
0.0000000001
 40
0.0
 40
0.0
 40
0.0
 40
0.0
 40
0.2938381124
 40
0.4298050879
 40
0.5583822951
 40
0.6795908253
 40
0.7935006012
 40
0.9002352876
 40
1.0
 40
1.0
 40
1.0
 40
1.0
 10
4.7407619061
 20
6.2296959357
 30
0.0
 10
4.7422615193
 20
6.2258313824
 30
0.0
 10
4.7446267438
 20
6.220240784
 30
0.0
 10
4.748124355
 20
6.2131804583
 30
0.0
 10
4.7507505476
 20
6.2084118088
 30
0.0
 10
4.7534426365
 20
6.2040413378
 30
0.0
 10
4.7561955486
 20
6.2000781409
 30
0.0
 10
4.7590020848
 20
6.1965309184
 30
0.0
 10
4.7609696407
 20
6.194377952
 30
0.0
 10
4.7619621432
 20
6.1933800587
 30
0.0
  0
SPLINE
  5
390
100
AcDbEntity
  8
ALL_FEATURES
100
AcDbSpline
 62
7
  6
CONTINUOUS
 70
0
 71
3
 72
10
 73
6
 74
0
 42
0.0000001
 43
0.0000001
 44
0.0000000001
 40
0.0
 40
0.0
 40
0.0
 40
0.0
 40
0.465070622
 40
0.7239095754
 40
1.0
 40
1.0
 40
1.0
 40
1.0
 10
4.666266707
 20
6.1607991095
 30
0.0
 10
4.6670689151
 20
6.1603753506
 30
0.0
 10
4.6681927853
 20
6.1594683199
 30
0.0
 10
4.6694327603
 20
6.1579607391
 30
0.0
 10
4.669995735
 20
6.1570780919
 30
0.0
 10
4.6702610912
 20
6.1566094031
 30
0.0
  0
SPLINE
  5
391
100
AcDbEntity
  8
ALL_FEATURES
100
AcDbSpline
 62
7
  6
CONTINUOUS
 70
0
 71
3
 72
11
 73
7
 74
0
 42
0.0000001
 43
0.0000001
 44
0.0000000001
 40
0.0
 40
0.0
 40
0.0
 40
0.0
 40
0.1953201893
 40
0.4273505096
 40
0.6963646785
 40
1.0
 40
1.0
 40
1.0
 40
1.0
 10
4.7943766429
 20
6.1607991095
 30
0.0
 10
4.7945936881
 20
6.1605810283
 30
0.0
 10
4.7950120029
 20
6.1600476534
 30
0.0
 10
4.7955540483
 20
6.1590912793
 30
0.0
 10
4.796054719
 20
6.1579245287
 30
0.0
 10
4.7963401625
 20
6.1570678334
 30
0.0
 10
4.796476615
 20
6.1566094031
 30
0.0
  0
LINE
  5
392
100
AcDbEntity
  8
ALL_FEATURES
100
AcDbLine
 62
7
  6
CONTINUOUS
 10
5.5538431738
 20
6.1790572071
 11
5.4489505343
 21
6.1464762578
  0
LINE
  5
393
100
AcDbEntity
  8
ALL_FEATURES
100
AcDbLine
 62
7
  6
CONTINUOUS
 10
5.4485258332
 20
6.1462144012
 11
5.4296428571
 21
6.126610191
  0
SPLINE
  5
394
100
AcDbEntity
  8
ALL_FEATURES
100
AcDbSpline
 62
7
  6
CONTINUOUS
 70
0
 71
3
 72
11
 73
7
 74
0
 42
0.0000001
 43
0.0000001
 44
0.0000000001
 40
0.0
 40
0.0
 40
0.0
 40
0.0
 40
0.3036353215
 40
0.5726494904
 40
0.8046798107
 40
1.0
 40
1.0
 40
1.0
 40
1.0
 10
5.1428090993
 20
6.1566094031
 30
0.0
 10
5.1429455518
 20
6.1570678334
 30
0.0
 10
5.1432309952
 20
6.1579245287
 30
0.0
 10
5.143731666
 20
6.1590912793
 30
0.0
 10
5.1442737114
 20
6.1600476534
 30
0.0
 10
5.1446920262
 20
6.1605810283
 30
0.0
 10
5.1449090713
 20
6.1607991095
 30
0.0
  0
SPLINE
  5
395
100
AcDbEntity
  8
ALL_FEATURES
100
AcDbSpline
 62
7
  6
CONTINUOUS
 70
0
 71
3
 72
10
 73
6
 74
0
 42
0.0000001
 43
0.0000001
 44
0.0000000001
 40
0.0
 40
0.0
 40
0.0
 40
0.0
 40
0.2760904246
 40
0.534929378
 40
1.0
 40
1.0
 40
1.0
 40
1.0
 10
5.2690246231
 20
6.1566094031
 30
0.0
 10
5.2692899793
 20
6.1570780919
 30
0.0
 10
5.269852954
 20
6.1579607391
 30
0.0
 10
5.271092929
 20
6.1594683199
 30
0.0
 10
5.2722167992
 20
6.1603753506
 30
0.0
 10
5.2730190073
 20
6.1607991095
 30
0.0
  0
LINE
  5
396
100
AcDbEntity
  8
ALL_FEATURES
100
AcDbLine
 62
7
  6
CONTINUOUS
 10
5.5159798653
 20
6.1790572071
 11
5.4162210369
 21
6.1464762578
  0
LINE
  5
397
100
AcDbEntity
  8
ALL_FEATURES
100
AcDbLine
 62
7
  6
CONTINUOUS
 10
5.4158171222
 20
6.1462144012
 11
5.3978583448
 21
6.126610191
  0
LINE
  5
398
100
AcDbEntity
  8
ALL_FEATURES
100
AcDbLine
 62
7
  6
CONTINUOUS
 10
5.4246372839
 20
6.1790572071
 11
5.3721590342
 21
6.1589063265
  0
LINE
  5
399
100
AcDbEntity
  8
ALL_FEATURES
100
AcDbLine
 62
7
  6
CONTINUOUS
 10
5.3721590342
 20
6.1589063265
 11
5.3397773559
 21
6.1464762578
  0
LINE
  5
39A
100
AcDbEntity
  8
ALL_FEATURES
100
AcDbLine
 62
7
  6
CONTINUOUS
 10
5.3394337655
 20
6.1462144012
 11
5.324157117
 21
6.126610191
  0
LINE
  5
39B
100
AcDbEntity
  8
ALL_FEATURES
100
AcDbLine
 62
7
  6
CONTINUOUS
 10
4.5096428571
 20
6.126610191
 11
4.4907598811
 21
6.1462144012
  0
LINE
  5
39C
100
AcDbEntity
  8
ALL_FEATURES
100
AcDbLine
 62
7
  6
CONTINUOUS
 10
5.3594242321
 20
6.1482552086
 11
5.3659345737
 21
6.1566094031
  0
LINE
  5
39D
100
AcDbEntity
  8
ALL_FEATURES
100
AcDbLine
 62
7
  6
CONTINUOUS
 10
4.49033518
 20
6.1464762578
 11
4.3854425405
 21
6.1790572071
  0
LINE
  5
39E
100
AcDbEntity
  8
ALL_FEATURES
100
AcDbLine
 62
7
  6
CONTINUOUS
 10
4.5414273695
 20
6.126610191
 11
4.5234685921
 21
6.1462144012
  0
LINE
  5
39F
100
AcDbEntity
  8
ALL_FEATURES
100
AcDbLine
 62
7
  6
CONTINUOUS
 10
5.2887566778
 20
6.1790572071
 11
5.2271023312
 21
6.1464762578
  0
LINE
  5
3A0
100
AcDbEntity
  8
ALL_FEATURES
100
AcDbLine
 62
7
  6
CONTINUOUS
 10
5.2268526982
 20
6.1462144012
 11
5.2157535634
 21
6.126610191
  0
LINE
  5
3A1
100
AcDbEntity
  8
ALL_FEATURES
100
AcDbLine
 62
7
  6
CONTINUOUS
 10
4.5230646773
 20
6.1464762578
 11
4.423305849
 21
6.1790572071
  0
LINE
  5
3A2
100
AcDbEntity
  8
ALL_FEATURES
100
AcDbLine
 62
7
  6
CONTINUOUS
 10
4.6151285973
 20
6.126610191
 11
4.5998519488
 21
6.1462144012
  0
LINE
  5
3A3
100
AcDbEntity
  8
ALL_FEATURES
100
AcDbLine
 62
7
  6
CONTINUOUS
 10
5.2730190073
 20
6.1607991095
 11
5.3346750497
 21
6.1933800587
  0
LINE
  5
3A4
100
AcDbEntity
  8
ALL_FEATURES
100
AcDbLine
 62
7
  6
CONTINUOUS
 10
5.264294583
 20
6.1482552086
 11
5.2690246231
 21
6.1566094031
  0
LINE
  5
3A5
100
AcDbEntity
  8
ALL_FEATURES
100
AcDbLine
 62
7
  6
CONTINUOUS
 10
4.5995083584
 20
6.1464762578
 11
4.5671266802
 21
6.1589063265
  0
LINE
  5
3A6
100
AcDbEntity
  8
ALL_FEATURES
100
AcDbLine
 62
7
  6
CONTINUOUS
 10
4.5671266802
 20
6.1589063265
 11
4.5146484304
 21
6.1790572071
  0
LINE
  5
3A7
100
AcDbEntity
  8
ALL_FEATURES
100
AcDbLine
 62
7
  6
CONTINUOUS
 10
4.5733511406
 20
6.1566094031
 11
4.5798614822
 21
6.1482552086
  0
LINE
  5
3A8
100
AcDbEntity
  8
ALL_FEATURES
100
AcDbLine
 62
7
  6
CONTINUOUS
 10
4.7235321509
 20
6.126610191
 11
4.7124330161
 21
6.1462144012
  0
LINE
  5
3A9
100
AcDbEntity
  8
ALL_FEATURES
100
AcDbLine
 62
7
  6
CONTINUOUS
 10
5.1216389876
 20
6.1790572071
 11
5.0892253794
 21
6.1464762578
  0
LINE
  5
3AA
100
AcDbEntity
  8
ALL_FEATURES
100
AcDbLine
 62
7
  6
CONTINUOUS
 10
5.0890941396
 20
6.1462144012
 11
5.0832589791
 21
6.126610191
  0
LINE
  5
3AB
100
AcDbEntity
  8
ALL_FEATURES
100
AcDbLine
 62
7
  6
CONTINUOUS
 10
4.7121833831
 20
6.1464762578
 11
4.6505290364
 21
6.1790572071
  0
LINE
  5
3AC
100
AcDbEntity
  8
ALL_FEATURES
100
AcDbLine
 62
7
  6
CONTINUOUS
 10
4.6046106646
 20
6.1933800587
 11
4.666266707
 21
6.1607991095
  0
LINE
  5
3AD
100
AcDbEntity
  8
ALL_FEATURES
100
AcDbLine
 62
7
  6
CONTINUOUS
 10
4.6702610912
 20
6.1566094031
 11
4.6749911313
 21
6.1482552086
  0
LINE
  5
3AE
100
AcDbEntity
  8
ALL_FEATURES
100
AcDbLine
 62
7
  6
CONTINUOUS
 10
4.8560267352
 20
6.126610191
 11
4.8501915747
 21
6.1462144012
  0
LINE
  5
3AF
100
AcDbEntity
  8
ALL_FEATURES
100
AcDbLine
 62
7
  6
CONTINUOUS
 10
5.1449090713
 20
6.1607991095
 11
5.1773235711
 21
6.1933800587
  0
LINE
  5
3B0
100
AcDbEntity
  8
ALL_FEATURES
100
AcDbLine
 62
7
  6
CONTINUOUS
 10
5.14032237
 20
6.1482552086
 11
5.1428090993
 21
6.1566094031
  0
LINE
  5
3B1
100
AcDbEntity
  8
ALL_FEATURES
100
AcDbLine
 62
7
  6
CONTINUOUS
 10
4.8500603349
 20
6.1464762578
 11
4.8176467267
 21
6.1790572071
  0
LINE
  5
3B2
100
AcDbEntity
  8
ALL_FEATURES
100
AcDbLine
 62
7
  6
CONTINUOUS
 10
4.7619621432
 20
6.1933800587
 11
4.7943766429
 21
6.1607991095
  0
LINE
  5
3B3
100
AcDbEntity
  8
ALL_FEATURES
100
AcDbLine
 62
7
  6
CONTINUOUS
 10
4.796476615
 20
6.1566094031
 11
4.7989633442
 21
6.1482552086
  0
SPLINE
  5
3B4
100
AcDbEntity
  8
ALL_FEATURES
100
AcDbSpline
 62
7
  6
CONTINUOUS
 70
0
 71
3
 72
27
 73
23
 74
0
 42
0.0000001
 43
0.0000001
 44
0.0000000001
 40
0.0
 40
0.0
 40
0.0
 40
0.0
 40
0.0062880887
 40
0.0124812733
 40
0.0197647274
 40
0.0288836303
 40
0.0402088073
 40
0.0539176845
 40
0.0700691478
 40
0.0886460711
 40
0.13290225
 40
0.1862307149
 40
0.2477971228
 40
0.3166553006
 40
0.3917320359
 40
0.471800345
 40
0.5556935782
 40
0.6423812962
 40
0.730894125
 40
0.8203819404
 40
0.9102621829
 40
1.0
 40
1.0
 40
1.0
 40
1.0
 10
4.5621564536
 20
6.1033670681
 30
0.0
 10
4.5621566368
 20
6.1032880424
 30
0.0
 10
4.5621287346
 20
6.1031272004
 30
0.0
 10
4.561967968
 20
6.1029264124
 30
0.0
 10
4.5617137029
 20
6.1027895699
 30
0.0
 10
4.5613745492
 20
6.1027020502
 30
0.0
 10
4.5609463606
 20
6.1026591458
 30
0.0
 10
4.5604282035
 20
6.1026595612
 30
0.0
 10
4.5598206494
 20
6.1027033327
 30
0.0
 10
4.5588355773
 20
6.102828665
 30
0.0
 10
4.5574015854
 20
6.103110117
 30
0.0
 10
4.5554643918
 20
6.103611232
 30
0.0
 10
4.5532606893
 20
6.1043050738
 30
0.0
 10
4.5508372431
 20
6.1052006802
 30
0.0
 10
4.5482455515
 20
6.1063027011
 30
0.0
 10
4.5455402732
 20
6.1076118661
 30
0.0
 10
4.5427784968
 20
6.109129897
 30
0.0
 10
4.5400085124
 20
6.1108443517
 30
0.0
 10
4.537275169
 20
6.1127431341
 30
0.0
 10
4.5346201739
 20
6.114816018
 30
0.0
 10
4.532070506
 20
6.1170403726
 30
0.0
 10
4.5304519948
 20
6.1186158837
 30
0.0
 10
4.529666185
 20
6.119424835
 30
0.0
  0
LINE
  5
3B5
100
AcDbEntity
  8
ALL_FEATURES
100
AcDbLine
 62
7
  6
CONTINUOUS
 10
4.6638919964
 20
6.1462144012
 11
4.6636423634
 21
6.1464762578
  0
LINE
  5
3B6
100
AcDbEntity
  8
ALL_FEATURES
100
AcDbLine
 62
7
  6
CONTINUOUS
 10
4.7931281837
 20
6.1462144012
 11
4.7929969439
 21
6.1464762578
  0
SPLINE
  5
3B7
100
AcDbEntity
  8
ALL_FEATURES
100
AcDbSpline
 62
7
  6
CONTINUOUS
 70
0
 71
3
 72
9
 73
5
 74
0
 42
0.0000001
 43
0.0000001
 44
0.0000000001
 40
0.0
 40
0.0
 40
0.0
 40
0.0
 40
0.2440139561
 40
1.0
 40
1.0
 40
1.0
 40
1.0
 10
5.14032237
 20
6.126610191
 30
0.0
 10
5.1401425883
 20
6.126006234
 30
0.0
 10
5.1393465824
 20
6.123548994
 30
0.0
 10
5.1383221175
 20
6.1211671539
 30
0.0
 10
5.1374413765
 20
6.119424835
 30
0.0
  0
SPLINE
  5
3B8
100
AcDbEntity
  8
ALL_FEATURES
100
AcDbSpline
 62
7
  6
CONTINUOUS
 70
0
 71
3
 72
11
 73
7
 74
0
 42
0.0000001
 43
0.0000001
 44
0.0000000001
 40
0.0
 40
0.0
 40
0.0
 40
0.0
 40
0.2515734174
 40
0.5020432835
 40
0.751481182
 40
1.0
 40
1.0
 40
1.0
 40
1.0
 10
5.6066106677
 20
6.219819215
 30
0.0
 10
5.6013134136
 20
6.2152628676
 30
0.0
 10
5.5902939688
 20
6.2066765129
 30
0.0
 10
5.5726284635
 20
6.1954998974
 30
0.0
 10
5.5540220509
 20
6.1861585986
 30
0.0
 10
5.5410820128
 20
6.1812006692
 30
0.0
 10
5.534520885
 20
6.1790572071
 30
0.0
  0
SPLINE
  5
3B9
100
AcDbEntity
  8
ALL_FEATURES
100
AcDbSpline
 62
7
  6
CONTINUOUS
 70
0
 71
3
 72
9
 73
5
 74
0
 42
0.0000001
 43
0.0000001
 44
0.0000000001
 40
0.0
 40
0.0
 40
0.0
 40
0.0
 40
0.2431578671
 40
1.0
 40
1.0
 40
1.0
 40
1.0
 10
5.264294583
 20
6.126610191
 30
0.0
 10
5.2639519539
 20
6.1260050615
 30
0.0
 10
5.2625021065
 20
6.1235396382
 30
0.0
 10
5.260897359
 20
6.121166128
 30
0.0
 10
5.2596117521
 20
6.119424835
 30
0.0
  0
LINE
  5
3BA
100
AcDbEntity
  8
ALL_FEATURES
100
AcDbLine
 62
7
  6
CONTINUOUS
 10
5.1462887704
 20
6.1464762578
 11
5.1461575305
 21
6.1462144012
  0
LINE
  5
3BB
100
AcDbEntity
  8
ALL_FEATURES
100
AcDbLine
 62
7
  6
CONTINUOUS
 10
5.2756433509
 20
6.1464762578
 11
5.2753937179
 21
6.1462144012
  0
SPLINE
  5
3BC
100
AcDbEntity
  8
ALL_FEATURES
100
AcDbSpline
 62
7
  6
CONTINUOUS
 70
0
 71
3
 72
11
 73
7
 74
0
 42
0.0000001
 43
0.0000001
 44
0.0000000001
 40
0.0
 40
0.0
 40
0.0
 40
0.0
 40
0.2572092398
 40
0.5093302325
 40
0.7567332733
 40
1.0
 40
1.0
 40
1.0
 40
1.0
 10
5.521227631
 20
6.219819215
 30
0.0
 10
5.5167569335
 20
6.2152986785
 30
0.0
 10
5.5074617506
 20
6.2067707067
 30
0.0
 10
5.4924350851
 20
6.1955757887
 30
0.0
 10
5.4766004862
 20
6.1862138349
 30
0.0
 10
5.4655178775
 20
6.1812130547
 30
0.0
 10
5.459904399
 20
6.1790572071
 30
0.0
  0
LINE
  5
3BD
100
AcDbEntity
  8
ALL_FEATURES
100
AcDbLine
 62
7
  6
CONTINUOUS
 10
5.375044471
 20
6.1464762578
 11
5.3747008806
 21
6.1462144012
  0
SPLINE
  5
3BE
100
AcDbEntity
  8
ALL_FEATURES
100
AcDbSpline
 62
7
  6
CONTINUOUS
 70
0
 71
3
 72
19
 73
15
 74
0
 42
0.0000001
 43
0.0000001
 44
0.0000000001
 40
0.0
 40
0.0
 40
0.0
 40
0.0
 40
0.0145157199
 40
0.0307451528
 40
0.0682265095
 40
0.1118975461
 40
0.1609629625
 40
0.2148127229
 40
0.2728213173
 40
0.3992569801
 40
0.5372074597
 40
0.6844383159
 40
0.8393089859
 40
1.0
 40
1.0
 40
1.0
 40
1.0
 10
5.6273397872
 20
6.2470424081
 30
0.0
 10
5.6273399998
 20
6.2468743004
 30
0.0
 10
5.6273154933
 20
6.2465180889
 30
0.0
 10
5.6271818794
 20
6.2457384467
 30
0.0
 10
5.6268593287
 20
6.2446540877
 30
0.0
 10
5.6262904853
 20
6.243256048
 30
0.0
 10
5.6255391572
 20
6.2417323579
 30
0.0
 10
5.6246222933
 20
6.2401089534
 30
0.0
 10
5.6231556911
 20
6.2377702912
 30
0.0
 10
5.6209834186
 20
6.2347292984
 30
0.0
 10
5.6179739652
 20
6.2310291909
 30
0.0
 10
5.6145429456
 20
6.227257539
 30
0.0
 10
5.6107373706
 20
6.2234805761
 30
0.0
 10
5.6080215394
 20
6.2210327534
 30
0.0
 10
5.6066106677
 20
6.219819215
 30
0.0
  0
LINE
  5
3BF
100
AcDbEntity
  8
ALL_FEATURES
100
AcDbLine
 62
7
  6
CONTINUOUS
 10
5.4347620566
 20
6.1464762578
 11
5.4343581419
 21
6.1462144012
  0
SPLINE
  5
3C0
100
AcDbEntity
  8
ALL_FEATURES
100
AcDbSpline
 62
7
  6
CONTINUOUS
 70
0
 71
3
 72
11
 73
7
 74
0
 42
0.0000001
 43
0.0000001
 44
0.0000000001
 40
0.0
 40
0.0
 40
0.0
 40
0.0
 40
0.2700519985
 40
0.5262058102
 40
0.7690888748
 40
1.0
 40
1.0
 40
1.0
 40
1.0
 10
5.3818516335
 20
6.219819215
 30
0.0
 10
5.3786533887
 20
6.2153681354
 30
0.0
 10
5.372023975
 20
6.2069699612
 30
0.0
 10
5.3611253727
 20
6.195753192
 30
0.0
 10
5.3496279065
 20
6.18635654
 30
0.0
 10
5.3414410133
 20
6.1812473527
 30
0.0
 10
5.3372976975
 20
6.1790572071
 30
0.0
  0
SPLINE
  5
3C1
100
AcDbEntity
  8
ALL_FEATURES
100
AcDbSpline
 62
7
  6
CONTINUOUS
 70
0
 71
3
 72
15
 73
11
 74
0
 42
0.0000001
 43
0.0000001
 44
0.0000000001
 40
0.0
 40
0.0
 40
0.0
 40
0.0
 40
0.1511083315
 40
0.2949183674
 40
0.4312313694
 40
0.5599383783
 40
0.6810574557
 40
0.7946691633
 40
0.9009109053
 40
1.0
 40
1.0
 40
1.0
 40
1.0
 10
5.2021257689
 20
6.219819215
 30
0.0
 10
5.201283309
 20
6.2175890385
 30
0.0
 10
5.1995700155
 20
6.2132619969
 30
0.0
 10
5.196841607
 20
6.2070279808
 30
0.0
 10
5.194023888
 20
6.2012239214
 30
0.0
 10
5.191123226
 20
6.1958642901
 30
0.0
 10
5.188146445
 20
6.1909606257
 30
0.0
 10
5.1850992264
 20
6.1865234884
 30
0.0
 10
5.1819892621
 20
6.1825631961
 30
0.0
 10
5.17980479
 20
6.1801656287
 30
0.0
 10
5.1787023786
 20
6.1790572071
 30
0.0
  0
SPLINE
  5
3C2
100
AcDbEntity
  8
ALL_FEATURES
100
AcDbSpline
 62
7
  6
CONTINUOUS
 70
0
 71
3
 72
14
 73
10
 74
0
 42
0.0000001
 43
0.0000001
 44
0.0000000001
 40
0.0
 40
0.0
 40
0.0
 40
0.0
 40
0.0958373335
 40
0.2012994912
 40
0.3156880237
 40
0.438281304
 40
0.568465952
 40
0.705854767
 40
1.0
 40
1.0
 40
1.0
 40
1.0
 10
5.5335944492
 20
6.2424181545
 30
0.0
 10
5.5335947165
 20
6.2415780499
 30
0.0
 10
5.5334062883
 20
6.2398125153
 30
0.0
 10
5.5327121128
 20
6.2371271247
 30
0.0
 10
5.5316296722
 20
6.234321084
 30
0.0
 10
5.530189573
 20
6.2314382265
 30
0.0
 10
5.5284128192
 20
6.228511514
 30
0.0
 10
5.5255514901
 20
6.224500318
 30
0.0
 10
5.5230407437
 20
6.2216525402
 30
0.0
 10
5.521227631
 20
6.219819215
 30
0.0
  0
SPLINE
  5
3C3
100
AcDbEntity
  8
ALL_FEATURES
100
AcDbSpline
 62
7
  6
CONTINUOUS
 70
0
 71
3
 72
17
 73
13
 74
0
 42
0.0000001
 43
0.0000001
 44
0.0000000001
 40
0.0
 40
0.0
 40
0.0
 40
0.0
 40
0.1092214719
 40
0.1626755535
 40
0.2159244777
 40
0.2695624078
 40
0.3242639814
 40
0.4392902106
 40
0.5649555865
 40
0.7020621224
 40
0.8485146642
 40
1.0
 40
1.0
 40
1.0
 40
1.0
 10
4.9988457127
 20
6.119424835
 30
0.0
 10
4.9985542773
 20
6.118119185
 30
0.0
 10
4.9979707136
 20
6.1161993816
 30
0.0
 10
4.9968272677
 20
6.1138100193
 30
0.0
 10
4.9957867502
 20
6.112139248
 30
0.0
 10
4.9945502115
 20
6.1105879799
 30
0.0
 10
4.9925998928
 20
6.1086609366
 30
0.0
 10
4.989588361
 20
6.1065981685
 30
0.0
 10
4.9853088438
 20
6.1047798949
 30
0.0
 10
4.9804384088
 20
6.1035353568
 30
0.0
 10
4.9751497219
 20
6.1028168933
 30
0.0
 10
4.9714982993
 20
6.1026612093
 30
0.0
 10
4.9696428571
 20
6.1026612093
 30
0.0
  0
SPLINE
  5
3C4
100
AcDbEntity
  8
ALL_FEATURES
100
AcDbSpline
 62
7
  6
CONTINUOUS
 70
0
 71
3
 72
33
 73
29
 74
0
 42
0.0000001
 43
0.0000001
 44
0.0000000001
 40
0.0
 40
0.0
 40
0.0
 40
0.0
 40
0.0619384714
 40
0.1250036192
 40
0.1905438081
 40
0.2246070264
 40
0.259649962
 40
0.2956818235
 40
0.3326056781
 40
0.4085118499
 40
0.4856695331
 40
0.5617871742
 40
0.5986935075
 40
0.6344313635
 40
0.6687427737
 40
0.701390609
 40
0.7322089672
 40
0.7611324258
 40
0.788162728
 40
0.8134327923
 40
0.8372455677
 40
0.8599937954
 40
0.8821581903
 40
0.9042705771
 40
0.926799849
 40
0.9501171821
 40
0.9744745704
 40
1.0
 40
1.0
 40
1.0
 40
1.0
 10
5.1374413765
 20
6.119424835
 30
0.0
 10
5.1367926269
 20
6.1181414514
 30
0.0
 10
5.1352839625
 20
6.1156453256
 30
0.0
 10
5.1323794286
 20
6.1122798387
 30
0.0
 10
5.1294291984
 20
6.1098896251
 30
0.0
 10
5.1267793103
 20
6.1082266088
 30
0.0
 10
5.1246142082
 20
6.1070937955
 30
0.0
 10
5.1223123392
 20
6.106094621
 30
0.0
 10
5.1190573417
 20
6.1049266447
 30
0.0
 10
5.1147783507
 20
6.1038157546
 30
0.0
 10
5.1095156986
 20
6.1029870977
 30
0.0
 10
5.1051055808
 20
6.1026734587
 30
0.0
 10
5.1016509562
 20
6.1026488178
 30
0.0
 10
5.0991685563
 20
6.1027419574
 30
0.0
 10
5.0967921487
 20
6.102949042
 30
0.0
 10
5.0945437685
 20
6.1032721404
 30
0.0
 10
5.0924430985
 20
6.1037147729
 30
0.0
 10
5.090507332
 20
6.104281328
 30
0.0
 10
5.0887512804
 20
6.1049776169
 30
0.0
 10
5.0871874893
 20
6.1058096161
 30
0.0
 10
5.0858227654
 20
6.106776998
 30
0.0
 10
5.084662508
 20
6.107881293
 30
0.0
 10
5.0837130019
 20
6.1091222368
 30
0.0
 10
5.0829669187
 20
6.1104885212
 30
0.0
 10
5.0824128863
 20
6.1119709783
 30
0.0
 10
5.0820393916
 20
6.1135614245
 30
0.0
 10
5.0818308848
 20
6.1152507186
 30
0.0
 10
5.0817905941
 20
6.1164095479
 30
0.0
 10
5.0817906345
 20
6.1170021764
 30
0.0
  0
SPLINE
  5
3C5
100
AcDbEntity
  8
ALL_FEATURES
100
AcDbSpline
 62
7
  6
CONTINUOUS
 70
0
 71
3
 72
30
 73
26
 74
0
 42
0.0000001
 43
0.0000001
 44
0.0000000001
 40
0.0
 40
0.0
 40
0.0
 40
0.0
 40
0.0711283674
 40
0.1439397234
 40
0.2188125602
 40
0.2957491483
 40
0.3743826881
 40
0.453729644
 40
0.5322556564
 40
0.6081755055
 40
0.6795877204
 40
0.7130649985
 40
0.7447770858
 40
0.7745666627
 40
0.8023229715
 40
0.8279640756
 40
0.8514807257
 40
0.8729884932
 40
0.8926981562
 40
0.9109444862
 40
0.928243071
 40
0.9452115184
 40
0.96247662
 40
0.9806019063
 40
1.0
 40
1.0
 40
1.0
 40
1.0
 10
5.2596117521
 20
6.119424835
 30
0.0
 10
5.2587874819
 20
6.1183084005
 30
0.0
 10
5.2569879907
 20
6.1161429459
 30
0.0
 10
5.2538898443
 20
6.1131917186
 30
0.0
 10
5.2503696728
 20
6.1105643015
 30
0.0
 10
5.2464803318
 20
6.108291
 30
0.0
 10
5.2422933264
 20
6.1064074535
 30
0.0
 10
5.2379198551
 20
6.10491717
 30
0.0
 10
5.2334888639
 20
6.1038135483
 30
0.0
 10
5.2291402528
 20
6.1030778285
 30
0.0
 10
5.2256247721
 20
6.1027429186
 30
0.0
 10
5.2229605159
 20
6.1026513315
 30
0.0
 10
5.2211068546
 20
6.1026670058
 30
0.0
 10
5.2193674146
 20
6.1027658867
 30
0.0
 10
5.2177538114
 20
6.1029497253
 30
0.0
 10
5.2162763433
 20
6.1032200862
 30
0.0
 10
5.2149433404
 20
6.1035795981
 30
0.0
 10
5.2137612084
 20
6.1040317282
 30
0.0
 10
5.2127347936
 20
6.1045805962
 30
0.0
 10
5.2118701104
 20
6.1052328989
 30
0.0
 10
5.2111712488
 20
6.1059902329
 30
0.0
 10
5.2106387995
 20
6.1068503082
 30
0.0
 10
5.2102713718
 20
6.1078095629
 30
0.0
 10
5.2100642694
 20
6.1088625989
 30
0.0
 10
5.2100249481
 20
6.1095958425
 30
0.0
 10
5.2100250444
 20
6.1099743088
 30
0.0
  0
SPLINE
  5
3C6
100
AcDbEntity
  8
ALL_FEATURES
100
AcDbSpline
 62
7
  6
CONTINUOUS
 70
0
 71
3
 72
28
 73
24
 74
0
 42
0.0000001
 43
0.0000001
 44
0.0000000001
 40
0.0
 40
0.0
 40
0.0
 40
0.0
 40
0.0808265729
 40
0.1628419698
 40
0.2458144721
 40
0.3293263233
 40
0.4125904818
 40
0.4946666312
 40
0.5742339907
 40
0.6498026595
 40
0.7199325859
 40
0.7832165766
 40
0.8385169406
 40
0.8628789339
 40
0.8849576887
 40
0.9047545495
 40
0.9223164299
 40
0.9377671637
 40
0.9514004663
 40
0.9637136817
 40
0.9753875146
 40
0.9872255538
 40
1.0
 40
1.0
 40
1.0
 40
1.0
 10
5.3533979519
 20
6.119424835
 30
0.0
 10
5.3525360773
 20
6.1184659628
 30
0.0
 10
5.3507197587
 20
6.1166043851
 30
0.0
 10
5.3477621709
 20
6.1140238409
 30
0.0
 10
5.3445695014
 20
6.1116669553
 30
0.0
 10
5.341181277
 20
6.1095639731
 30
0.0
 10
5.3376574584
 20
6.1077284091
 30
0.0
 10
5.3340654395
 20
6.1061841215
 30
0.0
 10
5.3304935307
 20
6.1049272689
 30
0.0
 10
5.3270312631
 20
6.1039567245
 30
0.0
 10
5.3237689175
 20
6.1032605266
 30
0.0
 10
5.3207886792
 20
6.1028222231
 30
0.0
 10
5.3185113933
 20
6.102656907
 30
0.0
 10
5.3168877865
 20
6.1026596818
 30
0.0
 10
5.3158323856
 20
6.1027233779
 30
0.0
 10
5.3148916462
 20
6.1028495018
 30
0.0
 10
5.3140692834
 20
6.1030391448
 30
0.0
 10
5.3133678297
 20
6.1032945056
 30
0.0
 10
5.3127888277
 20
6.1036197622
 30
0.0
 10
5.3123346301
 20
6.1040202657
 30
0.0
 10
5.3120112277
 20
6.1044996728
 30
0.0
 10
5.3118250522
 20
6.1050543835
 30
0.0
 10
5.3117914457
 20
6.1054489256
 30
0.0
 10
5.3117916979
 20
6.1056526943
 30
0.0
  0
SPLINE
  5
3C7
100
AcDbEntity
  8
ALL_FEATURES
100
AcDbSpline
 62
7
  6
CONTINUOUS
 70
0
 71
3
 72
27
 73
23
 74
0
 42
0.0000001
 43
0.0000001
 44
0.0000000001
 40
0.0
 40
0.0
 40
0.0
 40
0.0
 40
0.0897382128
 40
0.1796227351
 40
0.2691150767
 40
0.3576339768
 40
0.4443309036
 40
0.5282283491
 40
0.6082943597
 40
0.6833694238
 40
0.7522269396
 40
0.8137824119
 40
0.8671032909
 40
0.9113549483
 40
0.9299297133
 40
0.9460804
 40
0.959790232
 40
0.9711152528
 40
0.9802333
 40
0.9875163174
 40
0.9937105606
 40
1.0
 40
1.0
 40
1.0
 40
1.0
 10
5.4096195293
 20
6.119424835
 30
0.0
 10
5.4088337157
 20
6.1186158797
 30
0.0
 10
5.4072151379
 20
6.1170403496
 30
0.0
 10
5.404665342
 20
6.1148159661
 30
0.0
 10
5.4020102545
 20
6.1127428971
 30
0.0
 10
5.3992766979
 20
6.1108439712
 30
0.0
 10
5.3965063509
 20
6.1091296382
 30
0.0
 10
5.3937445372
 20
6.1076113936
 30
0.0
 10
5.3910392758
 20
6.1063021679
 30
0.0
 10
5.3884475369
 20
6.1052004039
 30
0.0
 10
5.3860242582
 20
6.1043048348
 30
0.0
 10
5.3838208002
 20
6.1036110054
 30
0.0
 10
5.3818838487
 20
6.1031101037
 30
0.0
 10
5.3804500347
 20
6.1028286899
 30
0.0
 10
5.3794650608
 20
6.1027033273
 30
0.0
 10
5.3788575311
 20
6.1026595456
 30
0.0
 10
5.3783393734
 20
6.1026591583
 30
0.0
 10
5.3779111859
 20
6.1027020474
 30
0.0
 10
5.3775720423
 20
6.1027895403
 30
0.0
 10
5.3773177816
 20
6.1029263847
 30
0.0
 10
5.3771569839
 20
6.1031271703
 30
0.0
 10
5.3771290369
 20
6.103288043
 30
0.0
 10
5.3771292317
 20
6.1033670857
 30
0.0
  0
SPLINE
  5
3C8
100
AcDbEntity
  8
ALL_FEATURES
100
AcDbSpline
 62
7
  6
CONTINUOUS
 70
0
 71
3
 72
9
 73
5
 74
0
 42
0.0000001
 43
0.0000001
 44
0.0000000001
 40
0.0
 40
0.0
 40
0.0
 40
0.0
 40
0.2567924276
 40
1.0
 40
1.0
 40
1.0
 40
1.0
 10
4.6796739622
 20
6.119424835
 30
0.0
 10
4.6792377672
 20
6.1200156403
 30
0.0
 10
4.6775720069
 20
6.1223403101
 30
0.0
 10
4.6760383605
 20
6.1247606425
 30
0.0
 10
4.6749911313
 20
6.126610191
 30
0.0
  0
SPLINE
  5
3C9
100
AcDbEntity
  8
ALL_FEATURES
100
AcDbSpline
 62
7
  6
CONTINUOUS
 70
0
 71
3
 72
9
 73
5
 74
0
 42
0.0000001
 43
0.0000001
 44
0.0000000001
 40
0.0
 40
0.0
 40
0.0
 40
0.0
 40
0.5047588057
 40
1.0
 40
1.0
 40
1.0
 40
1.0
 10
4.7371599454
 20
6.219819215
 30
0.0
 10
4.7366769381
 20
6.2210978414
 30
0.0
 10
4.7359411007
 20
6.2237208622
 30
0.0
 10
4.7356917446
 20
6.2264341619
 30
0.0
 10
4.7356913015
 20
6.2277752039
 30
0.0
  0
LINE
  5
3CA
100
AcDbEntity
  8
ALL_FEATURES
100
AcDbLine
 62
7
  6
CONTINUOUS
 10
5.4347620566
 20
6.1464762578
 11
5.5177676619
 21
6.1735843015
  0
SPLINE
  5
3CB
100
AcDbEntity
  8
ALL_FEATURES
100
AcDbSpline
 62
7
  6
CONTINUOUS
 70
0
 71
3
 72
15
 73
11
 74
0
 42
0.0000001
 43
0.0000001
 44
0.0000000001
 40
0.0
 40
0.0
 40
0.0
 40
0.0
 40
0.0990891024
 40
0.2053308724
 40
0.3189426344
 40
0.4400617687
 40
0.5687687844
 40
0.7050817186
 40
0.8488916936
 40
1.0
 40
1.0
 40
1.0
 40
1.0
 10
4.7605833357
 20
6.1790572071
 30
0.0
 10
4.7594809242
 20
6.1801656288
 30
0.0
 10
4.7572964517
 20
6.1825631966
 30
0.0
 10
4.7541864868
 20
6.1865234902
 30
0.0
 10
4.7511392669
 20
6.1909606294
 30
0.0
 10
4.7481624854
 20
6.1958642956
 30
0.0
 10
4.7452618236
 20
6.2012239269
 30
0.0
 10
4.742444105
 20
6.2070279844
 30
0.0
 10
4.739715698
 20
6.2132619984
 30
0.0
 10
4.7380024052
 20
6.2175890389
 30
0.0
 10
4.7371599454
 20
6.219819215
 30
0.0
  0
SPLINE
  5
3CC
100
AcDbEntity
  8
ALL_FEATURES
100
AcDbSpline
 62
7
  6
CONTINUOUS
 70
0
 71
3
 72
11
 73
7
 74
0
 42
0.0000001
 43
0.0000001
 44
0.0000000001
 40
0.0
 40
0.0
 40
0.0
 40
0.0
 40
0.4704464571
 40
0.5970559629
 40
0.7274643458
 40
1.0
 40
1.0
 40
1.0
 40
1.0
 10
5.387581529
 20
6.2356445987
 30
0.0
 10
5.3875812487
 20
6.2329701534
 30
0.0
 10
5.3868677012
 20
6.2295552189
 30
0.0
 10
5.3853116693
 20
6.2257267218
 30
0.0
 10
5.3839805923
 20
6.2230230523
 30
0.0
 10
5.3827557038
 20
6.221077433
 30
0.0
 10
5.3818516335
 20
6.219819215
 30
0.0
  0
SPLINE
  5
3CD
100
AcDbEntity
  8
ALL_FEATURES
100
AcDbSpline
 62
7
  6
CONTINUOUS
 70
0
 71
3
 72
11
 73
7
 74
0
 42
0.0000001
 43
0.0000001
 44
0.0000000001
 40
0.0
 40
0.0
 40
0.0
 40
0.0
 40
0.2725268384
 40
0.4029385942
 40
0.5295554395
 40
1.0
 40
1.0
 40
1.0
 40
1.0
 10
4.5574340808
 20
6.219819215
 30
0.0
 10
4.55653004
 20
6.2210773919
 30
0.0
 10
4.5553051728
 20
6.2230229887
 30
0.0
 10
4.553974108
 20
6.2257266722
 30
0.0
 10
4.5524179935
 20
6.2295551974
 30
0.0
 10
4.5517046446
 20
6.2329701673
 30
0.0
 10
4.5517041898
 20
6.235644601
 30
0.0
  0
SPLINE
  5
3CE
100
AcDbEntity
  8
ALL_FEATURES
100
AcDbSpline
 62
7
  6
CONTINUOUS
 70
0
 71
3
 72
11
 73
7
 74
0
 42
0.0000001
 43
0.0000001
 44
0.0000000001
 40
0.0
 40
0.0
 40
0.0
 40
0.0
 40
0.2309111615
 40
0.4737943334
 40
0.7299480872
 40
1.0
 40
1.0
 40
1.0
 40
1.0
 10
4.6019880168
 20
6.1790572071
 30
0.0
 10
4.5978447003
 20
6.1812473531
 30
0.0
 10
4.5896578048
 20
6.1863565421
 30
0.0
 10
4.578160338
 20
6.1957531961
 30
0.0
 10
4.5672617354
 20
6.2069699641
 30
0.0
 10
4.5606323245
 20
6.2153681369
 30
0.0
 10
4.5574340808
 20
6.219819215
 30
0.0
  0
SPLINE
  5
3CF
100
AcDbEntity
  8
ALL_FEATURES
100
AcDbSpline
 62
7
  6
CONTINUOUS
 70
0
 71
3
 72
9
 73
5
 74
0
 42
0.0000001
 43
0.0000001
 44
0.0000000001
 40
0.0
 40
0.0
 40
0.0
 40
0.0
 40
0.2563394203
 40
1.0
 40
1.0
 40
1.0
 40
1.0
 10
4.8018443378
 20
6.119424835
 30
0.0
 10
4.8015457024
 20
6.1200156081
 30
0.0
 10
4.8004294728
 20
6.1223443958
 30
0.0
 10
4.7995112391
 20
6.1247695991
 30
0.0
 10
4.7989633442
 20
6.126610191
 30
0.0
  0
LINE
  5
3D0
100
AcDbEntity
  8
ALL_FEATURES
100
AcDbLine
 62
7
  6
CONTINUOUS
 10
5.4163993645
 20
6.126610191
 11
5.4343581419
 21
6.1462144012
  0
SPLINE
  5
3D1
100
AcDbEntity
  8
ALL_FEATURES
100
AcDbSpline
 62
7
  6
CONTINUOUS
 70
0
 71
3
 72
14
 73
10
 74
0
 42
0.0000001
 43
0.0000001
 44
0.0000000001
 40
0.0
 40
0.0
 40
0.0
 40
0.0
 40
0.294135793
 40
0.4315309921
 40
0.5617167039
 40
0.6842985638
 40
0.7986931386
 40
0.904143345
 40
1.0
 40
1.0
 40
1.0
 40
1.0
 10
4.4180580833
 20
6.219819215
 30
0.0
 10
4.4162450184
 20
6.2216524919
 30
0.0
 10
4.4137343071
 20
6.2245002943
 30
0.0
 10
4.4108729349
 20
6.2285114642
 30
0.0
 10
4.4090960785
 20
6.2314381084
 30
0.0
 10
4.4076561855
 20
6.2343210341
 30
0.0
 10
4.4065735198
 20
6.2371268573
 30
0.0
 10
4.4058796383
 20
6.2398124519
 30
0.0
 10
4.4056909105
 20
6.2415780164
 30
0.0
 10
4.4056910995
 20
6.2424182953
 30
0.0
  0
SPLINE
  5
3D2
100
AcDbEntity
  8
ALL_FEATURES
100
AcDbSpline
 62
7
  6
CONTINUOUS
 70
0
 71
3
 72
11
 73
7
 74
0
 42
0.0000001
 43
0.0000001
 44
0.0000000001
 40
0.0
 40
0.0
 40
0.0
 40
0.0
 40
0.2432667634
 40
0.4906699101
 40
0.7427908463
 40
1.0
 40
1.0
 40
1.0
 40
1.0
 10
4.4793813153
 20
6.1790572071
 30
0.0
 10
4.4737678359
 20
6.181213055
 30
0.0
 10
4.4626852241
 20
6.1862138369
 30
0.0
 10
4.4468506241
 20
6.1955757929
 30
0.0
 10
4.4318239585
 20
6.2067707093
 30
0.0
 10
4.4225287793
 20
6.21529868
 30
0.0
 10
4.4180580833
 20
6.219819215
 30
0.0
  0
LINE
  5
3D3
100
AcDbEntity
  8
ALL_FEATURES
100
AcDbLine
 62
7
  6
CONTINUOUS
 10
5.375044471
 20
6.1464762578
 11
5.459904399
 21
6.1790572071
  0
SPLINE
  5
3D4
100
AcDbEntity
  8
ALL_FEATURES
100
AcDbSpline
 62
7
  6
CONTINUOUS
 70
0
 71
3
 72
19
 73
15
 74
0
 42
0.0000001
 43
0.0000001
 44
0.0000000001
 40
0.0
 40
0.0
 40
0.0
 40
0.0
 40
0.1606808634
 40
0.315554052
 40
0.4627868015
 40
0.6007266106
 40
0.7271631337
 40
0.7851646375
 40
0.839026676
 40
0.8880930879
 40
0.9317533932
 40
0.9692533208
 40
0.9854886313
 40
1.0
 40
1.0
 40
1.0
 40
1.0
 10
4.3326750466
 20
6.219819215
 30
0.0
 10
4.3312642476
 20
6.2210326909
 30
0.0
 10
4.3285484741
 20
6.223480509
 30
0.0
 10
4.324742873
 20
6.2272574373
 30
0.0
 10
4.3213118238
 20
6.2310290481
 30
0.0
 10
4.3183024406
 20
6.2347291629
 30
0.0
 10
4.3161301849
 20
6.2377699823
 30
0.0
 10
4.3146635751
 20
6.2401087614
 30
0.0
 10
4.3137466222
 20
6.241732218
 30
0.0
 10
4.3129951496
 20
6.2432558992
 30
0.0
 10
4.3124264847
 20
6.2446541422
 30
0.0
 10
4.312103849
 20
6.2457386457
 30
0.0
 10
4.31197
 20
6.2465184834
 30
0.0
 10
4.3119453364
 20
6.2468747144
 30
0.0
 10
4.3119455851
 20
6.2470427736
 30
0.0
  0
SPLINE
  5
3D5
100
AcDbEntity
  8
ALL_FEATURES
100
AcDbSpline
 62
7
  6
CONTINUOUS
 70
0
 71
3
 72
11
 73
7
 74
0
 42
0.0000001
 43
0.0000001
 44
0.0000000001
 40
0.0
 40
0.0
 40
0.0
 40
0.0
 40
0.248518855
 40
0.4979568587
 40
0.7484266689
 40
1.0
 40
1.0
 40
1.0
 40
1.0
 10
4.4047648293
 20
6.1790572071
 30
0.0
 10
4.3982037005
 20
6.1812006695
 30
0.0
 10
4.3852636588
 20
6.1861586006
 30
0.0
 10
4.3666572447
 20
6.1954999017
 30
0.0
 10
4.3489917395
 20
6.2066765155
 30
0.0
 10
4.3379722989
 20
6.2152628692
 30
0.0
 10
4.3326750466
 20
6.219819215
 30
0.0
  0
SPLINE
  5
3D6
100
AcDbEntity
  8
ALL_FEATURES
100
AcDbSpline
 62
7
  6
CONTINUOUS
 70
0
 71
3
 72
9
 73
5
 74
0
 42
0.0000001
 43
0.0000001
 44
0.0000000001
 40
0.0
 40
0.0
 40
0.0
 40
0.0
 40
0.4952232461
 40
1.0
 40
1.0
 40
1.0
 40
1.0
 10
5.2035944386
 20
6.2277752172
 30
0.0
 10
5.2035940383
 20
6.226434221
 30
0.0
 10
5.2033446111
 20
6.2237209166
 30
0.0
 10
5.2026087944
 20
6.2210978897
 30
0.0
 10
5.2021257689
 20
6.219819215
 30
0.0
  0
LINE
  5
3D7
100
AcDbEntity
  8
ALL_FEATURES
100
AcDbLine
 62
7
  6
CONTINUOUS
 10
5.3594242321
 20
6.126610191
 11
5.3747008806
 21
6.1462144012
  0
SPLINE
  5
3D8
100
AcDbEntity
  8
ALL_FEATURES
100
AcDbSpline
 62
7
  6
CONTINUOUS
 70
0
 71
3
 72
17
 73
13
 74
0
 42
0.0000001
 43
0.0000001
 44
0.0000000001
 40
0.0
 40
0.0
 40
0.0
 40
0.0
 40
0.1514905694
 40
0.29795226
 40
0.4350624186
 40
0.5607285291
 40
0.675745685
 40
0.7304448979
 40
0.7840800244
 40
0.8373267973
 40
0.890779513
 40
1.0
 40
1.0
 40
1.0
 40
1.0
 10
4.9696428571
 20
6.1026612093
 30
0.0
 10
4.9677873501
 20
6.1026612093
 30
0.0
 10
4.9641357548
 20
6.1028169201
 30
0.0
 10
4.958846829
 20
6.1035353852
 30
0.0
 10
4.9539763126
 20
6.104780205
 30
0.0
 10
4.9496967467
 20
6.1065982799
 30
0.0
 10
4.946685543
 20
6.1086612853
 30
0.0
 10
4.9447352881
 20
6.1105881382
 30
0.0
 10
4.9434988614
 20
6.1121393877
 30
0.0
 10
4.942458414
 20
6.1138101079
 30
0.0
 10
4.9413149812
 20
6.1161994165
 30
0.0
 10
4.9407314345
 20
6.1181191962
 30
0.0
 10
4.9404400016
 20
6.119424835
 30
0.0
  0
SPLINE
  5
3D9
100
AcDbEntity
  8
ALL_FEATURES
100
AcDbSpline
 62
7
  6
CONTINUOUS
 70
0
 71
3
 72
33
 73
29
 74
0
 42
0.0000001
 43
0.0000001
 44
0.0000000001
 40
0.0
 40
0.0
 40
0.0
 40
0.0
 40
0.0255313233
 40
0.0498954805
 40
0.0732185629
 40
0.095750632
 40
0.1178644538
 40
0.1400281675
 40
0.1627736089
 40
0.186585084
 40
0.2387883296
 40
0.267695388
 40
0.2984979606
 40
0.3311315531
 40
0.3654265914
 40
0.4011547926
 40
0.4380639034
 40
0.5142048509
 40
0.5914040144
 40
0.667344407
 40
0.7042755526
 40
0.740313149
 40
0.7753631239
 40
0.8094256732
 40
0.8749572334
 40
0.9067384398
 40
0.938069921
 40
1.0
 40
1.0
 40
1.0
 40
1.0
 10
4.8574950284
 20
6.1170023146
 30
0.0
 10
4.8574950549
 20
6.1164095604
 30
0.0
 10
4.8574547298
 20
6.1152504582
 30
0.0
 10
4.8572461747
 20
6.1135607807
 30
0.0
 10
4.8568728072
 20
6.1119699599
 30
0.0
 10
4.8563183071
 20
6.1104874343
 30
0.0
 10
4.8555717248
 20
6.1091213761
 30
0.0
 10
4.8546223592
 20
6.1078804824
 30
0.0
 10
4.8534623491
 20
6.1067760131
 30
0.0
 10
4.8515859885
 20
6.1054466155
 30
0.0
 10
4.8493389284
 20
6.1044450956
 30
0.0
 10
4.8468445264
 20
6.1037152465
 30
0.0
 10
4.8447444913
 20
6.1032724954
 30
0.0
 10
4.8424973756
 20
6.1029495192
 30
0.0
 10
4.8401219067
 20
6.1027424659
 30
0.0
 10
4.8376401229
 20
6.1026490987
 30
0.0
 10
4.834185166
 20
6.1026727754
 30
0.0
 10
4.8297735612
 20
6.102986803
 30
0.0
 10
4.8245087037
 20
6.1038154435
 30
0.0
 10
4.8202278605
 20
6.1049266529
 30
0.0
 10
4.8169720098
 20
6.106095342
 30
0.0
 10
4.8146698814
 20
6.1070949087
 30
0.0
 10
4.8125043339
 20
6.1082274579
 30
0.0
 10
4.8098548187
 20
6.1098905688
 30
0.0
 10
4.8074721735
 20
6.1118226955
 30
0.0
 10
4.8054216061
 20
6.113998904
 30
0.0
 10
4.8036193949
 20
6.1162784043
 30
0.0
 10
4.8024929872
 20
6.1181416494
 30
0.0
 10
4.8018443378
 20
6.119424835
 30
0.0
  0
LINE
  5
3DA
100
AcDbEntity
  8
ALL_FEATURES
100
AcDbLine
 62
7
  6
CONTINUOUS
 10
5.2756433509
 20
6.1464762578
 11
5.3372976975
 21
6.1790572071
  0
LINE
  5
3DB
100
AcDbEntity
  8
ALL_FEATURES
100
AcDbLine
 62
7
  6
CONTINUOUS
 10
4.5049275724
 20
6.1462144012
 11
4.5228863498
 21
6.126610191
  0
LINE
  5
3DC
100
AcDbEntity
  8
ALL_FEATURES
100
AcDbLine
 62
7
  6
CONTINUOUS
 10
4.4215180523
 20
6.1735843015
 11
4.5045236577
 21
6.1464762578
  0
SPLINE
  5
3DD
100
AcDbEntity
  8
ALL_FEATURES
100
AcDbSpline
 62
7
  6
CONTINUOUS
 70
0
 71
3
 72
30
 73
26
 74
0
 42
0.0000001
 43
0.0000001
 44
0.0000000001
 40
0.0
 40
0.0
 40
0.0
 40
0.0
 40
0.0193999684
 40
0.0375276532
 40
0.0547945755
 40
0.0717646108
 40
0.0890645194
 40
0.1073093821
 40
0.12701803
 40
0.1485265792
 40
0.1720434382
 40
0.1976833332
 40
0.2254399592
 40
0.2552303454
 40
0.2869428509
 40
0.3204220218
 40
0.3918404785
 40
0.4677686818
 40
0.5463006245
 40
0.6256435553
 40
0.7042756133
 40
0.781202063
 40
0.8560672126
 40
0.9288735248
 40
1.0
 40
1.0
 40
1.0
 40
1.0
 10
4.7292605674
 20
6.1099743913
 30
0.0
 10
4.7292606463
 20
6.1095958879
 30
0.0
 10
4.7292212807
 20
6.1088625665
 30
0.0
 10
4.7290143137
 20
6.1078093898
 30
0.0
 10
4.7286469417
 20
6.1068499705
 30
0.0
 10
4.728114183
 20
6.1059899555
 30
0.0
 10
4.7274151389
 20
6.1052327808
 30
0.0
 10
4.7265505959
 20
6.1045803442
 30
0.0
 10
4.7255242048
 20
6.10403147
 30
0.0
 10
4.7243420325
 20
6.1035794415
 30
0.0
 10
4.723009008
 20
6.1032200235
 30
0.0
 10
4.7215315441
 20
6.1029497099
 30
0.0
 10
4.7199179412
 20
6.1027658693
 30
0.0
 10
4.7181784686
 20
6.1026669723
 30
0.0
 10
4.7163247428
 20
6.1026513577
 30
0.0
 10
4.7136603176
 20
6.1027429416
 30
0.0
 10
4.7101445019
 20
6.1030778717
 30
0.0
 10
4.7057955515
 20
6.1038139688
 30
0.0
 10
4.7013642851
 20
6.104917387
 30
0.0
 10
4.696991007
 20
6.1064082656
 30
0.0
 10
4.6928041227
 20
6.1082913376
 30
0.0
 10
4.6889152884
 20
6.1105648061
 30
0.0
 10
4.6853955402
 20
6.1131920228
 30
0.0
 10
4.6822975581
 20
6.1161430244
 30
0.0
 10
4.6804982117
 20
6.1183084285
 30
0.0
 10
4.6796739622
 20
6.119424835
 30
0.0
  0
LINE
  5
3DE
100
AcDbEntity
  8
ALL_FEATURES
100
AcDbLine
 62
7
  6
CONTINUOUS
 10
5.264294583
 20
6.126610191
 11
5.2753937179
 21
6.1462144012
  0
LINE
  5
3DF
100
AcDbEntity
  8
ALL_FEATURES
100
AcDbLine
 62
7
  6
CONTINUOUS
 10
4.5645848337
 20
6.1462144012
 11
4.5798614822
 21
6.126610191
  0
LINE
  5
3E0
100
AcDbEntity
  8
ALL_FEATURES
100
AcDbLine
 62
7
  6
CONTINUOUS
 10
4.4793813153
 20
6.1790572071
 11
4.5642412432
 21
6.1464762578
  0
SPLINE
  5
3E1
100
AcDbEntity
  8
ALL_FEATURES
100
AcDbSpline
 62
7
  6
CONTINUOUS
 70
0
 71
3
 72
28
 73
24
 74
0
 42
0.0000001
 43
0.0000001
 44
0.0000000001
 40
0.0
 40
0.0
 40
0.0
 40
0.0
 40
0.0127700159
 40
0.0246028989
 40
0.0362695543
 40
0.0485747165
 40
0.0622011504
 40
0.0776458137
 40
0.0951923636
 40
0.1149712013
 40
0.1370384677
 40
0.1614016259
 40
0.2167012604
 40
0.2800051276
 40
0.3501723145
 40
0.4257717547
 40
0.505359936
 40
0.5874534341
 40
0.6707197352
 40
0.7542225853
 40
0.8371876388
 40
0.9191836194
 40
1.0
 40
1.0
 40
1.0
 40
1.0
 10
4.6274939785
 20
6.1056526145
 30
0.0
 10
4.6274941915
 20
6.1054489161
 30
0.0
 10
4.6274605443
 20
6.1050545495
 30
0.0
 10
4.627274755
 20
6.1045000133
 30
0.0
 10
4.6269517911
 20
6.1040206973
 30
0.0
 10
4.6264980047
 20
6.1036202515
 30
0.0
 10
4.6259193513
 20
6.103295048
 30
0.0
 10
4.6252183566
 20
6.1030397492
 30
0.0
 10
4.6243966491
 20
6.1028500695
 30
0.0
 10
4.6234566373
 20
6.1027238846
 30
0.0
 10
4.6224017068
 20
6.1026599836
 30
0.0
 10
4.6207782739
 20
6.1026564056
 30
0.0
 10
4.6185006289
 20
6.1028217075
 30
0.0
 10
4.6155195025
 20
6.1032600971
 30
0.0
 10
4.6122557263
 20
6.1039563426
 30
0.0
 10
4.608792057
 20
6.1049272
 30
0.0
 10
4.6052192428
 20
6.1061848036
 30
0.0
 10
4.6016265473
 20
6.1077291274
 30
0.0
 10
4.598102556
 20
6.1095647962
 30
0.0
 10
4.594714982
 20
6.1116683649
 30
0.0
 10
4.5915223291
 20
6.1140242962
 30
0.0
 10
4.5885653455
 20
6.1166046857
 30
0.0
 10
4.5867495295
 20
6.1184660824
 30
0.0
 10
4.5858877624
 20
6.119424835
 30
0.0
  0
LINE
  5
3E2
100
AcDbEntity
  8
ALL_FEATURES
100
AcDbLine
 62
7
  6
CONTINUOUS
 10
5.1462887704
 20
6.1464762578
 11
5.1787023786
 21
6.1790572071
  0
LINE
  5
3E3
100
AcDbEntity
  8
ALL_FEATURES
100
AcDbLine
 62
7
  6
CONTINUOUS
 10
4.6638919964
 20
6.1462144012
 11
4.6749911313
 21
6.126610191
  0
LINE
  5
3E4
100
AcDbEntity
  8
ALL_FEATURES
100
AcDbLine
 62
7
  6
CONTINUOUS
 10
4.6019880168
 20
6.1790572071
 11
4.6636423634
 21
6.1464762578
  0
LINE
  5
3E5
100
AcDbEntity
  8
ALL_FEATURES
100
AcDbLine
 62
7
  6
CONTINUOUS
 10
4.5049275724
 20
6.1462144012
 11
4.5045236577
 21
6.1464762578
  0
LINE
  5
3E6
100
AcDbEntity
  8
ALL_FEATURES
100
AcDbLine
 62
7
  6
CONTINUOUS
 10
5.14032237
 20
6.126610191
 11
5.1461575305
 21
6.1462144012
  0
LINE
  5
3E7
100
AcDbEntity
  8
ALL_FEATURES
100
AcDbLine
 62
7
  6
CONTINUOUS
 10
4.7931281837
 20
6.1462144012
 11
4.7989633442
 21
6.126610191
  0
LINE
  5
3E8
100
AcDbEntity
  8
ALL_FEATURES
100
AcDbLine
 62
7
  6
CONTINUOUS
 10
4.7605833357
 20
6.1790572071
 11
4.7929969439
 21
6.1464762578
  0
LINE
  5
3E9
100
AcDbEntity
  8
ALL_FEATURES
100
AcDbLine
 62
7
  6
CONTINUOUS
 10
4.5645848337
 20
6.1462144012
 11
4.5642412432
 21
6.1464762578
  0
SPLINE
  5
3EA
100
AcDbEntity
  8
ALL_FEATURES
100
AcDbSpline
 62
7
  6
CONTINUOUS
 70
0
 71
3
 72
63
 73
59
 74
0
 42
0.0000001
 43
0.0000001
 44
0.0000000001
 40
0.0
 40
0.0
 40
0.0
 40
0.0
 40
0.0002328321
 40
0.0005341986
 40
0.0013499989
 40
0.0024554533
 40
0.003852011
 40
0.0055394524
 40
0.0075169572
 40
0.0097834142
 40
0.012337555
 40
0.0183033545
 40
0.025402925
 40
0.0336243289
 40
0.0429521326
 40
0.0533608127
 40
0.0648228753
 40
0.0773107747
 40
0.0907969316
 40
0.1206454018
 40
0.1540755753
 40
0.1907648131
 40
0.2303833977
 40
0.272550042
 40
0.3168598728
 40
0.3629038438
 40
0.4102432864
 40
0.4584263073
 40
0.5070006934
 40
0.555509804
 40
0.6034932242
 40
0.6504930821
 40
0.6960712098
 40
0.7397982952
 40
0.7812507582
 40
0.8200458974
 40
0.8558189597
 40
0.8882147404
 40
0.9030540262
 40
0.9169440768
 40
0.929852314
 40
0.9417461809
 40
0.9525931596
 40
0.9623647063
 40
0.9710424012
 40
0.9786095137
 40
0.9850494909
 40
0.9903461172
 40
0.994483918
 40
0.9961147841
 40
0.9974540568
 40
0.998014814
 40
0.9985033564
 40
0.9989201604
 40
0.999265998
 40
0.9995422359
 40
0.9997516066
 40
1.0
 40
1.0
 40
1.0
 40
1.0
 10
4.5344270841
 20
3.1048721801
 30
0.0
 10
4.5344856317
 20
3.104906
 30
0.0
 10
4.5346274764
 20
3.1049702949
 30
0.0
 10
4.5349986734
 20
3.1050970115
 30
0.0
 10
4.5356279387
 20
3.1052457798
 30
0.0
 10
4.5365764084
 20
3.1054151569
 30
0.0
 10
4.5377812831
 20
3.1055857115
 30
0.0
 10
4.5392410898
 20
3.105757601
 30
0.0
 10
4.5409549695
 20
3.1059300616
 30
0.0
 10
4.5429215603
 20
3.1061030109
 30
0.0
 10
4.5460444343
 20
3.1063467926
 30
0.0
 10
4.5505705905
 20
3.1066454341
 30
0.0
 10
4.5567426658
 20
3.1069897167
 30
0.0
 10
4.563892314
 20
3.107334943
 30
0.0
 10
4.5720038528
 20
3.1076808168
 30
0.0
 10
4.5810572045
 20
3.1080272674
 30
0.0
 10
4.5910288257
 20
3.1083741424
 30
0.0
 10
4.6018946176
 20
3.1087213494
 30
0.0
 10
4.6180982108
 20
3.1092009739
 30
0.0
 10
4.6403826395
 20
3.109793088
 30
0.0
 10
4.6694047918
 20
3.1104836693
 30
0.0
 10
4.7012648514
 20
3.1111755572
 30
0.0
 10
4.7356624891
 20
3.1118679613
 30
0.0
 10
4.7722735278
 20
3.1125609744
 30
0.0
 10
4.8107507827
 20
3.1132545504
 30
0.0
 10
4.8507304318
 20
3.113948268
 30
0.0
 10
4.8918350028
 20
3.1146421895
 30
0.0
 10
4.9336744971
 20
3.1153362942
 30
0.0
 10
4.9758537045
 20
3.1160304404
 30
0.0
 10
5.0179749414
 20
3.1167245478
 30
0.0
 10
5.0596388798
 20
3.1174185524
 30
0.0
 10
5.1004515515
 20
3.1181125121
 30
0.0
 10
5.1400280188
 20
3.1188062252
 30
0.0
 10
5.1779932935
 20
3.1194994801
 30
0.0
 10
5.2139884718
 20
3.1201924926
 30
0.0
 10
5.2476733898
 20
3.1208848268
 30
0.0
 10
5.2787277041
 20
3.1215760455
 30
0.0
 10
5.3028257734
 20
3.12216728
 30
0.0
 10
5.3205698871
 20
3.1226449092
 30
0.0
 10
5.3326563156
 20
3.1229923862
 30
0.0
 10
5.3438870337
 20
3.1233396251
 30
0.0
 10
5.3542336089
 20
3.1236865682
 30
0.0
 10
5.3636687574
 20
3.1240331554
 30
0.0
 10
5.3721692596
 20
3.1243794439
 30
0.0
 10
5.3797164593
 20
3.1247250483
 30
0.0
 10
5.3862950711
 20
3.1250697469
 30
0.0
 10
5.3918904464
 20
3.125412633
 30
0.0
 10
5.3964877767
 20
3.1257536267
 30
0.0
 10
5.3996877271
 20
3.1260518657
 30
0.0
 10
5.4017368844
 20
3.1263010791
 30
0.0
 10
5.4027514543
 20
3.126450715
 30
0.0
 10
5.4034342552
 20
3.126573455
 30
0.0
 10
5.4038511232
 20
3.1266596656
 30
0.0
 10
5.404204557
 20
3.1267459665
 30
0.0
 10
5.4044931078
 20
3.1268307672
 30
0.0
 10
5.4047218371
 20
3.1269179769
 30
0.0
 10
5.4049051105
 20
3.1270094831
 30
0.0
 10
5.4050246338
 20
3.1271174985
 30
0.0
 10
5.4050246328
 20
3.1271896311
 30
0.0
  0
LINE
  5
3EB
100
AcDbEntity
  8
ALL_FEATURES
100
AcDbLine
 62
7
  6
CONTINUOUS
 10
4.5383084214
 20
3.1620589411
 11
4.5357655262
 21
3.1618956102
  0
LINE
  5
3EC
100
AcDbEntity
  8
ALL_FEATURES
100
AcDbLine
 62
7
  6
CONTINUOUS
 10
4.5357655262
 20
3.1618956102
 11
4.5336579432
 21
3.1616539366
  0
LINE
  5
3ED
100
AcDbEntity
  8
ALL_FEATURES
100
AcDbLine
 62
7
  6
CONTINUOUS
 10
4.5336579432
 20
3.1616539366
 11
4.5334067923
 21
3.1615736924
  0
SPLINE
  5
3EE
100
AcDbEntity
  8
ALL_FEATURES
100
AcDbSpline
 62
7
  6
CONTINUOUS
 70
0
 71
3
 72
64
 73
60
 74
0
 42
0.0000001
 43
0.0000001
 44
0.0000000001
 40
0.0
 40
0.0
 40
0.0
 40
0.0
 40
0.0002399578
 40
0.0004469673
 40
0.0007215281
 40
0.001066147
 40
0.0014820669
 40
0.0019699869
 40
0.0025303375
 40
0.0038693357
 40
0.0055005233
 40
0.0074245429
 40
0.0096404974
 40
0.0149407624
 40
0.0213857656
 40
0.0289592024
 40
0.0376444664
 40
0.0474247915
 40
0.0582816547
 40
0.0701863444
 40
0.0831062988
 40
0.0970089227
 40
0.1118616016
 40
0.144286476
 40
0.1800908822
 40
0.2189188971
 40
0.2604053078
 40
0.3041665161
 40
0.3497781637
 40
0.3968103429
 40
0.4448240391
 40
0.4933605928
 40
0.5419589131
 40
0.5901617329
 40
0.6375161253
 40
0.6835694792
 40
0.7278828352
 40
0.7700466334
 40
0.8096553066
 40
0.8463277168
 40
0.8797338806
 40
0.9095505408
 40
0.9230180356
 40
0.9354855112
 40
0.9469253145
 40
0.9573098234
 40
0.9666114626
 40
0.9748048617
 40
0.9818748201
 40
0.9878093038
 40
0.9903471062
 40
0.9925967434
 40
0.9945569174
 40
0.9962264768
 40
0.997604543
 40
0.9986908063
 40
0.9994866342
 40
0.9997776927
 40
1.0
 40
1.0
 40
1.0
 40
1.0
 10
5.4296291121
 20
3.1129826041
 30
0.0
 10
5.4296291557
 20
3.1129089865
 30
0.0
 10
5.429500146
 20
3.112801198
 30
0.0
 10
5.4293088419
 20
3.1127107138
 30
0.0
 10
5.4290667534
 20
3.1126234263
 30
0.0
 10
5.4287619021
 20
3.1125386792
 30
0.0
 10
5.428388177
 20
3.1124523386
 30
0.0
 10
5.4279474198
 20
3.1123661048
 30
0.0
 10
5.4272252696
 20
3.1122432839
 30
0.0
 10
5.4261523426
 20
3.1120936247
 30
0.0
 10
5.4246606078
 20
3.1119217552
 30
0.0
 10
5.4228983983
 20
3.1117493303
 30
0.0
 10
5.4200125509
 20
3.1115038885
 30
0.0
 10
5.4157395645
 20
3.1112050074
 30
0.0
 10
5.409822587
 20
3.1108615711
 30
0.0
 10
5.4028656899
 20
3.1105168386
 30
0.0
 10
5.3948845205
 20
3.1101710227
 30
0.0
 10
5.3858952076
 20
3.1098245804
 30
0.0
 10
5.375917553
 20
3.1094778214
 30
0.0
 10
5.3649761642
 20
3.1091307092
 30
0.0
 10
5.3530999329
 20
3.1087832996
 30
0.0
 10
5.3403189248
 20
3.1084356522
 30
0.0
 10
5.321555277
 20
3.1079577891
 30
0.0
 10
5.2960730455
 20
3.1073662716
 30
0.0
 10
5.2632357517
 20
3.1066747157
 30
0.0
 10
5.2276178887
 20
3.1059820411
 30
0.0
 10
5.1895585103
 20
3.1052886925
 30
0.0
 10
5.1494176321
 20
3.1045950995
 30
0.0
 10
5.1075751103
 20
3.1039010466
 30
0.0
 10
5.0644277808
 20
3.1032067497
 30
0.0
 10
5.0203829948
 20
3.1025124074
 30
0.0
 10
4.9758576686
 20
3.101817962
 30
0.0
 10
4.9312743141
 20
3.1011234781
 30
0.0
 10
4.8870536831
 20
3.1004290373
 30
0.0
 10
4.8436139276
 20
3.0997347815
 30
0.0
 10
4.8013675893
 20
3.0990407271
 30
0.0
 10
4.7607139144
 20
3.0983468183
 30
0.0
 10
4.7220377201
 20
3.0976534783
 30
0.0
 10
4.6857061097
 20
3.0969607421
 30
0.0
 10
4.6520617997
 20
3.0962685312
 30
0.0
 10
4.6214222862
 20
3.0955776417
 30
0.0
 10
4.597901554
 20
3.094985208
 30
0.0
 10
4.5808039988
 20
3.0945053019
 30
0.0
 10
4.569342886
 20
3.0941579338
 30
0.0
 10
4.5588280739
 20
3.0938109009
 30
0.0
 10
4.5492850824
 20
3.093464298
 30
0.0
 10
4.5407387712
 20
3.0931182743
 30
0.0
 10
4.5332102382
 20
3.0927729049
 30
0.0
 10
4.5267159306
 20
3.0924285011
 30
0.0
 10
4.5219568927
 20
3.0921297
 30
0.0
 10
4.5186764895
 20
3.0918857231
 30
0.0
 10
4.5166135701
 20
3.091712714
 30
0.0
 10
4.5148180053
 20
3.0915402123
 30
0.0
 10
4.5132912496
 20
3.0913682933
 30
0.0
 10
4.5120342136
 20
3.0911977947
 30
0.0
 10
4.5110484901
 20
3.0910284832
 30
0.0
 10
4.5103973017
 20
3.0908798575
 30
0.0
 10
4.5100160812
 20
3.0907528111
 30
0.0
 10
4.5098716627
 20
3.0906883128
 30
0.0
 10
4.5098126042
 20
3.0906542001
 30
0.0
  0
SPLINE
  5
3EF
100
AcDbEntity
  8
ALL_FEATURES
100
AcDbSpline
 62
7
  6
CONTINUOUS
 70
0
 71
3
 72
64
 73
60
 74
0
 42
0.0000001
 43
0.0000001
 44
0.0000000001
 40
0.0
 40
0.0
 40
0.0
 40
0.0
 40
0.0002413246
 40
0.0004501615
 40
0.0007270784
 40
0.0010744215
 40
0.0014932858
 40
0.0019842291
 40
0.0025475434
 40
0.0038917471
 40
0.005526277
 40
0.0074508168
 40
0.0096647598
 40
0.0149576777
 40
0.0213981018
 40
0.0289759223
 40
0.0376700545
 40
0.0474563539
 40
0.0583105805
 40
0.0702084356
 40
0.0831255831
 40
0.0970352626
 40
0.1119009067
 40
0.1443437599
 40
0.1801414169
 40
0.2189748984
 40
0.2604730692
 40
0.3042384385
 40
0.3498605564
 40
0.396901374
 40
0.4449188967
 40
0.4934615535
 40
0.542066892
 40
0.5902727999
 40
0.6376270695
 40
0.6836834802
 40
0.7279987134
 40
0.7701582939
 40
0.8097647031
 40
0.8464320228
 40
0.8798284325
 40
0.9096382678
 40
0.9231012942
 40
0.9355616496
 40
0.9469934976
 40
0.9573710339
 40
0.9666685006
 40
0.974860213
 40
0.9819228523
 40
0.98784454
 40
0.9903750352
 40
0.9926173698
 40
0.9945707038
 40
0.9962343435
 40
0.9976078666
 40
0.9986914147
 40
0.9994865221
 40
0.9997776284
 40
1.0
 40
1.0
 40
1.0
 40
1.0
 10
4.5096428008
 20
3.0851955942
 30
0.0
 10
4.5096430138
 20
3.0852696321
 30
0.0
 10
4.5097741709
 20
3.0853770966
 30
0.0
 10
4.5099670919
 20
3.0854675142
 30
0.0
 10
4.5102115448
 20
3.0855547825
 30
0.0
 10
4.5105189112
 20
3.0856395407
 30
0.0
 10
4.51089539
 20
3.0857258871
 30
0.0
 10
4.5113389393
 20
3.0858121314
 30
0.0
 10
4.5120645939
 20
3.0859349038
 30
0.0
 10
4.5131411048
 20
3.0860845292
 30
0.0
 10
4.5146356623
 20
3.0862564198
 30
0.0
 10
4.5163984636
 20
3.0864289234
 30
0.0
 10
4.5192816329
 20
3.0866744373
 30
0.0
 10
4.5235503901
 20
3.086973553
 30
0.0
 10
4.5294651456
 20
3.0873171286
 30
0.0
 10
4.5364248338
 20
3.0876617266
 30
0.0
 10
4.5444120483
 20
3.0880074477
 30
0.0
 10
4.5534052643
 20
3.0883538489
 30
0.0
 10
4.563382011
 20
3.0887007609
 30
0.0
 10
4.5743198137
 20
3.0890480351
 30
0.0
 10
4.5861954521
 20
3.0893955564
 30
0.0
 10
4.5989819638
 20
3.0897431721
 30
0.0
 10
4.6177575983
 20
3.0902209293
 30
0.0
 10
4.6432476943
 20
3.0908123206
 30
0.0
 10
4.6760906631
 20
3.0915044422
 30
0.0
 10
4.7117123535
 20
3.0921970655
 30
0.0
 10
4.7497789482
 20
3.0928903746
 30
0.0
 10
4.7899286088
 20
3.0935842116
 30
0.0
 10
4.8317789887
 20
3.0942782551
 30
0.0
 10
4.8749340946
 20
3.0949726223
 30
0.0
 10
4.9189853311
 20
3.0956671146
 30
0.0
 10
4.9635166201
 20
3.0963616313
 30
0.0
 10
5.0081057123
 20
3.0970561639
 30
0.0
 10
5.0523301637
 20
3.0977506928
 30
0.0
 10
5.0957725099
 20
3.0984450942
 30
0.0
 10
5.1380210483
 20
3.0991391991
 30
0.0
 10
5.1786756399
 20
3.0998331362
 30
0.0
 10
5.2173510815
 20
3.1005266515
 30
0.0
 10
5.2536797636
 20
3.1012194207
 30
0.0
 10
5.2873194
 20
3.1019116764
 30
0.0
 10
5.3179527851
 20
3.1026027567
 30
0.0
 10
5.3414674611
 20
3.1031952046
 30
0.0
 10
5.3585596573
 20
3.1036751472
 30
0.0
 10
5.3700149662
 20
3.1040225818
 30
0.0
 10
5.3805231884
 20
3.1043696838
 30
0.0
 10
5.3900604774
 20
3.1047163582
 30
0.0
 10
5.3986029918
 20
3.1050624618
 30
0.0
 10
5.406127615
 20
3.1054076562
 30
0.0
 10
5.4126153375
 20
3.1057520548
 30
0.0
 10
5.4173660214
 20
3.1060509834
 30
0.0
 10
5.4206380425
 20
3.1062950646
 30
0.0
 10
5.4226943912
 20
3.1064681059
 30
0.0
 10
5.4244838003
 20
3.1066406439
 30
0.0
 10
5.4260052356
 20
3.1068126102
 30
0.0
 10
5.4272582049
 20
3.1069831679
 30
0.0
 10
5.4282414457
 20
3.1071525774
 30
0.0
 10
5.4288915771
 20
3.1073011752
 30
0.0
 10
5.4292726252
 20
3.1074281597
 30
0.0
 10
5.4294170897
 20
3.1074926489
 30
0.0
 10
5.4294761658
 20
3.1075267732
 30
0.0
  0
SPLINE
  5
3F0
100
AcDbEntity
  8
ALL_FEATURES
100
AcDbSpline
 62
7
  6
CONTINUOUS
 70
0
 71
3
 72
44
 73
40
 74
0
 42
0.0000001
 43
0.0000001
 44
0.0000000001
 40
0.0
 40
0.0
 40
0.0
 40
0.0
 40
0.0001970988
 40
0.0003511304
 40
0.000550659
 40
0.0010950193
 40
0.0018400087
 40
0.0022888662
 40
0.0027888079
 40
0.0039420704
 40
0.0052998037
 40
0.0068616424
 40
0.0105953269
 40
0.0151378578
 40
0.0204831568
 40
0.0266248106
 40
0.0335562283
 40
0.0412705186
 40
0.0497566014
 40
0.0589994529
 40
0.0689838665
 40
0.079694614
 40
0.1032341201
 40
0.1294917895
 40
0.1583066151
 40
0.1895001713
 40
0.2228938589
 40
0.2583021542
 40
0.295509256
 40
0.3342910495
 40
0.374423384
 40
0.4577984741
 40
0.5436593669
 40
0.629997468
 40
0.7147790767
 40
0.7960113765
 40
0.8717867415
 40
0.9403223058
 40
1.0
 40
1.0
 40
1.0
 40
1.0
 10
4.5096455606
 20
3.1302410851
 30
0.0
 10
4.5096451099
 20
3.1302947231
 30
0.0
 10
4.5097178929
 20
3.1303799185
 30
0.0
 10
4.5098431931
 20
3.1304551779
 30
0.0
 10
4.5100676339
 20
3.1305573579
 30
0.0
 10
4.5104557784
 20
3.1306735737
 30
0.0
 10
4.5109176577
 20
3.1307778715
 30
0.0
 10
4.5113705215
 20
3.1308637782
 30
0.0
 10
4.5119345436
 20
3.130959668
 30
0.0
 10
4.5127455496
 20
3.1310774689
 30
0.0
 10
4.51384563
 20
3.1312135513
 30
0.0
 10
4.5156459812
 20
3.131407102
 30
0.0
 10
4.5183131742
 20
3.1316429523
 30
0.0
 10
4.5220103919
 20
3.1319138739
 30
0.0
 10
4.5263643588
 20
3.1321857916
 30
0.0
 10
4.5313694796
 20
3.1324585361
 30
0.0
 10
4.5370201301
 20
3.1327317791
 30
0.0
 10
4.5433094586
 20
3.1330053201
 30
0.0
 10
4.5502283642
 20
3.1332790885
 30
0.0
 10
4.5577655093
 20
3.1335530879
 30
0.0
 10
4.5659084527
 20
3.1338272699
 30
0.0
 10
4.5779408788
 20
3.1342050242
 30
0.0
 10
4.5944013394
 20
3.1346727632
 30
0.0
 10
4.6157884406
 20
3.1352186021
 30
0.0
 10
4.6392591683
 20
3.1357651423
 30
0.0
 10
4.66467241
 20
3.1363123588
 30
0.0
 10
4.691880424
 20
3.1368600049
 30
0.0
 10
4.7207253166
 20
3.1374077592
 30
0.0
 10
4.7510368128
 20
3.1379557842
 30
0.0
 10
4.7826341397
 20
3.1385040594
 30
0.0
 10
4.8267945072
 20
3.1392446626
 30
0.0
 10
4.8837661646
 20
3.1401613077
 30
0.0
 10
4.9533114623
 20
3.1412489004
 30
0.0
 10
5.0232395873
 20
3.1423364436
 30
0.0
 10
5.0919079073
 20
3.1434235819
 30
0.0
 10
5.1577012538
 20
3.1445095989
 30
0.0
 10
5.2190726943
 20
3.1455934236
 30
0.0
 10
5.2745771641
 20
3.1466739621
 30
0.0
 10
5.3094615473
 20
3.1474489059
 30
0.0
 10
5.3256977495
 20
3.1478487318
 30
0.0
  0
SPLINE
  5
3F1
100
AcDbEntity
  8
ALL_FEATURES
100
AcDbSpline
 62
7
  6
CONTINUOUS
 70
0
 71
3
 72
34
 73
30
 74
0
 42
0.0000001
 43
0.0000001
 44
0.0000000001
 40
0.0
 40
0.0
 40
0.0
 40
0.0
 40
0.183524967
 40
0.2749297536
 40
0.3647144773
 40
0.4518862273
 40
0.5354800072
 40
0.614533737
 40
0.6881608848
 40
0.7555640628
 40
0.786684127
 40
0.8159552736
 40
0.8433033063
 40
0.8686605649
 40
0.8919594291
 40
0.9131323333
 40
0.9321117949
 40
0.9488358111
 40
0.9632658529
 40
0.9753700856
 40
0.9805402984
 40
0.9851175117
 40
0.9890981219
 40
0.9924787972
 40
0.9952567178
 40
0.9974308943
 40
0.999006416
 40
0.9995740418
 40
1.0
 40
1.0
 40
1.0
 40
1.0
 10
5.0392416636
 20
3.147855652
 30
0.0
 10
5.0068437224
 20
3.1473447915
 30
0.0
 10
4.958309761
 20
3.1465918874
 30
0.0
 10
4.8939260524
 20
3.145583528
 30
0.0
 10
4.8465519609
 20
3.144828294
 30
0.0
 10
4.8005571045
 20
3.1440733098
 30
0.0
 10
4.7564570958
 20
3.1433189408
 30
0.0
 10
4.7147487897
 20
3.1425650717
 30
0.0
 10
4.6758994771
 20
3.1418117804
 30
0.0
 10
4.6455124914
 20
3.1411694916
 30
0.0
 10
4.6229559061
 20
3.1406507954
 30
0.0
 10
4.6074698589
 20
3.140272227
 30
0.0
 10
4.5930015735
 20
3.1398938456
 30
0.0
 10
4.5795880937
 20
3.1395157326
 30
0.0
 10
4.5672653109
 20
3.1391379767
 30
0.0
 10
4.5560691091
 20
3.1387607074
 30
0.0
 10
4.5460344227
 20
3.1383840827
 30
0.0
 10
4.5371911102
 20
3.1380081659
 30
0.0
 10
4.529562854
 20
3.1376333314
 30
0.0
 10
4.5239746321
 20
3.137308103
 30
0.0
 10
4.5201257624
 20
3.1370424392
 30
0.0
 10
4.5177093229
 20
3.1368541436
 30
0.0
 10
4.5156098311
 20
3.1366664412
 30
0.0
 10
4.5138294868
 20
3.1364793924
 30
0.0
 10
4.512369684
 20
3.1362940674
 30
0.0
 10
4.5112321228
 20
3.1361098827
 30
0.0
 10
4.5104857176
 20
3.1359484405
 30
0.0
 10
4.5100537043
 20
3.1358097007
 30
0.0
 10
4.5098921451
 20
3.1357392237
 30
0.0
 10
4.5098270245
 20
3.135701607
 30
0.0
  0
SPLINE
  5
3F2
100
AcDbEntity
  8
ALL_FEATURES
100
AcDbSpline
 62
7
  6
CONTINUOUS
 70
0
 71
3
 72
35
 73
31
 74
0
 42
0.0000001
 43
0.0000001
 44
0.0000000001
 40
0.0
 40
0.0
 40
0.0
 40
0.0
 40
0.1089197293
 40
0.2137217555
 40
0.3138658622
 40
0.4088137907
 40
0.4980783871
 40
0.581227797
 40
0.6578330224
 40
0.7274670591
 40
0.7897664583
 40
0.8444458981
 40
0.8688406502
 40
0.8912255189
 40
0.9115657044
 40
0.9298281523
 40
0.9459941264
 40
0.960052579
 40
0.9719931179
 40
0.9818064634
 40
0.9859132458
 40
0.9894860231
 40
0.9925249303
 40
0.995031165
 40
0.9970081345
 40
0.99780078
 40
0.9984654156
 40
0.9990059669
 40
0.9994300034
 40
1.0
 40
1.0
 40
1.0
 40
1.0
 10
5.1475109058
 20
3.0738998546
 30
0.0
 10
5.1568710214
 20
3.0740687177
 30
0.0
 10
5.1752373006
 20
3.0744052876
 30
0.0
 10
5.2022091507
 20
3.0749188462
 30
0.0
 10
5.2279799045
 20
3.075432163
 30
0.0
 10
5.2524149435
 20
3.075945328
 30
0.0
 10
5.2753889539
 20
3.0764583115
 30
0.0
 10
5.2967860035
 20
3.0769708447
 30
0.0
 10
5.3164953037
 20
3.0774827602
 30
0.0
 10
5.3344119117
 20
3.0779940354
 30
0.0
 10
5.3504431702
 20
3.0785046546
 30
0.0
 10
5.362586336
 20
3.0789438909
 30
0.0
 10
5.3712994819
 20
3.0792997627
 30
0.0
 10
5.3770627351
 20
3.0795561981
 30
0.0
 10
5.382298363
 20
3.0798123369
 30
0.0
 10
5.38699879
 20
3.0800682101
 30
0.0
 10
5.3911584336
 20
3.0803236726
 30
0.0
 10
5.3947736201
 20
3.0805783688
 30
0.0
 10
5.3978412837
 20
3.0808321519
 30
0.0
 10
5.4000532095
 20
3.0810530991
 30
0.0
 10
5.4015458166
 20
3.0812343799
 30
0.0
 10
5.4024582644
 20
3.081361851
 30
0.0
 10
5.4032317276
 20
3.0814887288
 30
0.0
 10
5.4038659251
 20
3.0816150616
 30
0.0
 10
5.4043060795
 20
3.0817255781
 30
0.0
 10
5.4045868444
 20
3.0818175068
 30
0.0
 10
5.4047463787
 20
3.0818806387
 30
0.0
 10
5.4048720872
 20
3.0819448919
 30
0.0
 10
5.4049794745
 20
3.0820173762
 30
0.0
 10
5.4050379861
 20
3.0820961052
 30
0.0
 10
5.4050379855
 20
3.0821450964
 30
0.0
  0
SPLINE
  5
3F3
100
AcDbEntity
  8
ALL_FEATURES
100
AcDbSpline
 62
7
  6
CONTINUOUS
 70
0
 71
3
 72
12
 73
8
 74
0
 42
0.0000001
 43
0.0000001
 44
0.0000000001
 40
0.0
 40
0.0
 40
0.0
 40
0.0
 40
0.1102958983
 40
0.1946679882
 40
0.3032204314
 40
0.5978992549
 40
1.0
 40
1.0
 40
1.0
 40
1.0
 10
4.53426352
 20
3.1610812679
 30
0.0
 10
4.5342635202
 20
3.1611348073
 30
0.0
 10
4.5343324961
 20
3.1612200715
 30
0.0
 10
4.5344543412
 20
3.1612969054
 30
0.0
 10
4.53466979
 20
3.1613996131
 30
0.0
 10
4.5350428693
 20
3.1615169888
 30
0.0
 10
4.5353723093
 20
3.1615950671
 30
0.0
 10
4.5355632074
 20
3.1616357552
 30
0.0
  0
SPLINE
  5
3F4
100
AcDbEntity
  8
ALL_FEATURES
100
AcDbSpline
 62
7
  6
CONTINUOUS
 70
0
 71
3
 72
63
 73
59
 74
0
 42
0.0000001
 43
0.0000001
 44
0.0000000001
 40
0.0
 40
0.0
 40
0.0
 40
0.0
 40
0.0002487657
 40
0.0004589067
 40
0.0007363794
 40
0.0010839666
 40
0.0015030871
 40
0.0019945266
 40
0.0025586096
 40
0.0039050339
 40
0.0055424002
 40
0.0096865602
 40
0.0149822023
 40
0.021418344
 40
0.0289832942
 40
0.0376646895
 40
0.0474426152
 40
0.0582899343
 40
0.0701791527
 40
0.0830827333
 40
0.09697311
 40
0.1118206367
 40
0.1442324182
 40
0.1799976716
 40
0.2187919425
 40
0.2602512123
 40
0.3039723088
 40
0.3495493077
 40
0.3965534108
 40
0.4445336683
 40
0.4930381848
 40
0.5416122218
 40
0.5897958385
 40
0.6371292298
 40
0.6831677324
 40
0.7274814455
 40
0.7696425934
 40
0.8092550364
 40
0.8459528121
 40
0.8793737419
 40
0.9092070846
 40
0.9226962027
 40
0.935190162
 40
0.9466564014
 40
0.95706288
 40
0.9663857479
 40
0.9746079835
 40
0.9817128969
 40
0.9876840262
 40
0.990239415
 40
0.9925054246
 40
0.9944802288
 40
0.9961627351
 40
0.997553504
 40
0.9986538912
 40
0.9994666983
 40
0.999767387
 40
1.0
 40
1.0
 40
1.0
 40
1.0
 10
4.534250385
 20
3.1160343993
 30
0.0
 10
4.5342503854
 20
3.1161066399
 30
0.0
 10
4.5343706386
 20
3.1162146584
 30
0.0
 10
4.5345546149
 20
3.116306063
 30
0.0
 10
4.5347845531
 20
3.1163932765
 30
0.0
 10
4.5350746938
 20
3.1164780644
 30
0.0
 10
4.5354302157
 20
3.1165643591
 30
0.0
 10
4.535849617
 20
3.1166505477
 30
0.0
 10
4.5365363715
 20
3.1167732385
 30
0.0
 10
4.5375559309
 20
3.1169227931
 30
0.0
 10
4.5396109668
 20
3.1171717431
 30
0.0
 10
4.5428143519
 20
3.1174701026
 30
0.0
 10
4.5474121124
 20
3.1178112643
 30
0.0
 10
4.5530054383
 20
3.1181542551
 30
0.0
 10
4.559583368
 20
3.1184990115
 30
0.0
 10
4.5671328607
 20
3.1188445048
 30
0.0
 10
4.5756363825
 20
3.1191906139
 30
0.0
 10
4.5850721134
 20
3.1195372448
 30
0.0
 10
4.5954160625
 20
3.1198842506
 30
0.0
 10
4.6066441498
 20
3.1202315351
 30
0.0
 10
4.6187316917
 20
3.1205790298
 30
0.0
 10
4.636482914
 20
3.1210565022
 30
0.0
 10
4.6605857187
 20
3.1216474465
 30
0.0
 10
4.691642094
 20
3.1223390539
 30
0.0
 10
4.7253264084
 20
3.1230313108
 30
0.0
 10
4.7613215099
 20
3.1237240862
 30
0.0
 10
4.799286621
 20
3.1244175106
 30
0.0
 10
4.8388621817
 20
3.1251111785
 30
0.0
 10
4.8796747669
 20
3.1258049955
 30
0.0
 10
4.9213376079
 20
3.1264990325
 30
0.0
 10
4.9634564125
 20
3.127193151
 30
0.0
 10
5.0056342802
 20
3.1278872447
 30
0.0
 10
5.0474720129
 20
3.1285812521
 30
0.0
 10
5.0885733348
 20
3.1292751972
 30
0.0
 10
5.1285506906
 20
3.1299689868
 30
0.0
 10
5.1670258212
 20
3.1306623431
 30
0.0
 10
5.2036345391
 20
3.1313553894
 30
0.0
 10
5.2380312088
 20
3.1320479844
 30
0.0
 10
5.2698892295
 20
3.1327394511
 30
0.0
 10
5.2989067289
 20
3.1334300694
 30
0.0
 10
5.3211848873
 20
3.1340225243
 30
0.0
 10
5.3373866822
 20
3.1345019446
 30
0.0
 10
5.348256291
 20
3.134849076
 30
0.0
 10
5.3582302322
 20
3.1351958455
 30
0.0
 10
5.3672827067
 20
3.1355423127
 30
0.0
 10
5.37539239
 20
3.135888365
 30
0.0
 10
5.3825423852
 20
3.1362335759
 30
0.0
 10
5.3887177997
 20
3.1365777614
 30
0.0
 10
5.3932474237
 20
3.1368763014
 30
0.0
 10
5.396372079
 20
3.1371200687
 30
0.0
 10
5.3983381168
 20
3.1372929706
 30
0.0
 10
5.4000496404
 20
3.137465382
 30
0.0
 10
5.4015055185
 20
3.1376372949
 30
0.0
 10
5.4027057535
 20
3.1378079013
 30
0.0
 10
5.4036501226
 20
3.1379773828
 30
0.0
 10
5.4042767618
 20
3.1381261877
 30
0.0
 10
5.4046467844
 20
3.1382528466
 30
0.0
 10
5.404788348
 20
3.1383171144
 30
0.0
 10
5.4048468393
 20
3.1383509045
 30
0.0
  0
SPLINE
  5
3F5
100
AcDbEntity
  8
ALL_FEATURES
100
AcDbSpline
 62
7
  6
CONTINUOUS
 70
0
 71
3
 72
41
 73
37
 74
0
 42
0.0000001
 43
0.0000001
 44
0.0000000001
 40
0.0
 40
0.0
 40
0.0
 40
0.0
 40
0.0191215827
 40
0.0415242427
 40
0.0670651976
 40
0.0955488227
 40
0.1604874573
 40
0.2345290083
 40
0.3155462632
 40
0.4012200841
 40
0.4891127455
 40
0.5767078241
 40
0.6615119604
 40
0.702103544
 40
0.74109641
 40
0.7782177071
 40
0.8131957557
 40
0.8457770229
 40
0.8757418235
 40
0.9028742313
 40
0.9269653659
 40
0.9378188226
 40
0.9478539751
 40
0.957053198
 40
0.9653989004
 40
0.9728735432
 40
0.9794605527
 40
0.9851506893
 40
0.9899384476
 40
0.9938187816
 40
0.9954173763
 40
0.9967877572
 40
0.9979298686
 40
0.9988441891
 40
0.9995324422
 40
1.0
 40
1.0
 40
1.0
 40
1.0
 10
4.5696759698
 20
3.0738998646
 30
0.0
 10
4.5749968825
 20
3.074121571
 30
0.0
 10
4.586553787
 20
3.0745534915
 30
0.0
 10
4.605222487
 20
3.0751521776
 30
0.0
 10
4.6264997344
 20
3.0757521423
 30
0.0
 10
4.6596214488
 20
3.0765910591
 30
0.0
 10
4.7062504359
 20
3.0776164616
 30
0.0
 10
4.767510154
 20
3.0788056101
 30
0.0
 10
4.8345457271
 20
3.0799983254
 30
0.0
 10
4.9054394787
 20
3.0811933267
 30
0.0
 10
4.978165452
 20
3.0823889904
 30
0.0
 10
5.0506491751
 20
3.0835847649
 30
0.0
 10
5.1099604107
 20
3.0845942706
 30
0.0
 10
5.1557367931
 20
3.0854114624
 30
0.0
 10
5.1882347685
 20
3.0860152912
 30
0.0
 10
5.2191690515
 20
3.0866187039
 30
0.0
 10
5.2483172979
 20
3.0872217416
 30
0.0
 10
5.2754719496
 20
3.0878244761
 30
0.0
 10
5.3004409643
 20
3.0884263509
 30
0.0
 10
5.3230446798
 20
3.0890270716
 30
0.0
 10
5.3403260225
 20
3.0895430231
 30
0.0
 10
5.3528463286
 20
3.0899606136
 30
0.0
 10
5.3612206245
 20
3.0902625981
 30
0.0
 10
5.3688960089
 20
3.0905642992
 30
0.0
 10
5.375857682
 20
3.0908656533
 30
0.0
 10
5.3820911071
 20
3.0911664901
 30
0.0
 10
5.3875839917
 20
3.0914668422
 30
0.0
 10
5.3923273709
 20
3.0917662108
 30
0.0
 10
5.3963152126
 20
3.0920643456
 30
0.0
 10
5.3991630193
 20
3.0923243584
 30
0.0
 10
5.401058594
 20
3.0925386027
 30
0.0
 10
5.4021939054
 20
3.0926881857
 30
0.0
 10
5.4031365886
 20
3.0928370446
 30
0.0
 10
5.4038874483
 20
3.0929841923
 30
0.0
 10
5.4044447757
 20
3.0931297338
 30
0.0
 10
5.4047490026
 20
3.0932431401
 30
0.0
 10
5.4048617598
 20
3.0933082768
 30
0.0
  0
SPLINE
  5
3F6
100
AcDbEntity
  8
ALL_FEATURES
100
AcDbSpline
 62
7
  6
CONTINUOUS
 70
0
 71
3
 72
33
 73
29
 74
0
 42
0.0000001
 43
0.0000001
 44
0.0000000001
 40
0.0
 40
0.0
 40
0.0
 40
0.0
 40
0.0004456803
 40
0.0010324554
 40
0.0026446039
 40
0.0048535392
 40
0.0076644325
 40
0.0110763223
 40
0.0150865079
 40
0.0196917413
 40
0.024888482
 40
0.0370414806
 40
0.0515148289
 40
0.0682769374
 40
0.0872889415
 40
0.1084886322
 40
0.1318088008
 40
0.1571821472
 40
0.1845413104
 40
0.2449404872
 40
0.3123325323
 40
0.3859317385
 40
0.4649430918
 40
0.5484817173
 40
0.6355883506
 40
0.7253009311
 40
0.8166292263
 40
1.0
 40
1.0
 40
1.0
 40
1.0
 10
4.5344407599
 20
3.1499196338
 30
0.0
 10
4.5345052408
 20
3.1499568823
 30
0.0
 10
4.5346636384
 20
3.1500271145
 30
0.0
 10
4.5350835032
 20
3.1501654247
 30
0.0
 10
4.5358034455
 20
3.1503269817
 30
0.0
 10
4.5368960822
 20
3.1505111198
 30
0.0
 10
4.538292984
 20
3.1506964102
 30
0.0
 10
4.5399925483
 20
3.1508833272
 30
0.0
 10
4.5419934375
 20
3.1510708869
 30
0.0
 10
4.5442935908
 20
3.1512590184
 30
0.0
 10
4.5479523649
 20
3.1515243361
 30
0.0
 10
4.5532597261
 20
3.1518492232
 30
0.0
 10
4.5604996528
 20
3.1522237282
 30
0.0
 10
4.5688868826
 20
3.1525992929
 30
0.0
 10
4.5783989226
 20
3.1529755569
 30
0.0
 10
4.5890074514
 20
3.1533524639
 30
0.0
 10
4.6006794499
 20
3.1537298477
 30
0.0
 10
4.6133810811
 20
3.1541075999
 30
0.0
 10
4.6322764693
 20
3.1546289855
 30
0.0
 10
4.658191772
 20
3.1552726471
 30
0.0
 10
4.6918326635
 20
3.1560235898
 30
0.0
 10
4.7285840359
 20
3.1567760875
 30
0.0
 10
4.7680337613
 20
3.1575292211
 30
0.0
 10
4.8097407471
 20
3.158282837
 30
0.0
 10
4.8532360102
 20
3.1590370704
 30
0.0
 10
4.8980329921
 20
3.1597915487
 30
0.0
 10
4.958912253
 20
3.1607988992
 30
0.0
 10
5.0048040892
 20
3.1615510549
 30
0.0
 10
5.035438281
 20
3.1620613876
 30
0.0
  0
SPLINE
  5
3F7
100
AcDbEntity
  8
ALL_FEATURES
100
AcDbSpline
 62
7
  6
CONTINUOUS
 70
0
 71
3
 72
28
 73
24
 74
0
 42
0.0000001
 43
0.0000001
 44
0.0000000001
 40
0.0
 40
0.0
 40
0.0
 40
0.0
 40
0.0009672081
 40
0.0023961095
 40
0.004298998
 40
0.0066806743
 40
0.012888046
 40
0.0210265977
 40
0.0310982822
 40
0.0431030656
 40
0.0570400295
 40
0.072906031
 40
0.0906917229
 40
0.1103863441
 40
0.1554587724
 40
0.2080356528
 40
0.2680284252
 40
0.3353362418
 40
0.4098397133
 40
0.4914177862
 40
0.579949289
 40
0.7772237978
 40
1.0
 40
1.0
 40
1.0
 40
1.0
 10
5.4253828124
 20
3.1502143424
 30
0.0
 10
5.42535493
 20
3.1501983277
 30
0.0
 10
5.4252795602
 20
3.1501704936
 30
0.0
 10
5.4251413256
 20
3.1501347486
 30
0.0
 10
5.4249546795
 20
3.1500985645
 30
0.0
 10
5.4246100429
 20
3.150044887
 30
0.0
 10
5.4240574188
 20
3.1499810467
 30
0.0
 10
5.4232489435
 20
3.1499081572
 30
0.0
 10
5.4222470862
 20
3.1498348948
 30
0.0
 10
5.4210520911
 20
3.1497612966
 30
0.0
 10
5.4196641508
 20
3.1496876783
 30
0.0
 10
5.4180837929
 20
3.1496141502
 30
0.0
 10
5.4163118382
 20
3.1495407025
 30
0.0
 10
5.4135693245
 20
3.1494382148
 30
0.0
 10
5.4096702919
 20
3.1493124555
 30
0.0
 10
5.4044315688
 20
3.1491671342
 30
0.0
 10
5.3984534053
 20
3.1490213696
 30
0.0
 10
5.3917461253
 20
3.148875091
 30
0.0
 10
5.3843211048
 20
3.1487285975
 30
0.0
 10
5.3761903904
 20
3.1485820678
 30
0.0
 10
5.3639785748
 20
3.1483796455
 30
0.0
 10
5.3470728448
 20
3.1481309218
 30
0.0
 10
5.3331096855
 20
3.1479472718
 30
0.0
 10
5.3257042012
 20
3.147853578
 30
0.0
  0
ENDSEC
  0
SECTION
  2
OBJECTS
  0
DICTIONARY
  5
C
100
AcDbDictionary
280
0
281
1
  3
ACAD_GROUP
350
D
  3
ACAD_MLINESTYLE
350
17
  3
ACAD_LAYOUT
350
1A
  3
ACAD_PLOTSETTINGS
350
19
  3
ACAD_PLOTSTYLENAME
350
E
  0
DICTIONARY
  5
D
102
{ACAD_REACTORS
330
C
102
}
100
AcDbDictionary
280
0
281
1
  0
ACDBDICTIONARYWDFLT
  5
E
102
{ACAD_REACTORS
330
C
102
}
100
AcDbDictionary
281
1
  3
Normal
350
F
100
AcDbDictionaryWithDefault
340
F
  0
DICTIONARY
  5
17
102
{ACAD_REACTORS
330
C
102
}
100
AcDbDictionary
280
0
281
1
  3
Standard
350
18
  0
DICTIONARY
  5
19
102
{ACAD_REACTORS
330
C
102
}
100
AcDbDictionary
281
1
  0
DICTIONARY
  5
1A
102
{ACAD_REACTORS
330
C
102
}
100
AcDbDictionary
281
1
  3
Model
350
3F8
  3
Layout1
350
3F9
  0
ACDBPLACEHOLDER
  5
F
102
{ACAD_REACTORS
330
E
102
}
  0
MLINESTYLE
  5
18
102
{ACAD_REACTORS
330
17
102
}
100
AcDbMlineStyle
  2
STANDARD
 70
0
  3

 62
256
 51
90.0
 52
90.0
 71
2
 49
0.5
 62
256
  6
BYLAYER
 49
-0.5
 62
256
  6
BYLAYER
  0
LAYOUT
  5
3F8
102
{ACAD_REACTORS
330
1A
102
}
100
AcDbPlotSettings
  1

  2
none_device
  4
ANSI_A_(11.00_x_8.50_Inches)
  6

 40
0.0
 41
0.0
 42
0.0
 43
0.0
 44
279.4
 45
215.9
 46
0.0
 47
0.0
 48
0.0
 49
0.0
140
0.0
141
0.0
142
1.0
143
1.0
 70
1024
 72
0
 73
0
 74
0
  7

 75
0
147
1.0
148
0.0
149
0.0
100
AcDbLayout
  1
Model
 70
0
 71
0
 10
0.0
 20
0.0
 11
11.0
 21
8.5
 12
0.0
 22
0.0
 32
0.0
 14
0.0
 24
0.0
 34
0.0
 15
0.0
 25
0.0
 35
0.0
146
0.0
 13
0.0
 23
0.0
 33
0.0
 16
1.0
 26
0.0
 36
0.0
 17
0.0
 27
1.0
 37
0.0
 76
0
330
214
345
0
346
0
  0
LAYOUT
  5
3F9
102
{ACAD_REACTORS
330
1A
102
}
100
AcDbPlotSettings
  1

  2
none_device
  4
ANSI_A_(11.00_x_8.50_Inches)
  6

 40
0.0
 41
0.0
 42
0.0
 43
0.0
 44
279.4
 45
215.9
 46
0.0
 47
0.0
 48
0.0
 49
0.0
140
0.0
141
0.0
142
1.0
143
1.0
 70
0
 72
0
 73
0
 74
0
  7

 75
0
147
1.0
148
0.0
149
0.0
100
AcDbLayout
  1
Layout1
 70
0
 71
1
 10
0.0
 20
0.0
 11
11.0
 21
8.5
 12
0.0
 22
0.0
 32
0.0
 14
0.0
 24
0.0
 34
0.0
 15
0.0
 25
0.0
 35
0.0
146
0.0
 13
0.0
 23
0.0
 33
0.0
 16
1.0
 26
0.0
 36
0.0
 17
0.0
 27
1.0
 37
0.0
 76
0
330
215
345
0
346
0
  0
ENDSEC
  0
EOF
