999
DXF file: 1400-4261_right.dxf
999
Pro/ENGINEER 2018400 by Parametric Technology Corporation
  0
SECTION
  2
HEADER
  9
$ACADVER
  1
AC1027
  9
$DWGCODEPAGE
  3
ANSI_1252
  9
$EXTMAX
 10
11.0
 20
8.5
 30
0.0
  9
$EXTMIN
 10
0.0
 20
0.0
 30
0.0
  9
$LIMMIN
 10
0.0
 20
0.0
  9
$LIMMAX
 10
11.0
 20
8.5
  9
$VIEWCTR
 10
5.5
 20
4.25
  9
$VIEWSIZE
 40
8.5
  9
$CLAYER
  8
0
  9
$LTSCALE
 40
0.605
  9
$CELTYPE
  6
BYLAYER
  9
$DIMSCALE
 40
1.0
  9
$DIMASZ
 40
0.1
  9
$DIMEXO
 40
0.0625
  9
$DIMDLI
 40
0.418
  9
$DIMEXE
 40
0.125
  9
$DIMCEN
 40
0.099
  9
$DIMLFAC
 40
1.0
  9
$DIMBLK
  1
_FILLED
  9
$DIMALT
 70
1
  9
$DIMALTD
 70
1
  9
$DIMALTTD
 70
2
  9
$DIMALTF
 40
25.4
  9
$DIMTXT
 40
0.08
  9
$DIMTOL
 70
1
  9
$DIMLIM
 70
0
  9
$DIMTFAC
 40
1.0
  9
$DIMTP
 40
0.01
  9
$DIMTM
 40
0.01
  9
$DIMGAP
 40
0.09
  9
$DIMDSEP
 70
46
  9
$AUNITS
 70
0
  9
$PDMODE
 70
3
  9
$PDSIZE
 40
0.3125
  9
$HANDSEED
  5
29C
  9
$TILEMODE
 70
1
  9
$MEASUREMENT
 70
0
  9
$INSUNITS
 70
1
  0
ENDSEC
  0
SECTION
  2
CLASSES
  0
CLASS
  1
ACDBDICTIONARYWDFLT
  2
AcDbDictionaryWithDefault
  3
AutoCAD 2000
 90
0
 91
1
280
0
281
0
  0
CLASS
  1
ACDBPLACEHOLDER
  2
AcDbPlaceHolder
  3
AutoCAD 2000
 90
0
 91
1
280
0
281
0
  0
CLASS
  1
LAYOUT
  2
AcDbLayout
  3
AutoCAD 2000
 90
0
 91
0
280
0
281
0
  0
ENDSEC
  0
SECTION
  2
TABLES
  0
TABLE
  2
VPORT
  5
8
100
AcDbSymbolTable
 70
2
  0
VPORT
  5
1F4
100
AcDbSymbolTableRecord
100
AcDbViewportTableRecord
  2
*ACTIVE
 70
0
 10
0.0
 20
0.0
 11
1.0
 21
1.0
 12
5.5
 22
4.25
 13
0.0
 23
0.0
 14
1.0
 24
1.0
 15
0.0
 25
0.0
 16
0.0
 26
0.0
 36
1.0
 17
0.0
 27
0.0
 37
0.0
 40
8.5
 41
1.2941176471
 42
50.0
 43
0.0
 44
0.0
 50
0.0
 51
0.0
 71
0
 72
100
 73
1
 74
1
 75
0
 76
0
 77
0
 78
0
  0
ENDTAB
  0
TABLE
  2
LTYPE
  5
5
100
AcDbSymbolTable
 70
6
  0
LTYPE
  5
14
100
AcDbSymbolTableRecord
100
AcDbLinetypeTableRecord
  2
BYBLOCK
 70
0
  3

 72
65
 73
0
 40
0.0
  0
LTYPE
  5
15
100
AcDbSymbolTableRecord
100
AcDbLinetypeTableRecord
  2
BYLAYER
 70
0
  3

 72
65
 73
0
 40
0.0
  0
LTYPE
  5
16
100
AcDbSymbolTableRecord
100
AcDbLinetypeTableRecord
  2
CONTINUOUS
 70
64
  3
Solid line
 72
65
 73
0
 40
0.0
  0
LTYPE
  5
1F5
100
AcDbSymbolTableRecord
100
AcDbLinetypeTableRecord
  2
CENTER
 70
64
  3
____ _ ____ _ ____ _ ____ _ ____ _ ____ _ ____
 72
65
 73
4
 40
0.6
 49
0.375
 74
0
 49
-0.075
 74
0
 49
0.075
 74
0
 49
-0.075
 74
0
  0
LTYPE
  5
1F6
100
AcDbSymbolTableRecord
100
AcDbLinetypeTableRecord
  2
HIDDEN
 70
64
  3
- - - - - - - - - - - - - - - - - - - -
 72
65
 73
2
 40
0.2
 49
0.1
 74
0
 49
-0.1
 74
0
  0
LTYPE
  5
1F7
100
AcDbSymbolTableRecord
100
AcDbLinetypeTableRecord
  2
PHANTOM
 70
64
  3
_____ _ _ _____ _ _ _____ _ _ _____
 72
65
 73
6
 40
0.8
 49
0.45
 74
0
 49
-0.05
 74
0
 49
0.1
 74
0
 49
-0.05
 74
0
 49
0.1
 74
0
 49
-0.05
 74
0
  0
LTYPE
  5
1F8
100
AcDbSymbolTableRecord
100
AcDbLinetypeTableRecord
  2
DOT
 70
64
  3
. . . . . . . . . . . . . . . . . . . .
 72
65
 73
2
 40
0.2
 49
0.1
 74
0
 49
-0.1
 74
0
  0
LTYPE
  5
1F9
100
AcDbSymbolTableRecord
100
AcDbLinetypeTableRecord
  2
DASHED
 70
64
  3
- - - - - - - - - - - - - - - - - - - -
 72
65
 73
2
 40
0.2
 49
0.1
 74
0
 49
-0.1
 74
0
  0
ENDTAB
  0
TABLE
  2
LAYER
  5
2
100
AcDbSymbolTable
 70
36
  0
LAYER
  5
10
100
AcDbSymbolTableRecord
100
AcDbLayerTableRecord
  2
0
 70
0
 62
7
  6
CONTINUOUS
370
-3
390
F
  0
LAYER
  5
1FA
100
AcDbSymbolTableRecord
100
AcDbLayerTableRecord
  2
DEFAULT_1
 70
0
 62
7
  6
CENTER
370
-3
390
F
  0
LAYER
  5
1FB
100
AcDbSymbolTableRecord
100
AcDbLayerTableRecord
  2
DEFAULT_2
 70
0
 62
8
  6
HIDDEN
370
-3
390
F
  0
LAYER
  5
1FC
100
AcDbSymbolTableRecord
100
AcDbLayerTableRecord
  2
DEFAULT_3
 70
0
 62
7
  6
PHANTOM
370
-3
390
F
  0
LAYER
  5
1FD
100
AcDbSymbolTableRecord
100
AcDbLayerTableRecord
  2
DEFAULT_COORDINATE_SYSTEM
 70
0
 62
7
  6
CONTINUOUS
370
-3
390
F
  0
LAYER
  5
1FE
100
AcDbSymbolTableRecord
100
AcDbLayerTableRecord
  2
DEFAULT_DATUM_AXES
 70
0
 62
7
  6
CONTINUOUS
370
-3
390
F
  0
LAYER
  5
1FF
100
AcDbSymbolTableRecord
100
AcDbLayerTableRecord
  2
DEFAULT_DATUM_PLANES
 70
0
 62
7
  6
CONTINUOUS
370
-3
390
F
  0
ENDTAB
  0
TABLE
  2
STYLE
  5
3
100
AcDbSymbolTable
 70
1
  0
STYLE
  5
11
100
AcDbSymbolTableRecord
100
AcDbTextStyleTableRecord
  2
STANDARD
 70
0
 40
0.0
 41
0.8
 50
0.0
 71
0
 42
0.2
  3
txt
  4

  0
STYLE
  5
200
100
AcDbSymbolTableRecord
100
AcDbTextStyleTableRecord
  2
TEXTSTYLE_1
 70
0
 40
0.0
 41
0.8
 50
0.0
 71
0
 42
0.2
  3
gdt
  4

  0
ENDTAB
  0
TABLE
  2
VIEW
  5
6
100
AcDbSymbolTable
 70
0
  0
ENDTAB
  0
TABLE
  2
UCS
  5
7
100
AcDbSymbolTable
 70
0
  0
ENDTAB
  0
TABLE
  2
APPID
  5
9
100
AcDbSymbolTable
 70
1
  0
APPID
  5
201
100
AcDbSymbolTableRecord
100
AcDbRegAppTableRecord
  2
ACAD
 70
0
  0
ENDTAB
  0
TABLE
  2
BLOCK_RECORD
  5
1
100
AcDbSymbolTable
 70
0
  0
BLOCK_RECORD
  5
202
100
AcDbSymbolTableRecord
100
AcDbBlockTableRecord
  2
*Model_Space
  0
BLOCK_RECORD
  5
203
100
AcDbSymbolTableRecord
100
AcDbBlockTableRecord
  2
*Paper_Space
  0
BLOCK_RECORD
  5
204
100
AcDbSymbolTableRecord
100
AcDbBlockTableRecord
  2
_FILLED
  0
ENDTAB
  0
TABLE
  2
DIMSTYLE
  5
A
100
AcDbSymbolTable
 70
1
100
AcDbDimStyleTable
 71
0
  0
DIMSTYLE
105
205
100
AcDbSymbolTableRecord
100
AcDbDimStyleTableRecord
  2
STANDARD
 70
0
  3

  4

 40
1.0
 41
0.1
 42
0.0625
 43
0.38
 44
0.125
 45
0.0
 46
0.0
 47
0.01
 48
0.01
140
0.08
141
0.09
142
0.0
143
25.4
144
1.0
145
0.0
146
1.0
147
0.09
 71
1.0
 72
0.0
 73
1
 74
1
 75
0
 76
0
 77
0
 78
4
 79
1
170
1
171
1
172
0
173
0
174
0
175
0
176
0
177
0
178
0
270
2
179
2
271
2
272
2
273
2
274
2
275
0
280
0
281
0
282
0
283
1
284
4
285
0
286
0
287
3
288
0
340
11
278
46
341
204
342
204
343
204
344
204
  0
ENDTAB
  0
ENDSEC
  0
SECTION
  2
BLOCKS
  0
BLOCK
  5
20
100
AcDbEntity
  8
0
100
AcDbBlockBegin
  2
*Model_Space
 70
0
 10
0.0
 20
0.0
 30
0.0
  3
*Model_Space
  1

  0
ENDBLK
  5
21
100
AcDbEntity
  8
0
100
AcDbBlockEnd
  0
BLOCK
  5
1C
100
AcDbEntity
  8
0
100
AcDbBlockBegin
  2
*Paper_Space
 70
0
 10
0.0
 20
0.0
 30
0.0
  3
*Paper_Space
  1

  0
ENDBLK
  5
1D
100
AcDbEntity
  8
0
100
AcDbBlockEnd
  0
BLOCK
  5
206
100
AcDbEntity
  8
0
100
AcDbBlockBegin
  2
_FILLED
 70
64
 10
0.0
 20
0.0
  3
_FILLED
  1

  0
SOLID
  5
207
100
AcDbEntity
  8
0
  6
BYBLOCK
 62
0
100
AcDbTrace
 10
0.0
 20
0.0
 11
-1.0
 21
0.2
 12
-1.0
 22
-0.2
 13
-1.0
 23
-0.2
  0
ENDBLK
  5
208
100
AcDbEntity
  8
0
  6
BYBLOCK
 62
0
100
AcDbBlockEnd
  0
ENDSEC
  0
SECTION
  2
ENTITIES
  0
MTEXT
  5
209
100
AcDbEntity
  8
0
100
AcDbMText
 62
2
  6
CONTINUOUS
  7
STANDARD
 71
3
 72
1
 10
5.8494685533
 20
0.3285148738
 30
0.0
 11
1.0
 21
0.0
 31
0.0
 73
2
 44
0.9
  1
SCALE  .187
 40
0.08
 41
0.704
  0
LINE
  5
20A
100
AcDbEntity
  8
0
100
AcDbLine
 62
7
  6
CONTINUOUS
 10
0.0
 20
0.0
 11
0.0
 21
8.5
  0
LINE
  5
20B
100
AcDbEntity
  8
0
100
AcDbLine
 62
7
  6
CONTINUOUS
 10
0.0
 20
0.0
 11
11.0
 21
0.0
  0
LINE
  5
20C
100
AcDbEntity
  8
0
100
AcDbLine
 62
7
  6
CONTINUOUS
 10
0.0
 20
8.5
 11
11.0
 21
8.5
  0
LINE
  5
20D
100
AcDbEntity
  8
0
100
AcDbLine
 62
7
  6
CONTINUOUS
 10
11.0
 20
0.0
 11
11.0
 21
8.5
  0
LINE
  5
20E
100
AcDbEntity
  8
0
100
AcDbLine
 62
7
  6
CONTINUOUS
 10
6.3771712487
 20
0.5618689111
 11
5.2758112768
 21
0.5618689111
  0
LINE
  5
20F
100
AcDbEntity
  8
0
100
AcDbLine
 62
7
  6
CONTINUOUS
 10
5.2743388709
 20
0.5633542013
 11
6.3786436557
 21
0.5633542013
  0
LINE
  5
210
100
AcDbEntity
  8
0
100
AcDbLine
 62
7
  6
CONTINUOUS
 10
6.3769057219
 20
0.7625016889
 11
5.2760768047
 21
0.7625016889
  0
LINE
  5
211
100
AcDbEntity
  8
0
100
AcDbLine
 62
7
  6
CONTINUOUS
 10
5.2964573131
 20
0.7843296349
 11
6.3565252079
 21
0.7843296354
  0
LINE
  5
212
100
AcDbEntity
  8
0
100
AcDbLine
 62
7
  6
CONTINUOUS
 10
5.6148279492
 20
0.8019062339
 11
6.0381545774
 21
0.8019062339
  0
LINE
  5
213
100
AcDbEntity
  8
0
100
AcDbLine
 62
7
  6
CONTINUOUS
 10
5.6148278775
 20
0.8055873363
 11
6.0381546491
 21
0.8055873363
  0
LINE
  5
214
100
AcDbEntity
  8
0
100
AcDbLine
 62
7
  6
CONTINUOUS
 10
6.0307924444
 20
0.812949541
 11
5.6221900822
 21
0.812949541
  0
LINE
  5
215
100
AcDbEntity
  8
0
100
AcDbLine
 62
7
  6
CONTINUOUS
 10
3.8374444129
 20
7.3984121387
 11
3.8374444129
 21
7.5589082812
  0
LINE
  5
216
100
AcDbEntity
  8
0
100
AcDbLine
 62
7
  6
CONTINUOUS
 10
4.0583105546
 20
7.3984121387
 11
4.0583105546
 21
7.5589082812
  0
LINE
  5
217
100
AcDbEntity
  8
0
100
AcDbLine
 62
7
  6
CONTINUOUS
 10
4.3896097672
 20
8.1110736355
 11
4.3896097672
 21
7.8902074938
  0
LINE
  5
218
100
AcDbEntity
  8
0
100
AcDbLine
 62
7
  6
CONTINUOUS
 10
5.6531440903
 20
6.1703349547
 11
5.6521349642
 21
6.1681231238
  0
LINE
  5
219
100
AcDbEntity
  8
0
100
AcDbLine
 62
7
  6
CONTINUOUS
 10
5.6521349642
 20
6.1681231238
 11
5.6511613929
 21
6.1660350698
  0
LINE
  5
21A
100
AcDbEntity
  8
0
100
AcDbLine
 62
7
  6
CONTINUOUS
 10
5.6511613929
 20
6.1660350698
 11
5.6502289099
 21
6.1640742109
  0
LINE
  5
21B
100
AcDbEntity
  8
0
100
AcDbLine
 62
7
  6
CONTINUOUS
 10
5.6502289099
 20
6.1640742109
 11
5.6493419747
 21
6.1622420072
  0
LINE
  5
21C
100
AcDbEntity
  8
0
100
AcDbLine
 62
7
  6
CONTINUOUS
 10
5.6493419747
 20
6.1622420072
 11
5.6485041028
 21
6.1605387631
  0
LINE
  5
21D
100
AcDbEntity
  8
0
100
AcDbLine
 62
7
  6
CONTINUOUS
 10
5.6485041028
 20
6.1605387631
 11
5.6477181274
 21
6.1589639407
  0
LINE
  5
21E
100
AcDbEntity
  8
0
100
AcDbLine
 62
7
  6
CONTINUOUS
 10
5.6477181274
 20
6.1589639407
 11
5.6469865753
 21
6.1575170285
  0
LINE
  5
21F
100
AcDbEntity
  8
0
100
AcDbLine
 62
7
  6
CONTINUOUS
 10
5.6469865753
 20
6.1575170285
 11
5.6459958659
 21
6.1555849646
  0
LINE
  5
220
100
AcDbEntity
  8
0
100
AcDbLine
 62
7
  6
CONTINUOUS
 10
5.6459958659
 20
6.1555849646
 11
5.6451374283
 21
6.153934978
  0
LINE
  5
221
100
AcDbEntity
  8
0
100
AcDbLine
 62
7
  6
CONTINUOUS
 10
5.6451374283
 20
6.153934978
 11
5.6442037821
 21
6.1521643609
  0
LINE
  5
222
100
AcDbEntity
  8
0
100
AcDbLine
 62
7
  6
CONTINUOUS
 10
5.6442037821
 20
6.1521643609
 11
5.6433821351
 21
6.1506257385
  0
LINE
  5
223
100
AcDbEntity
  8
0
100
AcDbLine
 62
7
  6
CONTINUOUS
 10
5.6433821351
 20
6.1506257385
 11
5.6428805232
 21
6.1496950507
  0
LINE
  5
224
100
AcDbEntity
  8
0
100
AcDbLine
 62
7
  6
CONTINUOUS
 10
5.6424361452
 20
6.1479417457
 11
5.6432767469
 21
6.1494735571
  0
LINE
  5
225
100
AcDbEntity
  8
0
100
AcDbLine
 62
7
  6
CONTINUOUS
 10
5.6424361452
 20
6.1479417457
 11
5.6424536562
 21
6.1479723819
  0
LINE
  5
226
100
AcDbEntity
  8
0
100
AcDbLine
 62
7
  6
CONTINUOUS
 10
5.3847589798
 20
8.1110736355
 11
5.3847589798
 21
7.8902074938
  0
LINE
  5
227
100
AcDbEntity
  8
0
100
AcDbLine
 62
7
  6
CONTINUOUS
 10
5.2760768047
 20
0.7625016889
 11
5.2743388709
 21
0.5633542013
  0
LINE
  5
228
100
AcDbEntity
  8
0
100
AcDbLine
 62
7
  6
CONTINUOUS
 10
5.5103765979
 20
6.3356779622
 11
5.5103765979
 21
6.1553039603
  0
LINE
  5
229
100
AcDbEntity
  8
0
100
AcDbLine
 62
7
  6
CONTINUOUS
 10
5.6097663617
 20
6.1553039603
 11
5.6097663617
 21
6.3356779622
  0
LINE
  5
22A
100
AcDbEntity
  8
0
100
AcDbLine
 62
7
  6
CONTINUOUS
 10
5.6148278775
 20
0.8055873363
 11
5.6148278775
 21
0.8019062339
  0
LINE
  5
22B
100
AcDbEntity
  8
0
100
AcDbLine
 62
7
  6
CONTINUOUS
 10
5.6240306334
 20
6.2737986355
 11
5.6240306334
 21
6.2171832811
  0
LINE
  5
22C
100
AcDbEntity
  8
0
100
AcDbLine
 62
7
  6
CONTINUOUS
 10
5.6313928381
 20
6.3356779662
 11
5.6313928381
 21
6.1553039505
  0
LINE
  5
22D
100
AcDbEntity
  8
0
100
AcDbLine
 62
7
  6
CONTINUOUS
 10
5.6424361452
 20
0.812949541
 11
5.6424361452
 21
5.6079240292
  0
LINE
  5
22E
100
AcDbEntity
  8
0
100
AcDbLine
 62
7
  6
CONTINUOUS
 10
5.6424361452
 20
5.6160224544
 11
5.6424361452
 21
5.9032015204
  0
LINE
  5
22F
100
AcDbEntity
  8
0
100
AcDbLine
 62
7
  6
CONTINUOUS
 10
5.6424361452
 20
5.9105584614
 11
5.6424361452
 21
6.1479417455
  0
LINE
  5
230
100
AcDbEntity
  8
0
100
AcDbLine
 62
7
  6
CONTINUOUS
 10
5.6424361452
 20
6.3430401705
 11
5.6424361452
 21
6.5657468638
  0
LINE
  5
231
100
AcDbEntity
  8
0
100
AcDbLine
 62
7
  6
CONTINUOUS
 10
5.7160581924
 20
7.5589082812
 11
5.7160581924
 21
6.5694279662
  0
LINE
  5
232
100
AcDbEntity
  8
0
100
AcDbLine
 62
7
  6
CONTINUOUS
 10
5.7896802397
 20
6.0854344368
 11
5.7896802397
 21
6.6233575883
  0
LINE
  5
233
100
AcDbEntity
  8
0
100
AcDbLine
 62
7
  6
CONTINUOUS
 10
5.8264912646
 20
5.722774428
 11
5.8264912647
 21
5.7006877747
  0
LINE
  5
234
100
AcDbEntity
  8
0
100
AcDbLine
 62
7
  6
CONTINUOUS
 10
5.8633022869
 20
6.0854344368
 11
5.8633022869
 21
6.6233575883
  0
LINE
  5
235
100
AcDbEntity
  8
0
100
AcDbLine
 62
7
  6
CONTINUOUS
 10
5.9199912633
 20
7.6945418909
 11
5.9199912633
 21
7.9435540292
  0
LINE
  5
236
100
AcDbEntity
  8
0
100
AcDbLine
 62
7
  6
CONTINUOUS
 10
5.9369243342
 20
7.5589082812
 11
5.9369243342
 21
6.5694279662
  0
LINE
  5
237
100
AcDbEntity
  8
0
100
AcDbLine
 62
7
  6
CONTINUOUS
 10
6.0105463814
 20
0.812949541
 11
6.0105463814
 21
5.6079240292
  0
LINE
  5
238
100
AcDbEntity
  8
0
100
AcDbLine
 62
7
  6
CONTINUOUS
 10
6.0105463814
 20
5.6160224544
 11
6.0105463814
 21
5.9032015204
  0
LINE
  5
239
100
AcDbEntity
  8
0
100
AcDbLine
 62
7
  6
CONTINUOUS
 10
6.0105463814
 20
5.9105584614
 11
6.0105463814
 21
6.5086897772
  0
LINE
  5
23A
100
AcDbEntity
  8
0
100
AcDbLine
 62
7
  6
CONTINUOUS
 10
6.0105463814
 20
6.5491819032
 11
6.0105463814
 21
6.5657468638
  0
LINE
  5
23B
100
AcDbEntity
  8
0
100
AcDbLine
 62
7
  6
CONTINUOUS
 10
6.0381546491
 20
0.8055873363
 11
6.0381546491
 21
0.8019062339
  0
LINE
  5
23C
100
AcDbEntity
  8
0
100
AcDbLine
 62
7
  6
CONTINUOUS
 10
6.3769057219
 20
0.7625016889
 11
6.3786436557
 21
0.5633542013
  0
LINE
  5
23D
100
AcDbEntity
  8
0
100
AcDbLine
 62
7
  6
CONTINUOUS
 10
5.6424361452
 20
5.6079240292
 11
6.0105463814
 21
5.6079240292
  0
LINE
  5
23E
100
AcDbEntity
  8
0
100
AcDbLine
 62
7
  6
CONTINUOUS
 10
5.6461173652
 20
5.612341352
 11
6.0068651614
 21
5.612341352
  0
LINE
  5
23F
100
AcDbEntity
  8
0
100
AcDbLine
 62
7
  6
CONTINUOUS
 10
5.6424361452
 20
5.6160224544
 11
6.0105463814
 21
5.6160224544
  0
LINE
  5
240
100
AcDbEntity
  8
0
100
AcDbLine
 62
7
  6
CONTINUOUS
 10
5.6489155368
 20
6.3296100313
 11
5.649778215
 21
6.3278426009
  0
LINE
  5
241
100
AcDbEntity
  8
0
100
AcDbLine
 62
7
  6
CONTINUOUS
 10
5.649778215
 20
6.3278426009
 11
5.65068846
 21
6.3259459426
  0
LINE
  5
242
100
AcDbEntity
  8
0
100
AcDbLine
 62
7
  6
CONTINUOUS
 10
5.65068846
 20
6.3259459426
 11
5.6516419318
 21
6.3239216208
  0
LWPOLYLINE
  5
243
100
AcDbEntity
  8
0
100
AcDbPolyline
 62
7
  6
CONTINUOUS
 90
103
 70
0
 10
5.6516419318
 20
6.3239216208
 10
5.6526339766
 20
6.3217713323
 10
5.6531426252
 20
6.3206502158
 10
5.6536588926
 20
6.3194986086
 10
5.6541817331
 20
6.3183175873
 10
5.6547105645
 20
6.3171071863
 10
5.6552446553
 20
6.3158677611
 10
5.655782686
 20
6.314601047
 10
5.6563240217
 20
6.313307139
 10
5.6568678469
 20
6.3119864901
 10
5.6574125253
 20
6.3106415938
 10
5.6579573098
 20
6.3092728371
 10
5.6585014423
 20
6.3078806367
 10
5.6590432622
 20
6.3064677869
 10
5.6595819651
 20
6.3050349168
 10
5.660116824
 20
6.3035824134
 10
5.6606463091
 20
6.3021129276
 10
5.6611696152
 20
6.3006272538
 10
5.6616860955
 20
6.2991257803
 10
5.6621945062
 20
6.2976107172
 10
5.6626941615
 20
6.2960827359
 10
5.6631843904
 20
6.2945424788
 10
5.6636640332
 20
6.2929922436
 10
5.6641324522
 20
6.2914328269
 10
5.6645890905
 20
6.2898648278
 10
5.665032992
 20
6.2882903506
 10
5.6654635649
 20
6.2867104419
 10
5.6658804177
 20
6.285125567
 10
5.6662829678
 20
6.283537012
 10
5.6666707754
 20
6.2819456456
 10
5.6670434812
 20
6.2803521023
 10
5.6674006782
 20
6.2787573223
 10
5.6677419767
 20
6.2771624171
 10
5.6680672035
 20
6.2755677957
 10
5.6683762979
 20
6.2739733202
 10
5.668668983
 20
6.2723799682
 10
5.6689451
 20
6.2707881857
 10
5.6692047386
 20
6.2691969789
 10
5.6694477413
 20
6.2676071021
 10
5.6696739988
 20
6.2660192029
 10
5.6698836441
 20
6.2644320973
 10
5.6700765313
 20
6.2628464315
 10
5.6702525407
 20
6.2612628321
 10
5.6704118213
 20
6.2596800631
 10
5.6705543174
 20
6.2580988022
 10
5.6706799857
 20
6.2565196587
 10
5.6707889139
 20
6.2549412598
 10
5.6708810032
 20
6.2533643476
 10
5.6709562578
 20
6.2517893953
 10
5.6710148174
 20
6.2502145967
 10
5.6710566705
 20
6.2486406058
 10
5.6710818108
 20
6.2470679766
 10
5.6710902322
 20
6.2454947309
 10
5.6710818834
 20
6.2439214613
 10
5.6710568236
 20
6.2423487613
 10
5.6710150523
 20
6.2407746534
 10
5.670956569
 20
6.2391996891
 10
5.6708813781
 20
6.237624527
 10
5.6707893376
 20
6.2360473705
 10
5.6706804568
 20
6.2344686823
 10
5.6705548326
 20
6.232889213
 10
5.6704123747
 20
6.2313076236
 10
5.670253122
 20
6.2297245251
 10
5.6700771258
 20
6.2281405981
 10
5.6698842508
 20
6.2265546339
 10
5.6696746206
 20
6.2249672579
 10
5.6694483786
 20
6.2233791183
 10
5.6692053944
 20
6.221789065
 10
5.6689457782
 20
6.2201977621
 10
5.6686696928
 20
6.2186059422
 10
5.6683770507
 20
6.217012595
 10
5.6680680124
 20
6.2154181816
 10
5.6677428513
 20
6.213823668
 10
5.6674016155
 20
6.212228866
 10
5.6670444754
 20
6.2106341683
 10
5.6666718279
 20
6.2090406933
 10
5.6662840771
 20
6.2074493748
 10
5.6658815799
 20
6.205860847
 10
5.6654647758
 20
6.2042759853
 10
5.6650342463
 20
6.2026960803
 10
5.6645903812
 20
6.2011215909
 10
5.6641337732
 20
6.1995535597
 10
5.6636653816
 20
6.197994102
 10
5.663185764
 20
6.196443821
 10
5.6626955585
 20
6.1949035133
 10
5.662195926
 20
6.1933754818
 10
5.6616875366
 20
6.1918603694
 10
5.6611710727
 20
6.1903588436
 10
5.6606477797
 20
6.1888731163
 10
5.6601183054
 20
6.1874035753
 10
5.6595834563
 20
6.1859510152
 10
5.6590447651
 20
6.1845180907
 10
5.6585029597
 20
6.1831051926
 10
5.657958839
 20
6.1817129487
 10
5.6574140619
 20
6.1803441466
 10
5.6568693869
 20
6.1789992005
 10
5.6563255628
 20
6.1776784974
 10
5.6557842262
 20
6.1763845277
 10
5.6552461934
 20
6.175117746
 10
5.6547120951
 20
6.1738782514
 10
5.654183249
 20
6.1726677737
 10
5.6536603857
 20
6.171486662
 10
5.6531440903
 20
6.1703349547
  0
LINE
  5
244
100
AcDbEntity
  8
0
100
AcDbLine
 62
7
  6
CONTINUOUS
 10
5.6424535947
 20
6.3430097086
 11
5.6424361452
 21
6.3430401709
  0
LINE
  5
245
100
AcDbEntity
  8
0
100
AcDbLine
 62
7
  6
CONTINUOUS
 10
5.6432777296
 20
6.3415065598
 11
5.6424361452
 21
6.3430401709
  0
LINE
  5
246
100
AcDbEntity
  8
0
100
AcDbLine
 62
7
  6
CONTINUOUS
 10
5.6428792947
 20
6.3412891368
 11
5.6428881427
 21
6.3412727641
  0
LINE
  5
247
100
AcDbEntity
  8
0
100
AcDbLine
 62
7
  6
CONTINUOUS
 10
5.6428871922
 20
6.341274516
 11
5.6436641493
 21
6.3398300604
  0
LINE
  5
248
100
AcDbEntity
  8
0
100
AcDbLine
 62
7
  6
CONTINUOUS
 10
5.6436641493
 20
6.3398300604
 11
5.6444139465
 21
6.338421103
  0
LINE
  5
249
100
AcDbEntity
  8
0
100
AcDbLine
 62
7
  6
CONTINUOUS
 10
5.6444139465
 20
6.338421103
 11
5.6451368567
 21
6.3370480331
  0
LINE
  5
24A
100
AcDbEntity
  8
0
100
AcDbLine
 62
7
  6
CONTINUOUS
 10
5.6451368567
 20
6.3370480331
 11
5.6459950753
 21
6.3353984788
  0
LINE
  5
24B
100
AcDbEntity
  8
0
100
AcDbLine
 62
7
  6
CONTINUOUS
 10
5.6459950753
 20
6.3353984788
 11
5.646985599
 21
6.333466809
  0
LINE
  5
24C
100
AcDbEntity
  8
0
100
AcDbLine
 62
7
  6
CONTINUOUS
 10
5.646985599
 20
6.333466809
 11
5.6477170472
 21
6.3320201238
  0
LWPOLYLINE
  5
24D
100
AcDbEntity
  8
0
100
AcDbPolyline
 62
7
  6
CONTINUOUS
 90
3
 70
0
 10
5.6477170472
 20
6.3320201238
 10
5.6485029432
 20
6.3304454949
 10
5.6489155368
 20
6.3296100313
  0
LINE
  5
24E
100
AcDbEntity
  8
0
100
AcDbLine
 62
7
  6
CONTINUOUS
 10
5.5103765979
 20
6.1553039505
 11
5.6097663617
 21
6.1553039505
  0
LINE
  5
24F
100
AcDbEntity
  8
0
100
AcDbLine
 62
7
  6
CONTINUOUS
 10
5.6313928381
 20
6.1553039505
 11
5.6458502903
 21
6.1553039505
  0
LINE
  5
250
100
AcDbEntity
  8
0
100
AcDbLine
 62
7
  6
CONTINUOUS
 10
5.6313928381
 20
6.1700283599
 11
5.6097663617
 21
6.1700283599
  0
LINE
  5
251
100
AcDbEntity
  8
0
100
AcDbLine
 62
7
  6
CONTINUOUS
 10
5.6097663617
 20
6.2171832812
 11
5.6240306334
 21
6.2171832811
  0
LINE
  5
252
100
AcDbEntity
  8
0
100
AcDbLine
 62
7
  6
CONTINUOUS
 10
5.6240306334
 20
6.2737986355
 11
5.6097663617
 21
6.2737986355
  0
LINE
  5
253
100
AcDbEntity
  8
0
100
AcDbLine
 62
7
  6
CONTINUOUS
 10
5.6313928381
 20
6.3209535568
 11
5.6097663617
 21
6.3209535568
  0
LINE
  5
254
100
AcDbEntity
  8
0
100
AcDbLine
 62
7
  6
CONTINUOUS
 10
5.5103765979
 20
6.3356779662
 11
5.6097663617
 21
6.3356779662
  0
LINE
  5
255
100
AcDbEntity
  8
0
100
AcDbLine
 62
7
  6
CONTINUOUS
 10
5.6313928381
 20
6.3356779662
 11
5.6458502895
 21
6.3356779662
  0
LINE
  5
256
100
AcDbEntity
  8
0
100
AcDbLine
 62
7
  6
CONTINUOUS
 10
6.0105463814
 20
6.5657468638
 11
5.8633022869
 21
6.5657468638
  0
LINE
  5
257
100
AcDbEntity
  8
0
100
AcDbLine
 62
7
  6
CONTINUOUS
 10
5.7896802397
 20
6.5657468638
 11
5.6424361452
 21
6.5657468638
  0
LINE
  5
258
100
AcDbEntity
  8
0
100
AcDbLine
 62
7
  6
CONTINUOUS
 10
6.0068651616
 20
6.5694279662
 11
5.8633022869
 21
6.5694279662
  0
LINE
  5
259
100
AcDbEntity
  8
0
100
AcDbLine
 62
7
  6
CONTINUOUS
 10
5.7896802397
 20
6.5694279662
 11
5.6461173652
 21
6.5694279662
  0
LINE
  5
25A
100
AcDbEntity
  8
0
100
AcDbLine
 62
7
  6
CONTINUOUS
 10
5.8633022869
 20
6.6233575883
 11
5.7896802397
 21
6.6233575883
  0
LINE
  5
25B
100
AcDbEntity
  8
0
100
AcDbLine
 62
7
  6
CONTINUOUS
 10
5.8559400819
 20
6.630719793
 11
5.7970424447
 21
6.630719793
  0
LINE
  5
25C
100
AcDbEntity
  8
0
100
AcDbLine
 62
7
  6
CONTINUOUS
 10
4.0546294523
 20
7.3947310363
 11
3.8411255153
 21
7.3947310363
  0
LINE
  5
25D
100
AcDbEntity
  8
0
100
AcDbLine
 62
7
  6
CONTINUOUS
 10
4.0583105546
 20
7.3984121387
 11
3.8374444129
 21
7.3984121387
  0
LINE
  5
25E
100
AcDbEntity
  8
0
100
AcDbLine
 62
7
  6
CONTINUOUS
 10
5.9369243342
 20
7.5589082812
 11
5.7160581924
 21
7.5589082812
  0
LINE
  5
25F
100
AcDbEntity
  8
0
100
AcDbLine
 62
7
  6
CONTINUOUS
 10
3.8374444129
 20
7.5589082812
 11
4.0583105546
 21
7.5589082812
  0
LINE
  5
260
100
AcDbEntity
  8
0
100
AcDbLine
 62
7
  6
CONTINUOUS
 10
4.3896097672
 20
7.8902074938
 11
5.3847589798
 21
7.8902074938
  0
LINE
  5
261
100
AcDbEntity
  8
0
100
AcDbLine
 62
7
  6
CONTINUOUS
 10
5.7808867228
 20
7.9435540292
 11
5.9199912633
 21
7.9435540292
  0
LINE
  5
262
100
AcDbEntity
  8
0
100
AcDbLine
 62
7
  6
CONTINUOUS
 10
5.7790718524
 20
7.9454240292
 11
5.9181212399
 21
7.9454240292
  0
LINE
  5
263
100
AcDbEntity
  8
0
100
AcDbLine
 62
7
  6
CONTINUOUS
 10
5.7772311195
 20
7.9472940292
 11
5.9106412633
 21
7.9472940292
  0
LINE
  5
264
100
AcDbEntity
  8
0
100
AcDbLine
 62
7
  6
CONTINUOUS
 10
4.3896097672
 20
8.1110736355
 11
5.3847589798
 21
8.1110736355
  0
ARC
  5
265
100
AcDbEntity
  8
0
100
AcDbCircle
 62
7
  6
CONTINUOUS
 10
4.3896097672
 20
7.5589082812
 40
0.5521653543
100
AcDbArc
 50
90.0
 51
180.0
  0
ARC
  5
266
100
AcDbEntity
  8
0
100
AcDbCircle
 62
7
  6
CONTINUOUS
 10
4.3896097672
 20
7.5589082812
 40
0.3312992126
100
AcDbArc
 50
90.0
 51
180.0
  0
ARC
  5
267
100
AcDbEntity
  8
0
100
AcDbCircle
 62
7
  6
CONTINUOUS
 10
3.8411255153
 20
7.3984121387
 40
0.0036811024
100
AcDbArc
 50
180.0
 51
270.0
  0
ARC
  5
268
100
AcDbEntity
  8
0
100
AcDbCircle
 62
7
  6
CONTINUOUS
 10
4.0546294523
 20
7.3984121387
 40
0.0036811024
100
AcDbArc
 50
270.0
 51
360.0
  0
ARC
  5
269
100
AcDbEntity
  8
0
100
AcDbCircle
 62
7
  6
CONTINUOUS
 10
5.8264912633
 20
-6.0601859326
 40
6.8650075996
100
AcDbArc
 50
85.5718969181
 51
88.33012475
  0
ARC
  5
26A
100
AcDbEntity
  8
0
100
AcDbCircle
 62
7
  6
CONTINUOUS
 10
5.8264912633
 20
-6.0601859326
 40
6.8650075996
100
AcDbArc
 50
91.66987525
 51
94.4281030819
  0
ARC
  5
26B
100
AcDbEntity
  8
0
100
AcDbCircle
 62
7
  6
CONTINUOUS
 10
5.2981625779
 20
0.7623089492
 40
0.0220866142
100
AcDbArc
 50
94.4281030819
 51
179.5
  0
ARC
  5
26C
100
AcDbEntity
  8
0
100
AcDbCircle
 62
7
  6
CONTINUOUS
 10
6.3548199487
 20
0.7623089492
 40
0.0220866142
100
AcDbArc
 50
0.5
 51
85.5718969181
  0
ARC
  5
26D
100
AcDbEntity
  8
0
100
AcDbCircle
 62
7
  6
CONTINUOUS
 10
6.0307924444
 20
0.8055873363
 40
0.0073622047
100
AcDbArc
 50
0.0
 51
90.0
  0
ARC
  5
26E
100
AcDbEntity
  8
0
100
AcDbCircle
 62
7
  6
CONTINUOUS
 10
5.6221900822
 20
0.8055873363
 40
0.0073622047
100
AcDbArc
 50
90.0
 51
180.0
  0
ARC
  5
26F
100
AcDbEntity
  8
0
100
AcDbCircle
 62
7
  6
CONTINUOUS
 10
5.2758112558
 20
0.563341352
 40
0.0014724409
100
AcDbArc
 50
179.5
 51
270.0
  0
ARC
  5
270
100
AcDbEntity
  8
0
100
AcDbCircle
 62
7
  6
CONTINUOUS
 10
6.3771712708
 20
0.563341352
 40
0.0014724409
100
AcDbArc
 50
270.0
 51
0.5
  0
ARC
  5
271
100
AcDbEntity
  8
0
100
AcDbCircle
 62
7
  6
CONTINUOUS
 10
5.3333874749
 20
6.3185919916
 40
0.3530331495
100
AcDbArc
 50
331.3868005603
 51
332.4282806617
  0
ARC
  5
272
100
AcDbEntity
  8
0
100
AcDbCircle
 62
7
  6
CONTINUOUS
 10
5.3377885403
 20
6.1747392446
 40
0.3480445032
100
AcDbArc
 50
27.5642052959
 51
28.6213401511
  0
ARC
  5
273
100
AcDbEntity
  8
0
100
AcDbCircle
 62
7
  6
CONTINUOUS
 10
5.646853468
 20
5.6079240292
 40
0.0044173228
100
AcDbArc
 50
90.0
 51
180.0
  0
ARC
  5
274
100
AcDbEntity
  8
0
100
AcDbCircle
 62
7
  6
CONTINUOUS
 10
5.6461172475
 20
5.6160224544
 40
0.0036811024
100
AcDbArc
 50
180.0
 51
270.0
  0
ARC
  5
275
100
AcDbEntity
  8
0
100
AcDbCircle
 62
7
  6
CONTINUOUS
 10
5.6461172475
 20
6.5657468638
 40
0.0036811024
100
AcDbArc
 50
90.0
 51
180.0
  0
ARC
  5
276
100
AcDbEntity
  8
0
100
AcDbCircle
 62
7
  6
CONTINUOUS
 10
5.6461168353
 20
6.3430400937
 40
0.0036806753
100
AcDbArc
 50
179.998797722
 51
208.4058098548
  0
ARC
  5
277
100
AcDbEntity
  8
0
100
AcDbCircle
 62
7
  6
CONTINUOUS
 10
5.646116813
 20
6.1479418128
 40
0.0036806686
100
AcDbArc
 50
151.5989181716
 51
180.0010436823
  0
ARC
  5
278
100
AcDbEntity
  8
0
100
AcDbCircle
 62
7
  6
CONTINUOUS
 10
5.3847589798
 20
7.5589082812
 40
0.5521653543
100
AcDbArc
 50
0.0
 51
90.0
  0
ARC
  5
279
100
AcDbEntity
  8
0
100
AcDbCircle
 62
7
  6
CONTINUOUS
 10
5.3847589798
 20
7.5589082812
 40
0.3312992126
100
AcDbArc
 50
0.0
 51
90.0
  0
ARC
  5
27A
100
AcDbEntity
  8
0
100
AcDbCircle
 62
7
  6
CONTINUOUS
 10
5.7804785053
 20
5.9067783221
 40
0.2300660629
100
AcDbArc
 50
352.1959247815
 51
357.5652464587
  0
ARC
  5
27B
100
AcDbEntity
  8
0
100
AcDbCircle
 62
7
  6
CONTINUOUS
 10
5.8722964341
 20
5.9067607627
 40
0.2298579186
100
AcDbArc
 50
182.4549661432
 51
187.8070044304
  0
ARC
  5
27C
100
AcDbEntity
  8
0
100
AcDbCircle
 62
7
  6
CONTINUOUS
 10
5.826491229
 20
5.9080247864
 40
0.184302315
100
AcDbArc
 50
190.1307341497
 51
346.3265831691
  0
ARC
  5
27D
100
AcDbEntity
  8
0
100
AcDbCircle
 62
7
  6
CONTINUOUS
 10
5.8264912633
 20
5.906829541
 40
0.1840962995
100
AcDbArc
 50
101.5346192733
 51
189.764536632
  0
ARC
  5
27E
100
AcDbEntity
  8
0
100
AcDbCircle
 62
7
  6
CONTINUOUS
 10
5.8264912633
 20
5.906829541
 40
0.1840962995
100
AcDbArc
 50
350.2354633681
 51
78.4653807267
  0
ARC
  5
27F
100
AcDbEntity
  8
0
100
AcDbCircle
 62
7
  6
CONTINUOUS
 10
6.1934863147
 20
6.5289358402
 40
0.1840561212
100
AcDbArc
 50
173.6847439305
 51
186.3152560695
  0
ARC
  5
280
100
AcDbEntity
  8
0
100
AcDbCircle
 62
7
  6
CONTINUOUS
 10
5.8264912633
 20
5.906829541
 40
0.1840551181
100
AcDbArc
 50
191.7792086837
 51
347.5695998876
  0
CIRCLE
  5
281
100
AcDbEntity
  8
0
100
AcDbCircle
 62
7
  6
CONTINUOUS
 10
5.8264912633
 20
5.906829541
 40
0.1814667467
  0
CIRCLE
  5
282
100
AcDbEntity
  8
0
100
AcDbCircle
 62
7
  6
CONTINUOUS
 10
5.8264912633
 20
5.906829541
 40
0.1765853755
  0
ARC
  5
283
100
AcDbEntity
  8
0
100
AcDbCircle
 62
7
  6
CONTINUOUS
 10
5.8559400822
 20
6.6233575883
 40
0.0073622047
100
AcDbArc
 50
0.0
 51
90.0
  0
ARC
  5
284
100
AcDbEntity
  8
0
100
AcDbCircle
 62
7
  6
CONTINUOUS
 10
5.7970424444
 20
6.6233575883
 40
0.0073622047
100
AcDbArc
 50
90.0
 51
180.0
  0
ARC
  5
285
100
AcDbEntity
  8
0
100
AcDbCircle
 62
7
  6
CONTINUOUS
 10
6.0061290586
 20
5.6079240292
 40
0.0044173228
100
AcDbArc
 50
0.0
 51
90.0
  0
ARC
  5
286
100
AcDbEntity
  8
0
100
AcDbCircle
 62
7
  6
CONTINUOUS
 10
6.006865279
 20
5.6160224544
 40
0.0036811024
100
AcDbArc
 50
270.0
 51
360.0
  0
ARC
  5
287
100
AcDbEntity
  8
0
100
AcDbCircle
 62
7
  6
CONTINUOUS
 10
6.006865279
 20
6.5657468638
 40
0.0036811024
100
AcDbArc
 50
0.0
 51
90.0
  0
ARC
  5
288
100
AcDbEntity
  8
0
100
AcDbCircle
 62
7
  6
CONTINUOUS
 10
5.9181212633
 20
7.9435540292
 40
0.00187
100
AcDbArc
 50
0.0
 51
90.0
  0
ARC
  5
289
100
AcDbEntity
  8
0
100
AcDbCircle
 62
7
  6
CONTINUOUS
 10
5.9106412633
 20
7.9454240292
 40
0.00187
100
AcDbArc
 50
0.0
 51
90.0
  0
LINE
  5
28A
100
AcDbEntity
  8
0
100
AcDbLine
 62
7
  6
CONTINUOUS
 10
6.0055705051
 20
5.8644579784
 11
6.007920571
 21
5.8756068922
  0
SPLINE
  5
28B
100
AcDbEntity
  8
0
100
AcDbSpline
 62
7
  6
CONTINUOUS
 70
0
 71
3
 72
22
 73
18
 74
0
 42
0.0000001
 43
0.0000001
 44
0.0000000001
 40
0.0
 40
0.0
 40
0.0
 40
0.0
 40
0.0348418012
 40
0.0717324069
 40
0.1118377995
 40
0.156093274
 40
0.2051829568
 40
0.2594271188
 40
0.3188917653
 40
0.3833301135
 40
0.4523132222
 40
0.5252059247
 40
0.6012681226
 40
0.6796759677
 40
0.7595701866
 40
0.840118351
 40
1.0
 40
1.0
 40
1.0
 40
1.0
 10
5.9067190204
 20
5.7411799581
 30
0.0
 10
5.9064974266
 20
5.741072636
 30
0.0
 10
5.9060635249
 20
5.7408023181
 30
0.0
 10
5.9054886236
 20
5.7402528051
 30
0.0
 10
5.904989123
 20
5.7395510611
 30
0.0
 10
5.904572585
 20
5.7387010685
 30
0.0
 10
5.9042467988
 20
5.7377073763
 30
0.0
 10
5.9040153046
 20
5.7365783209
 30
0.0
 10
5.9038830579
 20
5.7353247234
 30
0.0
 10
5.9038501359
 20
5.7339607889
 30
0.0
 10
5.9039172624
 20
5.7325033588
 30
0.0
 10
5.9040803997
 20
5.7309711122
 30
0.0
 10
5.9043356835
 20
5.7293841439
 30
0.0
 10
5.9046754646
 20
5.7277626441
 30
0.0
 10
5.9050922786
 20
5.726126535
 30
0.0
 10
5.9057360062
 20
5.7239559649
 30
0.0
 10
5.9063064139
 20
5.7223537211
 30
0.0
 10
5.9067190326
 20
5.7213019328
 30
0.0
  0
SPLINE
  5
28C
100
AcDbEntity
  8
0
100
AcDbSpline
 62
7
  6
CONTINUOUS
 70
0
 71
3
 72
30
 73
26
 74
0
 42
0.0000001
 43
0.0000001
 44
0.0000000001
 40
0.0
 40
0.0
 40
0.0
 40
0.0
 40
0.0364529794
 40
0.0725354912
 40
0.1082146275
 40
0.1434571638
 40
0.2125734729
 40
0.2798983511
 40
0.3455241921
 40
0.4095986472
 40
0.472293805
 40
0.5031833967
 40
0.5337904604
 40
0.5641390649
 40
0.5942505609
 40
0.6241426913
 40
0.6538300476
 40
0.6833299916
 40
0.7126623494
 40
0.7708854827
 40
0.8286293462
 40
0.8859951069
 40
0.9145671124
 40
0.9430793876
 40
1.0
 40
1.0
 40
1.0
 40
1.0
 10
5.7896773997
 20
6.1088052375
 30
0.0
 10
5.7866052926
 20
6.1081029741
 30
0.0
 10
5.7805304061
 20
6.1065322937
 30
0.0
 10
5.7716144032
 20
6.1036849675
 30
0.0
 10
5.7629646983
 20
6.1003921934
 30
0.0
 10
5.7518931752
 20
6.0954833877
 30
0.0
 10
5.738808651
 20
6.0884181759
 30
0.0
 10
5.7243123449
 20
6.0786239014
 30
0.0
 10
5.7111347205
 20
6.0677943117
 30
0.0
 10
5.6992567023
 20
6.0561226493
 30
0.0
 10
5.6903631841
 20
6.0457725282
 30
0.0
 10
5.683869169
 20
6.0372200402
 30
0.0
 10
5.6793172143
 20
6.0307118414
 30
0.0
 10
5.6750553986
 20
6.024090179
 30
0.0
 10
5.6710776827
 20
6.0173658334
 30
0.0
 10
5.6673783092
 20
6.010549512
 30
0.0
 10
5.663950825
 20
6.0036516048
 30
0.0
 10
5.6607904189
 20
5.9966803728
 30
0.0
 10
5.6569374874
 20
5.9873213219
 30
0.0
 10
5.6527603088
 20
5.9754637692
 30
0.0
 10
5.648739335
 20
5.9610178287
 30
0.0
 10
5.6462044696
 20
5.9488480905
 30
0.0
 10
5.6446614404
 20
5.9390734279
 30
0.0
 10
5.6434390524
 20
5.9292925908
 30
0.0
 10
5.6428775891
 20
5.9219216168
 30
0.0
 10
5.6426608898
 20
5.9170056171
 30
0.0
  0
SPLINE
  5
28D
100
AcDbEntity
  8
0
100
AcDbSpline
 62
7
  6
CONTINUOUS
 70
0
 71
3
 72
31
 73
27
 74
0
 42
0.0000001
 43
0.0000001
 44
0.0000000001
 40
0.0
 40
0.0
 40
0.0
 40
0.0
 40
0.0555590992
 40
0.1114492282
 40
0.139552016
 40
0.1677750705
 40
0.2246332464
 40
0.2533127198
 40
0.282182849
 40
0.3112606314
 40
0.3405616038
 40
0.3999018788
 40
0.4603952857
 40
0.5222157384
 40
0.5855419464
 40
0.6505352822
 40
0.6837048493
 40
0.7173304302
 40
0.7514050994
 40
0.7859229617
 40
0.8208562766
 40
0.8561710697
 40
0.8918164088
 40
0.9277227832
 40
0.9638156194
 40
1.0
 40
1.0
 40
1.0
 40
1.0
 10
5.644569013
 20
5.8755376237
 30
0.0
 10
5.6452616841
 20
5.8704870956
 30
0.0
 10
5.6469888092
 20
5.8603990988
 30
0.0
 10
5.6499989988
 20
5.8479428266
 30
0.0
 10
5.6529295642
 20
5.8380703841
 30
0.0
 10
5.6562283546
 20
5.8282213701
 30
0.0
 10
5.6600668329
 20
5.8185032585
 30
0.0
 10
5.6644477077
 20
5.808961676
 30
0.0
 10
5.6680276651
 20
5.8018629343
 30
0.0
 10
5.6718979303
 20
5.7948528963
 30
0.0
 10
5.6774773541
 20
5.7856017028
 30
0.0
 10
5.6852303563
 20
5.774307176
 30
0.0
 10
5.6957590988
 20
5.7613618341
 30
0.0
 10
5.7076119017
 20
5.7490980158
 30
0.0
 10
5.7208343448
 20
5.7376795195
 30
0.0
 10
5.7329409589
 20
5.7290912127
 30
0.0
 10
5.7433046543
 20
5.722852469
 30
0.0
 10
5.7514747456
 20
5.718494506
 30
0.0
 10
5.7599773443
 20
5.7145251154
 30
0.0
 10
5.7687963138
 20
5.7109826679
 30
0.0
 10
5.7779075974
 20
5.7079022924
 30
0.0
 10
5.7872807119
 20
5.7053224325
 30
0.0
 10
5.7968758866
 20
5.7032752732
 30
0.0
 10
5.8066464307
 20
5.7017893991
 30
0.0
 10
5.816537704
 20
5.7008902684
 30
0.0
 10
5.8231711778
 20
5.7006878452
 30
0.0
 10
5.8264912633
 20
5.700687822
 30
0.0
  0
SPLINE
  5
28E
100
AcDbEntity
  8
0
100
AcDbSpline
 62
7
  6
CONTINUOUS
 70
0
 71
3
 72
22
 73
18
 74
0
 42
0.0000001
 43
0.0000001
 44
0.0000000001
 40
0.0
 40
0.0
 40
0.0
 40
0.0
 40
0.0342249867
 40
0.0710379136
 40
0.1113512643
 40
0.1559056875
 40
0.2052020603
 40
0.2594930894
 40
0.318804306
 40
0.3829265788
 40
0.4514894523
 40
0.5239386592
 40
0.5996301958
 40
0.6778175603
 40
0.7577236266
 40
0.8385636037
 40
1.0
 40
1.0
 40
1.0
 40
1.0
 10
5.9063004859
 20
6.0727183963
 30
0.0
 10
5.9061036671
 20
6.0728492906
 30
0.0
 10
5.905721178
 20
6.0731620443
 30
0.0
 10
5.9052227958
 20
6.0737525974
 30
0.0
 10
5.9047913386
 20
6.0744776581
 30
0.0
 10
5.9044348238
 20
6.0753357956
 30
0.0
 10
5.9041588039
 20
6.0763231738
 30
0.0
 10
5.9039684064
 20
6.0774336841
 30
0.0
 10
5.9038672699
 20
6.0786582716
 30
0.0
 10
5.9038570817
 20
6.079985299
 30
0.0
 10
5.903938446
 20
6.0814005634
 30
0.0
 10
5.9041089769
 20
6.0828881703
 30
0.0
 10
5.9043657555
 20
6.0844306483
 30
0.0
 10
5.9047027422
 20
6.0860102033
 30
0.0
 10
5.9051139196
 20
6.0876087903
 30
0.0
 10
5.9057494744
 20
6.0897415892
 30
0.0
 10
5.906311877
 20
6.0913192372
 30
0.0
 10
5.9067190585
 20
6.0923571646
 30
0.0
  0
SPLINE
  5
28F
100
AcDbEntity
  8
0
100
AcDbSpline
 62
7
  6
CONTINUOUS
 70
0
 71
3
 72
36
 73
32
 74
0
 42
0.0000001
 43
0.0000001
 44
0.0000000001
 40
0.0
 40
0.0
 40
0.0
 40
0.0
 40
0.0004156144
 40
0.0008038871
 40
0.0013342888
 40
0.0020117201
 40
0.0028384354
 40
0.0038155768
 40
0.0049436851
 40
0.0076536101
 40
0.0109688166
 40
0.0194095114
 40
0.0302464107
 40
0.0434499361
 40
0.0589830116
 40
0.0768016658
 40
0.0968557334
 40
0.1190897812
 40
0.1434433787
 40
0.1698513978
 40
0.198244791
 40
0.2285508176
 40
0.2945919149
 40
0.3673271082
 40
0.446061334
 40
0.5300545642
 40
0.6185222409
 40
0.710636126
 40
0.8055274114
 40
0.9022911931
 40
1.0
 40
1.0
 40
1.0
 40
1.0
 10
5.7896802397
 20
6.0854344368
 30
0.0
 10
5.7896802397
 20
6.0854293106
 30
0.0
 10
5.7896915839
 20
6.085422781
 30
0.0
 10
5.7897067048
 20
6.0854198195
 30
0.0
 10
5.789726653
 20
6.0854173338
 30
0.0
 10
5.7897515922
 20
6.0854162913
 30
0.0
 10
5.7897822538
 20
6.0854162089
 30
0.0
 10
5.7898183879
 20
6.0854172903
 30
0.0
 10
5.7898777078
 20
6.0854204047
 30
0.0
 10
5.789965666
 20
6.085427423
 30
0.0
 10
5.7901431899
 20
6.0854453959
 30
0.0
 10
5.7904197435
 20
6.0854798192
 30
0.0
 10
5.7908165529
 20
6.0855349915
 30
0.0
 10
5.7912994057
 20
6.0856064185
 30
0.0
 10
5.7918670254
 20
6.0856932025
 30
0.0
 10
5.7925179229
 20
6.0857943569
 30
0.0
 10
5.7932504118
 20
6.0859087039
 30
0.0
 10
5.7940626212
 20
6.0860349548
 30
0.0
 10
5.7949525091
 20
6.0861717031
 30
0.0
 10
5.7959178732
 20
6.0863174486
 30
0.0
 10
5.7969563609
 20
6.08647062
 30
0.0
 10
5.7984793569
 20
6.086688913
 30
0.0
 10
5.8005458616
 20
6.0869698363
 30
0.0
 10
5.8032082334
 20
6.0873007278
 30
0.0
 10
5.8060948305
 20
6.0876209504
 30
0.0
 10
5.8091789779
 20
6.0879175454
 30
0.0
 10
5.8124319508
 20
6.0881785471
 30
0.0
 10
5.8158230152
 20
6.0883934286
 30
0.0
 10
5.819319566
 20
6.0885534793
 30
0.0
 10
5.822887421
 20
6.0886521995
 30
0.0
 10
5.825286117
 20
6.0886744064
 30
0.0
 10
5.8264912633
 20
6.0886744064
 30
0.0
  0
SPLINE
  5
290
100
AcDbEntity
  8
0
100
AcDbSpline
 62
7
  6
CONTINUOUS
 70
0
 71
3
 72
13
 73
9
 74
0
 42
0.0000001
 43
0.0000001
 44
0.0000000001
 40
0.0
 40
0.0
 40
0.0
 40
0.0
 40
0.197432233
 40
0.4385142034
 40
0.5715295378
 40
0.7107070554
 40
0.8542233066
 40
1.0
 40
1.0
 40
1.0
 40
1.0
 10
5.6531266293
 20
6.1702964867
 30
0.0
 10
5.6551604581
 20
6.1749856106
 30
0.0
 10
5.6593906378
 20
6.1855277305
 30
0.0
 10
5.6638888048
 20
6.1996462004
 30
0.0
 10
5.6669607851
 20
6.2125804938
 30
0.0
 10
5.6688212054
 20
6.2231880389
 30
0.0
 10
5.6700104103
 20
6.2342248995
 30
0.0
 10
5.6702827845
 20
6.241717038
 30
0.0
 10
5.6702827845
 20
6.2454909583
 30
0.0
  0
SPLINE
  5
291
100
AcDbEntity
  8
0
100
AcDbSpline
 62
7
  6
CONTINUOUS
 70
0
 71
3
 72
13
 73
9
 74
0
 42
0.0000001
 43
0.0000001
 44
0.0000000001
 40
0.0
 40
0.0
 40
0.0
 40
0.0
 40
0.1457770093
 40
0.2892935411
 40
0.4284712755
 40
0.5614867331
 40
0.8025685767
 40
1.0
 40
1.0
 40
1.0
 40
1.0
 10
5.6702827845
 20
6.2454909583
 30
0.0
 10
5.6702827845
 20
6.249264905
 30
0.0
 10
5.6700104065
 20
6.2567570952
 30
0.0
 10
5.6688211856
 20
6.2677940293
 30
0.0
 10
5.6669607416
 20
6.2784016395
 30
0.0
 10
5.6638887273
 20
6.2913359967
 30
0.0
 10
5.659390523
 20
6.3054545077
 30
0.0
 10
5.6551603166
 20
6.3159966498
 30
0.0
 10
5.65312648
 20
6.3206857743
 30
0.0
  0
SPLINE
  5
292
100
AcDbEntity
  8
0
100
AcDbSpline
 62
7
  6
CONTINUOUS
 70
0
 71
3
 72
8
 73
4
 74
0
 42
0.0000001
 43
0.0000001
 44
0.0000000001
 40
0.0
 40
0.0
 40
0.0
 40
0.0
 40
1.0
 40
1.0
 40
1.0
 40
1.0
 10
5.6432767469
 20
6.1494735571
 30
0.0
 10
5.643286376
 20
6.1494912026
 30
0.0
 10
5.6432960037
 20
6.1495088488
 30
0.0
 10
5.6433056299
 20
6.1495264959
 30
0.0
  0
SPLINE
  5
293
100
AcDbEntity
  8
0
100
AcDbSpline
 62
7
  6
CONTINUOUS
 70
0
 71
3
 72
25
 73
21
 74
0
 42
0.0000001
 43
0.0000001
 44
0.0000000001
 40
0.0
 40
0.0
 40
0.0
 40
0.0
 40
0.0850875198
 40
0.1407338614
 40
0.203371703
 40
0.2718410138
 40
0.345000519
 40
0.3829567402
 40
0.4215835266
 40
0.4606730353
 40
0.4999991966
 40
0.5393253638
 40
0.5784148876
 40
0.617041707
 40
0.6549979889
 40
0.7281576795
 40
0.7966272058
 40
0.8592652792
 40
0.9149118792
 40
1.0
 40
1.0
 40
1.0
 40
1.0
 10
5.6463274086
 20
6.1551875775
 30
0.0
 10
5.6488132511
 20
6.159950717
 30
0.0
 10
5.6527379714
 20
6.1679295989
 30
0.0
 10
5.6578450999
 20
6.179715416
 30
0.0
 10
5.6620327172
 20
6.1907451452
 30
0.0
 10
5.6659017513
 20
6.2030585341
 30
0.0
 10
5.6685150018
 20
6.2141067336
 30
0.0
 10
5.670102988
 20
6.2234305784
 30
0.0
 10
5.670998664
 20
6.2306823229
 30
0.0
 10
5.6715506824
 20
6.2380551999
 30
0.0
 10
5.671737236
 20
6.245490705
 30
0.0
 10
5.6715507127
 20
6.252926212
 30
0.0
 10
5.6709987159
 20
6.2602990941
 30
0.0
 10
5.6701030593
 20
6.267550848
 30
0.0
 10
5.6685150963
 20
6.2768747145
 30
0.0
 10
5.6659018744
 20
6.287922951
 30
0.0
 10
5.6620328503
 20
6.3002363851
 30
0.0
 10
5.6578452381
 20
6.3112661639
 30
0.0
 10
5.6527380972
 20
6.3230520509
 30
0.0
 10
5.6488133606
 20
6.3310309855
 30
0.0
 10
5.6463275017
 20
6.3357941592
 30
0.0
  0
SPLINE
  5
294
100
AcDbEntity
  8
0
100
AcDbSpline
 62
7
  6
CONTINUOUS
 70
0
 71
3
 72
8
 73
4
 74
0
 42
0.0000001
 43
0.0000001
 44
0.0000000001
 40
0.0
 40
0.0
 40
0.0
 40
0.0
 40
1.0
 40
1.0
 40
1.0
 40
1.0
 10
5.6433036142
 20
6.3414591169
 30
0.0
 10
5.6432949872
 20
6.3414749319
 30
0.0
 10
5.643286359
 20
6.3414907461
 30
0.0
 10
5.6432777296
 20
6.3415065598
 30
0.0
  0
SPLINE
  5
295
100
AcDbEntity
  8
0
100
AcDbSpline
 62
7
  6
CONTINUOUS
 70
0
 71
3
 72
13
 73
9
 74
0
 42
0.0000001
 43
0.0000001
 44
0.0000000001
 40
0.0
 40
0.0
 40
0.0
 40
0.0
 40
0.1284517346
 40
0.2565491331
 40
0.3838709706
 40
0.5101185688
 40
0.7583194091
 40
1.0
 40
1.0
 40
1.0
 40
1.0
 10
5.8264912633
 20
5.7006878005
 30
0.0
 10
5.8300735391
 20
5.7006879226
 30
0.0
 10
5.8372303542
 20
5.7009234676
 30
0.0
 10
5.8478917307
 20
5.7019692067
 30
0.0
 10
5.8584025991
 20
5.7036956229
 30
0.0
 10
5.872046637
 20
5.7068386472
 30
0.0
 10
5.8884004216
 20
5.7122578395
 30
0.0
 10
5.90079444
 20
5.7180883897
 30
0.0
 10
5.9067190235
 20
5.7213019707
 30
0.0
  0
SPLINE
  5
296
100
AcDbEntity
  8
0
100
AcDbSpline
 62
7
  6
CONTINUOUS
 70
0
 71
3
 72
22
 73
18
 74
0
 42
0.0000001
 43
0.0000001
 44
0.0000000001
 40
0.0
 40
0.0
 40
0.0
 40
0.0
 40
0.0697195004
 40
0.1380842013
 40
0.2051406144
 40
0.2709755302
 40
0.3356922942
 40
0.3993816287
 40
0.4621541331
 40
0.5240994782
 40
0.6458400447
 40
0.7058481382
 40
0.7653723604
 40
0.8244830039
 40
0.883250674
 40
0.9417377918
 40
1.0
 40
1.0
 40
1.0
 40
1.0
 10
5.9067190256
 20
5.7213019909
 30
0.0
 10
5.910632709
 20
5.7234249191
 30
0.0
 10
5.918227751
 20
5.7279250025
 30
0.0
 10
5.9289864913
 20
5.7354185868
 30
0.0
 10
5.9389986917
 20
5.7434937802
 30
0.0
 10
5.9482695695
 20
5.7520691049
 30
0.0
 10
5.9568153884
 20
5.7610718393
 30
0.0
 10
5.9646569559
 20
5.770439485
 30
0.0
 10
5.9718129057
 20
5.7801213901
 30
0.0
 10
5.9804201419
 20
5.7933065374
 30
0.0
 10
5.987816098
 20
5.8070421992
 30
0.0
 10
5.9940065183
 20
5.8211575977
 30
0.0
 10
5.9980374568
 20
5.8318360044
 30
0.0
 10
6.0014922864
 20
5.8426305448
 30
0.0
 10
6.0043812164
 20
5.8535216311
 30
0.0
 10
6.0067154844
 20
5.8644890511
 30
0.0
 10
6.0079083554
 20
5.8718523382
 30
0.0
 10
6.008413739
 20
5.8755385625
 30
0.0
  0
SPLINE
  5
297
100
AcDbEntity
  8
0
100
AcDbSpline
 62
7
  6
CONTINUOUS
 70
0
 71
3
 72
36
 73
32
 74
0
 42
0.0000001
 43
0.0000001
 44
0.0000000001
 40
0.0
 40
0.0
 40
0.0
 40
0.0
 40
0.0977088029
 40
0.194472587
 40
0.2893638748
 40
0.3814777629
 40
0.4699454426
 40
0.5539386764
 40
0.6326729043
 40
0.7054080995
 40
0.7714491971
 40
0.8017552235
 40
0.8301486157
 40
0.856556634
 40
0.8809102307
 40
0.9031442771
 40
0.9231983435
 40
0.9410169965
 40
0.9565500698
 40
0.969753593
 40
0.9805904902
 40
0.989031184
 40
0.99234639
 40
0.9950563151
 40
0.9961844233
 40
0.9971615645
 40
0.9979882796
 40
0.9986657109
 40
0.9991961127
 40
0.9995843856
 40
1.0
 40
1.0
 40
1.0
 40
1.0
 10
5.8264912633
 20
6.0886744064
 30
0.0
 10
5.8276964095
 20
6.0886744064
 30
0.0
 10
5.8300951055
 20
6.0886521995
 30
0.0
 10
5.8336629605
 20
6.0885534793
 30
0.0
 10
5.8371595115
 20
6.0883934286
 30
0.0
 10
5.8405505759
 20
6.0881785471
 30
0.0
 10
5.8438035489
 20
6.0879175454
 30
0.0
 10
5.8468876964
 20
6.0876209504
 30
0.0
 10
5.8497742937
 20
6.0873007278
 30
0.0
 10
5.8524366655
 20
6.0869698362
 30
0.0
 10
5.8545031702
 20
6.0866889129
 30
0.0
 10
5.8560261662
 20
6.0864706199
 30
0.0
 10
5.8570646539
 20
6.0863174485
 30
0.0
 10
5.858030018
 20
6.086171703
 30
0.0
 10
5.8589199058
 20
6.0860349547
 30
0.0
 10
5.8597321151
 20
6.0859087039
 30
0.0
 10
5.860464604
 20
6.0857943569
 30
0.0
 10
5.8611155014
 20
6.0856932024
 30
0.0
 10
5.8616831211
 20
6.0856064185
 30
0.0
 10
5.8621659738
 20
6.0855349915
 30
0.0
 10
5.8625627832
 20
6.0854798192
 30
0.0
 10
5.8628393368
 20
6.0854453959
 30
0.0
 10
5.8630168606
 20
6.085427423
 30
0.0
 10
5.8631048188
 20
6.0854204047
 30
0.0
 10
5.8631641387
 20
6.0854172903
 30
0.0
 10
5.8632002728
 20
6.0854162089
 30
0.0
 10
5.8632309344
 20
6.0854162913
 30
0.0
 10
5.8632558736
 20
6.0854173338
 30
0.0
 10
5.8632758218
 20
6.0854198195
 30
0.0
 10
5.8632909427
 20
6.085422781
 30
0.0
 10
5.8633022869
 20
6.0854293106
 30
0.0
 10
5.8633022869
 20
6.0854344368
 30
0.0
  0
SPLINE
  5
298
100
AcDbEntity
  8
0
100
AcDbSpline
 62
7
  6
CONTINUOUS
 70
0
 71
3
 72
23
 73
19
 74
0
 42
0.0000001
 43
0.0000001
 44
0.0000000001
 40
0.0
 40
0.0
 40
0.0
 40
0.0
 40
0.0584477549
 40
0.1170225925
 40
0.1758116973
 40
0.2348817765
 40
0.2943070116
 40
0.3541730558
 40
0.4145691901
 40
0.4755930877
 40
0.537347882
 40
0.5999441423
 40
0.6635013431
 40
0.7281414419
 40
0.79399738
 40
0.8611851643
 40
0.9298322427
 40
1.0
 40
1.0
 40
1.0
 40
1.0
 10
6.0103269356
 20
5.9168851295
 30
0.0
 10
6.0101463631
 20
5.9210292787
 30
0.0
 10
6.009560871
 20
5.9293185809
 30
0.0
 10
6.00800852
 20
5.9417050255
 30
0.0
 10
6.0057741992
 20
5.9540321917
 30
0.0
 10
6.002849409
 20
5.9662761732
 30
0.0
 10
5.9992210752
 20
5.9784105143
 30
0.0
 10
5.9948744249
 20
5.9904069452
 30
0.0
 10
5.9897907221
 20
6.0022341486
 30
0.0
 10
5.9839483073
 20
6.0138563137
 30
0.0
 10
5.9773232625
 20
6.0252326219
 30
0.0
 10
5.9698872655
 20
6.0363142516
 30
0.0
 10
5.9616129877
 20
6.0470457259
 30
0.0
 10
5.952468103
 20
6.0573583847
 30
0.0
 10
5.9424271643
 20
6.0671748028
 30
0.0
 10
5.9314614709
 20
6.0763972545
 30
0.0
 10
5.9195612445
 20
6.0849156499
 30
0.0
 10
5.9110963615
 20
6.0899826596
 30
0.0
 10
5.9067190259
 20
6.0923570914
 30
0.0
  0
SPLINE
  5
299
100
AcDbEntity
  8
0
100
AcDbSpline
 62
7
  6
CONTINUOUS
 70
0
 71
3
 72
12
 73
8
 74
0
 42
0.0000001
 43
0.0000001
 44
0.0000000001
 40
0.0
 40
0.0
 40
0.0
 40
0.0
 40
0.2443206397
 40
0.4926206818
 40
0.7446309916
 40
0.8719239544
 40
1.0
 40
1.0
 40
1.0
 40
1.0
 10
5.9067190295
 20
6.0923571172
 30
0.0
 10
5.9033856726
 20
6.0941651851
 30
0.0
 10
5.8965448944
 20
6.0975950154
 30
0.0
 10
5.885886233
 20
6.1020846392
 30
0.0
 10
5.8766638356
 20
6.1052478146
 30
0.0
 10
5.8690901484
 20
6.1074103816
 30
0.0
 10
5.8652415311
 20
6.1083626588
 30
0.0
 10
5.8633036209
 20
6.1088056273
 30
0.0
  0
ENDSEC
  0
SECTION
  2
OBJECTS
  0
DICTIONARY
  5
C
100
AcDbDictionary
280
0
281
1
  3
ACAD_GROUP
350
D
  3
ACAD_MLINESTYLE
350
17
  3
ACAD_LAYOUT
350
1A
  3
ACAD_PLOTSETTINGS
350
19
  3
ACAD_PLOTSTYLENAME
350
E
  0
DICTIONARY
  5
D
102
{ACAD_REACTORS
330
C
102
}
100
AcDbDictionary
280
0
281
1
  0
ACDBDICTIONARYWDFLT
  5
E
102
{ACAD_REACTORS
330
C
102
}
100
AcDbDictionary
281
1
  3
Normal
350
F
100
AcDbDictionaryWithDefault
340
F
  0
DICTIONARY
  5
17
102
{ACAD_REACTORS
330
C
102
}
100
AcDbDictionary
280
0
281
1
  3
Standard
350
18
  0
DICTIONARY
  5
19
102
{ACAD_REACTORS
330
C
102
}
100
AcDbDictionary
281
1
  0
DICTIONARY
  5
1A
102
{ACAD_REACTORS
330
C
102
}
100
AcDbDictionary
281
1
  3
Model
350
29A
  3
Layout1
350
29B
  0
ACDBPLACEHOLDER
  5
F
102
{ACAD_REACTORS
330
E
102
}
  0
MLINESTYLE
  5
18
102
{ACAD_REACTORS
330
17
102
}
100
AcDbMlineStyle
  2
STANDARD
 70
0
  3

 62
256
 51
90.0
 52
90.0
 71
2
 49
0.5
 62
256
  6
BYLAYER
 49
-0.5
 62
256
  6
BYLAYER
  0
LAYOUT
  5
29A
102
{ACAD_REACTORS
330
1A
102
}
100
AcDbPlotSettings
  1

  2
none_device
  4
ANSI_A_(11.00_x_8.50_Inches)
  6

 40
0.0
 41
0.0
 42
0.0
 43
0.0
 44
279.4
 45
215.9
 46
0.0
 47
0.0
 48
0.0
 49
0.0
140
0.0
141
0.0
142
1.0
143
1.0
 70
1024
 72
0
 73
0
 74
0
  7

 75
0
147
1.0
148
0.0
149
0.0
100
AcDbLayout
  1
Model
 70
0
 71
0
 10
0.0
 20
0.0
 11
11.0
 21
8.5
 12
0.0
 22
0.0
 32
0.0
 14
0.0
 24
0.0
 34
0.0
 15
0.0
 25
0.0
 35
0.0
146
0.0
 13
0.0
 23
0.0
 33
0.0
 16
1.0
 26
0.0
 36
0.0
 17
0.0
 27
1.0
 37
0.0
 76
0
330
202
345
0
346
0
  0
LAYOUT
  5
29B
102
{ACAD_REACTORS
330
1A
102
}
100
AcDbPlotSettings
  1

  2
none_device
  4
ANSI_A_(11.00_x_8.50_Inches)
  6

 40
0.0
 41
0.0
 42
0.0
 43
0.0
 44
279.4
 45
215.9
 46
0.0
 47
0.0
 48
0.0
 49
0.0
140
0.0
141
0.0
142
1.0
143
1.0
 70
0
 72
0
 73
0
 74
0
  7

 75
0
147
1.0
148
0.0
149
0.0
100
AcDbLayout
  1
Layout1
 70
0
 71
1
 10
0.0
 20
0.0
 11
11.0
 21
8.5
 12
0.0
 22
0.0
 32
0.0
 14
0.0
 24
0.0
 34
0.0
 15
0.0
 25
0.0
 35
0.0
146
0.0
 13
0.0
 23
0.0
 33
0.0
 16
1.0
 26
0.0
 36
0.0
 17
0.0
 27
1.0
 37
0.0
 76
0
330
203
345
0
346
0
  0
ENDSEC
  0
EOF
