999
DXF file: 1400-4262_top.dxf
999
Pro/ENGINEER 2019352 by Parametric Technology Corporation
  0
SECTION
  2
HEADER
  9
$ACADVER
  1
AC1032
  9
$DWGCODEPAGE
  3
ANSI_1252
  9
$EXTMAX
 10
11.0
 20
8.5
 30
0.0
  9
$EXTMIN
 10
0.0
 20
0.0
 30
0.0
  9
$LIMMIN
 10
0.0
 20
0.0
  9
$LIMMAX
 10
11.0
 20
8.5
  9
$VIEWCTR
 10
5.5
 20
4.25
  9
$VIEWSIZE
 40
8.5
  9
$CLAYER
  8
0
  9
$LTSCALE
 40
0.605
  9
$CELTYPE
  6
BYLAYER
  9
$DIMSCALE
 40
1.0
  9
$DIMASZ
 40
0.1
  9
$DIMEXO
 40
0.0625
  9
$DIMDLI
 40
0.418
  9
$DIMEXE
 40
0.125
  9
$DIMCEN
 40
0.099
  9
$DIMLFAC
 40
1.0
  9
$DIMBLK
  1
_FILLED
  9
$DIMALT
 70
1
  9
$DIMALTD
 70
2
  9
$DIMALTTD
 70
2
  9
$DIMALTF
 40
25.4
  9
$DIMTXT
 40
0.08
  9
$DIMTOL
 70
1
  9
$DIMLIM
 70
0
  9
$DIMTFAC
 40
1.0
  9
$DIMTP
 40
0.001
  9
$DIMTM
 40
0.001
  9
$DIMGAP
 40
0.09
  9
$DIMDSEP
 70
46
  9
$AUNITS
 70
0
  9
$PDMODE
 70
3
  9
$PDSIZE
 40
0.3125
  9
$HANDSEED
  5
2EF
  9
$TILEMODE
 70
1
  9
$MEASUREMENT
 70
0
  9
$INSUNITS
 70
1
  0
ENDSEC
  0
SECTION
  2
CLASSES
  0
CLASS
  1
ACDBDICTIONARYWDFLT
  2
AcDbDictionaryWithDefault
  3
AutoCAD 2000
 90
0
 91
1
280
0
281
0
  0
CLASS
  1
ACDBPLACEHOLDER
  2
AcDbPlaceHolder
  3
AutoCAD 2000
 90
0
 91
1
280
0
281
0
  0
CLASS
  1
LAYOUT
  2
AcDbLayout
  3
AutoCAD 2000
 90
0
 91
0
280
0
281
0
  0
ENDSEC
  0
SECTION
  2
TABLES
  0
TABLE
  2
VPORT
  5
8
100
AcDbSymbolTable
 70
2
  0
VPORT
  5
1F4
100
AcDbSymbolTableRecord
100
AcDbViewportTableRecord
  2
*ACTIVE
 70
0
 10
0.0
 20
0.0
 11
1.0
 21
1.0
 12
5.5
 22
4.25
 13
0.0
 23
0.0
 14
1.0
 24
1.0
 15
0.0
 25
0.0
 16
0.0
 26
0.0
 36
1.0
 17
0.0
 27
0.0
 37
0.0
 40
8.5
 41
1.2941176471
 42
50.0
 43
0.0
 44
0.0
 50
0.0
 51
0.0
 71
0
 72
100
 73
1
 74
1
 75
0
 76
0
 77
0
 78
0
  0
ENDTAB
  0
TABLE
  2
LTYPE
  5
5
100
AcDbSymbolTable
 70
6
  0
LTYPE
  5
14
100
AcDbSymbolTableRecord
100
AcDbLinetypeTableRecord
  2
BYBLOCK
 70
0
  3

 72
65
 73
0
 40
0.0
  0
LTYPE
  5
15
100
AcDbSymbolTableRecord
100
AcDbLinetypeTableRecord
  2
BYLAYER
 70
0
  3

 72
65
 73
0
 40
0.0
  0
LTYPE
  5
16
100
AcDbSymbolTableRecord
100
AcDbLinetypeTableRecord
  2
CONTINUOUS
 70
64
  3
Solid line
 72
65
 73
0
 40
0.0
  0
LTYPE
  5
1F5
100
AcDbSymbolTableRecord
100
AcDbLinetypeTableRecord
  2
CENTER
 70
64
  3
____ _ ____ _ ____ _ ____ _ ____ _ ____ _ ____
 72
65
 73
4
 40
0.6
 49
0.375
 74
0
 49
-0.075
 74
0
 49
0.075
 74
0
 49
-0.075
 74
0
  0
LTYPE
  5
1F6
100
AcDbSymbolTableRecord
100
AcDbLinetypeTableRecord
  2
HIDDEN
 70
64
  3
- - - - - - - - - - - - - - - - - - - -
 72
65
 73
2
 40
0.2
 49
0.1
 74
0
 49
-0.1
 74
0
  0
LTYPE
  5
1F7
100
AcDbSymbolTableRecord
100
AcDbLinetypeTableRecord
  2
PHANTOM
 70
64
  3
_____ _ _ _____ _ _ _____ _ _ _____
 72
65
 73
6
 40
0.8
 49
0.45
 74
0
 49
-0.05
 74
0
 49
0.1
 74
0
 49
-0.05
 74
0
 49
0.1
 74
0
 49
-0.05
 74
0
  0
LTYPE
  5
1F8
100
AcDbSymbolTableRecord
100
AcDbLinetypeTableRecord
  2
DOT
 70
64
  3
. . . . . . . . . . . . . . . . . . . .
 72
65
 73
2
 40
0.2
 49
0.1
 74
0
 49
-0.1
 74
0
  0
LTYPE
  5
1F9
100
AcDbSymbolTableRecord
100
AcDbLinetypeTableRecord
  2
DASHED
 70
64
  3
- - - - - - - - - - - - - - - - - - - -
 72
65
 73
2
 40
0.2
 49
0.1
 74
0
 49
-0.1
 74
0
  0
ENDTAB
  0
TABLE
  2
LAYER
  5
2
100
AcDbSymbolTable
 70
36
  0
LAYER
  5
10
100
AcDbSymbolTableRecord
100
AcDbLayerTableRecord
  2
0
 70
0
 62
7
  6
CONTINUOUS
370
-3
390
F
  0
LAYER
  5
1FA
100
AcDbSymbolTableRecord
100
AcDbLayerTableRecord
  2
DEFAULT_1
 70
0
 62
7
  6
CENTER
370
-3
390
F
  0
LAYER
  5
1FB
100
AcDbSymbolTableRecord
100
AcDbLayerTableRecord
  2
DEFAULT_2
 70
0
 62
8
  6
HIDDEN
370
-3
390
F
  0
LAYER
  5
1FC
100
AcDbSymbolTableRecord
100
AcDbLayerTableRecord
  2
DEFAULT_3
 70
0
 62
7
  6
PHANTOM
370
-3
390
F
  0
LAYER
  5
1FD
100
AcDbSymbolTableRecord
100
AcDbLayerTableRecord
  2
DEFAULT_COORDINATE_SYSTEM
 70
0
 62
7
  6
CONTINUOUS
370
-3
390
F
  0
LAYER
  5
1FE
100
AcDbSymbolTableRecord
100
AcDbLayerTableRecord
  2
DEFAULT_DATUM_AXES
 70
0
 62
7
  6
CONTINUOUS
370
-3
390
F
  0
LAYER
  5
1FF
100
AcDbSymbolTableRecord
100
AcDbLayerTableRecord
  2
DEFAULT_DATUM_PLANES
 70
0
 62
7
  6
CONTINUOUS
370
-3
390
F
  0
ENDTAB
  0
TABLE
  2
STYLE
  5
3
100
AcDbSymbolTable
 70
1
  0
STYLE
  5
11
100
AcDbSymbolTableRecord
100
AcDbTextStyleTableRecord
  2
STANDARD
 70
0
 40
0.0
 41
0.8
 50
0.0
 71
0
 42
0.2
  3
txt
  4

  0
STYLE
  5
200
100
AcDbSymbolTableRecord
100
AcDbTextStyleTableRecord
  2
TEXTSTYLE_1
 70
0
 40
0.0
 41
0.8
 50
0.0
 71
0
 42
0.2
  3
gdt
  4

  0
ENDTAB
  0
TABLE
  2
VIEW
  5
6
100
AcDbSymbolTable
 70
0
  0
ENDTAB
  0
TABLE
  2
UCS
  5
7
100
AcDbSymbolTable
 70
0
  0
ENDTAB
  0
TABLE
  2
APPID
  5
9
100
AcDbSymbolTable
 70
1
  0
APPID
  5
201
100
AcDbSymbolTableRecord
100
AcDbRegAppTableRecord
  2
ACAD
 70
0
  0
ENDTAB
  0
TABLE
  2
BLOCK_RECORD
  5
1
100
AcDbSymbolTable
 70
0
  0
BLOCK_RECORD
  5
202
100
AcDbSymbolTableRecord
100
AcDbBlockTableRecord
  2
*Model_Space
  0
BLOCK_RECORD
  5
203
100
AcDbSymbolTableRecord
100
AcDbBlockTableRecord
  2
*Paper_Space
  0
BLOCK_RECORD
  5
204
100
AcDbSymbolTableRecord
100
AcDbBlockTableRecord
  2
_FILLED
  0
ENDTAB
  0
TABLE
  2
DIMSTYLE
  5
A
100
AcDbSymbolTable
 70
1
100
AcDbDimStyleTable
 71
0
  0
DIMSTYLE
105
205
100
AcDbSymbolTableRecord
100
AcDbDimStyleTableRecord
  2
STANDARD
 70
0
  3

  4

 40
1.0
 41
0.1
 42
0.0625
 43
0.38
 44
0.125
 45
0.0
 46
0.0
 47
0.001
 48
0.001
140
0.08
141
0.09
142
0.0
143
25.4
144
1.0
145
0.0
146
1.0
147
0.09
 71
1.0
 72
0.0
 73
1
 74
1
 75
0
 76
0
 77
0
 78
4
 79
1
170
1
171
2
172
0
173
0
174
0
175
0
176
0
177
0
178
0
270
2
179
3
271
3
272
3
273
2
274
2
275
0
280
0
281
0
282
0
283
1
284
4
285
0
286
0
287
3
288
0
340
11
278
46
341
204
342
204
343
204
344
204
  0
ENDTAB
  0
ENDSEC
  0
SECTION
  2
BLOCKS
  0
BLOCK
  5
20
100
AcDbEntity
  8
0
100
AcDbBlockBegin
  2
*Model_Space
 70
0
 10
0.0
 20
0.0
 30
0.0
  3
*Model_Space
  1

  0
ENDBLK
  5
21
100
AcDbEntity
  8
0
100
AcDbBlockEnd
  0
BLOCK
  5
1C
100
AcDbEntity
  8
0
100
AcDbBlockBegin
  2
*Paper_Space
 70
0
 10
0.0
 20
0.0
 30
0.0
  3
*Paper_Space
  1

  0
ENDBLK
  5
1D
100
AcDbEntity
  8
0
100
AcDbBlockEnd
  0
BLOCK
  5
206
100
AcDbEntity
  8
0
100
AcDbBlockBegin
  2
_FILLED
 70
64
 10
0.0
 20
0.0
  3
_FILLED
  1

  0
SOLID
  5
207
100
AcDbEntity
  8
0
  6
BYBLOCK
 62
0
100
AcDbTrace
 10
0.0
 20
0.0
 11
-1.0
 21
0.2
 12
-1.0
 22
-0.2
 13
-1.0
 23
-0.2
  0
ENDBLK
  5
208
100
AcDbEntity
  8
0
  6
BYBLOCK
 62
0
100
AcDbBlockEnd
  0
ENDSEC
  0
SECTION
  2
ENTITIES
  0
MTEXT
  5
209
100
AcDbEntity
  8
0
100
AcDbMText
 62
2
  6
CONTINUOUS
  7
STANDARD
 71
3
 72
1
 10
4.7949976474
 20
3.0129967848
 30
0.0
 11
1.0
 21
0.0
 31
0.0
 73
2
 44
0.9
  1
SCALE 0.125
 40
0.08
 41
0.704
  0
LINE
  5
20A
100
AcDbEntity
  8
0
100
AcDbLine
 62
7
  6
CONTINUOUS
 10
0.0
 20
0.0
 11
0.0
 21
8.5
  0
LINE
  5
20B
100
AcDbEntity
  8
0
100
AcDbLine
 62
7
  6
CONTINUOUS
 10
0.0
 20
0.0
 11
11.0
 21
0.0
  0
LINE
  5
20C
100
AcDbEntity
  8
0
100
AcDbLine
 62
7
  6
CONTINUOUS
 10
0.0
 20
8.5
 11
11.0
 21
8.5
  0
LINE
  5
20D
100
AcDbEntity
  8
0
100
AcDbLine
 62
7
  6
CONTINUOUS
 10
11.0
 20
0.0
 11
11.0
 21
8.5
  0
LINE
  5
20E
100
AcDbEntity
  8
0
100
AcDbLine
 62
7
  6
CONTINUOUS
 10
3.846245799
 20
4.8639201694
 11
3.846245799
 21
4.9195451694
  0
LINE
  5
20F
100
AcDbEntity
  8
0
100
AcDbLine
 62
7
  6
CONTINUOUS
 10
3.990308299
 20
5.0636076694
 11
3.990308299
 21
4.9294650225
  0
LINE
  5
210
100
AcDbEntity
  8
0
100
AcDbLine
 62
7
  6
CONTINUOUS
 10
3.990308299
 20
4.7198576694
 11
3.990308299
 21
4.8540003163
  0
LINE
  5
211
100
AcDbEntity
  8
0
100
AcDbLine
 62
7
  6
CONTINUOUS
 10
4.045933299
 20
5.0636076694
 11
4.045933299
 21
4.9294650225
  0
LINE
  5
212
100
AcDbEntity
  8
0
100
AcDbLine
 62
7
  6
CONTINUOUS
 10
4.045933299
 20
4.7198576694
 11
4.045933299
 21
4.8540003163
  0
LINE
  5
213
100
AcDbEntity
  8
0
100
AcDbLine
 62
7
  6
CONTINUOUS
 10
4.189995799
 20
4.8639201694
 11
4.189995799
 21
4.9195451694
  0
LINE
  5
214
100
AcDbEntity
  8
0
100
AcDbLine
 62
7
  6
CONTINUOUS
 10
4.395183299
 20
3.9854826694
 11
4.520183299
 21
3.9854826694
  0
LINE
  5
215
100
AcDbEntity
  8
0
100
AcDbLine
 62
7
  6
CONTINUOUS
 10
4.385808299
 20
4.8011076694
 11
4.385808299
 21
4.7198576694
  0
LINE
  5
216
100
AcDbEntity
  8
0
100
AcDbLine
 62
7
  6
CONTINUOUS
 10
4.395183299
 20
3.7667326694
 11
4.395183299
 21
4.8917326694
  0
LINE
  5
217
100
AcDbEntity
  8
0
100
AcDbLine
 62
7
  6
CONTINUOUS
 10
4.520183299
 20
3.7667326694
 11
4.520183299
 21
4.8917326694
  0
LINE
  5
218
100
AcDbEntity
  8
0
100
AcDbLine
 62
7
  6
CONTINUOUS
 10
4.529558299
 20
4.8011076694
 11
4.529558299
 21
4.7198576694
  0
LINE
  5
219
100
AcDbEntity
  8
0
100
AcDbLine
 62
7
  6
CONTINUOUS
 10
5.4972538084
 20
4.9350625013
 11
5.494133424
 21
4.9329826694
  0
LINE
  5
21A
100
AcDbEntity
  8
0
100
AcDbLine
 62
7
  6
CONTINUOUS
 10
4.725370799
 20
4.8639201694
 11
4.725370799
 21
4.9195451694
  0
LINE
  5
21B
100
AcDbEntity
  8
0
100
AcDbLine
 62
7
  6
CONTINUOUS
 10
4.869433299
 20
5.0636076694
 11
4.869433299
 21
4.9294650225
  0
LINE
  5
21C
100
AcDbEntity
  8
0
100
AcDbLine
 62
7
  6
CONTINUOUS
 10
4.869433299
 20
4.7198576694
 11
4.869433299
 21
4.8540003163
  0
LINE
  5
21D
100
AcDbEntity
  8
0
100
AcDbLine
 62
7
  6
CONTINUOUS
 10
4.925058299
 20
5.0636076694
 11
4.925058299
 21
4.9294650225
  0
LINE
  5
21E
100
AcDbEntity
  8
0
100
AcDbLine
 62
7
  6
CONTINUOUS
 10
4.925058299
 20
4.7198576694
 11
4.925058299
 21
4.8540003163
  0
LINE
  5
21F
100
AcDbEntity
  8
0
100
AcDbLine
 62
7
  6
CONTINUOUS
 10
5.3663123043
 20
4.933640782
 11
5.3662257902
 21
4.9335061397
  0
LINE
  5
220
100
AcDbEntity
  8
0
100
AcDbLine
 62
7
  6
CONTINUOUS
 10
4.395183299
 20
4.6729826694
 11
4.520183299
 21
4.6729826694
  0
LINE
  5
221
100
AcDbEntity
  8
0
100
AcDbLine
 62
7
  6
CONTINUOUS
 10
3.990308299
 20
4.7198576694
 11
4.045933299
 21
4.7198576694
  0
LINE
  5
222
100
AcDbEntity
  8
0
100
AcDbLine
 62
7
  6
CONTINUOUS
 10
4.385808299
 20
4.7198576694
 11
4.395183299
 21
4.7198576694
  0
LINE
  5
223
100
AcDbEntity
  8
0
100
AcDbLine
 62
7
  6
CONTINUOUS
 10
4.520183299
 20
4.7198576694
 11
4.529558299
 21
4.7198576694
  0
LINE
  5
224
100
AcDbEntity
  8
0
100
AcDbLine
 62
7
  6
CONTINUOUS
 10
4.869433299
 20
4.7198576694
 11
4.925058299
 21
4.7198576694
  0
LINE
  5
225
100
AcDbEntity
  8
0
100
AcDbLine
 62
7
  6
CONTINUOUS
 10
5.069120799
 20
4.8639201694
 11
5.069120799
 21
4.9195451694
  0
LINE
  5
226
100
AcDbEntity
  8
0
100
AcDbLine
 62
7
  6
CONTINUOUS
 10
4.869433299
 20
4.8136076694
 11
4.542058299
 21
4.8136076694
  0
LINE
  5
227
100
AcDbEntity
  8
0
100
AcDbLine
 62
7
  6
CONTINUOUS
 10
4.373308299
 20
4.8136076694
 11
4.045933299
 21
4.8136076694
  0
LINE
  5
228
100
AcDbEntity
  8
0
100
AcDbLine
 62
7
  6
CONTINUOUS
 10
5.2075202243
 20
4.8567292892
 11
5.2110595516
 21
4.8567309822
  0
LINE
  5
229
100
AcDbEntity
  8
0
100
AcDbLine
 62
7
  6
CONTINUOUS
 10
5.080114423
 20
4.8567322887
 11
5.0827597053
 21
4.8567332412
  0
LINE
  5
22A
100
AcDbEntity
  8
0
100
AcDbLine
 62
7
  6
CONTINUOUS
 10
5.2051326363
 20
4.8567284558
 11
5.2075202243
 21
4.8567292892
  0
LINE
  5
22B
100
AcDbEntity
  8
0
100
AcDbLine
 62
7
  6
CONTINUOUS
 10
5.2110595516
 20
4.8567309822
 11
5.2133931988
 21
4.8567317984
  0
LINE
  5
22C
100
AcDbEntity
  8
0
100
AcDbLine
 62
7
  6
CONTINUOUS
 10
5.0774253573
 20
4.8567315411
 11
5.080114423
 21
4.8567322887
  0
LINE
  5
22D
100
AcDbEntity
  8
0
100
AcDbLine
 62
7
  6
CONTINUOUS
 10
5.0827597053
 20
4.8567332412
 11
5.0853580712
 21
4.8567339722
  0
LINE
  5
22E
100
AcDbEntity
  8
0
100
AcDbLine
 62
7
  6
CONTINUOUS
 10
5.494133424
 20
4.8504826694
 11
5.4791998989
 21
4.8504826694
  0
LINE
  5
22F
100
AcDbEntity
  8
0
100
AcDbLine
 62
7
  6
CONTINUOUS
 10
5.494133424
 20
4.8542326694
 11
5.4822428877
 21
4.8542326694
  0
LINE
  5
230
100
AcDbEntity
  8
0
100
AcDbLine
 62
7
  6
CONTINUOUS
 10
5.2133931988
 20
4.8567317984
 11
5.2157139188
 21
4.8567320299
  0
LINE
  5
231
100
AcDbEntity
  8
0
100
AcDbLine
 62
7
  6
CONTINUOUS
 10
5.0746942164
 20
4.8567312575
 11
5.0774253573
 21
4.8567315411
  0
LWPOLYLINE
  5
232
100
AcDbEntity
  8
0
100
AcDbPolyline
 62
7
  6
CONTINUOUS
 90
3
 70
0
 10
5.152513218
 20
4.8567327451
 10
5.1537607385
 20
4.8567328024
 10
5.1600030802
 20
4.8567338566
  0
LINE
  5
233
100
AcDbEntity
  8
0
100
AcDbLine
 62
7
  6
CONTINUOUS
 10
5.1391488449
 20
4.8567328014
 11
5.1451141532
 21
4.8567332614
  0
LINE
  5
234
100
AcDbEntity
  8
0
100
AcDbLine
 62
7
  6
CONTINUOUS
 10
5.2329081893
 20
4.8567326366
 11
5.2338628527
 21
4.8567326694
  0
LINE
  5
235
100
AcDbEntity
  8
0
100
AcDbLine
 62
7
  6
CONTINUOUS
 10
4.9780505061
 20
4.8567299537
 11
5.0124397041
 21
4.8567345962
  0
LWPOLYLINE
  5
236
100
AcDbEntity
  8
0
100
AcDbPolyline
 62
7
  6
CONTINUOUS
 90
4
 70
0
 10
5.2226311977
 20
4.8567316251
 10
5.2237788126
 20
4.8567316229
 10
5.224924963
 20
4.856731665
 10
5.2329081893
 20
4.8567326366
  0
LINE
  5
237
100
AcDbEntity
  8
0
100
AcDbLine
 62
7
  6
CONTINUOUS
 10
5.3570583498
 20
4.8567326694
 11
5.2338629016
 21
4.8567326694
  0
LINE
  5
238
100
AcDbEntity
  8
0
100
AcDbLine
 62
7
  6
CONTINUOUS
 10
5.484023986
 20
4.8567326694
 11
5.5000702679
 21
4.8567326694
  0
LINE
  5
239
100
AcDbEntity
  8
0
100
AcDbLine
 62
7
  6
CONTINUOUS
 10
5.291620799
 20
4.8573576694
 11
5.3525981374
 21
4.8573576694
  0
LINE
  5
23A
100
AcDbEntity
  8
0
100
AcDbLine
 62
7
  6
CONTINUOUS
 10
4.8595134459
 20
4.8639201694
 11
4.725370799
 21
4.8639201694
  0
LINE
  5
23B
100
AcDbEntity
  8
0
100
AcDbLine
 62
7
  6
CONTINUOUS
 10
3.9803884459
 20
4.8639201694
 11
3.846245799
 21
4.8639201694
  0
LINE
  5
23C
100
AcDbEntity
  8
0
100
AcDbLine
 62
7
  6
CONTINUOUS
 10
4.0558531521
 20
4.8639201694
 11
4.189995799
 21
4.8639201694
  0
LINE
  5
23D
100
AcDbEntity
  8
0
100
AcDbLine
 62
7
  6
CONTINUOUS
 10
4.9349781521
 20
4.8639201694
 11
5.069120799
 21
4.8639201694
  0
LINE
  5
23E
100
AcDbEntity
  8
0
100
AcDbLine
 62
7
  6
CONTINUOUS
 10
5.069120799
 20
4.8682951694
 11
5.291620799
 21
4.8682951694
  0
LINE
  5
23F
100
AcDbEntity
  8
0
100
AcDbLine
 62
7
  6
CONTINUOUS
 10
4.9742912735
 20
4.856730102
 11
4.9780505061
 21
4.8567299537
  0
LWPOLYLINE
  5
240
100
AcDbEntity
  8
0
100
AcDbPolyline
 62
7
  6
CONTINUOUS
 90
3
 70
0
 10
5.0853580712
 20
4.8567339722
 10
5.089174877
 20
4.8567341533
 10
5.0904282654
 20
4.8567339969
  0
LINE
  5
241
100
AcDbEntity
  8
0
100
AcDbLine
 62
7
  6
CONTINUOUS
 10
5.1451141532
 20
4.8567332614
 11
5.1475572229
 21
4.8567331769
  0
LINE
  5
242
100
AcDbEntity
  8
0
100
AcDbLine
 62
7
  6
CONTINUOUS
 10
5.1763820159
 20
4.856720811
 11
5.1916310754
 21
4.8567325742
  0
LINE
  5
243
100
AcDbEntity
  8
0
100
AcDbLine
 62
7
  6
CONTINUOUS
 10
5.2157139188
 20
4.8567320299
 11
5.2226311977
 21
4.8567316251
  0
LINE
  5
244
100
AcDbEntity
  8
0
100
AcDbLine
 62
7
  6
CONTINUOUS
 10
5.0719244483
 20
4.8567314721
 11
5.0746942164
 21
4.8567312575
  0
LINE
  5
245
100
AcDbEntity
  8
0
100
AcDbLine
 62
7
  6
CONTINUOUS
 10
5.0543288836
 20
4.8567336271
 11
5.0589533671
 21
4.8567336212
  0
LINE
  5
246
100
AcDbEntity
  8
0
100
AcDbLine
 62
7
  6
CONTINUOUS
 10
5.1475572229
 20
4.8567331769
 11
5.152513218
 21
4.8567327451
  0
LINE
  5
247
100
AcDbEntity
  8
0
100
AcDbLine
 62
7
  6
CONTINUOUS
 10
5.0589533671
 20
4.8567336212
 11
5.0719244483
 21
4.8567314721
  0
LINE
  5
248
100
AcDbEntity
  8
0
100
AcDbLine
 62
7
  6
CONTINUOUS
 10
4.9670915287
 20
4.8567313884
 11
4.9742912735
 21
4.856730102
  0
LINE
  5
249
100
AcDbEntity
  8
0
100
AcDbLine
 62
7
  6
CONTINUOUS
 10
5.2002897843
 20
4.8567285701
 11
5.2051326363
 21
4.8567284558
  0
LINE
  5
24A
100
AcDbEntity
  8
0
100
AcDbLine
 62
7
  6
CONTINUOUS
 10
5.1356721624
 20
4.856733372
 11
5.1391488449
 21
4.8567328014
  0
LINE
  5
24B
100
AcDbEntity
  8
0
100
AcDbLine
 62
7
  6
CONTINUOUS
 10
5.0904282654
 20
4.8567339969
 11
5.106150632
 21
4.8567353167
  0
LINE
  5
24C
100
AcDbEntity
  8
0
100
AcDbLine
 62
7
  6
CONTINUOUS
 10
5.1916310754
 20
4.8567325742
 11
5.1941234225
 21
4.856731612
  0
LWPOLYLINE
  5
24D
100
AcDbEntity
  8
0
100
AcDbPolyline
 62
7
  6
CONTINUOUS
 90
4
 70
0
 10
5.1941234225
 20
4.856731612
 10
5.1966024009
 20
4.8567302302
 10
5.1978364786
 20
4.8567295708
 10
5.2002897843
 20
4.8567285701
  0
LWPOLYLINE
  5
24E
100
AcDbEntity
  8
0
100
AcDbPolyline
 62
7
  6
CONTINUOUS
 90
3
 70
0
 10
5.106150632
 20
4.8567353167
 10
5.1208503595
 20
4.8567350985
 10
5.1356721624
 20
4.856733372
  0
LINE
  5
24F
100
AcDbEntity
  8
0
100
AcDbLine
 62
7
  6
CONTINUOUS
 10
5.0124397041
 20
4.8567345962
 11
5.0210646258
 21
4.8567305073
  0
LWPOLYLINE
  5
250
100
AcDbEntity
  8
0
100
AcDbPolyline
 62
7
  6
CONTINUOUS
 90
5
 70
0
 10
5.1600030802
 20
4.8567338566
 10
5.1662295688
 20
4.8567306834
 10
5.1674812014
 20
4.8567290117
 10
5.1687379162
 20
4.856727244
 10
5.1763820159
 20
4.856720811
  0
LWPOLYLINE
  5
251
100
AcDbEntity
  8
0
100
AcDbPolyline
 62
7
  6
CONTINUOUS
 90
3
 70
0
 10
5.0210646258
 20
4.8567305073
 10
5.0244828443
 20
4.856725755
 10
5.0543288836
 20
4.8567336271
  0
LINE
  5
252
100
AcDbEntity
  8
0
100
AcDbLine
 62
7
  6
CONTINUOUS
 10
5.4285082988
 20
4.8292695741
 11
5.4263114367
 21
4.8227570852
  0
LINE
  5
253
100
AcDbEntity
  8
0
100
AcDbLine
 62
7
  6
CONTINUOUS
 10
5.407245799
 20
4.8337647292
 11
5.4052921271
 21
4.8282870098
  0
LINE
  5
254
100
AcDbEntity
  8
0
100
AcDbLine
 62
7
  6
CONTINUOUS
 10
5.1990656634
 20
4.9267363338
 11
5.1928784698
 21
4.9267331479
  0
LINE
  5
255
100
AcDbEntity
  8
0
100
AcDbLine
 62
7
  6
CONTINUOUS
 10
5.1368233845
 20
4.9267323164
 11
5.1333939407
 21
4.926731272
  0
LINE
  5
256
100
AcDbEntity
  8
0
100
AcDbLine
 62
7
  6
CONTINUOUS
 10
5.069120799
 20
4.9151701694
 11
5.291620799
 21
4.9151701694
  0
LINE
  5
257
100
AcDbEntity
  8
0
100
AcDbLine
 62
7
  6
CONTINUOUS
 10
4.8595134459
 20
4.9195451694
 11
4.725370799
 21
4.9195451694
  0
LINE
  5
258
100
AcDbEntity
  8
0
100
AcDbLine
 62
7
  6
CONTINUOUS
 10
3.9803884459
 20
4.9195451694
 11
3.846245799
 21
4.9195451694
  0
LINE
  5
259
100
AcDbEntity
  8
0
100
AcDbLine
 62
7
  6
CONTINUOUS
 10
4.0558531521
 20
4.9195451694
 11
4.189995799
 21
4.9195451694
  0
LINE
  5
25A
100
AcDbEntity
  8
0
100
AcDbLine
 62
7
  6
CONTINUOUS
 10
4.9349781521
 20
4.9195451694
 11
5.069120799
 21
4.9195451694
  0
LINE
  5
25B
100
AcDbEntity
  8
0
100
AcDbLine
 62
7
  6
CONTINUOUS
 10
5.291620799
 20
4.9261076694
 11
5.3525981374
 21
4.9261076694
  0
LINE
  5
25C
100
AcDbEntity
  8
0
100
AcDbLine
 62
7
  6
CONTINUOUS
 10
5.0941408069
 20
4.926731906
 11
5.089174877
 21
4.9267311854
  0
LINE
  5
25D
100
AcDbEntity
  8
0
100
AcDbLine
 62
7
  6
CONTINUOUS
 10
5.0733141663
 20
4.9267340299
 11
5.0574337515
 21
4.9267315138
  0
LINE
  5
25E
100
AcDbEntity
  8
0
100
AcDbLine
 62
7
  6
CONTINUOUS
 10
5.2214821418
 20
4.9267336711
 11
5.2168707534
 21
4.9267333341
  0
LWPOLYLINE
  5
25F
100
AcDbEntity
  8
0
100
AcDbPolyline
 62
7
  6
CONTINUOUS
 90
3
 70
0
 10
5.1475572229
 20
4.9267321618
 10
5.1463320959
 20
4.926732088
 10
5.1451141532
 20
4.9267320774
  0
LINE
  5
260
100
AcDbEntity
  8
0
100
AcDbLine
 62
7
  6
CONTINUOUS
 10
5.089174877
 20
4.9267311854
 11
5.0879132021
 21
4.9267311223
  0
LWPOLYLINE
  5
261
100
AcDbEntity
  8
0
100
AcDbPolyline
 62
7
  6
CONTINUOUS
 90
3
 70
0
 10
5.152513218
 20
4.9267325936
 10
5.1512672669
 20
4.9267325514
 10
5.1475572229
 20
4.9267321618
  0
LWPOLYLINE
  5
262
100
AcDbEntity
  8
0
100
AcDbPolyline
 62
7
  6
CONTINUOUS
 90
4
 70
0
 10
4.9780505061
 20
4.9267353851
 10
4.9761752388
 20
4.9267353639
 10
4.9742912735
 20
4.9267352368
 10
4.9670915287
 20
4.9267339504
  0
LINE
  5
263
100
AcDbEntity
  8
0
100
AcDbLine
 62
7
  6
CONTINUOUS
 10
5.3570583498
 20
4.9267326694
 11
5.2338629016
 21
4.9267326694
  0
LWPOLYLINE
  5
264
100
AcDbEntity
  8
0
100
AcDbPolyline
 62
7
  6
CONTINUOUS
 90
3
 70
0
 10
5.2237788126
 20
4.9267337159
 10
5.2226311977
 20
4.9267337137
 10
5.2214821418
 20
4.9267336711
  0
LINE
  5
265
100
AcDbEntity
  8
0
100
AcDbLine
 62
7
  6
CONTINUOUS
 10
5.484023986
 20
4.9267326694
 11
5.5000702679
 21
4.9267326694
  0
LINE
  5
266
100
AcDbEntity
  8
0
100
AcDbLine
 62
7
  6
CONTINUOUS
 10
5.4822428877
 20
4.9292326694
 11
5.494133424
 21
4.9292326694
  0
LINE
  5
267
100
AcDbEntity
  8
0
100
AcDbLine
 62
7
  6
CONTINUOUS
 10
5.4791998989
 20
4.9329826694
 11
5.494133424
 21
4.9329826694
  0
LINE
  5
268
100
AcDbEntity
  8
0
100
AcDbLine
 62
7
  6
CONTINUOUS
 10
4.869433299
 20
4.9698576694
 11
4.045933299
 21
4.9698576694
  0
LINE
  5
269
100
AcDbEntity
  8
0
100
AcDbLine
 62
7
  6
CONTINUOUS
 10
5.0760646122
 20
4.9267340048
 11
5.0733141663
 21
4.9267340299
  0
LINE
  5
26A
100
AcDbEntity
  8
0
100
AcDbLine
 62
7
  6
CONTINUOUS
 10
5.140324391
 20
4.9267324723
 11
5.1368233845
 21
4.9267323164
  0
LINE
  5
26B
100
AcDbEntity
  8
0
100
AcDbLine
 62
7
  6
CONTINUOUS
 10
5.2168707534
 20
4.9267333341
 11
5.2145552294
 21
4.9267333649
  0
LINE
  5
26C
100
AcDbEntity
  8
0
100
AcDbLine
 62
7
  6
CONTINUOUS
 10
5.2039304623
 20
4.9267371015
 11
5.1990656634
 21
4.9267363338
  0
LINE
  5
26D
100
AcDbEntity
  8
0
100
AcDbLine
 62
7
  6
CONTINUOUS
 10
5.014178141
 20
4.9267307295
 11
5.0106931888
 21
4.9267309664
  0
LINE
  5
26E
100
AcDbEntity
  8
0
100
AcDbLine
 62
7
  6
CONTINUOUS
 10
5.1451141532
 20
4.9267320774
 11
5.140324391
 21
4.9267324723
  0
LINE
  5
26F
100
AcDbEntity
  8
0
100
AcDbLine
 62
7
  6
CONTINUOUS
 10
5.2338628527
 20
4.9267326694
 11
5.2317718738
 21
4.9267328085
  0
LINE
  5
270
100
AcDbEntity
  8
0
100
AcDbLine
 62
7
  6
CONTINUOUS
 10
5.1550096218
 20
4.9267323847
 11
5.152513218
 21
4.9267325936
  0
LWPOLYLINE
  5
271
100
AcDbEntity
  8
0
100
AcDbPolyline
 62
7
  6
CONTINUOUS
 90
3
 70
0
 10
5.2272129032
 20
4.9267334624
 10
5.2260696332
 20
4.9267335877
 10
5.2237788126
 20
4.9267337159
  0
LINE
  5
272
100
AcDbEntity
  8
0
100
AcDbLine
 62
7
  6
CONTINUOUS
 10
5.1600030802
 20
4.9267314821
 11
5.1587567907
 21
4.9267316517
  0
LINE
  5
273
100
AcDbEntity
  8
0
100
AcDbLine
 62
7
  6
CONTINUOUS
 10
5.2317718738
 20
4.9267328085
 11
5.2272129032
 21
4.9267334624
  0
LINE
  5
274
100
AcDbEntity
  8
0
100
AcDbLine
 62
7
  6
CONTINUOUS
 10
5.1587567907
 20
4.9267316517
 11
5.1550096218
 21
4.9267323847
  0
LINE
  5
275
100
AcDbEntity
  8
0
100
AcDbLine
 62
7
  6
CONTINUOUS
 10
5.0106931888
 20
4.9267309664
 11
4.9780505061
 21
4.9267353851
  0
LWPOLYLINE
  5
276
100
AcDbEntity
  8
0
100
AcDbPolyline
 62
7
  6
CONTINUOUS
 90
4
 70
0
 10
5.0879132021
 20
4.9267311223
 10
5.0840645919
 20
4.9267316807
 10
5.0827597053
 20
4.9267320976
 10
5.080114423
 20
4.9267330501
  0
LWPOLYLINE
  5
277
100
AcDbEntity
  8
0
100
AcDbPolyline
 62
7
  6
CONTINUOUS
 90
3
 70
0
 10
5.080114423
 20
4.9267330501
 10
5.0787753227
 20
4.926733471
 10
5.0760646122
 20
4.9267340048
  0
LWPOLYLINE
  5
278
100
AcDbEntity
  8
0
100
AcDbPolyline
 62
7
  6
CONTINUOUS
 90
3
 70
0
 10
5.1333939407
 20
4.926731272
 10
5.1288705848
 20
4.926731724
 10
5.1152164881
 20
4.9267293394
  0
LINE
  5
279
100
AcDbEntity
  8
0
100
AcDbLine
 62
7
  6
CONTINUOUS
 10
5.0978002798
 20
4.9267311957
 11
5.0941408069
 21
4.926731906
  0
LINE
  5
27A
100
AcDbEntity
  8
0
100
AcDbLine
 62
7
  6
CONTINUOUS
 10
5.2145552294
 20
4.9267333649
 11
5.2110595516
 21
4.9267343565
  0
LWPOLYLINE
  5
27B
100
AcDbEntity
  8
0
100
AcDbPolyline
 62
7
  6
CONTINUOUS
 90
4
 70
0
 10
5.2110595516
 20
4.9267343565
 10
5.2087056271
 20
4.9267354995
 10
5.2075202243
 20
4.9267360496
 10
5.2039304623
 20
4.9267371015
  0
LWPOLYLINE
  5
27C
100
AcDbEntity
  8
0
100
AcDbPolyline
 62
7
  6
CONTINUOUS
 90
4
 70
0
 10
5.1152164881
 20
4.9267293394
 10
5.1141027513
 20
4.92672999
 10
5.1129904257
 20
4.9267307342
 10
5.0978002798
 20
4.9267311957
  0
LINE
  5
27D
100
AcDbEntity
  8
0
100
AcDbLine
 62
7
  6
CONTINUOUS
 10
5.1928784698
 20
4.9267331479
 11
5.1866126409
 21
4.9267351906
  0
LWPOLYLINE
  5
27E
100
AcDbEntity
  8
0
100
AcDbPolyline
 62
7
  6
CONTINUOUS
 90
4
 70
0
 10
5.0574337515
 20
4.9267315138
 10
5.0495485915
 20
4.926735732
 10
5.0479290089
 20
4.9267381026
 10
5.014178141
 20
4.9267307295
  0
LINE
  5
27F
100
AcDbEntity
  8
0
100
AcDbLine
 62
7
  6
CONTINUOUS
 10
5.1866126409
 20
4.9267351906
 11
5.1600030802
 21
4.9267314821
  0
LINE
  5
280
100
AcDbEntity
  8
0
100
AcDbLine
 62
7
  6
CONTINUOUS
 10
5.291620799
 20
4.8573576694
 11
5.291620799
 21
4.9261076694
  0
LINE
  5
281
100
AcDbEntity
  8
0
100
AcDbLine
 62
7
  6
CONTINUOUS
 10
5.4073486536
 20
4.8344080189
 11
5.407245799
 21
4.8337647292
  0
LINE
  5
282
100
AcDbEntity
  8
0
100
AcDbLine
 62
7
  6
CONTINUOUS
 10
5.4285229742
 20
4.8293439139
 11
5.4285082988
 21
4.8292695741
  0
LINE
  5
283
100
AcDbEntity
  8
0
100
AcDbLine
 62
7
  6
CONTINUOUS
 10
5.470995799
 20
4.8408116786
 11
5.4687858529
 21
4.8323562556
  0
LINE
  5
284
100
AcDbEntity
  8
0
100
AcDbLine
 62
7
  6
CONTINUOUS
 10
5.4497332992
 20
4.8313795491
 11
5.4474789223
 21
4.8239358203
  0
LINE
  5
285
100
AcDbEntity
  8
0
100
AcDbLine
 62
7
  6
CONTINUOUS
 10
5.4712007081
 20
4.8428601744
 11
5.470995799
 21
4.8408116786
  0
LINE
  5
286
100
AcDbEntity
  8
0
100
AcDbLine
 62
7
  6
CONTINUOUS
 10
5.4497968995
 20
4.8317483106
 11
5.4497332992
 21
4.8313795491
  0
LINE
  5
287
100
AcDbEntity
  8
0
100
AcDbLine
 62
7
  6
CONTINUOUS
 10
3.990308299
 20
5.0636076694
 11
4.045933299
 21
5.0636076694
  0
LINE
  5
288
100
AcDbEntity
  8
0
100
AcDbLine
 62
7
  6
CONTINUOUS
 10
4.869433299
 20
5.0636076694
 11
4.925058299
 21
5.0636076694
  0
LINE
  5
289
100
AcDbEntity
  8
0
100
AcDbLine
 62
7
  6
CONTINUOUS
 10
5.3932908899
 20
4.8428601744
 11
5.393495799
 21
4.8408116786
  0
LINE
  5
28A
100
AcDbEntity
  8
0
100
AcDbLine
 62
7
  6
CONTINUOUS
 10
5.494133424
 20
4.9329826694
 11
5.494133424
 21
4.9292326694
  0
LINE
  5
28B
100
AcDbEntity
  8
0
100
AcDbLine
 62
7
  6
CONTINUOUS
 10
5.494133424
 20
4.8542326694
 11
5.494133424
 21
4.8504826694
  0
LINE
  5
28C
100
AcDbEntity
  8
0
100
AcDbLine
 62
7
  6
CONTINUOUS
 10
5.393495799
 20
4.8408116786
 11
5.3957057451
 21
4.8323562555
  0
LINE
  5
28D
100
AcDbEntity
  8
0
100
AcDbLine
 62
7
  6
CONTINUOUS
 10
5.4146946985
 20
4.8317483106
 11
5.4147582988
 21
4.8313795491
  0
LINE
  5
28E
100
AcDbEntity
  8
0
100
AcDbLine
 62
7
  6
CONTINUOUS
 10
5.494133424
 20
4.8504826694
 11
5.4972538084
 21
4.8484028375
  0
LINE
  5
28F
100
AcDbEntity
  8
0
100
AcDbLine
 62
7
  6
CONTINUOUS
 10
5.3662257892
 20
4.8499592007
 11
5.3662619167
 21
4.8499032754
  0
LINE
  5
290
100
AcDbEntity
  8
0
100
AcDbLine
 62
7
  6
CONTINUOUS
 10
5.457245799
 20
4.8337647292
 11
5.459199471
 21
4.8282870097
  0
LINE
  5
291
100
AcDbEntity
  8
0
100
AcDbLine
 62
7
  6
CONTINUOUS
 10
5.4359832992
 20
4.8292695741
 11
5.4381801613
 21
4.8227570852
  0
LINE
  5
292
100
AcDbEntity
  8
0
100
AcDbLine
 62
7
  6
CONTINUOUS
 10
5.4147582988
 20
4.8313795491
 11
5.4170126757
 21
4.8239358203
  0
LINE
  5
293
100
AcDbEntity
  8
0
100
AcDbLine
 62
7
  6
CONTINUOUS
 10
5.4359686237
 20
4.8293439139
 11
5.4359832992
 21
4.8292695741
  0
LINE
  5
294
100
AcDbEntity
  8
0
100
AcDbLine
 62
7
  6
CONTINUOUS
 10
5.4571429444
 20
4.8344080189
 11
5.457245799
 21
4.8337647292
  0
ARC
  5
295
100
AcDbEntity
  8
0
100
AcDbCircle
 62
7
  6
CONTINUOUS
 10
4.457683299
 20
3.7667326694
 40
0.0625
100
AcDbArc
 50
180.0
 51
360.0
  0
ARC
  5
296
100
AcDbEntity
  8
0
100
AcDbCircle
 62
7
  6
CONTINUOUS
 10
4.018120799
 20
4.8917326694
 40
0.171875
100
AcDbArc
 50
27.036308382
 51
80.6874064588
  0
ARC
  5
297
100
AcDbEntity
  8
0
100
AcDbCircle
 62
7
  6
CONTINUOUS
 10
4.018120799
 20
4.8917326694
 40
0.171875
100
AcDbArc
 50
99.3125935412
 51
170.6873927301
  0
ARC
  5
298
100
AcDbEntity
  8
0
100
AcDbCircle
 62
7
  6
CONTINUOUS
 10
4.018120799
 20
4.8917326694
 40
0.171875
100
AcDbArc
 50
189.3126072699
 51
260.6874064588
  0
ARC
  5
299
100
AcDbEntity
  8
0
100
AcDbCircle
 62
7
  6
CONTINUOUS
 10
4.018120799
 20
4.8917326694
 40
0.171875
100
AcDbArc
 50
279.3125935412
 51
332.963691618
  0
ARC
  5
29A
100
AcDbEntity
  8
0
100
AcDbCircle
 62
7
  6
CONTINUOUS
 10
4.018120799
 20
4.8917326694
 40
0.168125
100
AcDbArc
 50
189.5222105994
 51
260.4778976951
  0
ARC
  5
29B
100
AcDbEntity
  8
0
100
AcDbCircle
 62
7
  6
CONTINUOUS
 10
4.018120799
 20
4.8917326694
 40
0.168125
100
AcDbArc
 50
279.5221023069
 51
332.3096030636
  0
ARC
  5
29C
100
AcDbEntity
  8
0
100
AcDbCircle
 62
7
  6
CONTINUOUS
 10
4.018120799
 20
4.8917326694
 40
0.168125
100
AcDbArc
 50
27.6903969361
 51
80.4778976951
  0
ARC
  5
29D
100
AcDbEntity
  8
0
100
AcDbCircle
 62
7
  6
CONTINUOUS
 10
4.018120799
 20
4.8917326694
 40
0.168125
100
AcDbArc
 50
99.5221023069
 51
170.477789399
  0
ARC
  5
29E
100
AcDbEntity
  8
0
100
AcDbCircle
 62
7
  6
CONTINUOUS
 10
4.457683299
 20
4.8917326694
 40
0.078125
100
AcDbArc
 50
323.1349866808
 51
216.8650133192
  0
ARC
  5
29F
100
AcDbEntity
  8
0
100
AcDbCircle
 62
7
  6
CONTINUOUS
 10
4.018120799
 20
4.8917326694
 40
0.078125
100
AcDbArc
 50
20.8554262112
 51
69.1450140306
  0
ARC
  5
2A0
100
AcDbEntity
  8
0
100
AcDbCircle
 62
7
  6
CONTINUOUS
 10
4.018120799
 20
4.8917326694
 40
0.078125
100
AcDbArc
 50
110.8549859694
 51
159.1445737888
  0
ARC
  5
2A1
100
AcDbEntity
  8
0
100
AcDbCircle
 62
7
  6
CONTINUOUS
 10
4.018120799
 20
4.8917326694
 40
0.078125
100
AcDbArc
 50
200.8554262112
 51
249.1450140306
  0
ARC
  5
2A2
100
AcDbEntity
  8
0
100
AcDbCircle
 62
7
  6
CONTINUOUS
 10
4.018120799
 20
4.8917326694
 40
0.078125
100
AcDbArc
 50
290.8549859694
 51
339.1445737888
  0
ARC
  5
2A3
100
AcDbEntity
  8
0
100
AcDbCircle
 62
7
  6
CONTINUOUS
 10
4.018120799
 20
4.8917326694
 40
0.074375
100
AcDbArc
 50
21.9598825613
 51
68.0399868169
  0
ARC
  5
2A4
100
AcDbEntity
  8
0
100
AcDbCircle
 62
7
  6
CONTINUOUS
 10
4.018120799
 20
4.8917326694
 40
0.074375
100
AcDbArc
 50
111.9600131836
 51
158.0401174381
  0
ARC
  5
2A5
100
AcDbEntity
  8
0
100
AcDbCircle
 62
7
  6
CONTINUOUS
 10
4.018120799
 20
4.8917326694
 40
0.074375
100
AcDbArc
 50
201.9598825613
 51
248.0399868169
  0
ARC
  5
2A6
100
AcDbEntity
  8
0
100
AcDbCircle
 62
7
  6
CONTINUOUS
 10
4.018120799
 20
4.8917326694
 40
0.074375
100
AcDbArc
 50
291.9600131836
 51
338.0401174381
  0
ARC
  5
2A7
100
AcDbEntity
  8
0
100
AcDbCircle
 62
7
  6
CONTINUOUS
 10
4.457683299
 20
4.8917326694
 40
0.0625
100
AcDbArc
 50
0.0
 51
180.0
  0
CIRCLE
  5
2A8
100
AcDbEntity
  8
0
100
AcDbCircle
 62
7
  6
CONTINUOUS
 10
4.018120799
 20
4.8917326694
 40
0.046875
  0
ARC
  5
2A9
100
AcDbEntity
  8
0
100
AcDbCircle
 62
7
  6
CONTINUOUS
 10
4.373308299
 20
4.8011076694
 40
0.0125
100
AcDbArc
 50
0.0
 51
90.0000000004
  0
ARC
  5
2AA
100
AcDbEntity
  8
0
100
AcDbCircle
 62
7
  6
CONTINUOUS
 10
4.5420577261
 20
4.8011082244
 40
0.0124999151
100
AcDbArc
 50
89.9973740298
 51
180.0025439312
  0
ARC
  5
2AB
100
AcDbEntity
  8
0
100
AcDbCircle
 62
7
  6
CONTINUOUS
 10
4.897245799
 20
4.8917326694
 40
0.171875
100
AcDbArc
 50
11.7499745378
 51
80.6874064588
  0
ARC
  5
2AC
100
AcDbEntity
  8
0
100
AcDbCircle
 62
7
  6
CONTINUOUS
 10
4.897245799
 20
4.8917326694
 40
0.171875
100
AcDbArc
 50
99.3125935412
 51
152.963691618
  0
ARC
  5
2AD
100
AcDbEntity
  8
0
100
AcDbCircle
 62
7
  6
CONTINUOUS
 10
4.897245799
 20
4.8917326694
 40
0.171875
100
AcDbArc
 50
207.036308382
 51
260.6874064588
  0
ARC
  5
2AE
100
AcDbEntity
  8
0
100
AcDbCircle
 62
7
  6
CONTINUOUS
 10
4.897245799
 20
4.8917326694
 40
0.171875
100
AcDbArc
 50
279.3125935412
 51
348.2500254622
  0
ARC
  5
2AF
100
AcDbEntity
  8
0
100
AcDbCircle
 62
7
  6
CONTINUOUS
 10
4.897245799
 20
4.8917326694
 40
0.168125
100
AcDbArc
 50
207.6903969361
 51
260.4778976951
  0
ARC
  5
2B0
100
AcDbEntity
  8
0
100
AcDbCircle
 62
7
  6
CONTINUOUS
 10
4.897245799
 20
4.8917326694
 40
0.168125
100
AcDbArc
 50
279.5221023069
 51
347.984426978
  0
ARC
  5
2B1
100
AcDbEntity
  8
0
100
AcDbCircle
 62
7
  6
CONTINUOUS
 10
4.897245799
 20
4.8917326694
 40
0.168125
100
AcDbArc
 50
12.01557302
 51
80.4778976951
  0
ARC
  5
2B2
100
AcDbEntity
  8
0
100
AcDbCircle
 62
7
  6
CONTINUOUS
 10
4.897245799
 20
4.8917326694
 40
0.168125
100
AcDbArc
 50
99.5221023069
 51
152.3096030636
  0
ARC
  5
2B3
100
AcDbEntity
  8
0
100
AcDbCircle
 62
7
  6
CONTINUOUS
 10
4.897245799
 20
4.8917326694
 40
0.078125
100
AcDbArc
 50
20.8554262112
 51
69.1450140306
  0
ARC
  5
2B4
100
AcDbEntity
  8
0
100
AcDbCircle
 62
7
  6
CONTINUOUS
 10
4.897245799
 20
4.8917326694
 40
0.078125
100
AcDbArc
 50
110.8549859694
 51
159.1445737888
  0
ARC
  5
2B5
100
AcDbEntity
  8
0
100
AcDbCircle
 62
7
  6
CONTINUOUS
 10
4.897245799
 20
4.8917326694
 40
0.078125
100
AcDbArc
 50
200.8554262112
 51
249.1450140306
  0
ARC
  5
2B6
100
AcDbEntity
  8
0
100
AcDbCircle
 62
7
  6
CONTINUOUS
 10
4.897245799
 20
4.8917326694
 40
0.078125
100
AcDbArc
 50
290.8549859694
 51
339.1445737888
  0
ARC
  5
2B7
100
AcDbEntity
  8
0
100
AcDbCircle
 62
7
  6
CONTINUOUS
 10
4.897245799
 20
4.8917326694
 40
0.074375
100
AcDbArc
 50
21.9598825613
 51
68.0399868169
  0
ARC
  5
2B8
100
AcDbEntity
  8
0
100
AcDbCircle
 62
7
  6
CONTINUOUS
 10
4.897245799
 20
4.8917326694
 40
0.074375
100
AcDbArc
 50
111.9600131836
 51
158.0401174381
  0
ARC
  5
2B9
100
AcDbEntity
  8
0
100
AcDbCircle
 62
7
  6
CONTINUOUS
 10
4.897245799
 20
4.8917326694
 40
0.074375
100
AcDbArc
 50
201.9598825613
 51
248.0399868169
  0
ARC
  5
2BA
100
AcDbEntity
  8
0
100
AcDbCircle
 62
7
  6
CONTINUOUS
 10
4.897245799
 20
4.8917326694
 40
0.074375
100
AcDbArc
 50
291.9600131836
 51
338.0401174381
  0
CIRCLE
  5
2BB
100
AcDbEntity
  8
0
100
AcDbCircle
 62
7
  6
CONTINUOUS
 10
4.897245799
 20
4.8917326694
 40
0.046875
  0
ARC
  5
2BC
100
AcDbEntity
  8
0
100
AcDbCircle
 62
7
  6
CONTINUOUS
 10
5.4179697464
 20
4.8242256748
 40
0.001
100
AcDbArc
 50
196.8492439121
 51
258.0592943439
  0
ARC
  5
2BD
100
AcDbEntity
  8
0
100
AcDbCircle
 62
7
  6
CONTINUOUS
 10
5.4043502405
 20
4.828622941
 40
0.001
100
AcDbArc
 50
246.1537673917
 51
340.3708257109
  0
ARC
  5
2BE
100
AcDbEntity
  8
0
100
AcDbCircle
 62
7
  6
CONTINUOUS
 10
5.3966732454
 20
4.8326091256
 40
0.001
100
AcDbArc
 50
194.6474175818
 51
238.9661592908
  0
ARC
  5
2BF
100
AcDbEntity
  8
0
100
AcDbCircle
 62
7
  6
CONTINUOUS
 10
5.3525981374
 20
4.8411076694
 40
0.01625
100
AcDbArc
 50
32.4405244247
 51
32.9874850106
  0
ARC
  5
2C0
100
AcDbEntity
  8
0
100
AcDbCircle
 62
7
  6
CONTINUOUS
 10
5.3525981374
 20
4.8411076694
 40
0.01625
100
AcDbArc
 50
33.0048221706
 51
90.0000000001
  0
ARC
  5
2C1
100
AcDbEntity
  8
0
100
AcDbCircle
 62
7
  6
CONTINUOUS
 10
5.4465218516
 20
4.8242256748
 40
0.001
100
AcDbArc
 50
281.9407056562
 51
343.1507561468
  0
ARC
  5
2C2
100
AcDbEntity
  8
0
100
AcDbCircle
 62
7
  6
CONTINUOUS
 10
5.4391277022
 20
4.8230767198
 40
0.001
100
AcDbArc
 50
198.6408276687
 51
275.7240678469
  0
ARC
  5
2C3
100
AcDbEntity
  8
0
100
AcDbCircle
 62
7
  6
CONTINUOUS
 10
5.4253638958
 20
4.8230767198
 40
0.001
100
AcDbArc
 50
264.2759321528
 51
341.3591723378
  0
ARC
  5
2C4
100
AcDbEntity
  8
0
100
AcDbCircle
 62
7
  6
CONTINUOUS
 10
5.4678183526
 20
4.8326091256
 40
0.001
100
AcDbArc
 50
301.033840713
 51
345.3525838161
  0
ARC
  5
2C5
100
AcDbEntity
  8
0
100
AcDbCircle
 62
7
  6
CONTINUOUS
 10
5.4601413575
 20
4.828622941
 40
0.001
100
AcDbArc
 50
199.6291732009
 51
293.846232609
  0
ARC
  5
2C6
100
AcDbEntity
  8
0
100
AcDbCircle
 62
7
  6
CONTINUOUS
 10
5.494133424
 20
4.8504826694
 40
0.00375
100
AcDbArc
 50
326.3153273875
 51
90.0
  0
ARC
  5
2C7
100
AcDbEntity
  8
0
100
AcDbCircle
 62
7
  6
CONTINUOUS
 10
5.3525981374
 20
4.9423576694
 40
0.01625
100
AcDbArc
 50
269.9999999999
 51
326.994946865
  0
ARC
  5
2C8
100
AcDbEntity
  8
0
100
AcDbCircle
 62
7
  6
CONTINUOUS
 10
5.432245799
 20
4.8917326694
 40
0.078125
100
AcDbArc
 50
33.6846726125
 51
326.3153273875
  0
ARC
  5
2C9
100
AcDbEntity
  8
0
100
AcDbCircle
 62
7
  6
CONTINUOUS
 10
5.432245799
 20
4.8917326694
 40
0.074375
100
AcDbArc
 50
33.684672613
 51
326.3153273869
  0
ARC
  5
2CA
100
AcDbEntity
  8
0
100
AcDbCircle
 62
7
  6
CONTINUOUS
 10
5.432245799
 20
4.8917326694
 40
0.07
100
AcDbArc
 50
293.8462325994
 51
301.0338407167
  0
ARC
  5
2CB
100
AcDbEntity
  8
0
100
AcDbCircle
 62
7
  6
CONTINUOUS
 10
5.432245799
 20
4.8917326694
 40
0.07
100
AcDbArc
 50
275.7240678469
 51
281.9407056562
  0
ARC
  5
2CC
100
AcDbEntity
  8
0
100
AcDbCircle
 62
7
  6
CONTINUOUS
 10
5.432245799
 20
4.8917326694
 40
0.07
100
AcDbArc
 50
258.0592943438
 51
264.2759321531
  0
ARC
  5
2CD
100
AcDbEntity
  8
0
100
AcDbCircle
 62
7
  6
CONTINUOUS
 10
5.432245799
 20
4.8917326694
 40
0.07
100
AcDbArc
 50
238.9661592833
 51
246.1537674006
  0
CIRCLE
  5
2CE
100
AcDbEntity
  8
0
100
AcDbCircle
 62
7
  6
CONTINUOUS
 10
5.432245799
 20
4.8917326694
 40
0.0625
  0
CIRCLE
  5
2CF
100
AcDbEntity
  8
0
100
AcDbCircle
 62
7
  6
CONTINUOUS
 10
5.432245799
 20
4.8917326694
 40
0.0575
  0
CIRCLE
  5
2D0
100
AcDbEntity
  8
0
100
AcDbCircle
 62
7
  6
CONTINUOUS
 10
5.432245799
 20
4.8917326694
 40
0.05625
  0
ARC
  5
2D1
100
AcDbEntity
  8
0
100
AcDbCircle
 62
7
  6
CONTINUOUS
 10
5.4322457947
 20
4.8994827169
 40
0.0703125407
100
AcDbArc
 50
290.8274864128
 51
303.4432548232
  0
ARC
  5
2D2
100
AcDbEntity
  8
0
100
AcDbCircle
 62
7
  6
CONTINUOUS
 10
5.4322458033
 20
4.8994827169
 40
0.0703125407
100
AcDbArc
 50
236.5567451768
 51
249.1725135872
  0
ARC
  5
2D3
100
AcDbEntity
  8
0
100
AcDbCircle
 62
7
  6
CONTINUOUS
 10
5.4322457987
 20
4.8994826677
 40
0.0703124983
100
AcDbArc
 50
255.5987442368
 51
266.9529749549
  0
ARC
  5
2D4
100
AcDbEntity
  8
0
100
AcDbCircle
 62
7
  6
CONTINUOUS
 10
5.4322457992
 20
4.8994826677
 40
0.0703124983
100
AcDbArc
 50
273.0470250451
 51
284.4012557632
  0
ARC
  5
2D5
100
AcDbEntity
  8
0
100
AcDbCircle
 62
7
  6
CONTINUOUS
 10
5.5000707936
 20
4.8917326694
 40
0.035
100
AcDbArc
 50
270.0
 51
90.0
  0
ARC
  5
2D6
100
AcDbEntity
  8
0
100
AcDbCircle
 62
7
  6
CONTINUOUS
 10
5.4984756609
 20
4.8919838259
 40
0.0347488487
100
AcDbArc
 50
87.1593981722
 51
89.9998826785
  0
ARC
  5
2D7
100
AcDbEntity
  8
0
100
AcDbCircle
 62
7
  6
CONTINUOUS
 10
5.494133424
 20
4.9329826694
 40
0.00375
100
AcDbArc
 50
270.0
 51
33.6846726125
  0
SPLINE
  5
2D8
100
AcDbEntity
  8
0
100
AcDbSpline
 62
7
  6
CONTINUOUS
 70
0
 71
3
 72
23
 73
19
 74
0
 42
0.0000001
 43
0.0000001
 44
0.0000000001
 40
0.0
 40
0.0
 40
0.0
 40
0.0
 40
0.0626137046
 40
0.1252227222
 40
0.1878233313
 40
0.2504115458
 40
0.312983959
 40
0.3755377898
 40
0.4380709635
 40
0.5005822003
 40
0.5630710655
 40
0.6255379781
 40
0.687984205
 40
0.7504118122
 40
0.812823577
 40
0.8752228925
 40
0.9376136334
 40
1.0
 40
1.0
 40
1.0
 40
1.0
 10
5.5333482738
 20
4.8917326694
 30
0.0
 10
5.5333482738
 20
4.8905877639
 30
0.0
 10
5.5332361562
 20
4.8882964587
 30
0.0
 10
5.5327332378
 20
4.8848938156
 30
0.0
 10
5.5319004263
 20
4.881556684
 30
0.0
 10
5.5307457287
 20
4.8783176238
 30
0.0
 10
5.5292802662
 20
4.8752077106
 30
0.0
 10
5.5275181435
 20
4.8722569243
 30
0.0
 10
5.5254763206
 20
4.869493677
 30
0.0
 10
5.5231744598
 20
4.8669445813
 30
0.0
 10
5.5206347215
 20
4.8646341911
 30
0.0
 10
5.5178815582
 20
4.8625847652
 30
0.0
 10
5.5149414879
 20
4.8608160423
 30
0.0
 10
5.5118428139
 20
4.859345066
 30
0.0
 10
5.5086154108
 20
4.8581860114
 30
0.0
 10
5.505290249
 20
4.8573500413
 30
0.0
 10
5.5018997906
 20
4.8568452156
 30
0.0
 10
5.4996166165
 20
4.8567326705
 30
0.0
 10
5.4984758679
 20
4.8567326705
 30
0.0
  0
SPLINE
  5
2D9
100
AcDbEntity
  8
0
100
AcDbSpline
 62
7
  6
CONTINUOUS
 70
0
 71
3
 72
16
 73
12
 74
0
 42
0.0000001
 43
0.0000001
 44
0.0000000001
 40
0.0
 40
0.0
 40
0.0
 40
0.0
 40
0.070503295
 40
0.139677232
 40
0.2740293476
 40
0.4035165895
 40
0.5287546337
 40
0.6504128508
 40
0.7691296537
 40
0.8854858488
 40
1.0
 40
1.0
 40
1.0
 40
1.0
 10
4.0981356547
 20
4.9195458908
 30
0.0
 10
4.0974850914
 20
4.9211039222
 30
0.0
 10
4.0960903084
 20
4.9241477263
 30
0.0
 10
4.0929616413
 20
4.9299205594
 30
0.0
 10
4.0884935888
 20
4.9365540664
 30
0.0
 10
4.0823807141
 20
4.9436132586
 30
0.0
 10
4.0757359466
 20
4.9497303975
 30
0.0
 10
4.0686888288
 20
4.9549525314
 30
0.0
 10
4.0613367303
 20
4.9593303868
 30
0.0
 10
4.0537553465
 20
4.9629092039
 30
0.0
 10
4.0485508131
 20
4.9648012484
 30
0.0
 10
4.0459339244
 20
4.9656212804
 30
0.0
  0
SPLINE
  5
2DA
100
AcDbEntity
  8
0
100
AcDbSpline
 62
7
  6
CONTINUOUS
 70
0
 71
3
 72
15
 73
11
 74
0
 42
0.0000001
 43
0.0000001
 44
0.0000000001
 40
0.0
 40
0.0
 40
0.0
 40
0.0
 40
0.1232588038
 40
0.2467089751
 40
0.37053267
 40
0.4948941991
 40
0.6199324711
 40
0.7457548978
 40
0.8724330229
 40
1.0
 40
1.0
 40
1.0
 40
1.0
 10
5.2338628527
 20
4.8567326705
 30
0.0
 10
5.2327215089
 20
4.8567326723
 30
0.0
 10
5.230434994
 20
4.8568607476
 30
0.0
 10
5.2270454474
 20
4.8574347921
 30
0.0
 10
5.2237303952
 20
4.8583844402
 30
0.0
 10
5.2205267788
 20
4.8596991606
 30
0.0
 10
5.2174695758
 20
4.8613643664
 30
0.0
 10
5.2145921851
 20
4.8633617578
 30
0.0
 10
5.2119263315
 20
4.8656689406
 30
0.0
 10
5.2103143043
 20
4.8673916232
 30
0.0
 10
5.209552797
 20
4.8682946326
 30
0.0
  0
SPLINE
  5
2DB
100
AcDbEntity
  8
0
100
AcDbSpline
 62
7
  6
CONTINUOUS
 70
0
 71
3
 72
21
 73
17
 74
0
 42
0.0000001
 43
0.0000001
 44
0.0000000001
 40
0.0
 40
0.0
 40
0.0
 40
0.0
 40
0.0676274122
 40
0.1350415348
 40
0.2020458776
 40
0.2684685604
 40
0.3341722059
 40
0.3990569082
 40
0.4630586257
 40
0.5261437809
 40
0.5883058282
 40
0.6495588677
 40
0.709930367
 40
0.7694572735
 40
0.8861301572
 40
1.0
 40
1.0
 40
1.0
 40
1.0
 10
4.548308299
 20
4.8917326694
 30
0.0
 10
4.5483082417
 20
4.8902608981
 30
0.0
 10
4.5482107633
 20
4.8873211228
 30
0.0
 10
4.5477801481
 20
4.882942219
 30
0.0
 10
4.5470713373
 20
4.8786260466
 30
0.0
 10
4.546095887
 20
4.8744006403
 30
0.0
 10
4.5448731344
 20
4.8702883257
 30
0.0
 10
4.5434196953
 20
4.8663079655
 30
0.0
 10
4.5417557345
 20
4.8624731891
 30
0.0
 10
4.5399020706
 20
4.8587928598
 30
0.0
 10
4.5378769465
 20
4.855273038
 30
0.0
 10
4.5356977183
 20
4.8519169029
 30
0.0
 10
4.5333811466
 20
4.848724764
 30
0.0
 10
4.5301519835
 20
4.8447125411
 30
0.0
 10
4.52584299
 20
4.8400857814
 30
0.0
 10
4.522100368
 20
4.8367333116
 30
0.0
 10
4.5201850716
 20
4.8351607882
 30
0.0
  0
SPLINE
  5
2DC
100
AcDbEntity
  8
0
100
AcDbSpline
 62
7
  6
CONTINUOUS
 70
0
 71
3
 72
51
 73
47
 74
0
 42
0.0000001
 43
0.0000001
 44
0.0000000001
 40
0.0
 40
0.0
 40
0.0
 40
0.0
 40
0.0000428905
 40
0.0001707913
 40
0.0003835707
 40
0.0006810965
 40
0.0015298592
 40
0.0027159877
 40
0.0042377702
 40
0.00609297
 40
0.0082793337
 40
0.0107942398
 40
0.0167946773
 40
0.0240623975
 40
0.03255875
 40
0.0422415814
 40
0.0530665192
 40
0.0649863131
 40
0.0919014645
 40
0.1225729712
 40
0.1565817881
 40
0.1935209653
 40
0.2329977149
 40
0.2746245607
 40
0.3180342373
 40
0.4088097711
 40
0.502554676
 40
0.5964586901
 40
0.687565557
 40
0.77274477
 40
0.8120919557
 40
0.8487079903
 40
0.8821886175
 40
0.9121459382
 40
0.9382077028
 40
0.9600316715
 40
0.9692621962
 40
0.9773298734
 40
0.9842057965
 40
0.9898647069
 40
0.9942859444
 40
0.9974550658
 40
0.9985669752
 40
0.999362352
 40
0.9998403182
 40
1.0
 40
1.0
 40
1.0
 40
1.0
 10
5.4687858529
 20
4.8323562555
 30
0.0
 10
5.468785764
 20
4.8323561358
 30
0.0
 10
5.4687851331
 20
4.8323559839
 30
0.0
 10
5.4687840504
 20
4.8323552531
 30
0.0
 10
5.4687820249
 20
4.8323542987
 30
0.0
 10
5.4687778666
 20
4.8323520856
 30
0.0
 10
5.4687706456
 20
4.8323483863
 30
0.0
 10
5.4687596866
 20
4.8323426835
 30
0.0
 10
5.4687456053
 20
4.8323353922
 30
0.0
 10
5.4687284422
 20
4.8323264992
 30
0.0
 10
5.4687082081
 20
4.8323160306
 30
0.0
 10
5.4686751739
 20
4.8322989584
 30
0.0
 10
5.4686264339
 20
4.8322738195
 30
0.0
 10
5.4685591874
 20
4.8322392217
 30
0.0
 10
5.4684805131
 20
4.832198868
 30
0.0
 10
5.4683907755
 20
4.8321530009
 30
0.0
 10
5.4682903664
 20
4.8321018758
 30
0.0
 10
5.4681364653
 20
4.8320238453
 30
0.0
 10
5.4679206863
 20
4.8319153639
 30
0.0
 10
5.467635704
 20
4.8317736659
 30
0.0
 10
5.4673187418
 20
4.8316180621
 30
0.0
 10
5.4669733282
 20
4.8314510002
 30
0.0
 10
5.4666030579
 20
4.8312745526
 30
0.0
 10
5.4662113205
 20
4.8310909082
 30
0.0
 10
5.4656564637
 20
4.8308353184
 30
0.0
 10
5.4649336053
 20
4.8305116505
 30
0.0
 10
5.4640451357
 20
4.8301287501
 30
0.0
 10
5.4631503047
 20
4.8297579306
 30
0.0
 10
5.4622778977
 20
4.8294110252
 30
0.0
 10
5.4615785184
 20
4.8291421677
 30
0.0
 10
5.4610538871
 20
4.82894653
 30
0.0
 10
5.4606969074
 20
4.828815453
 30
0.0
 10
5.4603699979
 20
4.8286971509
 30
0.0
 10
5.4600771391
 20
4.8285925345
 30
0.0
 10
5.4598220725
 20
4.828502531
 30
0.0
 10
5.4596347051
 20
4.8284371075
 30
0.0
 10
5.4595062799
 20
4.8283925449
 30
0.0
 10
5.4594268909
 20
4.8283651048
 30
0.0
 10
5.4593592097
 20
4.8283417822
 30
0.0
 10
5.4593034882
 20
4.8283226414
 30
0.0
 10
5.459259948
 20
4.8283076897
 30
0.0
 10
5.4592313253
 20
4.8282979327
 30
0.0
 10
5.4592146566
 20
4.8282921732
 30
0.0
 10
5.4592067805
 20
4.828289574
 30
0.0
 10
5.4592021293
 20
4.8282878165
 30
0.0
 10
5.4591999702
 20
4.8282872518
 30
0.0
 10
5.459199471
 20
4.8282870097
 30
0.0
  0
SPLINE
  5
2DD
100
AcDbEntity
  8
0
100
AcDbSpline
 62
7
  6
CONTINUOUS
 70
0
 71
3
 72
23
 73
19
 74
0
 42
0.0000001
 43
0.0000001
 44
0.0000000001
 40
0.0
 40
0.0
 40
0.0
 40
0.0
 40
0.0623842595
 40
0.1247747045
 40
0.1871751557
 40
0.2495890734
 40
0.3120194246
 40
0.3744685887
 40
0.4369382593
 40
0.499429391
 40
0.561942167
 40
0.6244759839
 40
0.6870294877
 40
0.7496006116
 40
0.8121866562
 40
0.8747843707
 40
0.9373899447
 40
1.0
 40
1.0
 40
1.0
 40
1.0
 10
5.5001977286
 20
4.9266899776
 30
0.0
 10
5.5013013027
 20
4.9266352199
 30
0.0
 10
5.5035047775
 20
4.9264201858
 30
0.0
 10
5.5067632889
 20
4.9257842775
 30
0.0
 10
5.509947224
 20
4.9248406935
 30
0.0
 10
5.5130274153
 20
4.9235979741
 30
0.0
 10
5.515976138
 20
4.9220673507
 30
0.0
 10
5.5187667237
 20
4.9202626617
 30
0.0
 10
5.5213739638
 20
4.9182002113
 30
0.0
 10
5.5237743086
 20
4.9158986462
 30
0.0
 10
5.5259460715
 20
4.9133787599
 30
0.0
 10
5.5278696368
 20
4.9106633234
 30
0.0
 10
5.5295276347
 20
4.9077768756
 30
0.0
 10
5.530905084
 20
4.9047454835
 30
0.0
 10
5.5319895536
 20
4.9015965659
 30
0.0
 10
5.5327712438
 20
4.8983584652
 30
0.0
 10
5.5332431012
 20
4.8950608183
 30
0.0
 10
5.5333482738
 20
4.8928416003
 30
0.0
 10
5.5333482738
 20
4.8917326694
 30
0.0
  0
LINE
  5
2DE
100
AcDbEntity
  8
0
100
AcDbLine
 62
7
  6
CONTINUOUS
 10
4.529558299
 20
4.8011076694
 11
4.520185514
 21
4.8112514031
  0
SPLINE
  5
2DF
100
AcDbEntity
  8
0
100
AcDbSpline
 62
7
  6
CONTINUOUS
 70
0
 71
3
 72
16
 73
12
 74
0
 42
0.0000001
 43
0.0000001
 44
0.0000000001
 40
0.0
 40
0.0
 40
0.0
 40
0.0
 40
0.0705032797
 40
0.1396772217
 40
0.2740293871
 40
0.4035166986
 40
0.5287547688
 40
0.6504129664
 40
0.769129738
 40
0.8854859014
 40
1.0
 40
1.0
 40
1.0
 40
1.0
 10
4.8172307648
 20
4.8639198765
 30
0.0
 10
4.8178813221
 20
4.8623618286
 30
0.0
 10
4.8192761011
 20
4.8593179939
 30
0.0
 10
4.822404758
 20
4.8535450953
 30
0.0
 10
4.8268728208
 20
4.846911515
 30
0.0
 10
4.8329857201
 20
4.8398522416
 30
0.0
 10
4.8396305305
 20
4.8337350413
 30
0.0
 10
4.8466776933
 20
4.8285128528
 30
0.0
 10
4.8540298466
 20
4.8241349609
 30
0.0
 10
4.8616112883
 20
4.820556118
 30
0.0
 10
4.8668158624
 20
4.8186640636
 30
0.0
 10
4.8694327713
 20
4.8178440279
 30
0.0
  0
LINE
  5
2E0
100
AcDbEntity
  8
0
100
AcDbLine
 62
7
  6
CONTINUOUS
 10
4.3951810119
 20
4.8112513929
 11
4.385808299
 21
4.8011076694
  0
SPLINE
  5
2E1
100
AcDbEntity
  8
0
100
AcDbSpline
 62
7
  6
CONTINUOUS
 70
0
 71
3
 72
78
 73
74
 74
0
 42
0.0000001
 43
0.0000001
 44
0.0000000001
 40
0.0
 40
0.0
 40
0.0
 40
0.0
 40
0.0000127513
 40
0.0000508407
 40
0.0001142173
 40
0.0002028303
 40
0.0003166288
 40
0.0004555623
 40
0.0008086307
 40
0.0012616293
 40
0.001814078
 40
0.0024653557
 40
0.0032148261
 40
0.0050057934
 40
0.0071807619
 40
0.0097310477
 40
0.012647521
 40
0.0159197095
 40
0.0195363716
 40
0.0234862515
 40
0.027758008
 40
0.0372215546
 40
0.0478334956
 40
0.0595027403
 40
0.072146325
 40
0.0856882901
 40
0.1000592365
 40
0.1310487631
 40
0.1647116284
 40
0.2007383784
 40
0.2388886613
 40
0.2789612041
 40
0.3207632296
 40
0.3640775548
 40
0.4086317546
 40
0.4540785937
 40
0.4999953253
 40
0.5229884439
 40
0.5459214022
 40
0.5913682658
 40
0.6359225471
 40
0.6792368288
 40
0.7210388118
 40
0.7611113722
 40
0.7992616597
 40
0.8352883011
 40
0.8689512823
 40
0.899940679
 40
0.9143116654
 40
0.9278537033
 40
0.9404973573
 40
0.9521666302
 40
0.962778502
 40
0.9722419841
 40
0.9765137395
 40
0.9804636076
 40
0.9840802276
 40
0.9873523802
 40
0.9902688791
 40
0.9928192628
 40
0.994994331
 40
0.996785331
 40
0.9975347916
 40
0.9981860478
 40
0.9987384672
 40
0.9991914332
 40
0.9995444705
 40
0.9996833906
 40
0.9997971781
 40
0.999885783
 40
0.9999491551
 40
0.9999872441
 40
1.0
 40
1.0
 40
1.0
 40
1.0
 10
5.3525981374
 20
4.8573576694
 30
0.0
 10
5.3525978442
 20
4.8573578112
 30
0.0
 10
5.3525971177
 20
4.8573589819
 30
0.0
 10
5.3525949541
 20
4.8573608818
 30
0.0
 10
5.3525917139
 20
4.8573645371
 30
0.0
 10
5.352587019
 20
4.8573694217
 30
0.0
 10
5.352581061
 20
4.8573757912
 30
0.0
 10
5.35257046
 20
4.8573870547
 30
0.0
 10
5.3525539584
 20
4.857404665
 30
0.0
 10
5.3525302606
 20
4.8574300004
 30
0.0
 10
5.3525014033
 20
4.8574609381
 30
0.0
 10
5.3524674196
 20
4.8574974469
 30
0.0
 10
5.3524119468
 20
4.8575571616
 30
0.0
 10
5.3523301157
 20
4.8576454984
 30
0.0
 10
5.3522172611
 20
4.8577677817
 30
0.0
 10
5.3520852922
 20
4.8579115346
 30
0.0
 10
5.3519348656
 20
4.8580763773
 30
0.0
 10
5.3517667486
 20
4.8582619405
 30
0.0
 10
5.3515817655
 20
4.8584678297
 30
0.0
 10
5.3513807495
 20
4.8586936248
 30
0.0
 10
5.3510820954
 20
4.859032394
 30
0.0
 10
5.3506745961
 20
4.8595019939
 30
0.0
 10
5.3501506297
 20
4.8601205764
 30
0.0
 10
5.3495835363
 20
4.8608089544
 30
0.0
 10
5.3489800317
 20
4.8615641496
 30
0.0
 10
5.3483466847
 20
4.8623836557
 30
0.0
 10
5.3474479646
 20
4.8635898877
 30
0.0
 10
5.3462899186
 20
4.8652432387
 30
0.0
 10
5.3449068232
 20
4.8674115536
 30
0.0
 10
5.343539765
 20
4.8698035159
 30
0.0
 10
5.3422297526
 20
4.8724121358
 30
0.0
 10
5.3410179629
 20
4.8752295482
 30
0.0
 10
5.3399456266
 20
4.8782437579
 30
0.0
 10
5.3390544413
 20
4.8814358664
 30
0.0
 10
5.3383832579
 20
4.884776817
 30
0.0
 10
5.3379652833
 20
4.888225996
 30
0.0
 10
5.337847254
 20
4.8911473294
 30
0.0
 10
5.3378945062
 20
4.8934927457
 30
0.0
 10
5.3380361472
 20
4.8958223331
 30
0.0
 10
5.3383830768
 20
4.8986886329
 30
0.0
 10
5.3390544896
 20
4.9020294458
 30
0.0
 10
5.3399456714
 20
4.9052215731
 30
0.0
 10
5.3410179415
 20
4.9082357999
 30
0.0
 10
5.342229761
 20
4.9110532024
 30
0.0
 10
5.3435397929
 20
4.913661807
 30
0.0
 10
5.3449067823
 20
4.9160538108
 30
0.0
 10
5.3462899505
 20
4.9182220752
 30
0.0
 10
5.3474479435
 20
4.9198754633
 30
0.0
 10
5.3483466768
 20
4.9210816854
 30
0.0
 10
5.3489800352
 20
4.9219011884
 30
0.0
 10
5.3495835496
 20
4.9226563814
 30
0.0
 10
5.3501506474
 20
4.9233447566
 30
0.0
 10
5.3506746041
 20
4.9239633438
 30
0.0
 10
5.3510820949
 20
4.9244329466
 30
0.0
 10
5.3513807482
 20
4.9247717139
 30
0.0
 10
5.351581763
 20
4.9249975081
 30
0.0
 10
5.3517667413
 20
4.9252033985
 30
0.0
 10
5.3519348542
 20
4.9253889636
 30
0.0
 10
5.3520852833
 20
4.9255538071
 30
0.0
 10
5.352217263
 20
4.9256975579
 30
0.0
 10
5.352330129
 20
4.9258198387
 30
0.0
 10
5.3524119643
 20
4.9259081758
 30
0.0
 10
5.3524674362
 20
4.9259678914
 30
0.0
 10
5.3525014175
 20
4.9260044003
 30
0.0
 10
5.3525302716
 20
4.9260353382
 30
0.0
 10
5.352553966
 20
4.9260606733
 30
0.0
 10
5.3525704644
 20
4.9260782841
 30
0.0
 10
5.3525810637
 20
4.926089547
 30
0.0
 10
5.3525870199
 20
4.9260959177
 30
0.0
 10
5.3525917153
 20
4.9261007991
 30
0.0
 10
5.3525949517
 20
4.9261044617
 30
0.0
 10
5.352597121
 20
4.9261063492
 30
0.0
 10
5.3525978415
 20
4.9261075331
 30
0.0
 10
5.3525981374
 20
4.9261076694
 30
0.0
  0
SPLINE
  5
2E2
100
AcDbEntity
  8
0
100
AcDbSpline
 62
7
  6
CONTINUOUS
 70
0
 71
3
 72
17
 73
13
 74
0
 42
0.0000001
 43
0.0000001
 44
0.0000000001
 40
0.0
 40
0.0
 40
0.0
 40
0.0
 40
0.1145066693
 40
0.2308552061
 40
0.3495643645
 40
0.4712145049
 40
0.5964443795
 40
0.7259230619
 40
0.7924855899
 40
0.8603318599
 40
0.9295012418
 40
1.0
 40
1.0
 40
1.0
 40
1.0
 10
4.8694328054
 20
4.9656213224
 30
0.0
 10
4.8668159118
 20
4.9648012932
 30
0.0
 10
4.8616113694
 20
4.9629092597
 30
0.0
 10
4.8540299709
 20
4.9593304215
 30
0.0
 10
4.8466778631
 20
4.9549526437
 30
0.0
 10
4.8396306564
 20
4.9497303192
 30
0.0
 10
4.8329862328
 20
4.9436138294
 30
0.0
 10
4.8279371221
 20
4.9377824641
 30
0.0
 10
4.8242433449
 20
4.9326502431
 30
0.0
 10
4.8216460262
 20
4.9285199856
 30
0.0
 10
4.8192763253
 20
4.9241476509
 30
0.0
 10
4.8178813575
 20
4.9211040567
 30
0.0
 10
4.8172308044
 20
4.9195460168
 30
0.0
  0
SPLINE
  5
2E3
100
AcDbEntity
  8
0
100
AcDbSpline
 62
7
  6
CONTINUOUS
 70
0
 71
3
 72
30
 73
26
 74
0
 42
0.0000001
 43
0.0000001
 44
0.0000000001
 40
0.0
 40
0.0
 40
0.0
 40
0.0
 40
0.0369126934
 40
0.0736857059
 40
0.091982473
 40
0.1101978126
 40
0.1283191016
 40
0.1463352435
 40
0.1820109698
 40
0.217175228
 40
0.2517970142
 40
0.2858658277
 40
0.3193874879
 40
0.3523786214
 40
0.4168492964
 40
0.4795439165
 40
0.5407181067
 40
0.600616931
 40
0.6594611249
 40
0.7174470589
 40
0.7747483584
 40
0.8315195485
 40
0.8879005272
 40
0.9440196334
 40
1.0
 40
1.0
 40
1.0
 40
1.0
 10
4.3670583013
 20
4.8917326694
 30
0.0
 10
4.3670583745
 20
4.8933477051
 30
0.0
 10
4.3671756893
 20
4.8965727409
 30
0.0
 10
4.3676078447
 20
4.9005774841
 30
0.0
 10
4.3681211759
 20
4.9037431479
 30
0.0
 10
4.3685873638
 20
4.9060881313
 30
0.0
 10
4.3691319995
 20
4.9084035152
 30
0.0
 10
4.36995599
 20
4.9114360949
 30
0.0
 10
4.3711648052
 20
4.9151344582
 30
0.0
 10
4.3728868123
 20
4.9194187659
 30
0.0
 10
4.3748476602
 20
4.9235211669
 30
0.0
 10
4.377021885
 20
4.9274322263
 30
0.0
 10
4.3793864121
 20
4.9311468283
 30
0.0
 10
4.3827360778
 20
4.9357999865
 30
0.0
 10
4.3872905438
 20
4.941144317
 30
0.0
 10
4.3932565415
 20
4.9468472519
 30
0.0
 10
4.3995790702
 20
4.95183296
 30
0.0
 10
4.4061787289
 20
4.9561417859
 30
0.0
 10
4.4129941206
 20
4.9598126287
 30
0.0
 10
4.4199771638
 20
4.9628788566
 30
0.0
 10
4.4270892198
 20
4.9653684877
 30
0.0
 10
4.4342984056
 20
4.9673040204
 30
0.0
 10
4.4415777863
 20
4.9687026132
 30
0.0
 10
4.4489031522
 20
4.9695766664
 30
0.0
 10
4.4538067833
 20
4.9698146638
 30
0.0
 10
4.4562558581
 20
4.9698479482
 30
0.0
  0
LINE
  5
2E4
100
AcDbEntity
  8
0
100
AcDbLine
 62
7
  6
CONTINUOUS
 10
4.5420582862
 20
4.8136076749
 11
4.5201844362
 21
4.8307744825
  0
SPLINE
  5
2E5
100
AcDbEntity
  8
0
100
AcDbSpline
 62
7
  6
CONTINUOUS
 70
0
 71
3
 72
49
 73
45
 74
0
 42
0.0000001
 43
0.0000001
 44
0.0000000001
 40
0.0
 40
0.0
 40
0.0
 40
0.0
 40
0.0006376593
 40
0.0014330303
 40
0.0025449349
 40
0.0057140584
 40
0.0101353004
 40
0.0157942094
 40
0.0226701183
 40
0.0307377862
 40
0.0399683359
 40
0.0617922887
 40
0.0878540026
 40
0.1178113697
 40
0.1512919888
 40
0.2272547131
 40
0.3124342286
 40
0.4035415067
 40
0.4974453776
 40
0.5911899452
 40
0.6819654813
 40
0.7253761803
 40
0.7670029762
 40
0.8064781723
 40
0.8434178197
 40
0.8774271261
 40
0.9080989463
 40
0.9350137769
 40
0.9469334441
 40
0.9577587571
 40
0.9674416747
 40
0.9759370781
 40
0.983204596
 40
0.9892063798
 40
0.9917216327
 40
0.9939076473
 40
0.9957620755
 40
0.9972831432
 40
0.9984690804
 40
0.9993182249
 40
0.9996160195
 40
0.9998290409
 40
0.9999570981
 40
1.0
 40
1.0
 40
1.0
 40
1.0
 10
5.4052921271
 20
4.8282870098
 30
0.0
 10
5.4052901143
 20
4.8282879361
 30
0.0
 10
5.4052852706
 20
4.8282892165
 30
0.0
 10
5.4052769717
 20
4.8282922484
 30
0.0
 10
5.4052602436
 20
4.8282978606
 30
0.0
 10
5.405231665
 20
4.8283077269
 30
0.0
 10
5.4051881034
 20
4.8283226253
 30
0.0
 10
5.4051323899
 20
4.8283417858
 30
0.0
 10
5.4050647071
 20
4.8283651048
 30
0.0
 10
5.4049853205
 20
4.8283925512
 30
0.0
 10
5.4048568895
 20
4.8284370974
 30
0.0
 10
5.4046695252
 20
4.8285025291
 30
0.0
 10
5.4044144642
 20
4.828592548
 30
0.0
 10
5.4041215967
 20
4.82869714
 30
0.0
 10
5.4036661393
 20
4.8288619924
 30
0.0
 10
5.4030318695
 20
4.829096597
 30
0.0
 10
5.4022136934
 20
4.8294110058
 30
0.0
 10
5.4013412551
 20
4.8297578424
 30
0.0
 10
5.400446505
 20
4.8301288544
 30
0.0
 10
5.3995579749
 20
4.8305116072
 30
0.0
 10
5.3988351099
 20
4.8308352687
 30
0.0
 10
5.3982802891
 20
4.8310909444
 30
0.0
 10
5.3978885566
 20
4.8312745935
 30
0.0
 10
5.3975182515
 20
4.831450959
 30
0.0
 10
5.3971728575
 20
4.8316180568
 30
0.0
 10
5.3968558931
 20
4.8317736657
 30
0.0
 10
5.3965709136
 20
4.8319153731
 30
0.0
 10
5.3963551323
 20
4.8320238488
 30
0.0
 10
5.3962012291
 20
4.8321018743
 30
0.0
 10
5.3961008219
 20
4.8321530056
 30
0.0
 10
5.3960110885
 20
4.8321988771
 30
0.0
 10
5.3959324101
 20
4.8322392147
 30
0.0
 10
5.395865159
 20
4.832273805
 30
0.0
 10
5.3958164237
 20
4.8322989642
 30
0.0
 10
5.3957833892
 20
4.832316046
 30
0.0
 10
5.3957631556
 20
4.8323265099
 30
0.0
 10
5.3957459937
 20
4.8323353913
 30
0.0
 10
5.3957319133
 20
4.8323426715
 30
0.0
 10
5.3957209536
 20
4.8323483696
 30
0.0
 10
5.3957137339
 20
4.8323520736
 30
0.0
 10
5.3957095735
 20
4.8323542911
 30
0.0
 10
5.3957075496
 20
4.8323552507
 30
0.0
 10
5.3957064625
 20
4.8323559809
 30
0.0
 10
5.3957058358
 20
4.8323561372
 30
0.0
 10
5.3957057451
 20
4.8323562556
 30
0.0
  0
SPLINE
  5
2E6
100
AcDbEntity
  8
0
100
AcDbSpline
 62
7
  6
CONTINUOUS
 70
0
 71
3
 72
26
 73
22
 74
0
 42
0.0000001
 43
0.0000001
 44
0.0000000001
 40
0.0
 40
0.0
 40
0.0
 40
0.0
 40
0.0559848389
 40
0.1121085938
 40
0.1684941934
 40
0.2252700587
 40
0.2825760676
 40
0.340566715
 40
0.3994156165
 40
0.4593192466
 40
0.52049843
 40
0.5831980679
 40
0.6476739695
 40
0.6806676674
 40
0.7141920321
 40
0.7828558789
 40
0.8536632237
 40
0.8897982692
 40
0.9263078463
 40
0.9630840008
 40
1.0
 40
1.0
 40
1.0
 40
1.0
 10
4.4591086288
 20
4.9698479831
 30
0.0
 10
4.4615577404
 20
4.969814754
 30
0.0
 10
4.4664614551
 20
4.9695768269
 30
0.0
 10
4.4737869584
 20
4.9687029067
 30
0.0
 10
4.4810664884
 20
4.9673044109
 30
0.0
 10
4.4882758295
 20
4.9653689677
 30
0.0
 10
4.4953880462
 20
4.9628794118
 30
0.0
 10
4.5023712486
 20
4.9598132422
 30
0.0
 10
4.5091867927
 20
4.9561424297
 30
0.0
 10
4.5157865982
 20
4.9518336068
 30
0.0
 10
4.5221093164
 20
4.9468479419
 30
0.0
 10
4.5280754394
 20
4.9411449242
 30
0.0
 10
4.5326300817
 20
4.935800694
 30
0.0
 10
4.5359797823
 20
4.9311472664
 30
0.0
 10
4.5391571543
 20
4.9261556971
 30
0.0
 10
4.5426419723
 20
4.9194145762
 30
0.0
 10
4.5452800054
 20
4.9121731957
 30
0.0
 10
4.546822302
 20
4.9060853111
 30
0.0
 10
4.5476735875
 20
4.9013702284
 30
0.0
 10
4.5481920701
 20
4.8965729819
 30
0.0
 10
4.5483082854
 20
4.8933477446
 30
0.0
 10
4.548308299
 20
4.8917326694
 30
0.0
  0
SPLINE
  5
2E7
100
AcDbEntity
  8
0
100
AcDbSpline
 62
7
  6
CONTINUOUS
 70
0
 71
3
 72
63
 73
59
 74
0
 42
0.0000001
 43
0.0000001
 44
0.0000000001
 40
0.0
 40
0.0
 40
0.0
 40
0.0
 40
0.0000364755
 40
0.0001462666
 40
0.000329931
 40
0.0005880266
 40
0.0009211114
 40
0.0013297431
 40
0.0023758789
 40
0.0037294655
 40
0.0053877742
 40
0.0073466283
 40
0.0096018508
 40
0.0149882401
 40
0.0215306112
 40
0.0292167148
 40
0.0380377267
 40
0.0479807763
 40
0.0590136351
 40
0.0711012727
 40
0.0842163164
 40
0.1134195113
 40
0.146371399
 40
0.1827474948
 40
0.2221515006
 40
0.2641894716
 40
0.3084755644
 40
0.4021153596
 40
0.4994342688
 40
0.5483082955
 40
0.5967074001
 40
0.6441889939
 40
0.6903037476
 40
0.7345965849
 40
0.7766528613
 40
0.8160825837
 40
0.8525001574
 40
0.8855320987
 40
0.9148926112
 40
0.9281141292
 40
0.9403165629
 40
0.9514629463
 40
0.9615131699
 40
0.9704307741
 40
0.978202485
 40
0.9848208967
 40
0.9902725115
 40
0.9925557119
 40
0.9945393548
 40
0.9962191527
 40
0.9975908176
 40
0.9986513516
 40
0.9990657022
 40
0.9994034989
 40
0.9996652845
 40
0.9998516014
 40
0.9999629924
 40
1.0
 40
1.0
 40
1.0
 40
1.0
 10
5.4263114367
 20
4.8227570852
 30
0.0
 10
5.4263113931
 20
4.8227569799
 30
0.0
 10
5.4263107664
 20
4.8227572932
 30
0.0
 10
5.4263099038
 20
4.822757103
 30
0.0
 10
5.4263080902
 20
4.8227573905
 30
0.0
 10
5.4263057177
 20
4.8227575095
 30
0.0
 10
5.4263025857
 20
4.822757779
 30
0.0
 10
5.4262970224
 20
4.8227582015
 30
0.0
 10
5.4262882663
 20
4.8227588969
 30
0.0
 10
5.4262756241
 20
4.822759891
 30
0.0
 10
5.4262601352
 20
4.822761121
 30
0.0
 10
5.4262418387
 20
4.8227625795
 30
0.0
 10
5.4262119272
 20
4.8227649771
 30
0.0
 10
5.4261677374
 20
4.8227685459
 30
0.0
 10
5.4261066289
 20
4.8227734949
 30
0.0
 10
5.4260348202
 20
4.8227793114
 30
0.0
 10
5.4259524218
 20
4.8227860462
 30
0.0
 10
5.4258596063
 20
4.8227937391
 30
0.0
 10
5.4257566253
 20
4.822802393
 30
0.0
 10
5.4256437757
 20
4.822812008
 30
0.0
 10
5.425474354
 20
4.8228266365
 30
0.0
 10
5.4252399949
 20
4.8228472706
 30
0.0
 10
5.4249332683
 20
4.8228749322
 30
0.0
 10
5.4245949116
 20
4.8229068153
 30
0.0
 10
5.4242284058
 20
4.8229426655
 30
0.0
 10
5.4238374388
 20
4.8229823796
 30
0.0
 10
5.4232780424
 20
4.8230413819
 30
0.0
 10
5.4225473113
 20
4.8231231817
 30
0.0
 10
5.4218031038
 20
4.8232132361
 30
0.0
 10
5.4211998012
 20
4.8232904418
 30
0.0
 10
5.4207513378
 20
4.8233503746
 30
0.0
 10
5.4203117217
 20
4.8234113495
 30
0.0
 10
5.4198850271
 20
4.823472047
 30
0.0
 10
5.4194754198
 20
4.823532424
 30
0.0
 10
5.4190867581
 20
4.8235915795
 30
0.0
 10
5.4187226426
 20
4.8236483997
 30
0.0
 10
5.4183865788
 20
4.8237020256
 30
0.0
 10
5.418081766
 20
4.8237517576
 30
0.0
 10
5.4178486757
 20
4.8237908216
 30
0.0
 10
5.4176798678
 20
4.8238195518
 30
0.0
 10
5.4175672071
 20
4.8238388696
 30
0.0
 10
5.4174643292
 20
4.8238565885
 30
0.0
 10
5.417371583
 20
4.8238726433
 30
0.0
 10
5.4172892467
 20
4.8238869946
 30
0.0
 10
5.4172174914
 20
4.8238995824
 30
0.0
 10
5.4171564166
 20
4.8239103558
 30
0.0
 10
5.4171122406
 20
4.823918174
 30
0.0
 10
5.4170823277
 20
4.8239234609
 30
0.0
 10
5.4170640249
 20
4.8239266942
 30
0.0
 10
5.417048525
 20
4.8239294319
 30
0.0
 10
5.4170358751
 20
4.8239316746
 30
0.0
 10
5.417027102
 20
4.8239332275
 30
0.0
 10
5.417021545
 20
4.8239342323
 30
0.0
 10
5.417018383
 20
4.823934774
 30
0.0
 10
5.4170160744
 20
4.8239352524
 30
0.0
 10
5.4170141078
 20
4.8239354633
 30
0.0
 10
5.417013507
 20
4.8239358224
 30
0.0
 10
5.4170126081
 20
4.8239357264
 30
0.0
 10
5.4170126757
 20
4.8239358203
 30
0.0
  0
SPLINE
  5
2E8
100
AcDbEntity
  8
0
100
AcDbSpline
 62
7
  6
CONTINUOUS
 70
0
 71
3
 72
58
 73
54
 74
0
 42
0.0000001
 43
0.0000001
 44
0.0000000001
 40
0.0
 40
0.0
 40
0.0
 40
0.0
 40
0.0000370445
 40
0.0001484659
 40
0.0003348075
 40
0.0005966124
 40
0.0013487858
 40
0.0024093331
 40
0.0037809942
 40
0.0054607703
 40
0.0074443818
 40
0.0097275498
 40
0.0151791255
 40
0.0217975342
 40
0.029569282
 40
0.0384869416
 40
0.0485371433
 40
0.0596834369
 40
0.0851073326
 40
0.1144679546
 40
0.1474995895
 40
0.1839175204
 40
0.2233473687
 40
0.2654036167
 40
0.3096955469
 40
0.3558118626
 40
0.4032928116
 40
0.5005656506
 40
0.597885088
 40
0.6915241692
 40
0.7358104117
 40
0.777848885
 40
0.8172523872
 40
0.8536285146
 40
0.8865805044
 40
0.9157837418
 40
0.9409863137
 40
0.9520192198
 40
0.9619623442
 40
0.9707833492
 40
0.9784693981
 40
0.9850117527
 40
0.9903981462
 40
0.9926533648
 40
0.9946122127
 40
0.9962705159
 40
0.9976241004
 40
0.9986702326
 40
0.9994119443
 40
0.9996700404
 40
0.999853709
 40
0.9999635091
 40
1.0
 40
1.0
 40
1.0
 40
1.0
 10
5.4474789223
 20
4.8239358203
 30
0.0
 10
5.4474788582
 20
4.8239357239
 30
0.0
 10
5.4474782802
 20
4.8239358251
 30
0.0
 10
5.447477368
 20
4.8239354604
 30
0.0
 10
5.44747558
 20
4.8239352513
 30
0.0
 10
5.4474719284
 20
4.8239345252
 30
0.0
 10
5.4474655149
 20
4.8239334296
 30
0.0
 10
5.4474557306
 20
4.8239316632
 30
0.0
 10
5.447443069
 20
4.8239294319
 30
0.0
 10
5.4474275735
 20
4.8239266906
 30
0.0
 10
5.4474092694
 20
4.8239234594
 30
0.0
 10
5.4473793573
 20
4.8239181729
 30
0.0
 10
5.447335181
 20
4.8239103558
 30
0.0
 10
5.4472741064
 20
4.823899582
 30
0.0
 10
5.4472023511
 20
4.8238869925
 30
0.0
 10
5.4471200149
 20
4.8238726402
 30
0.0
 10
5.4470272686
 20
4.8238565867
 30
0.0
 10
5.4468836652
 20
4.8238318554
 30
0.0
 10
5.4466805382
 20
4.8237971257
 30
0.0
 10
5.4464098342
 20
4.8237517509
 30
0.0
 10
5.4461050175
 20
4.8237020401
 30
0.0
 10
5.4457689567
 20
4.8236483927
 30
0.0
 10
5.4454048389
 20
4.8235915791
 30
0.0
 10
5.4450161849
 20
4.8235323896
 30
0.0
 10
5.444606553
 20
4.8234721686
 30
0.0
 10
5.4441798932
 20
4.8234112272
 30
0.0
 10
5.443588934
 20
4.8233294667
 30
0.0
 10
5.4428387039
 20
4.823231166
 30
0.0
 10
5.4419442687
 20
4.8231233223
 30
0.0
 10
5.4412135593
 20
4.8230413382
 30
0.0
 10
5.4406541617
 20
4.8229823473
 30
0.0
 10
5.4402631874
 20
4.8229427024
 30
0.0
 10
5.4398966866
 20
4.8229068016
 30
0.0
 10
5.4395583298
 20
4.8228749324
 30
0.0
 10
5.4392516029
 20
4.8228472702
 30
0.0
 10
5.4389796076
 20
4.8228233266
 30
0.0
 10
5.4387758215
 20
4.8228058219
 30
0.0
 10
5.4386319915
 20
4.8227937389
 30
0.0
 10
5.4385391754
 20
4.8227860492
 30
0.0
 10
5.4384567771
 20
4.8227793134
 30
0.0
 10
5.4383849689
 20
4.8227734944
 30
0.0
 10
5.4383238606
 20
4.8227685454
 30
0.0
 10
5.4382796708
 20
4.8227649767
 30
0.0
 10
5.4382497595
 20
4.8227625796
 30
0.0
 10
5.4382314624
 20
4.8227611193
 30
0.0
 10
5.4382159755
 20
4.8227598939
 30
0.0
 10
5.4382033282
 20
4.8227588866
 30
0.0
 10
5.4381935466
 20
4.822758142
 30
0.0
 10
5.4381871563
 20
4.8227575956
 30
0.0
 10
5.4381834882
 20
4.8227573745
 30
0.0
 10
5.4381817369
 20
4.8227571351
 30
0.0
 10
5.4381807657
 20
4.8227572429
 30
0.0
 10
5.4381802509
 20
4.8227570147
 30
0.0
 10
5.4381801613
 20
4.8227570852
 30
0.0
  0
LINE
  5
2E9
100
AcDbEntity
  8
0
100
AcDbLine
 62
7
  6
CONTINUOUS
 10
4.3951821671
 20
4.8307743915
 11
4.373308299
 21
4.8136076694
  0
SPLINE
  5
2EA
100
AcDbEntity
  8
0
100
AcDbSpline
 62
7
  6
CONTINUOUS
 70
0
 71
3
 72
17
 73
13
 74
0
 42
0.0000001
 43
0.0000001
 44
0.0000000001
 40
0.0
 40
0.0
 40
0.0
 40
0.0
 40
0.1138981834
 40
0.2306007475
 40
0.2901425736
 40
0.3505288848
 40
0.4117973959
 40
0.4739754228
 40
0.6010421757
 40
0.7316031366
 40
0.8649961228
 40
1.0
 40
1.0
 40
1.0
 40
1.0
 10
4.395181512
 20
4.835160719
 30
0.0
 10
4.3932661905
 20
4.8367332049
 30
0.0
 10
4.3895236949
 20
4.8400858272
 30
0.0
 10
4.3852145873
 20
4.8447124684
 30
0.0
 10
4.3819854047
 20
4.8487246993
 30
0.0
 10
4.3796690818
 20
4.8519169793
 30
0.0
 10
4.3774898094
 20
4.8552732117
 30
0.0
 10
4.37477022
 20
4.8599992893
 30
0.0
 10
4.371809842
 20
4.8663144752
 30
0.0
 10
4.3691283855
 20
4.8744106197
 30
0.0
 10
4.3674418343
 20
4.8829485031
 30
0.0
 10
4.3670583506
 20
4.8887953244
 30
0.0
 10
4.367058299
 20
4.8917326694
 30
0.0
  0
SPLINE
  5
2EB
100
AcDbEntity
  8
0
100
AcDbSpline
 62
7
  6
CONTINUOUS
 70
0
 71
3
 72
17
 73
13
 74
0
 42
0.0000001
 43
0.0000001
 44
0.0000000001
 40
0.0
 40
0.0
 40
0.0
 40
0.0
 40
0.1145066636
 40
0.2308551898
 40
0.3495643243
 40
0.4712144289
 40
0.5964442673
 40
0.7259229336
 40
0.7924854714
 40
0.8603317729
 40
0.9295011997
 40
1.0
 40
1.0
 40
1.0
 40
1.0
 10
4.0459338219
 20
4.8178440255
 30
0.0
 10
4.0485507119
 20
4.8186640546
 30
0.0
 10
4.053755247
 20
4.820556087
 30
0.0
 10
4.0613366348
 20
4.8241349216
 30
0.0
 10
4.0686887317
 20
4.828512694
 30
0.0
 10
4.0757359291
 20
4.8337350091
 30
0.0
 10
4.0823803437
 20
4.8398514892
 30
0.0
 10
4.087429451
 20
4.8456828435
 30
0.0
 10
4.0911232265
 20
4.8508150569
 30
0.0
 10
4.0937205463
 20
4.8549453091
 30
0.0
 10
4.0960902481
 20
4.8593176397
 30
0.0
 10
4.0974852179
 20
4.8623612307
 30
0.0
 10
4.0981357717
 20
4.8639192692
 30
0.0
  0
SPLINE
  5
2EC
100
AcDbEntity
  8
0
100
AcDbSpline
 62
7
  6
CONTINUOUS
 70
0
 71
3
 72
15
 73
11
 74
0
 42
0.0000001
 43
0.0000001
 44
0.0000000001
 40
0.0
 40
0.0
 40
0.0
 40
0.0
 40
0.1275669771
 40
0.2542451022
 40
0.3800675289
 40
0.5051058009
 40
0.62946733
 40
0.7532910249
 40
0.8767411962
 40
1.0
 40
1.0
 40
1.0
 40
1.0
 10
5.209552797
 20
4.9151707061
 30
0.0
 10
5.2103143043
 20
4.9160737156
 30
0.0
 10
5.2119263315
 20
4.9177963982
 30
0.0
 10
5.2145921851
 20
4.920103581
 30
0.0
 10
5.2174695758
 20
4.9221009724
 30
0.0
 10
5.2205267788
 20
4.9237661782
 30
0.0
 10
5.2237303952
 20
4.9250808986
 30
0.0
 10
5.2270454474
 20
4.9260305467
 30
0.0
 10
5.230434994
 20
4.9266045912
 30
0.0
 10
5.2327215089
 20
4.9267326664
 30
0.0
 10
5.2338628527
 20
4.9267326683
 30
0.0
  0
ENDSEC
  0
SECTION
  2
OBJECTS
  0
DICTIONARY
  5
C
100
AcDbDictionary
280
0
281
1
  3
ACAD_GROUP
350
D
  3
ACAD_MLINESTYLE
350
17
  3
ACAD_LAYOUT
350
1A
  3
ACAD_PLOTSETTINGS
350
19
  3
ACAD_PLOTSTYLENAME
350
E
  0
DICTIONARY
  5
D
102
{ACAD_REACTORS
330
C
102
}
100
AcDbDictionary
280
0
281
1
  0
ACDBDICTIONARYWDFLT
  5
E
102
{ACAD_REACTORS
330
C
102
}
100
AcDbDictionary
281
1
  3
Normal
350
F
100
AcDbDictionaryWithDefault
340
F
  0
DICTIONARY
  5
17
102
{ACAD_REACTORS
330
C
102
}
100
AcDbDictionary
280
0
281
1
  3
Standard
350
18
  0
DICTIONARY
  5
19
102
{ACAD_REACTORS
330
C
102
}
100
AcDbDictionary
281
1
  0
DICTIONARY
  5
1A
102
{ACAD_REACTORS
330
C
102
}
100
AcDbDictionary
281
1
  3
Model
350
2ED
  3
Layout1
350
2EE
  0
ACDBPLACEHOLDER
  5
F
102
{ACAD_REACTORS
330
E
102
}
  0
MLINESTYLE
  5
18
102
{ACAD_REACTORS
330
17
102
}
100
AcDbMlineStyle
  2
STANDARD
 70
0
  3

 62
256
 51
90.0
 52
90.0
 71
2
 49
0.5
 62
256
  6
BYLAYER
 49
-0.5
 62
256
  6
BYLAYER
  0
LAYOUT
  5
2ED
102
{ACAD_REACTORS
330
1A
102
}
100
AcDbPlotSettings
  1

  2
none_device
  4
ANSI_A_(11.00_x_8.50_Inches)
  6

 40
0.0
 41
0.0
 42
0.0
 43
0.0
 44
279.4
 45
215.9
 46
0.0
 47
0.0
 48
0.0
 49
0.0
140
0.0
141
0.0
142
1.0
143
1.0
 70
1024
 72
0
 73
0
 74
0
  7

 75
0
147
1.0
148
0.0
149
0.0
100
AcDbLayout
  1
Model
 70
0
 71
0
 10
0.0
 20
0.0
 11
11.0
 21
8.5
 12
0.0
 22
0.0
 32
0.0
 14
0.0
 24
0.0
 34
0.0
 15
0.0
 25
0.0
 35
0.0
146
0.0
 13
0.0
 23
0.0
 33
0.0
 16
1.0
 26
0.0
 36
0.0
 17
0.0
 27
1.0
 37
0.0
 76
0
330
202
345
0
346
0
  0
LAYOUT
  5
2EE
102
{ACAD_REACTORS
330
1A
102
}
100
AcDbPlotSettings
  1

  2
none_device
  4
ANSI_A_(11.00_x_8.50_Inches)
  6

 40
0.0
 41
0.0
 42
0.0
 43
0.0
 44
279.4
 45
215.9
 46
0.0
 47
0.0
 48
0.0
 49
0.0
140
0.0
141
0.0
142
1.0
143
1.0
 70
0
 72
0
 73
0
 74
0
  7

 75
0
147
1.0
148
0.0
149
0.0
100
AcDbLayout
  1
Layout1
 70
0
 71
1
 10
0.0
 20
0.0
 11
11.0
 21
8.5
 12
0.0
 22
0.0
 32
0.0
 14
0.0
 24
0.0
 34
0.0
 15
0.0
 25
0.0
 35
0.0
146
0.0
 13
0.0
 23
0.0
 33
0.0
 16
1.0
 26
0.0
 36
0.0
 17
0.0
 27
1.0
 37
0.0
 76
0
330
203
345
0
346
0
  0
ENDSEC
  0
EOF
