999
DXF file: 1400-4283_top.dxf
999
Pro/ENGINEER 2019352 by Parametric Technology Corporation
  0
SECTION
  2
HEADER
  9
$ACADVER
  1
AC1032
  9
$DWGCODEPAGE
  3
ANSI_1252
  9
$EXTMAX
 10
11.0
 20
8.5
 30
0.0
  9
$EXTMIN
 10
0.0
 20
0.0
 30
0.0
  9
$LIMMIN
 10
0.0
 20
0.0
  9
$LIMMAX
 10
11.0
 20
8.5
  9
$VIEWCTR
 10
5.5
 20
4.25
  9
$VIEWSIZE
 40
8.5
  9
$CLAYER
  8
0
  9
$LTSCALE
 40
0.605
  9
$CELTYPE
  6
BYLAYER
  9
$DIMSCALE
 40
1.0
  9
$DIMASZ
 40
0.1
  9
$DIMEXO
 40
0.0625
  9
$DIMDLI
 40
0.418
  9
$DIMEXE
 40
0.125
  9
$DIMCEN
 40
0.099
  9
$DIMLFAC
 40
1.0
  9
$DIMBLK
  1
_FILLED
  9
$DIMALT
 70
1
  9
$DIMALTD
 70
2
  9
$DIMALTTD
 70
2
  9
$DIMALTF
 40
25.4
  9
$DIMTXT
 40
0.08
  9
$DIMTOL
 70
1
  9
$DIMLIM
 70
0
  9
$DIMTFAC
 40
1.0
  9
$DIMTP
 40
0.001
  9
$DIMTM
 40
0.001
  9
$DIMGAP
 40
0.09
  9
$DIMDSEP
 70
46
  9
$AUNITS
 70
0
  9
$PDMODE
 70
3
  9
$PDSIZE
 40
0.3125
  9
$HANDSEED
  5
2A6
  9
$TILEMODE
 70
1
  9
$MEASUREMENT
 70
0
  9
$INSUNITS
 70
1
  0
ENDSEC
  0
SECTION
  2
CLASSES
  0
CLASS
  1
ACDBDICTIONARYWDFLT
  2
AcDbDictionaryWithDefault
  3
AutoCAD 2000
 90
0
 91
1
280
0
281
0
  0
CLASS
  1
ACDBPLACEHOLDER
  2
AcDbPlaceHolder
  3
AutoCAD 2000
 90
0
 91
1
280
0
281
0
  0
CLASS
  1
LAYOUT
  2
AcDbLayout
  3
AutoCAD 2000
 90
0
 91
0
280
0
281
0
  0
ENDSEC
  0
SECTION
  2
TABLES
  0
TABLE
  2
VPORT
  5
8
100
AcDbSymbolTable
 70
2
  0
VPORT
  5
1F4
100
AcDbSymbolTableRecord
100
AcDbViewportTableRecord
  2
*ACTIVE
 70
0
 10
0.0
 20
0.0
 11
1.0
 21
1.0
 12
5.5
 22
4.25
 13
0.0
 23
0.0
 14
1.0
 24
1.0
 15
0.0
 25
0.0
 16
0.0
 26
0.0
 36
1.0
 17
0.0
 27
0.0
 37
0.0
 40
8.5
 41
1.2941176471
 42
50.0
 43
0.0
 44
0.0
 50
0.0
 51
0.0
 71
0
 72
100
 73
1
 74
1
 75
0
 76
0
 77
0
 78
0
  0
ENDTAB
  0
TABLE
  2
LTYPE
  5
5
100
AcDbSymbolTable
 70
6
  0
LTYPE
  5
14
100
AcDbSymbolTableRecord
100
AcDbLinetypeTableRecord
  2
BYBLOCK
 70
0
  3

 72
65
 73
0
 40
0.0
  0
LTYPE
  5
15
100
AcDbSymbolTableRecord
100
AcDbLinetypeTableRecord
  2
BYLAYER
 70
0
  3

 72
65
 73
0
 40
0.0
  0
LTYPE
  5
16
100
AcDbSymbolTableRecord
100
AcDbLinetypeTableRecord
  2
CONTINUOUS
 70
64
  3
Solid line
 72
65
 73
0
 40
0.0
  0
LTYPE
  5
1F5
100
AcDbSymbolTableRecord
100
AcDbLinetypeTableRecord
  2
CENTER
 70
64
  3
____ _ ____ _ ____ _ ____ _ ____ _ ____ _ ____
 72
65
 73
4
 40
0.6
 49
0.375
 74
0
 49
-0.075
 74
0
 49
0.075
 74
0
 49
-0.075
 74
0
  0
LTYPE
  5
1F6
100
AcDbSymbolTableRecord
100
AcDbLinetypeTableRecord
  2
HIDDEN
 70
64
  3
- - - - - - - - - - - - - - - - - - - -
 72
65
 73
2
 40
0.2
 49
0.1
 74
0
 49
-0.1
 74
0
  0
LTYPE
  5
1F7
100
AcDbSymbolTableRecord
100
AcDbLinetypeTableRecord
  2
PHANTOM
 70
64
  3
_____ _ _ _____ _ _ _____ _ _ _____
 72
65
 73
6
 40
0.8
 49
0.45
 74
0
 49
-0.05
 74
0
 49
0.1
 74
0
 49
-0.05
 74
0
 49
0.1
 74
0
 49
-0.05
 74
0
  0
LTYPE
  5
1F8
100
AcDbSymbolTableRecord
100
AcDbLinetypeTableRecord
  2
DOT
 70
64
  3
. . . . . . . . . . . . . . . . . . . .
 72
65
 73
2
 40
0.2
 49
0.1
 74
0
 49
-0.1
 74
0
  0
LTYPE
  5
1F9
100
AcDbSymbolTableRecord
100
AcDbLinetypeTableRecord
  2
DASHED
 70
64
  3
- - - - - - - - - - - - - - - - - - - -
 72
65
 73
2
 40
0.2
 49
0.1
 74
0
 49
-0.1
 74
0
  0
ENDTAB
  0
TABLE
  2
LAYER
  5
2
100
AcDbSymbolTable
 70
36
  0
LAYER
  5
10
100
AcDbSymbolTableRecord
100
AcDbLayerTableRecord
  2
0
 70
0
 62
7
  6
CONTINUOUS
370
-3
390
F
  0
LAYER
  5
1FA
100
AcDbSymbolTableRecord
100
AcDbLayerTableRecord
  2
DEFAULT_1
 70
0
 62
7
  6
CENTER
370
-3
390
F
  0
LAYER
  5
1FB
100
AcDbSymbolTableRecord
100
AcDbLayerTableRecord
  2
DEFAULT_2
 70
0
 62
8
  6
HIDDEN
370
-3
390
F
  0
LAYER
  5
1FC
100
AcDbSymbolTableRecord
100
AcDbLayerTableRecord
  2
DEFAULT_3
 70
0
 62
7
  6
PHANTOM
370
-3
390
F
  0
LAYER
  5
1FD
100
AcDbSymbolTableRecord
100
AcDbLayerTableRecord
  2
DEFAULT_COORDINATE_SYSTEM
 70
0
 62
7
  6
CONTINUOUS
370
-3
390
F
  0
LAYER
  5
1FE
100
AcDbSymbolTableRecord
100
AcDbLayerTableRecord
  2
DEFAULT_DATUM_AXES
 70
0
 62
7
  6
CONTINUOUS
370
-3
390
F
  0
LAYER
  5
1FF
100
AcDbSymbolTableRecord
100
AcDbLayerTableRecord
  2
DEFAULT_DATUM_PLANES
 70
0
 62
7
  6
CONTINUOUS
370
-3
390
F
  0
ENDTAB
  0
TABLE
  2
STYLE
  5
3
100
AcDbSymbolTable
 70
1
  0
STYLE
  5
11
100
AcDbSymbolTableRecord
100
AcDbTextStyleTableRecord
  2
STANDARD
 70
0
 40
0.0
 41
0.8
 50
0.0
 71
0
 42
0.2
  3
txt
  4

  0
STYLE
  5
200
100
AcDbSymbolTableRecord
100
AcDbTextStyleTableRecord
  2
TEXTSTYLE_1
 70
0
 40
0.0
 41
0.8
 50
0.0
 71
0
 42
0.2
  3
gdt
  4

  0
ENDTAB
  0
TABLE
  2
VIEW
  5
6
100
AcDbSymbolTable
 70
0
  0
ENDTAB
  0
TABLE
  2
UCS
  5
7
100
AcDbSymbolTable
 70
0
  0
ENDTAB
  0
TABLE
  2
APPID
  5
9
100
AcDbSymbolTable
 70
1
  0
APPID
  5
201
100
AcDbSymbolTableRecord
100
AcDbRegAppTableRecord
  2
ACAD
 70
0
  0
ENDTAB
  0
TABLE
  2
BLOCK_RECORD
  5
1
100
AcDbSymbolTable
 70
0
  0
BLOCK_RECORD
  5
202
100
AcDbSymbolTableRecord
100
AcDbBlockTableRecord
  2
*Model_Space
  0
BLOCK_RECORD
  5
203
100
AcDbSymbolTableRecord
100
AcDbBlockTableRecord
  2
*Paper_Space
  0
BLOCK_RECORD
  5
204
100
AcDbSymbolTableRecord
100
AcDbBlockTableRecord
  2
_FILLED
  0
ENDTAB
  0
TABLE
  2
DIMSTYLE
  5
A
100
AcDbSymbolTable
 70
1
100
AcDbDimStyleTable
 71
0
  0
DIMSTYLE
105
205
100
AcDbSymbolTableRecord
100
AcDbDimStyleTableRecord
  2
STANDARD
 70
0
  3

  4

 40
1.0
 41
0.1
 42
0.0625
 43
0.38
 44
0.125
 45
0.0
 46
0.0
 47
0.001
 48
0.001
140
0.08
141
0.09
142
0.0
143
25.4
144
1.0
145
0.0
146
1.0
147
0.09
 71
1.0
 72
0.0
 73
1
 74
1
 75
0
 76
0
 77
0
 78
4
 79
1
170
1
171
2
172
0
173
0
174
0
175
0
176
0
177
0
178
0
270
2
179
3
271
3
272
3
273
2
274
2
275
0
280
0
281
0
282
0
283
1
284
4
285
0
286
0
287
3
288
0
340
11
278
46
341
204
342
204
343
204
344
204
  0
ENDTAB
  0
ENDSEC
  0
SECTION
  2
BLOCKS
  0
BLOCK
  5
20
100
AcDbEntity
  8
0
100
AcDbBlockBegin
  2
*Model_Space
 70
0
 10
0.0
 20
0.0
 30
0.0
  3
*Model_Space
  1

  0
ENDBLK
  5
21
100
AcDbEntity
  8
0
100
AcDbBlockEnd
  0
BLOCK
  5
1C
100
AcDbEntity
  8
0
100
AcDbBlockBegin
  2
*Paper_Space
 70
0
 10
0.0
 20
0.0
 30
0.0
  3
*Paper_Space
  1

  0
ENDBLK
  5
1D
100
AcDbEntity
  8
0
100
AcDbBlockEnd
  0
BLOCK
  5
206
100
AcDbEntity
  8
0
100
AcDbBlockBegin
  2
_FILLED
 70
64
 10
0.0
 20
0.0
  3
_FILLED
  1

  0
SOLID
  5
207
100
AcDbEntity
  8
0
  6
BYBLOCK
 62
0
100
AcDbTrace
 10
0.0
 20
0.0
 11
-1.0
 21
0.2
 12
-1.0
 22
-0.2
 13
-1.0
 23
-0.2
  0
ENDBLK
  5
208
100
AcDbEntity
  8
0
  6
BYBLOCK
 62
0
100
AcDbBlockEnd
  0
ENDSEC
  0
SECTION
  2
ENTITIES
  0
MTEXT
  5
209
100
AcDbEntity
  8
0
100
AcDbMText
 62
2
  6
CONTINUOUS
  7
STANDARD
 71
3
 72
1
 10
5.6309624233
 20
2.9233397239
 30
0.0
 11
1.0
 21
0.0
 31
0.0
 73
2
 44
0.9
  1
SCALE 0.175
 40
0.08
 41
0.704
  0
LINE
  5
20A
100
AcDbEntity
  8
0
100
AcDbLine
 62
7
  6
CONTINUOUS
 10
0.0
 20
0.0
 11
0.0
 21
8.5
  0
LINE
  5
20B
100
AcDbEntity
  8
0
100
AcDbLine
 62
7
  6
CONTINUOUS
 10
0.0
 20
0.0
 11
11.0
 21
0.0
  0
LINE
  5
20C
100
AcDbEntity
  8
0
100
AcDbLine
 62
7
  6
CONTINUOUS
 10
0.0
 20
8.5
 11
11.0
 21
8.5
  0
LINE
  5
20D
100
AcDbEntity
  8
0
100
AcDbLine
 62
7
  6
CONTINUOUS
 10
11.0
 20
0.0
 11
11.0
 21
8.5
  0
LINE
  5
20E
100
AcDbEntity
  8
0
100
AcDbLine
 62
7
  6
CONTINUOUS
 10
4.0161266533
 20
5.0282335123
 11
4.0161266533
 21
5.1306085123
  0
LINE
  5
20F
100
AcDbEntity
  8
0
100
AcDbLine
 62
7
  6
CONTINUOUS
 10
4.0196266533
 20
5.0247335123
 11
4.0196266533
 21
5.1341085123
  0
LINE
  5
210
100
AcDbEntity
  8
0
100
AcDbLine
 62
7
  6
CONTINUOUS
 10
4.0161266533
 20
5.1306085122
 11
4.0196266533
 21
5.1341085122
  0
LINE
  5
211
100
AcDbEntity
  8
0
100
AcDbLine
 62
7
  6
CONTINUOUS
 10
4.3313891533
 20
5.6402960123
 11
4.3313891533
 21
5.7094210123
  0
LINE
  5
212
100
AcDbEntity
  8
0
100
AcDbLine
 62
7
  6
CONTINUOUS
 10
4.4298266533
 20
5.1341085123
 11
4.4298266533
 21
5.6350460123
  0
LINE
  5
213
100
AcDbEntity
  8
0
100
AcDbLine
 62
7
  6
CONTINUOUS
 10
4.6485766533
 20
5.1887960123
 11
4.6485766533
 21
5.6350460123
  0
LINE
  5
214
100
AcDbEntity
  8
0
100
AcDbLine
 62
7
  6
CONTINUOUS
 10
4.6942516533
 20
5.0282335123
 11
4.6907516533
 21
5.0247335123
  0
LINE
  5
215
100
AcDbEntity
  8
0
100
AcDbLine
 62
7
  6
CONTINUOUS
 10
5.0670891533
 20
3.8106710123
 11
5.2420891533
 21
3.8106710123
  0
LINE
  5
216
100
AcDbEntity
  8
0
100
AcDbLine
 62
7
  6
CONTINUOUS
 10
4.6907516533
 20
5.1341085123
 11
4.6907516533
 21
5.0247335123
  0
LINE
  5
217
100
AcDbEntity
  8
0
100
AcDbLine
 62
7
  6
CONTINUOUS
 10
4.6942516533
 20
5.1306085123
 11
4.6942516533
 21
5.0282335123
  0
LINE
  5
218
100
AcDbEntity
  8
0
100
AcDbLine
 62
7
  6
CONTINUOUS
 10
4.7470141533
 20
5.6402960123
 11
4.7470141533
 21
5.7094210123
  0
LINE
  5
219
100
AcDbEntity
  8
0
100
AcDbLine
 62
7
  6
CONTINUOUS
 10
4.0161266533
 20
5.0282335123
 11
4.0196266533
 21
5.0247335123
  0
LINE
  5
21A
100
AcDbEntity
  8
0
100
AcDbLine
 62
7
  6
CONTINUOUS
 10
5.0539641533
 20
4.9525460123
 11
5.0539641533
 21
4.8387960123
  0
LINE
  5
21B
100
AcDbEntity
  8
0
100
AcDbLine
 62
7
  6
CONTINUOUS
 10
5.0670891533
 20
3.5044210123
 11
5.0670891533
 21
5.0794210123
  0
LINE
  5
21C
100
AcDbEntity
  8
0
100
AcDbLine
 62
7
  6
CONTINUOUS
 10
5.2420891533
 20
3.5044210123
 11
5.2420891533
 21
5.0794210123
  0
LINE
  5
21D
100
AcDbEntity
  8
0
100
AcDbLine
 62
7
  6
CONTINUOUS
 10
5.2552141533
 20
4.9525460123
 11
5.2552141533
 21
4.8387960123
  0
LINE
  5
21E
100
AcDbEntity
  8
0
100
AcDbLine
 62
7
  6
CONTINUOUS
 10
5.6149266533
 20
5.1306085122
 11
5.6184266533
 21
5.1341085122
  0
LINE
  5
21F
100
AcDbEntity
  8
0
100
AcDbLine
 62
7
  6
CONTINUOUS
 10
4.6942516533
 20
5.1306085122
 11
4.6907516533
 21
5.1341085122
  0
LINE
  5
220
100
AcDbEntity
  8
0
100
AcDbLine
 62
7
  6
CONTINUOUS
 10
5.5621641533
 20
5.6402960123
 11
5.5621641533
 21
5.7094210123
  0
LINE
  5
221
100
AcDbEntity
  8
0
100
AcDbLine
 62
7
  6
CONTINUOUS
 10
6.6099878665
 20
5.140082777
 11
6.6056193283
 21
5.1371710123
  0
LINE
  5
222
100
AcDbEntity
  8
0
100
AcDbLine
 62
7
  6
CONTINUOUS
 10
5.0670891533
 20
4.7731710123
 11
5.2420891533
 21
4.7731710123
  0
LINE
  5
223
100
AcDbEntity
  8
0
100
AcDbLine
 62
7
  6
CONTINUOUS
 10
5.6149266533
 20
5.0282335123
 11
5.6149266533
 21
5.1306085123
  0
LINE
  5
224
100
AcDbEntity
  8
0
100
AcDbLine
 62
7
  6
CONTINUOUS
 10
5.6184266533
 20
5.0247335123
 11
5.6184266533
 21
5.1341085123
  0
LINE
  5
225
100
AcDbEntity
  8
0
100
AcDbLine
 62
7
  6
CONTINUOUS
 10
5.6606016533
 20
5.1887960123
 11
5.6606016533
 21
5.6350460123
  0
LINE
  5
226
100
AcDbEntity
  8
0
100
AcDbLine
 62
7
  6
CONTINUOUS
 10
6.2930516534
 20
5.0282335123
 11
6.2895516534
 21
5.0247335123
  0
LINE
  5
227
100
AcDbEntity
  8
0
100
AcDbLine
 62
7
  6
CONTINUOUS
 10
5.0539641533
 20
4.8387960123
 11
5.0670891533
 21
4.8387960123
  0
LINE
  5
228
100
AcDbEntity
  8
0
100
AcDbLine
 62
7
  6
CONTINUOUS
 10
5.2420891533
 20
4.8387960123
 11
5.2552141533
 21
4.8387960123
  0
LINE
  5
229
100
AcDbEntity
  8
0
100
AcDbLine
 62
7
  6
CONTINUOUS
 10
5.7699472361
 20
4.9700460123
 11
5.2727141533
 21
4.9700460123
  0
LINE
  5
22A
100
AcDbEntity
  8
0
100
AcDbLine
 62
7
  6
CONTINUOUS
 10
5.0364641533
 20
4.9700460123
 11
4.5394215087
 21
4.9700460123
  0
LINE
  5
22B
100
AcDbEntity
  8
0
100
AcDbLine
 62
7
  6
CONTINUOUS
 10
6.6056193283
 20
5.0216710123
 11
6.5847110348
 21
5.0216710123
  0
LINE
  5
22C
100
AcDbEntity
  8
0
100
AcDbLine
 62
7
  6
CONTINUOUS
 10
6.2895516533
 20
5.0247335123
 11
5.6184266533
 21
5.0247335123
  0
LINE
  5
22D
100
AcDbEntity
  8
0
100
AcDbLine
 62
7
  6
CONTINUOUS
 10
4.0196266533
 20
5.0247335123
 11
4.6907516533
 21
5.0247335123
  0
LINE
  5
22E
100
AcDbEntity
  8
0
100
AcDbLine
 62
7
  6
CONTINUOUS
 10
6.6056193283
 20
5.0269210123
 11
6.5889755922
 21
5.0269210123
  0
LINE
  5
22F
100
AcDbEntity
  8
0
100
AcDbLine
 62
7
  6
CONTINUOUS
 10
6.4137169568
 20
5.0304210123
 11
6.2930516533
 21
5.0304210123
  0
LINE
  5
230
100
AcDbEntity
  8
0
100
AcDbLine
 62
7
  6
CONTINUOUS
 10
6.5914685693
 20
5.0304210123
 11
6.6501721206
 21
5.0304210123
  0
LINE
  5
231
100
AcDbEntity
  8
0
100
AcDbLine
 62
7
  6
CONTINUOUS
 10
6.3221016533
 20
5.0312960123
 11
6.4074699271
 21
5.0312960123
  0
LINE
  5
232
100
AcDbEntity
  8
0
100
AcDbLine
 62
7
  6
CONTINUOUS
 10
6.2930516533
 20
5.0466085123
 11
6.3221016533
 21
5.0466085123
  0
LINE
  5
233
100
AcDbEntity
  8
0
100
AcDbLine
 62
7
  6
CONTINUOUS
 10
5.8793516533
 20
5.1341085123
 11
5.8793516533
 21
5.6350460123
  0
LINE
  5
234
100
AcDbEntity
  8
0
100
AcDbLine
 62
7
  6
CONTINUOUS
 10
6.4265694061
 20
5.1379352133
 11
6.4265975708
 21
5.137979578
  0
LINE
  5
235
100
AcDbEntity
  8
0
100
AcDbLine
 62
7
  6
CONTINUOUS
 10
6.4266019844
 20
5.1379864665
 11
6.4265484644
 21
5.1379035988
  0
LINE
  5
236
100
AcDbEntity
  8
0
100
AcDbLine
 62
7
  6
CONTINUOUS
 10
6.2930516533
 20
5.1122335123
 11
6.3221016533
 21
5.1122335123
  0
LINE
  5
237
100
AcDbEntity
  8
0
100
AcDbLine
 62
7
  6
CONTINUOUS
 10
6.3221016533
 20
5.1275460123
 11
6.4074699271
 21
5.1275460123
  0
LINE
  5
238
100
AcDbEntity
  8
0
100
AcDbLine
 62
7
  6
CONTINUOUS
 10
6.4137169568
 20
5.1284210123
 11
6.2930516533
 21
5.1284210123
  0
LINE
  5
239
100
AcDbEntity
  8
0
100
AcDbLine
 62
7
  6
CONTINUOUS
 10
6.5914685693
 20
5.1284210123
 11
6.6501721206
 21
5.1284210123
  0
LINE
  5
23A
100
AcDbEntity
  8
0
100
AcDbLine
 62
7
  6
CONTINUOUS
 10
6.5889755922
 20
5.1319210123
 11
6.6056193283
 21
5.1319210123
  0
LINE
  5
23B
100
AcDbEntity
  8
0
100
AcDbLine
 62
7
  6
CONTINUOUS
 10
6.2895516533
 20
5.1341085123
 11
5.6184266533
 21
5.1341085123
  0
LINE
  5
23C
100
AcDbEntity
  8
0
100
AcDbLine
 62
7
  6
CONTINUOUS
 10
4.0196266533
 20
5.1341085123
 11
4.6907516533
 21
5.1341085123
  0
LINE
  5
23D
100
AcDbEntity
  8
0
100
AcDbLine
 62
7
  6
CONTINUOUS
 10
6.5847110348
 20
5.1371710123
 11
6.6056193283
 21
5.1371710123
  0
LINE
  5
23E
100
AcDbEntity
  8
0
100
AcDbLine
 62
7
  6
CONTINUOUS
 10
5.6149266533
 20
5.0282335123
 11
5.6184266533
 21
5.0247335123
  0
LINE
  5
23F
100
AcDbEntity
  8
0
100
AcDbLine
 62
7
  6
CONTINUOUS
 10
5.9777891533
 20
5.6402960123
 11
5.9777891533
 21
5.7094210123
  0
LINE
  5
240
100
AcDbEntity
  8
0
100
AcDbLine
 62
7
  6
CONTINUOUS
 10
5.7697475848
 20
5.1887960123
 11
4.5392307345
 21
5.1887960123
  0
LINE
  5
241
100
AcDbEntity
  8
0
100
AcDbLine
 62
7
  6
CONTINUOUS
 10
6.2895516533
 20
5.1341085123
 11
6.2895516533
 21
5.0247335123
  0
LINE
  5
242
100
AcDbEntity
  8
0
100
AcDbLine
 62
7
  6
CONTINUOUS
 10
6.2930516533
 20
5.1306085123
 11
6.2930516533
 21
5.0282335123
  0
LINE
  5
243
100
AcDbEntity
  8
0
100
AcDbLine
 62
7
  6
CONTINUOUS
 10
6.4839766533
 20
4.9982658961
 11
6.4812415126
 21
4.9905970888
  0
LINE
  5
244
100
AcDbEntity
  8
0
100
AcDbLine
 62
7
  6
CONTINUOUS
 10
6.3221016533
 20
5.0312960123
 11
6.3221016533
 21
5.1275460123
  0
LINE
  5
245
100
AcDbEntity
  8
0
100
AcDbLine
 62
7
  6
CONTINUOUS
 10
6.4841204031
 20
4.9991649587
 11
6.4839766533
 21
4.9982658961
  0
LINE
  5
246
100
AcDbEntity
  8
0
100
AcDbLine
 62
7
  6
CONTINUOUS
 10
6.5137647457
 20
4.9920769926
 11
6.5137441531
 21
4.9919726789
  0
LINE
  5
247
100
AcDbEntity
  8
0
100
AcDbLine
 62
7
  6
CONTINUOUS
 10
6.5732266533
 20
5.0081316252
 11
6.5701327287
 21
4.9962940329
  0
LINE
  5
248
100
AcDbEntity
  8
0
100
AcDbLine
 62
7
  6
CONTINUOUS
 10
6.5434591536
 20
4.9949266439
 11
6.540303026
 21
4.9845054235
  0
LINE
  5
249
100
AcDbEntity
  8
0
100
AcDbLine
 62
7
  6
CONTINUOUS
 10
6.5137441531
 20
4.9919726789
 11
6.5106685461
 21
4.9828551945
  0
LINE
  5
24A
100
AcDbEntity
  8
0
100
AcDbLine
 62
7
  6
CONTINUOUS
 10
5.9725391533
 20
5.6350460123
 11
5.5674141533
 21
5.6350460123
  0
LINE
  5
24B
100
AcDbEntity
  8
0
100
AcDbLine
 62
7
  6
CONTINUOUS
 10
4.7417641533
 20
5.6350460123
 11
4.3366391533
 21
5.6350460123
  0
LINE
  5
24C
100
AcDbEntity
  8
0
100
AcDbLine
 62
7
  6
CONTINUOUS
 10
6.6056193283
 20
5.0216710123
 11
6.6099878665
 21
5.0187592476
  0
LINE
  5
24D
100
AcDbEntity
  8
0
100
AcDbLine
 62
7
  6
CONTINUOUS
 10
6.2930516534
 20
5.1306085122
 11
6.2895516534
 21
5.1341085122
  0
LINE
  5
24E
100
AcDbEntity
  8
0
100
AcDbLine
 62
7
  6
CONTINUOUS
 10
6.464439985
 20
5.0109974752
 11
6.4647266533
 21
5.0081316252
  0
LINE
  5
24F
100
AcDbEntity
  8
0
100
AcDbLine
 62
7
  6
CONTINUOUS
 10
6.5735133216
 20
5.0109974752
 11
6.5732266533
 21
5.0081316252
  0
LINE
  5
250
100
AcDbEntity
  8
0
100
AcDbLine
 62
7
  6
CONTINUOUS
 10
6.5435482999
 20
4.9954435241
 11
6.5434591536
 21
4.9949266439
  0
LINE
  5
251
100
AcDbEntity
  8
0
100
AcDbLine
 62
7
  6
CONTINUOUS
 10
5.9777891533
 20
5.6402960123
 11
5.5621641533
 21
5.6402960123
  0
LINE
  5
252
100
AcDbEntity
  8
0
100
AcDbLine
 62
7
  6
CONTINUOUS
 10
4.7470141533
 20
5.6402960123
 11
4.3313891533
 21
5.6402960123
  0
LINE
  5
253
100
AcDbEntity
  8
0
100
AcDbLine
 62
7
  6
CONTINUOUS
 10
4.3313891533
 20
5.7094210123
 11
4.7470141533
 21
5.7094210123
  0
LINE
  5
254
100
AcDbEntity
  8
0
100
AcDbLine
 62
7
  6
CONTINUOUS
 10
5.5621641533
 20
5.7094210123
 11
5.9777891533
 21
5.7094210123
  0
LINE
  5
255
100
AcDbEntity
  8
0
100
AcDbLine
 62
7
  6
CONTINUOUS
 10
6.426548463
 20
5.020938428
 11
6.4266000881
 21
5.0208585011
  0
LINE
  5
256
100
AcDbEntity
  8
0
100
AcDbLine
 62
7
  6
CONTINUOUS
 10
6.4265954561
 20
5.0208657364
 11
6.4266019031
 21
5.0208556837
  0
LINE
  5
257
100
AcDbEntity
  8
0
100
AcDbLine
 62
7
  6
CONTINUOUS
 10
6.4647266533
 20
5.0081316252
 11
6.4678205779
 21
4.9962940328
  0
LINE
  5
258
100
AcDbEntity
  8
0
100
AcDbLine
 62
7
  6
CONTINUOUS
 10
6.6056193283
 20
5.1371710123
 11
6.6056193283
 21
5.1319210123
  0
LINE
  5
259
100
AcDbEntity
  8
0
100
AcDbLine
 62
7
  6
CONTINUOUS
 10
6.6056193283
 20
5.0269210123
 11
6.6056193283
 21
5.0216710123
  0
LINE
  5
25A
100
AcDbEntity
  8
0
100
AcDbLine
 62
7
  6
CONTINUOUS
 10
6.5539766533
 20
4.9982658961
 11
6.5567117941
 21
4.9905970887
  0
LINE
  5
25B
100
AcDbEntity
  8
0
100
AcDbLine
 62
7
  6
CONTINUOUS
 10
6.5242091536
 20
4.9919726789
 11
6.5272847605
 21
4.9828551945
  0
LINE
  5
25C
100
AcDbEntity
  8
0
100
AcDbLine
 62
7
  6
CONTINUOUS
 10
6.4944941531
 20
4.9949266439
 11
6.4976502807
 21
4.9845054235
  0
LINE
  5
25D
100
AcDbEntity
  8
0
100
AcDbLine
 62
7
  6
CONTINUOUS
 10
6.524188561
 20
4.9920769926
 11
6.5242091536
 21
4.9919726789
  0
LINE
  5
25E
100
AcDbEntity
  8
0
100
AcDbLine
 62
7
  6
CONTINUOUS
 10
6.4944050067
 20
4.9954435241
 11
6.4944941531
 21
4.9949266439
  0
LINE
  5
25F
100
AcDbEntity
  8
0
100
AcDbLine
 62
7
  6
CONTINUOUS
 10
6.5538329036
 20
4.9991649587
 11
6.5539766533
 21
4.9982658961
  0
ARC
  5
260
100
AcDbEntity
  8
0
100
AcDbCircle
 62
7
  6
CONTINUOUS
 10
5.1545891533
 20
3.5044210123
 40
0.0875
100
AcDbArc
 50
180.0
 51
360.0
  0
ARC
  5
261
100
AcDbEntity
  8
0
100
AcDbCircle
 62
7
  6
CONTINUOUS
 10
5.1545891533
 20
5.0794210123
 40
0.109375
100
AcDbArc
 50
323.1315822431
 51
216.869862756
  0
ARC
  5
262
100
AcDbEntity
  8
0
100
AcDbCircle
 62
7
  6
CONTINUOUS
 10
4.5392016533
 20
5.0794210123
 40
0.109375
100
AcDbArc
 50
30.0006582252
 51
149.9993417748
  0
ARC
  5
263
100
AcDbEntity
  8
0
100
AcDbCircle
 62
7
  6
CONTINUOUS
 10
4.5392016533
 20
5.0794210123
 40
0.109375
100
AcDbArc
 50
210.0006582252
 51
329.9993417748
  0
ARC
  5
264
100
AcDbEntity
  8
0
100
AcDbCircle
 62
7
  6
CONTINUOUS
 10
5.1545891533
 20
5.0794210123
 40
0.104125
100
AcDbArc
 50
327.1768409039
 51
212.8231590798
  0
ARC
  5
265
100
AcDbEntity
  8
0
100
AcDbCircle
 62
7
  6
CONTINUOUS
 10
4.5392016533
 20
5.0794210123
 40
0.104125
100
AcDbArc
 50
31.68303035
 51
148.3169696504
  0
ARC
  5
266
100
AcDbEntity
  8
0
100
AcDbCircle
 62
7
  6
CONTINUOUS
 10
4.5392016533
 20
5.0794210123
 40
0.104125
100
AcDbArc
 50
211.68303035
 51
328.3169696504
  0
ARC
  5
267
100
AcDbEntity
  8
0
100
AcDbCircle
 62
7
  6
CONTINUOUS
 10
5.1545891533
 20
5.0794210123
 40
0.0875
100
AcDbArc
 50
0.0
 51
180.0
  0
ARC
  5
268
100
AcDbEntity
  8
0
100
AcDbCircle
 62
7
  6
CONTINUOUS
 10
5.0364641533
 20
4.9525460123
 40
0.0175
100
AcDbArc
 50
0.0
 51
90.0000000004
  0
ARC
  5
269
100
AcDbEntity
  8
0
100
AcDbCircle
 62
7
  6
CONTINUOUS
 10
5.2727133502
 20
4.9525467903
 40
0.017499881
100
AcDbArc
 50
89.9973704479
 51
180.0025474063
  0
ARC
  5
26A
100
AcDbEntity
  8
0
100
AcDbCircle
 62
7
  6
CONTINUOUS
 10
4.3366391533
 20
5.6402960123
 40
0.00525
100
AcDbArc
 50
180.0
 51
270.0
  0
ARC
  5
26B
100
AcDbEntity
  8
0
100
AcDbCircle
 62
7
  6
CONTINUOUS
 10
4.7417641533
 20
5.6402960123
 40
0.00525
100
AcDbArc
 50
270.0
 51
360.0
  0
ARC
  5
26C
100
AcDbEntity
  8
0
100
AcDbCircle
 62
7
  6
CONTINUOUS
 10
5.7699766533
 20
5.0794210123
 40
0.109375
100
AcDbArc
 50
210.0006911316
 51
329.9993088684
  0
ARC
  5
26D
100
AcDbEntity
  8
0
100
AcDbCircle
 62
7
  6
CONTINUOUS
 10
5.7699766533
 20
5.0794210123
 40
0.109375
100
AcDbArc
 50
30.0006911316
 51
149.9993088684
  0
ARC
  5
26E
100
AcDbEntity
  8
0
100
AcDbCircle
 62
7
  6
CONTINUOUS
 10
5.7699766533
 20
5.0794210123
 40
0.104125
100
AcDbArc
 50
211.6829662897
 51
328.3170337108
  0
ARC
  5
26F
100
AcDbEntity
  8
0
100
AcDbCircle
 62
7
  6
CONTINUOUS
 10
5.7699766533
 20
5.0794210123
 40
0.104125
100
AcDbArc
 50
31.6829662897
 51
148.3170337108
  0
ARC
  5
270
100
AcDbEntity
  8
0
100
AcDbCircle
 62
7
  6
CONTINUOUS
 10
5.5674141533
 20
5.6402960123
 40
0.00525
100
AcDbArc
 50
180.0
 51
270.0
  0
ARC
  5
271
100
AcDbEntity
  8
0
100
AcDbCircle
 62
7
  6
CONTINUOUS
 10
5.9725391533
 20
5.6402960123
 40
0.00525
100
AcDbArc
 50
270.0
 51
360.0
  0
ARC
  5
272
100
AcDbEntity
  8
0
100
AcDbCircle
 62
7
  6
CONTINUOUS
 10
6.4074699271
 20
5.0085460123
 40
0.02275
100
AcDbArc
 50
32.4405244247
 51
32.988121755
  0
ARC
  5
273
100
AcDbEntity
  8
0
100
AcDbCircle
 62
7
  6
CONTINUOUS
 10
6.4074699271
 20
5.0085460123
 40
0.02275
100
AcDbArc
 50
33.0056387786
 51
90.0000000001
  0
ARC
  5
274
100
AcDbEntity
  8
0
100
AcDbCircle
 62
7
  6
CONTINUOUS
 10
6.4989901797
 20
4.9849112198
 40
0.0014
100
AcDbArc
 50
196.8492439121
 51
258.0525623664
  0
ARC
  5
275
100
AcDbEntity
  8
0
100
AcDbCircle
 62
7
  6
CONTINUOUS
 10
6.4799228715
 20
4.9910673925
 40
0.0014
100
AcDbArc
 50
246.1537673741
 51
340.3708257369
  0
ARC
  5
276
100
AcDbEntity
  8
0
100
AcDbCircle
 62
7
  6
CONTINUOUS
 10
6.5093419889
 20
4.9833026829
 40
0.0014
100
AcDbArc
 50
264.2819240388
 51
341.3591723378
  0
ARC
  5
277
100
AcDbEntity
  8
0
100
AcDbCircle
 62
7
  6
CONTINUOUS
 10
6.5286113178
 20
4.9833026829
 40
0.0014
100
AcDbArc
 50
198.6408276687
 51
275.724067847
  0
ARC
  5
278
100
AcDbEntity
  8
0
100
AcDbCircle
 62
7
  6
CONTINUOUS
 10
6.4691750782
 20
4.996648051
 40
0.0014
100
AcDbArc
 50
194.6474175816
 51
238.9661592905
  0
ARC
  5
279
100
AcDbEntity
  8
0
100
AcDbCircle
 62
7
  6
CONTINUOUS
 10
6.4074699271
 20
5.1502960123
 40
0.02275
100
AcDbArc
 50
327.0118354404
 51
327.5594755753
  0
ARC
  5
27A
100
AcDbEntity
  8
0
100
AcDbCircle
 62
7
  6
CONTINUOUS
 10
6.4074699271
 20
5.1502960123
 40
0.02275
100
AcDbArc
 50
269.9999999999
 51
326.994129045
  0
ARC
  5
27B
100
AcDbEntity
  8
0
100
AcDbCircle
 62
7
  6
CONTINUOUS
 10
6.5189766533
 20
5.0794210123
 40
0.109375
100
AcDbArc
 50
33.6846726125
 51
326.3153273875
  0
ARC
  5
27C
100
AcDbEntity
  8
0
100
AcDbCircle
 62
7
  6
CONTINUOUS
 10
6.5189766533
 20
5.0794210123
 40
0.104125
100
AcDbArc
 50
33.684672613
 51
326.3153273869
  0
ARC
  5
27D
100
AcDbEntity
  8
0
100
AcDbCircle
 62
7
  6
CONTINUOUS
 10
6.5189767809
 20
5.0902718439
 40
0.0984383373
100
AcDbArc
 50
255.5987928153
 51
266.9529263764
  0
ARC
  5
27E
100
AcDbEntity
  8
0
100
AcDbCircle
 62
7
  6
CONTINUOUS
 10
6.5189765257
 20
5.0902718439
 40
0.0984383373
100
AcDbArc
 50
273.0470736236
 51
284.4012071847
  0
ARC
  5
27F
100
AcDbEntity
  8
0
100
AcDbCircle
 62
7
  6
CONTINUOUS
 10
6.5189766593
 20
5.0902710789
 40
0.098437557
100
AcDbArc
 50
236.5567451768
 51
249.1725135872
  0
ARC
  5
280
100
AcDbEntity
  8
0
100
AcDbCircle
 62
7
  6
CONTINUOUS
 10
6.5189766473
 20
5.0902710789
 40
0.098437557
100
AcDbArc
 50
290.8274864128
 51
303.4432548232
  0
ARC
  5
281
100
AcDbEntity
  8
0
100
AcDbCircle
 62
7
  6
CONTINUOUS
 10
6.5189766533
 20
5.0794210123
 40
0.098
100
AcDbArc
 50
293.8462325994
 51
301.0338407167
  0
ARC
  5
282
100
AcDbEntity
  8
0
100
AcDbCircle
 62
7
  6
CONTINUOUS
 10
6.5189766533
 20
5.0794210123
 40
0.098
100
AcDbArc
 50
275.724067847
 51
281.9407056562
  0
ARC
  5
283
100
AcDbEntity
  8
0
100
AcDbCircle
 62
7
  6
CONTINUOUS
 10
6.5189766533
 20
5.0794210123
 40
0.098
100
AcDbArc
 50
258.0592943438
 51
264.2759321531
  0
ARC
  5
284
100
AcDbEntity
  8
0
100
AcDbCircle
 62
7
  6
CONTINUOUS
 10
6.5189766533
 20
5.0794210123
 40
0.098
100
AcDbArc
 50
238.9661592833
 51
246.1537674006
  0
CIRCLE
  5
285
100
AcDbEntity
  8
0
100
AcDbCircle
 62
7
  6
CONTINUOUS
 10
6.5189766533
 20
5.0794210123
 40
0.0875
  0
ARC
  5
286
100
AcDbEntity
  8
0
100
AcDbCircle
 62
7
  6
CONTINUOUS
 10
6.5389631269
 20
4.9849112198
 40
0.0014
100
AcDbArc
 50
281.9469902602
 51
343.1507561468
  0
ARC
  5
287
100
AcDbEntity
  8
0
100
AcDbCircle
 62
7
  6
CONTINUOUS
 10
6.5580304352
 20
4.9910673925
 40
0.0014
100
AcDbArc
 50
199.629173168
 51
293.846232633
  0
ARC
  5
288
100
AcDbEntity
  8
0
100
AcDbCircle
 62
7
  6
CONTINUOUS
 10
6.5687782284
 20
4.996648051
 40
0.0014
100
AcDbArc
 50
301.0338407132
 51
345.3525838162
  0
ARC
  5
289
100
AcDbEntity
  8
0
100
AcDbCircle
 62
7
  6
CONTINUOUS
 10
6.6056193283
 20
5.0216710123
 40
0.00525
100
AcDbArc
 50
326.3153273875
 51
90.0
  0
ARC
  5
28A
100
AcDbEntity
  8
0
100
AcDbCircle
 62
7
  6
CONTINUOUS
 10
6.6501724269
 20
5.0794210123
 40
0.049
100
AcDbArc
 50
270.0
 51
90.0
  0
ARC
  5
28B
100
AcDbEntity
  8
0
100
AcDbCircle
 62
7
  6
CONTINUOUS
 10
6.6482698582
 20
5.0797199868
 40
0.0487010253
100
AcDbArc
 50
87.7631158732
 51
89.9998890253
  0
ARC
  5
28C
100
AcDbEntity
  8
0
100
AcDbCircle
 62
7
  6
CONTINUOUS
 10
6.6056193283
 20
5.1371710123
 40
0.00525
100
AcDbArc
 50
270.0
 51
33.6846726124
  0
SPLINE
  5
28D
100
AcDbEntity
  8
0
100
AcDbSpline
 62
7
  6
CONTINUOUS
 70
0
 71
3
 72
25
 73
21
 74
0
 42
0.0000001
 43
0.0000001
 44
0.0000000001
 40
0.0
 40
0.0
 40
0.0
 40
0.0
 40
0.070323999
 40
0.1390204473
 40
0.2062114926
 40
0.2720337271
 40
0.336627258
 40
0.4001287984
 40
0.4626686855
 40
0.524369216
 40
0.5853442342
 40
0.6456999291
 40
0.7055350862
 40
0.7649424321
 40
0.8240093745
 40
0.8828194852
 40
0.9121557185
 40
0.9414569301
 40
0.9707351178
 40
1.0
 40
1.0
 40
1.0
 40
1.0
 10
4.6430156432
 20
5.1341098024
 30
0.0
 10
4.6415076773
 20
5.1364927794
 30
0.0
 10
4.6383397335
 20
5.1410881628
 30
0.0
 10
4.6331357741
 20
5.1475238843
 30
0.0
 10
4.6275988157
 20
5.1534300014
 30
0.0
 10
4.6217821317
 20
5.1588204404
 30
0.0
 10
4.6157300957
 20
5.1637123309
 30
0.0
 10
4.6094801464
 20
5.1681233686
 30
0.0
 10
4.6030637714
 20
5.1720707568
 30
0.0
 10
4.5965076947
 20
5.1755705342
 30
0.0
 10
4.5898348136
 20
5.1786372947
 30
0.0
 10
4.5830649011
 20
5.1812838591
 30
0.0
 10
4.57621532
 20
5.1835213843
 30
0.0
 10
4.5693014408
 20
5.1853592473
 30
0.0
 10
4.5623372902
 20
5.186805091
 30
0.0
 10
4.5564973464
 20
5.1876891062
 30
0.0
 10
4.5518154905
 20
5.1882047504
 30
0.0
 10
4.5483016358
 20
5.188496065
 30
0.0
 10
4.5447841638
 20
5.18869308
 30
0.0
 10
4.5424372302
 20
5.1887618599
 30
0.0
 10
4.5412638388
 20
5.1887802386
 30
0.0
  0
SPLINE
  5
28E
100
AcDbEntity
  8
0
100
AcDbSpline
 62
7
  6
CONTINUOUS
 70
0
 71
3
 72
48
 73
44
 74
0
 42
0.0000001
 43
0.0000001
 44
0.0000000001
 40
0.0
 40
0.0
 40
0.0
 40
0.0
 40
0.1029765812
 40
0.2026372466
 40
0.2986318208
 40
0.3905827998
 40
0.478080194
 40
0.5606633671
 40
0.6378326465
 40
0.7090615434
 40
0.7422789769
 40
0.7738045931
 40
0.8035657674
 40
0.8314880896
 40
0.8574984611
 40
0.8815271829
 40
0.9035094975
 40
0.9233817727
 40
0.9410806081
 40
0.9565446803
 40
0.9634201885
 40
0.9697152575
 40
0.9754252281
 40
0.9805469431
 40
0.9850772258
 40
0.9890127168
 40
0.9923500213
 40
0.993793513
 40
0.9950867522
 40
0.99622967
 40
0.9972221982
 40
0.9980642671
 40
0.9987555907
 40
0.9990445205
 40
0.9992955139
 40
0.9995084842
 40
0.9996833449
 40
0.9998200096
 40
0.9999183923
 40
0.9999532014
 40
0.999978409
 40
0.9999940069
 40
1.0
 40
1.0
 40
1.0
 40
1.0
 10
5.0670879568
 20
4.9940796191
 30
0.0
 10
5.0660250853
 20
4.9932697164
 30
0.0
 10
5.0639364811
 20
4.991672163
 30
0.0
 10
5.0608665881
 20
4.9893072109
 30
0.0
 10
5.0579172599
 20
4.9870202293
 30
0.0
 10
5.0550987161
 20
4.9848221863
 30
0.0
 10
5.0524220821
 20
4.9827251884
 30
0.0
 10
5.049900589
 20
4.9807412048
 30
0.0
 10
5.047548608
 20
4.9788831929
 30
0.0
 10
5.0457018006
 20
4.9774191151
 30
0.0
 10
5.0443202071
 20
4.9763216371
 30
0.0
 10
5.0433604037
 20
4.975558304
 30
0.0
 10
5.0424547668
 20
4.9748372527
 30
0.0
 10
5.04160552
 20
4.9741602771
 30
0.0
 10
5.0408148279
 20
4.9735291844
 30
0.0
 10
5.0400847123
 20
4.9729457594
 30
0.0
 10
5.0394170122
 20
4.972411819
 30
0.0
 10
5.0388135614
 20
4.9719290549
 30
0.0
 10
5.0382762496
 20
4.9714990178
 30
0.0
 10
5.0378707167
 20
4.9711742333
 30
0.0
 10
5.037580819
 20
4.9709417905
 30
0.0
 10
5.0373897634
 20
4.9707884131
 30
0.0
 10
5.0372165311
 20
4.9706491877
 30
0.0
 10
5.037061188
 20
4.97052426
 30
0.0
 10
5.0369237898
 20
4.9704137617
 30
0.0
 10
5.0368044284
 20
4.9703177839
 30
0.0
 10
5.036716274
 20
4.9702469177
 30
0.0
 10
5.0366548275
 20
4.9701975528
 30
0.0
 10
5.0366155656
 20
4.97016604
 30
0.0
 10
5.0365808465
 20
4.9701382164
 30
0.0
 10
5.0365506674
 20
4.9701140896
 30
0.0
 10
5.0365250267
 20
4.9700936707
 30
0.0
 10
5.0365064879
 20
4.9700789903
 30
0.0
 10
5.0364939384
 20
4.9700691017
 30
0.0
 10
5.0364862545
 20
4.9700630675
 30
0.0
 10
5.0364797247
 20
4.9700579609
 30
0.0
 10
5.036474355
 20
4.9700537777
 30
0.0
 10
5.0364701468
 20
4.9700505274
 30
0.0
 10
5.0364673722
 20
4.9700483843
 30
0.0
 10
5.0364657293
 20
4.970047158
 30
0.0
 10
5.0364649506
 20
4.970046546
 30
0.0
 10
5.0364644459
 20
4.9700462343
 30
0.0
 10
5.0364642302
 20
4.9700460243
 30
0.0
 10
5.0364641533
 20
4.9700460123
 30
0.0
  0
SPLINE
  5
28F
100
AcDbEntity
  8
0
100
AcDbSpline
 62
7
  6
CONTINUOUS
 70
0
 71
3
 72
27
 73
23
 74
0
 42
0.0000001
 43
0.0000001
 44
0.0000000001
 40
0.0
 40
0.0
 40
0.0
 40
0.0
 40
0.0566176523
 40
0.1138872865
 40
0.1718599146
 40
0.2305836794
 40
0.2901059284
 40
0.3504720918
 40
0.4117198601
 40
0.4738767197
 40
0.5369562979
 40
0.6009518328
 40
0.6332874361
 40
0.665837456
 40
0.6985928709
 40
0.7315423411
 40
0.7646721477
 40
0.7979662756
 40
0.8649635443
 40
0.8986323524
 40
0.9323799773
 40
1.0
 40
1.0
 40
1.0
 40
1.0
 10
5.0670887096
 20
5.0002185908
 30
0.0
 10
5.0657552647
 20
5.0013133027
 30
0.0
 10
5.0631197942
 20
5.0035730631
 30
0.0
 10
5.0592965328
 20
5.0071542608
 30
0.0
 10
5.0555937872
 20
5.0109504357
 30
0.0
 10
5.0520269234
 20
5.0149670285
 30
0.0
 10
5.0486130116
 20
5.0192086686
 30
0.0
 10
5.0453700072
 20
5.0236779711
 30
0.0
 10
5.0423189027
 20
5.0283766943
 30
0.0
 10
5.0394832648
 20
5.0333044307
 30
0.0
 10
5.0368876278
 20
5.0384567656
 30
0.0
 10
5.0349530391
 20
5.0429157355
 30
0.0
 10
5.0335510434
 20
5.0465847268
 30
0.0
 10
5.0325729194
 20
5.0493951568
 30
0.0
 10
5.0316750201
 20
5.0522518403
 30
0.0
 10
5.0308607067
 20
5.0551518322
 30
0.0
 10
5.0301335501
 20
5.058091871
 30
0.0
 10
5.0292827464
 20
5.0620679611
 30
0.0
 10
5.0286198765
 20
5.0660991853
 30
0.0
 10
5.0281520953
 20
5.0701688335
 30
0.0
 10
5.027815914
 20
5.0742704176
 30
0.0
 10
5.0277141895
 20
5.0773605049
 30
0.0
 10
5.0277141533
 20
5.0794210123
 30
0.0
  0
SPLINE
  5
290
100
AcDbEntity
  8
0
100
AcDbSpline
 62
7
  6
CONTINUOUS
 70
0
 71
3
 72
25
 73
21
 74
0
 42
0.0000001
 43
0.0000001
 44
0.0000000001
 40
0.0
 40
0.0
 40
0.0
 40
0.0
 40
0.029269363
 40
0.0585519216
 40
0.0878565881
 40
0.1171952671
 40
0.17600816
 40
0.2350753385
 40
0.2944807383
 40
0.3543122307
 40
0.4146629292
 40
0.4756321412
 40
0.5373264445
 40
0.5998603795
 40
0.6633567178
 40
0.727946778
 40
0.7937678914
 40
0.8609611518
 40
0.9296641698
 40
1.0
 40
1.0
 40
1.0
 40
1.0
 10
4.5408969315
 20
4.9700565758
 30
0.0
 10
4.5420741276
 20
4.9700716477
 30
0.0
 10
4.5444287576
 20
4.9701341094
 30
0.0
 10
4.5479579555
 20
4.97032247
 30
0.0
 10
4.5514836785
 20
4.9706055851
 30
0.0
 10
4.5561814383
 20
4.9711110555
 30
0.0
 10
4.5620415132
 20
4.9719838502
 30
0.0
 10
4.5690301709
 20
4.9734185216
 30
0.0
 10
4.5759687501
 20
4.9752475226
 30
0.0
 10
4.5828431406
 20
4.9774784802
 30
0.0
 10
4.5896378761
 20
4.980120825
 30
0.0
 10
4.5963354999
 20
4.9831857411
 30
0.0
 10
4.6029161005
 20
4.986686175
 30
0.0
 10
4.6093566724
 20
4.9906367559
 30
0.0
 10
4.6156302659
 20
4.9950537481
 30
0.0
 10
4.6217052652
 20
4.9999543776
 30
0.0
 10
4.6275438769
 20
5.0053566261
 30
0.0
 10
4.6331014063
 20
5.0112777601
 30
0.0
 10
4.6383241272
 20
5.0177318761
 30
0.0
 10
4.641502776
 20
5.0223414972
 30
0.0
 10
4.6430155796
 20
5.0247321481
 30
0.0
  0
SPLINE
  5
291
100
AcDbEntity
  8
0
100
AcDbSpline
 62
7
  6
CONTINUOUS
 70
0
 71
3
 72
61
 73
57
 74
0
 42
0.0000001
 43
0.0000001
 44
0.0000000001
 40
0.0
 40
0.0
 40
0.0
 40
0.0
 40
0.0001598038
 40
0.0003591372
 40
0.0006378959
 40
0.0014331086
 40
0.0025445266
 40
0.0039715512
 40
0.0057134779
 40
0.0101354211
 40
0.0157941659
 40
0.0226694217
 40
0.0307369934
 40
0.0399678552
 40
0.0503300218
 40
0.0617912343
 40
0.087852269
 40
0.1178099546
 40
0.1512896465
 40
0.1879057277
 40
0.2272525315
 40
0.3124321901
 40
0.4035397377
 40
0.4974442926
 40
0.5445149319
 40
0.5911903184
 40
0.6371231257
 40
0.6819671536
 40
0.725378405
 40
0.7670052242
 40
0.8064806613
 40
0.8434202807
 40
0.8774292986
 40
0.9081008336
 40
0.92205356
 40
0.9350155558
 40
0.9469349577
 40
0.9577590742
 40
0.9674426036
 40
0.9759392289
 40
0.9832046224
 40
0.9863654702
 40
0.9892059622
 40
0.9917214449
 40
0.9939080865
 40
0.9957630573
 40
0.9972838397
 40
0.997918479
 40
0.9984691266
 40
0.9989356646
 40
0.9993179576
 40
0.9996157849
 40
0.9998288992
 40
0.9999036118
 40
0.9999570533
 40
1.0
 40
1.0
 40
1.0
 40
1.0
 10
6.4812415126
 20
4.9905970888
 30
0.0
 10
6.4812408064
 20
4.9905974138
 30
0.0
 10
6.4812391066
 20
4.990597862
 30
0.0
 10
6.4812361942
 20
4.9905989252
 30
0.0
 10
6.4812303193
 20
4.9906008943
 30
0.0
 10
6.4812202708
 20
4.9906043608
 30
0.0
 10
6.4812049234
 20
4.990609601
 30
0.0
 10
6.4811852259
 20
4.9906163508
 30
0.0
 10
6.4811502896
 20
4.9906283098
 30
0.0
 10
6.4810958856
 20
4.9906469593
 30
0.0
 10
6.4810178812
 20
4.9906737695
 30
0.0
 10
6.4809231309
 20
4.9907064182
 30
0.0
 10
6.4808119906
 20
4.9907448404
 30
0.0
 10
6.4806848677
 20
4.9907889455
 30
0.0
 10
6.4805422074
 20
4.9908386318
 30
0.0
 10
6.4803223411
 20
4.9909155621
 30
0.0
 10
6.4800128172
 20
4.9910248787
 30
0.0
 10
6.4796027889
 20
4.9911712509
 30
0.0
 10
6.4791451216
 20
4.9913368851
 30
0.0
 10
6.4786453704
 20
4.9915204325
 30
0.0
 10
6.4779108849
 20
4.9917943247
 30
0.0
 10
6.4769317401
 20
4.9921707017
 30
0.0
 10
6.4757103028
 20
4.9926562274
 30
0.0
 10
6.4746674047
 20
4.9930887317
 30
0.0
 10
6.4738277867
 20
4.993446953
 30
0.0
 10
6.4732047342
 20
4.9937180648
 30
0.0
 10
6.4725935458
 20
4.9939892492
 30
0.0
 10
6.4719987295
 20
4.9942581436
 30
0.0
 10
6.4714249262
 20
4.994522627
 30
0.0
 10
6.4708764818
 20
4.9947797062
 30
0.0
 10
6.4703580603
 20
4.9950266346
 30
0.0
 10
6.4698745049
 20
4.9952605645
 30
0.0
 10
6.4694307625
 20
4.9954784275
 30
0.0
 10
6.4690882454
 20
4.9956487266
 30
0.0
 10
6.4688378342
 20
4.9957742977
 30
0.0
 10
6.4686691679
 20
4.9958593804
 30
0.0
 10
6.4685142449
 20
4.9959379145
 30
0.0
 10
6.4683736653
 20
4.9960094711
 30
0.0
 10
6.4682480401
 20
4.9960737015
 30
0.0
 10
6.4681379114
 20
4.9961302125
 30
0.0
 10
6.4680560362
 20
4.9961722829
 30
0.0
 10
6.4679986784
 20
4.9962018646
 30
0.0
 10
6.467961871
 20
4.9962208834
 30
0.0
 10
6.467929279
 20
4.9962377364
 30
0.0
 10
6.4679009456
 20
4.9962523878
 30
0.0
 10
6.4678769126
 20
4.9962648208
 30
0.0
 10
6.4678595887
 20
4.9962737916
 30
0.0
 10
6.4678479009
 20
4.9962798483
 30
0.0
 10
6.4678407679
 20
4.9962835476
 30
0.0
 10
6.4678347235
 20
4.996286681
 30
0.0
 10
6.4678297764
 20
4.996289255
 30
0.0
 10
6.4678259106
 20
4.9962912464
 30
0.0
 10
6.4678234025
 20
4.9962925837
 30
0.0
 10
6.4678219031
 20
4.9962933182
 30
0.0
 10
6.4678212118
 20
4.9962937582
 30
0.0
 10
6.4678207049
 20
4.9962938671
 30
0.0
 10
6.4678205779
 20
4.9962940329
 30
0.0
  0
SPLINE
  5
292
100
AcDbEntity
  8
0
100
AcDbSpline
 62
7
  6
CONTINUOUS
 70
0
 71
3
 72
31
 73
27
 74
0
 42
0.0000001
 43
0.0000001
 44
0.0000000001
 40
0.0
 40
0.0
 40
0.0
 40
0.0
 40
0.0313033076
 40
0.0626060083
 40
0.0939078716
 40
0.1252083364
 40
0.1877846258
 40
0.2503503425
 40
0.281637699
 40
0.3129213712
 40
0.34420108
 40
0.3754765844
 40
0.4379954184
 40
0.5004955696
 40
0.5629766658
 40
0.6254390679
 40
0.6566730009
 40
0.6879027232
 40
0.7191284753
 40
0.7503505358
 40
0.8127659775
 40
0.8751708192
 40
0.9063797378
 40
0.9375872694
 40
0.9687938689
 40
1.0
 40
1.0
 40
1.0
 40
1.0
 10
6.6971177546
 20
5.0794210123
 30
0.0
 10
6.6971177546
 20
5.078619332
 30
0.0
 10
6.6970785128
 20
5.0770157075
 30
0.0
 10
6.6969020707
 20
5.0746162963
 30
0.0
 10
6.6966084575
 20
5.0722283489
 30
0.0
 10
6.696061882
 20
5.0690683724
 30
0.0
 10
6.6950896944
 20
5.0651745727
 30
0.0
 10
6.6937414267
 20
5.0613948491
 30
0.0
 10
6.692445648
 20
5.0584625562
 30
0.0
 10
6.6913672475
 20
5.0563134276
 30
0.0
 10
6.6901849988
 20
5.0542199718
 30
0.0
 10
6.6884745961
 20
5.051510454
 30
0.0
 10
6.6860909098
 20
5.0482862024
 30
0.0
 10
6.6828665991
 20
5.0447176116
 30
0.0
 10
6.6793091696
 20
5.0414831302
 30
0.0
 10
6.676094485
 20
5.0390915395
 30
0.0
 10
6.6733929937
 20
5.0373755353
 30
0.0
 10
6.6713060319
 20
5.0361895808
 30
0.0
 10
6.6691635658
 20
5.035107797
 30
0.0
 10
6.6662406694
 20
5.0338080892
 30
0.0
 10
6.6624729245
 20
5.0324556237
 30
0.0
 10
6.6585907756
 20
5.0314802383
 30
0.0
 10
6.6554403808
 20
5.0309319122
 30
0.0
 10
6.6530598145
 20
5.0306373739
 30
0.0
 10
6.6506678213
 20
5.0304603781
 30
0.0
 10
6.6490691441
 20
5.0304210125
 30
0.0
 10
6.6482699526
 20
5.0304210125
 30
0.0
  0
SPLINE
  5
293
100
AcDbEntity
  8
0
100
AcDbSpline
 62
7
  6
CONTINUOUS
 70
0
 71
3
 72
78
 73
74
 74
0
 42
0.0000001
 43
0.0000001
 44
0.0000000001
 40
0.0
 40
0.0
 40
0.0
 40
0.0
 40
0.0000090769
 40
0.0000363605
 40
0.0000819362
 40
0.000145889
 40
0.0002283043
 40
0.0003292671
 40
0.0005871761
 40
0.0009202977
 40
0.0013293109
 40
0.0018146536
 40
0.0023763239
 40
0.0037284526
 40
0.0053852784
 40
0.0073446121
 40
0.0096015266
 40
0.0121509406
 40
0.0149896827
 40
0.0181165193
 40
0.0215303246
 40
0.0292156924
 40
0.0380386074
 40
0.0479809972
 40
0.0590135409
 40
0.071101189
 40
0.0842163167
 40
0.0983320936
 40
0.113419356
 40
0.1463713183
 40
0.1827471302
 40
0.2221511913
 40
0.264189195
 40
0.3084753196
 40
0.3546037742
 40
0.4021152072
 40
0.4505463742
 40
0.4994343458
 40
0.5483083224
 40
0.5967076604
 40
0.6441893668
 40
0.6903040159
 40
0.7345969092
 40
0.77665321
 40
0.8160830089
 40
0.8525001399
 40
0.8855323113
 40
0.9006879585
 40
0.914893088
 40
0.9281142039
 40
0.9403167387
 40
0.9514637161
 40
0.9615126251
 40
0.9704310515
 40
0.9782026834
 40
0.9848195624
 40
0.9876922886
 40
0.9902726971
 40
0.9925576556
 40
0.994541943
 40
0.9962204001
 40
0.9975905286
 40
0.9981598062
 40
0.998651815
 40
0.9990665336
 40
0.999404359
 40
0.9996659527
 40
0.9997683707
 40
0.9998519804
 40
0.999916865
 40
0.9999631076
 40
0.9999907916
 40
1.0
 40
1.0
 40
1.0
 40
1.0
 10
6.5106685461
 20
4.9828551945
 30
0.0
 10
6.5106685309
 20
4.9828551578
 30
0.0
 10
6.5106683128
 20
4.9828552669
 30
0.0
 10
6.5106680129
 20
4.9828552008
 30
0.0
 10
6.5106673831
 20
4.9828553007
 30
0.0
 10
6.5106665603
 20
4.982855342
 30
0.0
 10
6.5106654756
 20
4.9828554351
 30
0.0
 10
6.5106635531
 20
4.9828555805
 30
0.0
 10
6.5106605324
 20
4.9828558185
 30
0.0
 10
6.5106561704
 20
4.9828561576
 30
0.0
 10
6.5106508151
 20
4.9828565763
 30
0.0
 10
6.5106444633
 20
4.9828570731
 30
0.0
 10
6.510633997
 20
4.982857894
 30
0.0
 10
6.5106184208
 20
4.9828591213
 30
0.0
 10
6.5105967483
 20
4.9828608413
 30
0.0
 10
6.5105711301
 20
4.9828628877
 30
0.0
 10
6.5105416193
 20
4.9828652553
 30
0.0
 10
6.5105082734
 20
4.9828679395
 30
0.0
 10
6.5104711336
 20
4.9828709368
 30
0.0
 10
6.5104302243
 20
4.9828742459
 30
0.0
 10
6.5103681767
 20
4.982879275
 30
0.0
 10
6.5102812869
 20
4.9828863379
 30
0.0
 10
6.5101659243
 20
4.982895735
 30
0.0
 10
6.5100359769
 20
4.9829064875
 30
0.0
 10
6.5098918098
 20
4.9829186289
 30
0.0
 10
6.5097338222
 20
4.9829321002
 30
0.0
 10
6.509562406
 20
4.9829468874
 30
0.0
 10
6.50937793
 20
4.9829630052
 30
0.0
 10
6.5091070095
 20
4.982987011
 30
0.0
 10
6.5087391123
 20
4.9830201825
 30
0.0
 10
6.508265413
 20
4.9830648145
 30
0.0
 10
6.5077523056
 20
4.9831150067
 30
0.0
 10
6.5072049512
 20
4.9831706071
 30
0.0
 10
6.5066285528
 20
4.983231409
 30
0.0
 10
6.5060285982
 20
4.9832971691
 30
0.0
 10
6.505410928
 20
4.9833677191
 30
0.0
 10
6.5047815912
 20
4.9834424761
 30
0.0
 10
6.5041466651
 20
4.9835206758
 30
0.0
 10
6.5035122587
 20
4.9836019027
 30
0.0
 10
6.502884407
 20
4.9836857971
 30
0.0
 10
6.5022689433
 20
4.9837711646
 30
0.0
 10
6.5016715719
 20
4.9838561525
 30
0.0
 10
6.5010981177
 20
4.9839406546
 30
0.0
 10
6.5005539934
 20
4.9840234918
 30
0.0
 10
6.5000442322
 20
4.9841030354
 30
0.0
 10
6.4995737421
 20
4.9841781043
 30
0.0
 10
6.4992083516
 20
4.9842377154
 30
0.0
 10
6.4989390427
 20
4.9842825987
 30
0.0
 10
6.4987553001
 20
4.9843135591
 30
0.0
 10
6.498584346
 20
4.9843426425
 30
0.0
 10
6.4984266193
 20
4.9843696853
 30
0.0
 10
6.4982825984
 20
4.9843945241
 30
0.0
 10
6.498152753
 20
4.9844169991
 30
0.0
 10
6.498037475
 20
4.9844370351
 30
0.0
 10
6.4979370252
 20
4.9844546819
 30
0.0
 10
6.4978626431
 20
4.9844678167
 30
0.0
 10
6.4978106327
 20
4.9844770108
 30
0.0
 10
6.497777289
 20
4.9844829063
 30
0.0
 10
6.4977477734
 20
4.9844881236
 30
0.0
 10
6.4977221445
 20
4.9844926542
 30
0.0
 10
6.4977004578
 20
4.9844964896
 30
0.0
 10
6.497684869
 20
4.9844992496
 30
0.0
 10
6.497674393
 20
4.9845011083
 30
0.0
 10
6.4976680341
 20
4.9845022389
 30
0.0
 10
6.497662672
 20
4.9845031948
 30
0.0
 10
6.4976583057
 20
4.9845039776
 30
0.0
 10
6.4976552783
 20
4.9845045188
 30
0.0
 10
6.4976533577
 20
4.984504869
 30
0.0
 10
6.4976522625
 20
4.9845050581
 30
0.0
 10
6.4976514618
 20
4.984505225
 30
0.0
 10
6.4976507788
 20
4.9845052989
 30
0.0
 10
6.49765057
 20
4.984505424
 30
0.0
 10
6.4976502572
 20
4.9845053908
 30
0.0
 10
6.4976502807
 20
4.9845054235
 30
0.0
  0
SPLINE
  5
294
100
AcDbEntity
  8
0
100
AcDbSpline
 62
7
  6
CONTINUOUS
 70
0
 71
3
 72
72
 73
68
 74
0
 42
0.0000001
 43
0.0000001
 44
0.0000000001
 40
0.0
 40
0.0
 40
0.0
 40
0.0
 40
0.0000092271
 40
0.0000369266
 40
0.0000831818
 40
0.0001480762
 40
0.000334115
 40
0.0005957096
 40
0.0009335264
 40
0.0013482276
 40
0.0018402101
 40
0.0024094578
 40
0.0037795409
 40
0.0054580125
 40
0.0074423766
 40
0.0097274203
 40
0.0123078698
 40
0.0151805783
 40
0.0217972801
 40
0.0295687666
 40
0.0384873613
 40
0.0485363799
 40
0.0596832765
 40
0.0718858014
 40
0.0851069661
 40
0.0993121737
 40
0.1144677692
 40
0.1474996683
 40
0.1839170814
 40
0.2233470698
 40
0.2654033157
 40
0.3096952999
 40
0.3558114912
 40
0.403292597
 40
0.5005655764
 40
0.5978850471
 40
0.6453964755
 40
0.6915242344
 40
0.7358105068
 40
0.7778490591
 40
0.8172527098
 40
0.8536285689
 40
0.8865806269
 40
0.9157836824
 40
0.9288987886
 40
0.9409863844
 40
0.9520190099
 40
0.9619614187
 40
0.9707842792
 40
0.9784696831
 40
0.9850103152
 40
0.9878490376
 40
0.9903984464
 40
0.9926553764
 40
0.9946147306
 40
0.9962715647
 40
0.9976236858
 40
0.9981853495
 40
0.9986706857
 40
0.9990796927
 40
0.9994128082
 40
0.9996707131
 40
0.9998540909
 40
0.9999180458
 40
0.9999636253
 40
0.9999909149
 40
1.0
 40
1.0
 40
1.0
 40
1.0
 10
6.540303026
 20
4.9845054235
 30
0.0
 10
6.5403030036
 20
4.9845053899
 30
0.0
 10
6.5403028024
 20
4.9845054247
 30
0.0
 10
6.5403024852
 20
4.9845052977
 30
0.0
 10
6.5403018642
 20
4.9845052243
 30
0.0
 10
6.5403005987
 20
4.9845049711
 30
0.0
 10
6.540298381
 20
4.9845045888
 30
0.0
 10
6.5402950033
 20
4.9845039731
 30
0.0
 10
6.5402906331
 20
4.9845031943
 30
0.0
 10
6.5402852726
 20
4.9845022373
 30
0.0
 10
6.5402789135
 20
4.9845011079
 30
0.0
 10
6.5402684379
 20
4.9844992502
 30
0.0
 10
6.540252849
 20
4.9844964916
 30
0.0
 10
6.5402311623
 20
4.9844926557
 30
0.0
 10
6.540205533
 20
4.9844881227
 30
0.0
 10
6.5401760169
 20
4.9844829029
 30
0.0
 10
6.540142673
 20
4.9844770061
 30
0.0
 10
6.5400906632
 20
4.9844678129
 30
0.0
 10
6.5400162817
 20
4.9844546835
 30
0.0
 10
6.5399158315
 20
4.9844370431
 30
0.0
 10
6.5398005546
 20
4.984416998
 30
0.0
 10
6.5396707088
 20
4.9843945203
 30
0.0
 10
6.5395266871
 20
4.9843696864
 30
0.0
 10
6.5393689608
 20
4.9843426429
 30
0.0
 10
6.5391980065
 20
4.9843135584
 30
0.0
 10
6.5390142644
 20
4.9842825933
 30
0.0
 10
6.5387449562
 20
4.9842377132
 30
0.0
 10
6.5383795632
 20
4.9841781205
 30
0.0
 10
6.5379090755
 20
4.9841030327
 30
0.0
 10
6.5373993131
 20
4.9840234869
 30
0.0
 10
6.5368551977
 20
4.9839406136
 30
0.0
 10
6.5362817112
 20
4.9838563182
 30
0.0
 10
6.5356843883
 20
4.9837709912
 30
0.0
 10
6.5348570437
 20
4.9836565312
 30
0.0
 10
6.5338067218
 20
4.9835189005
 30
0.0
 10
6.5327549072
 20
4.983392097
 30
0.0
 10
6.5319246967
 20
4.9832972504
 30
0.0
 10
6.5313247609
 20
4.9832313423
 30
0.0
 10
6.53074836
 20
4.9831705651
 30
0.0
 10
6.5302009954
 20
4.9831150571
 30
0.0
 10
6.5296878943
 20
4.983064796
 30
0.0
 10
6.5292141944
 20
4.983020184
 30
0.0
 10
6.5287847781
 20
4.9829814596
 30
0.0
 10
6.5284566759
 20
4.9829525594
 30
0.0
 10
6.5282194842
 20
4.9829321021
 30
0.0
 10
6.5280614973
 20
4.9829186235
 30
0.0
 10
6.5279173293
 20
4.9829064896
 30
0.0
 10
6.5277873817
 20
4.9828957385
 30
0.0
 10
6.5276720198
 20
4.9828863351
 30
0.0
 10
6.5275714922
 20
4.9828781675
 30
0.0
 10
6.5274970629
 20
4.982872139
 30
0.0
 10
6.5274450335
 20
4.9828679383
 30
0.0
 10
6.5274116876
 20
4.982865254
 30
0.0
 10
6.5273821766
 20
4.9828628873
 30
0.0
 10
6.5273565582
 20
4.9828608419
 30
0.0
 10
6.5273348856
 20
4.9828591223
 30
0.0
 10
6.5273193094
 20
4.9828578944
 30
0.0
 10
6.5273088434
 20
4.9828570733
 30
0.0
 10
6.5273024914
 20
4.9828565757
 30
0.0
 10
6.5272971369
 20
4.9828561584
 30
0.0
 10
6.5272927732
 20
4.9828558148
 30
0.0
 10
6.5272893972
 20
4.9828555599
 30
0.0
 10
6.5272871879
 20
4.9828553717
 30
0.0
 10
6.5272859169
 20
4.9828552951
 30
0.0
 10
6.5272853087
 20
4.9828552119
 30
0.0
 10
6.527284971
 20
4.9828552493
 30
0.0
 10
6.5272847918
 20
4.9828551699
 30
0.0
 10
6.5272847605
 20
4.9828551945
 30
0.0
  0
SPLINE
  5
295
100
AcDbEntity
  8
0
100
AcDbSpline
 62
7
  6
CONTINUOUS
 70
0
 71
3
 72
15
 73
11
 74
0
 42
0.0000001
 43
0.0000001
 44
0.0000000001
 40
0.0
 40
0.0
 40
0.0
 40
0.0
 40
0.1181541315
 40
0.238491929
 40
0.3610279584
 40
0.4856909444
 40
0.6122979183
 40
0.7405352464
 40
0.8699557616
 40
1.0
 40
1.0
 40
1.0
 40
1.0
 10
4.5946301183
 20
5.188797239
 30
0.0
 10
4.5927104875
 20
5.1901062517
 30
0.0
 10
4.5887484712
 20
5.1926231484
 30
0.0
 10
4.5825085775
 20
5.1960206269
 30
0.0
 10
4.5759284512
 20
5.1990254827
 30
0.0
 10
4.5690304731
 20
5.2015851041
 30
0.0
 10
4.5618503551
 20
5.2036467782
 30
0.0
 10
4.5544390863
 20
5.2051613185
 30
0.0
 10
4.5468636696
 20
5.206088112
 30
0.0
 10
4.5417589354
 20
5.20629601
 30
0.0
 10
4.5392016533
 20
5.2062960123
 30
0.0
  0
SPLINE
  5
296
100
AcDbEntity
  8
0
100
AcDbSpline
 62
7
  6
CONTINUOUS
 70
0
 71
3
 72
27
 73
23
 74
0
 42
0.0000001
 43
0.0000001
 44
0.0000000001
 40
0.0
 40
0.0
 40
0.0
 40
0.0
 40
0.0353078021
 40
0.0705541007
 40
0.1056801436
 40
0.1406313658
 40
0.1753594138
 40
0.20982326
 40
0.2439897361
 40
0.2778335053
 40
0.3444731092
 40
0.4096928644
 40
0.4735063095
 40
0.5359792486
 40
0.5972071822
 40
0.6572993617
 40
0.7163685221
 40
0.7745248288
 40
0.8318726424
 40
0.8885091694
 40
0.9445241128
 40
1.0
 40
1.0
 40
1.0
 40
1.0
 10
4.5392016533
 20
5.2062960123
 30
0.0
 10
4.5376750918
 20
5.2062960109
 30
0.0
 10
4.5346241087
 20
5.2062218842
 30
0.0
 10
4.5300653483
 20
5.205889471
 30
0.0
 10
4.5255431439
 20
5.2053394714
 30
0.0
 10
4.5210745682
 20
5.2045776781
 30
0.0
 10
4.5166749765
 20
5.2036117762
 30
0.0
 10
4.5123579756
 20
5.202450924
 30
0.0
 10
4.5081350406
 20
5.2011053229
 30
0.0
 10
4.5026715273
 20
5.1990901969
 30
0.0
 10
4.4961179513
 20
5.1961718246
 30
0.0
 10
4.488697154
 20
5.1920901562
 30
0.0
 10
4.4817763929
 20
5.1875294956
 30
0.0
 10
4.4753582546
 20
5.1825640494
 30
0.0
 10
4.4694344962
 20
5.177257555
 30
0.0
 10
4.4639910898
 20
5.1716639246
 30
0.0
 10
4.4590110616
 20
5.1658283478
 30
0.0
 10
4.4544765336
 20
5.1597885954
 30
0.0
 10
4.4503699267
 20
5.1535763367
 30
0.0
 10
4.4466746204
 20
5.1472181636
 30
0.0
 10
4.4433755065
 20
5.1407369315
 30
0.0
 10
4.4414223191
 20
5.1363270545
 30
0.0
 10
4.4405089962
 20
5.1341092042
 30
0.0
  0
SPLINE
  5
297
100
AcDbEntity
  8
0
100
AcDbSpline
 62
7
  6
CONTINUOUS
 70
0
 71
3
 72
31
 73
27
 74
0
 42
0.0000001
 43
0.0000001
 44
0.0000000001
 40
0.0
 40
0.0
 40
0.0
 40
0.0
 40
0.0312049929
 40
0.0624107906
 40
0.0936178282
 40
0.1248265292
 40
0.1872325602
 40
0.2496498856
 40
0.280872595
 40
0.3120990638
 40
0.3433295369
 40
0.3745642226
 40
0.437028945
 40
0.4995120396
 40
0.5620137022
 40
0.6245334511
 40
0.6558087086
 40
0.6870880061
 40
0.7183711046
 40
0.7496577306
 40
0.8122224728
 40
0.8747972999
 40
0.9060964329
 40
0.9373969019
 40
0.9686981588
 40
1.0
 40
1.0
 40
1.0
 40
1.0
 10
6.6501707117
 20
5.1283839017
 30
0.0
 10
6.6509495186
 20
5.1283534794
 30
0.0
 10
6.6525059526
 20
5.1282552134
 30
0.0
 10
6.6548306566
 20
5.1279959379
 30
0.0
 10
6.6571404322
 20
5.1276253466
 30
0.0
 10
6.6601924417
 20
5.1269841146
 30
0.0
 10
6.6639449718
 20
5.1259087767
 30
0.0
 10
6.6675774276
 20
5.1244784796
 30
0.0
 10
6.6703906063
 20
5.123129787
 30
0.0
 10
6.6724503923
 20
5.1220178696
 30
0.0
 10
6.6744547676
 20
5.1208083337
 30
0.0
 10
6.6770468946
 20
5.1190694878
 30
0.0
 10
6.6801271395
 20
5.1166652799
 30
0.0
 10
6.683530469
 20
5.1134398595
 30
0.0
 10
6.6866108897
 20
5.1099029342
 30
0.0
 10
6.6888855148
 20
5.1067223145
 30
0.0
 10
6.6905165296
 20
5.1040567942
 30
0.0
 10
6.6916433803
 20
5.1020006385
 30
0.0
 10
6.6926708334
 20
5.0998927448
 30
0.0
 10
6.6939049564
 20
5.0970201749
 30
0.0
 10
6.6951883903
 20
5.0933232619
 30
0.0
 10
6.6961133992
 20
5.0895204777
 30
0.0
 10
6.6966333491
 20
5.0864365591
 30
0.0
 10
6.696912622
 20
5.0841069545
 30
0.0
 10
6.6970804338
 20
5.0817667165
 30
0.0
 10
6.6971177546
 20
5.0802028321
 30
0.0
 10
6.6971177546
 20
5.0794210123
 30
0.0
  0
SPLINE
  5
298
100
AcDbEntity
  8
0
100
AcDbSpline
 62
7
  6
CONTINUOUS
 70
0
 71
3
 72
26
 73
22
 74
0
 42
0.0000001
 43
0.0000001
 44
0.0000000001
 40
0.0
 40
0.0
 40
0.0
 40
0.0
 40
0.0676203343
 40
0.1013681359
 40
0.1350371462
 40
0.1686030408
 40
0.2020434167
 40
0.2353378089
 40
0.2684678397
 40
0.3341652479
 40
0.3990440573
 40
0.4630401106
 40
0.5261198755
 40
0.5882768247
 40
0.649524946
 40
0.7098918892
 40
0.7694147169
 40
0.8281385277
 40
0.8861116386
 40
0.9433820142
 40
1.0
 40
1.0
 40
1.0
 40
1.0
 10
5.2814641533
 20
5.0794210123
 30
0.0
 10
5.2814640731
 20
5.0773605132
 30
0.0
 10
5.2813616517
 20
5.0742704315
 30
0.0
 10
5.281025006
 20
5.0701689594
 30
0.0
 10
5.2806742155
 20
5.0671113264
 30
0.0
 10
5.2802259967
 20
5.0640759797
 30
0.0
 10
5.2796817919
 20
5.0610679642
 30
0.0
 10
5.2790443715
 20
5.058091887
 30
0.0
 10
5.2780775162
 20
5.0541831919
 30
0.0
 10
5.2766548445
 20
5.0493983573
 30
0.0
 10
5.2746198298
 20
5.0438258873
 30
0.0
 10
5.2722902485
 20
5.0384570276
 30
0.0
 10
5.2696950038
 20
5.0333044426
 30
0.0
 10
5.2668596726
 20
5.0283765815
 30
0.0
 10
5.2638085808
 20
5.0236778486
 30
0.0
 10
5.260565286
 20
5.0192087506
 30
0.0
 10
5.2571512969
 20
5.0149671882
 30
0.0
 10
5.2535846404
 20
5.0109504279
 30
0.0
 10
5.2498818383
 20
5.0071543111
 30
0.0
 10
5.2460584804
 20
5.0035732156
 30
0.0
 10
5.2434230187
 20
5.0013134436
 30
0.0
 10
5.2420895975
 20
5.0002187104
 30
0.0
  0
SPLINE
  5
299
100
AcDbEntity
  8
0
100
AcDbSpline
 62
7
  6
CONTINUOUS
 70
0
 71
3
 72
64
 73
60
 74
0
 42
0.0000001
 43
0.0000001
 44
0.0000000001
 40
0.0
 40
0.0
 40
0.0
 40
0.0
 40
0.0000429436
 40
0.0000963305
 40
0.0001709617
 40
0.0003838595
 40
0.000681442
 40
0.0010635142
 40
0.0015298997
 40
0.0020804811
 40
0.0027151536
 40
0.0042363507
 40
0.0060921322
 40
0.0082794232
 40
0.010794779
 40
0.0136345043
 40
0.016794698
 40
0.0240604693
 40
0.0325577153
 40
0.0422411624
 40
0.0530649894
 40
0.0649845446
 40
0.077946727
 40
0.0918994982
 40
0.1067915342
 40
0.1225707385
 40
0.1565792796
 40
0.1935183943
 40
0.2329952575
 40
0.2746223293
 40
0.3180323429
 40
0.3628763244
 40
0.408809176
 40
0.4554848485
 40
0.5025555268
 40
0.5496681525
 40
0.5964607912
 40
0.6875679526
 40
0.7727473168
 40
0.812094262
 40
0.8487104017
 40
0.8821901055
 40
0.9121476933
 40
0.9382088046
 40
0.9496700274
 40
0.9600321598
 40
0.9692630097
 40
0.9773305853
 40
0.9842058424
 40
0.9898645862
 40
0.9922312633
 40
0.9942865268
 40
0.9960284521
 40
0.9974554748
 40
0.9985668924
 40
0.9993621092
 40
0.9996408706
 40
0.9998402052
 40
1.0
 40
1.0
 40
1.0
 40
1.0
 10
6.5701327287
 20
4.9962940328
 30
0.0
 10
6.5701326042
 20
4.9962938651
 30
0.0
 10
6.5701320935
 20
4.9962937598
 30
0.0
 10
6.5701314043
 20
4.9962933195
 30
0.0
 10
6.5701299043
 20
4.9962925884
 30
0.0
 10
6.5701273979
 20
4.9962912545
 30
0.0
 10
6.570123533
 20
4.9962892682
 30
0.0
 10
6.5701185872
 20
4.9962866984
 30
0.0
 10
6.5701125436
 20
4.9962835681
 30
0.0
 10
6.5701054109
 20
4.9962798701
 30
0.0
 10
6.5700937218
 20
4.9962738118
 30
0.0
 10
6.5700763955
 20
4.9962648324
 30
0.0
 10
6.5700523614
 20
4.9962523814
 30
0.0
 10
6.5700240279
 20
4.9962377163
 30
0.0
 10
6.5699914352
 20
4.9962208671
 30
0.0
 10
6.5699546272
 20
4.9962018658
 30
0.0
 10
6.569897266
 20
4.9961723017
 30
0.0
 10
6.5698153967
 20
4.9961302161
 30
0.0
 10
6.5697052695
 20
4.9960736922
 30
0.0
 10
6.5695796413
 20
4.9960094649
 30
0.0
 10
6.5694390586
 20
4.9959379165
 30
0.0
 10
6.5692841383
 20
4.9958593761
 30
0.0
 10
6.5691154716
 20
4.99577429
 30
0.0
 10
6.5689336789
 20
4.9956831201
 30
0.0
 10
6.5687394078
 20
4.9955862652
 30
0.0
 10
6.5684575196
 20
4.9954464914
 30
0.0
 10
6.5680788013
 20
4.9952605775
 30
0.0
 10
6.5675952248
 20
4.9950266862
 30
0.0
 10
6.5670768411
 20
4.9947796646
 30
0.0
 10
6.5665284069
 20
4.9945225567
 30
0.0
 10
6.5659545475
 20
4.9942582065
 30
0.0
 10
6.565359752
 20
4.9939892804
 30
0.0
 10
6.5647485508
 20
4.9937181202
 30
0.0
 10
6.5641255423
 20
4.9934469035
 30
0.0
 10
6.5634953069
 20
4.9931779538
 30
0.0
 10
6.562862654
 20
4.9929132647
 30
0.0
 10
6.5620299988
 20
4.9925716413
 30
0.0
 10
6.5610215571
 20
4.9921707245
 30
0.0
 10
6.5600424452
 20
4.9917942683
 30
0.0
 10
6.5593079402
 20
4.9915204279
 30
0.0
 10
6.5588081868
 20
4.9913368828
 30
0.0
 10
6.5583505106
 20
4.9911712728
 30
0.0
 10
6.5579405011
 20
4.9910248472
 30
0.0
 10
6.5576309649
 20
4.990915565
 30
0.0
 10
6.557411093
 20
4.9908386494
 30
0.0
 10
6.557268439
 20
4.9907889452
 30
0.0
 10
6.5571413174
 20
4.9907448368
 30
0.0
 10
6.5570301759
 20
4.9907064183
 30
0.0
 10
6.5569354251
 20
4.9906737707
 30
0.0
 10
6.5568668758
 20
4.9906502101
 30
0.0
 10
6.55682049
 20
4.990634301
 30
0.0
 10
6.5567921244
 20
4.9906245821
 30
0.0
 10
6.5567680803
 20
4.9906163519
 30
0.0
 10
6.5567483834
 20
4.990609601
 30
0.0
 10
6.5567330348
 20
4.9906043629
 30
0.0
 10
6.5567229887
 20
4.9906008913
 30
0.0
 10
6.5567171108
 20
4.9905989286
 30
0.0
 10
6.5567142038
 20
4.9905978538
 30
0.0
 10
6.5567124935
 20
4.9905974279
 30
0.0
 10
6.5567117941
 20
4.9905970887
 30
0.0
  0
SPLINE
  5
29A
100
AcDbEntity
  8
0
100
AcDbSpline
 62
7
  6
CONTINUOUS
 70
0
 71
3
 72
25
 73
21
 74
0
 42
0.0000001
 43
0.0000001
 44
0.0000000001
 40
0.0
 40
0.0
 40
0.0
 40
0.0
 40
0.0703241985
 40
0.1390208172
 40
0.206212003
 40
0.2720343659
 40
0.336628024
 40
0.4001296861
 40
0.46266969
 40
0.5243703339
 40
0.5853454601
 40
0.6457012585
 40
0.7055365243
 40
0.7649439924
 40
0.8240110909
 40
0.8828212652
 40
0.9121576522
 40
0.9414593436
 40
0.9707369948
 40
1.0
 40
1.0
 40
1.0
 40
1.0
 10
5.6661627873
 20
5.0247320266
 30
0.0
 10
5.66767079
 20
5.0223490032
 30
0.0
 10
5.6708388128
 20
5.0177535335
 30
0.0
 10
5.6760429081
 20
5.0113177029
 30
0.0
 10
5.6815800132
 20
5.0054114984
 30
0.0
 10
5.6873968529
 20
5.000020993
 30
0.0
 10
5.6934490511
 20
4.9951290551
 30
0.0
 10
5.699699167
 20
4.9907179882
 30
0.0
 10
5.7061157119
 20
4.9867705892
 30
0.0
 10
5.7126719599
 20
4.9832708185
 30
0.0
 10
5.7193450123
 20
4.9802040815
 30
0.0
 10
5.7261150952
 20
4.977557557
 30
0.0
 10
5.7329648456
 20
4.9753200874
 30
0.0
 10
5.7398788934
 20
4.9734822946
 30
0.0
 10
5.7468432076
 20
4.9720365391
 30
0.0
 10
5.752683287
 20
4.9711526061
 30
0.0
 10
5.7573652647
 20
4.9706370353
 30
0.0
 10
5.760879193
 20
4.9703457897
 30
0.0
 10
5.7643966544
 20
4.9701488379
 30
0.0
 10
5.7667435348
 20
4.9700800974
 30
0.0
 10
5.7679168725
 20
4.9700617427
 30
0.0
  0
SPLINE
  5
29B
100
AcDbEntity
  8
0
100
AcDbSpline
 62
7
  6
CONTINUOUS
 70
0
 71
3
 72
25
 73
21
 74
0
 42
0.0000001
 43
0.0000001
 44
0.0000000001
 40
0.0
 40
0.0
 40
0.0
 40
0.0
 40
0.0292680472
 40
0.0585500549
 40
0.0878550731
 40
0.1171939294
 40
0.1760068982
 40
0.2350742157
 40
0.2944797096
 40
0.3543112709
 40
0.4146620234
 40
0.4756312792
 40
0.5373256192
 40
0.5998595978
 40
0.663355992
 40
0.7279461245
 40
0.7937673381
 40
0.8609607351
 40
0.9296639344
 40
1.0
 40
1.0
 40
1.0
 40
1.0
 10
5.7682855396
 20
5.1887855054
 30
0.0
 10
5.7671083567
 20
5.1887704728
 30
0.0
 10
5.7647537213
 20
5.1887080807
 30
0.0
 10
5.7612244608
 20
5.1885198258
 30
0.0
 10
5.7576986119
 20
5.1882368161
 30
0.0
 10
5.7530006558
 20
5.1877314672
 30
0.0
 10
5.747140345
 20
5.1868588064
 30
0.0
 10
5.7401514031
 20
5.1854242733
 30
0.0
 10
5.7332125347
 20
5.1835953816
 30
0.0
 10
5.7263378543
 20
5.1813645071
 30
0.0
 10
5.7195428285
 20
5.1787222185
 30
0.0
 10
5.7128449151
 20
5.175657331
 30
0.0
 10
5.7062640271
 20
5.1721568967
 30
0.0
 10
5.6998231712
 20
5.1682062857
 30
0.0
 10
5.6935492988
 20
5.1637892324
 30
0.0
 10
5.6874740289
 20
5.1588885084
 30
0.0
 10
5.6816351577
 20
5.1534861307
 30
0.0
 10
5.6760773842
 20
5.1475648305
 30
0.0
 10
5.6708544398
 20
5.1411105097
 30
0.0
 10
5.6676756627
 20
5.1365007292
 30
0.0
 10
5.6661628004
 20
5.1341099925
 30
0.0
  0
SPLINE
  5
29C
100
AcDbEntity
  8
0
100
AcDbSpline
 62
7
  6
CONTINUOUS
 70
0
 71
3
 72
36
 73
32
 74
0
 42
0.0000001
 43
0.0000001
 44
0.0000000001
 40
0.0
 40
0.0
 40
0.0
 40
0.0
 40
0.0559856046
 40
0.1121077842
 40
0.1684884462
 40
0.2252567061
 40
0.2825525022
 40
0.3405306877
 40
0.3993650153
 40
0.4291704299
 40
0.4592661665
 40
0.4896805917
 40
0.5204438896
 40
0.5515876232
 40
0.583143797
 40
0.6151455272
 40
0.6476240671
 40
0.680609077
 40
0.7141252824
 40
0.7481896025
 40
0.7828078833
 40
0.8179697714
 40
0.8536445914
 40
0.8716607407
 40
0.889782406
 40
0.9079984709
 40
0.926296186
 40
0.9446612843
 40
0.9630781724
 40
0.9815302102
 40
1.0
 40
1.0
 40
1.0
 40
1.0
 10
5.1562493098
 20
5.1887866226
 30
0.0
 10
5.1596850333
 20
5.1887478419
 30
0.0
 10
5.1665645897
 20
5.1884292452
 30
0.0
 10
5.176842914
 20
5.1872248142
 30
0.0
 10
5.1870575536
 20
5.1852832543
 30
0.0
 10
5.197174415
 20
5.1825874689
 30
0.0
 10
5.2071558152
 20
5.1791133113
 30
0.0
 10
5.216956581
 20
5.1748295936
 30
0.0
 10
5.2248953988
 20
5.1705699765
 30
0.0
 10
5.2310881763
 20
5.1667258542
 30
0.0
 10
5.2356678492
 20
5.1636001061
 30
0.0
 10
5.240150341
 20
5.1602375482
 30
0.0
 10
5.244522857
 20
5.1566309563
 30
0.0
 10
5.2487708419
 20
5.1527732059
 30
0.0
 10
5.2528770894
 20
5.148656579
 30
0.0
 10
5.2568231103
 20
5.1442749416
 30
0.0
 10
5.2605863656
 20
5.139621698
 30
0.0
 10
5.2641424892
 20
5.1346928974
 30
0.0
 10
5.2674637061
 20
5.1294866408
 30
0.0
 10
5.2705184147
 20
5.1240042715
 30
0.0
 10
5.2732736432
 20
5.1182528012
 30
0.0
 10
5.2756922981
 20
5.112244972
 30
0.0
 10
5.2773921855
 20
5.1070589081
 30
0.0
 10
5.2785499875
 20
5.1028056873
 30
0.0
 10
5.2793151035
 20
5.0995581035
 30
0.0
 10
5.2799699966
 20
5.0962689041
 30
0.0
 10
5.280510787
 20
5.0929438684
 30
0.0
 10
5.2809349582
 20
5.0895895246
 30
0.0
 10
5.2812396639
 20
5.0862126883
 30
0.0
 10
5.281423139
 20
5.0828207103
 30
0.0
 10
5.2814641438
 20
5.0805545382
 30
0.0
 10
5.2814641533
 20
5.0794210123
 30
0.0
  0
SPLINE
  5
29D
100
AcDbEntity
  8
0
100
AcDbSpline
 62
7
  6
CONTINUOUS
 70
0
 71
3
 72
36
 73
32
 74
0
 42
0.0000001
 43
0.0000001
 44
0.0000000001
 40
0.0
 40
0.0
 40
0.0
 40
0.0
 40
0.036915825
 40
0.0553327007
 40
0.0736977821
 40
0.0919954753
 40
0.1102115318
 40
0.1283332066
 40
0.1463493576
 40
0.1642505634
 40
0.1820291245
 40
0.2171910991
 40
0.2518093865
 40
0.2858736229
 40
0.3193898831
 40
0.3523750419
 40
0.3848536416
 40
0.4168553836
 40
0.4484116528
 40
0.4795554539
 40
0.5103187207
 40
0.5407332651
 40
0.5708290365
 40
0.600634523
 40
0.6594689839
 40
0.7174472422
 40
0.7747430998
 40
0.8315113567
 40
0.88789208
 40
0.9440142656
 40
1.0
 40
1.0
 40
1.0
 40
1.0
 10
5.0277141565
 20
5.0794210123
 30
0.0
 10
5.0277142593
 20
5.0816865675
 30
0.0
 10
5.0278380931
 20
5.0850840156
 30
0.0
 10
5.0282445481
 20
5.0895892323
 30
0.0
 10
5.0286677368
 20
5.0929437071
 30
0.0
 10
5.0292081206
 20
5.0962687377
 30
0.0
 10
5.0298632705
 20
5.0995578429
 30
0.0
 10
5.0306286896
 20
5.1028052664
 30
0.0
 10
5.0315001027
 20
5.1060058139
 30
0.0
 10
5.032473243
 20
5.1091548965
 30
0.0
 10
5.0338958497
 20
5.1132638884
 30
0.0
 10
5.0359048816
 20
5.118252243
 30
0.0
 10
5.0386596839
 20
5.124003606
 30
0.0
 10
5.0417140418
 20
5.1294861023
 30
0.0
 10
5.0450352433
 20
5.1346922467
 30
0.0
 10
5.0485914179
 20
5.1396209029
 30
0.0
 10
5.0523545552
 20
5.1442741229
 30
0.0
 10
5.0563004255
 20
5.1486557761
 30
0.0
 10
5.0604066032
 20
5.152772349
 30
0.0
 10
5.0646544882
 20
5.1566300721
 30
0.0
 10
5.0690268408
 20
5.1602367265
 30
0.0
 10
5.0735092658
 20
5.1635992274
 30
0.0
 10
5.0780888142
 20
5.1667250127
 30
0.0
 10
5.0842814619
 20
5.1705691374
 30
0.0
 10
5.0922201035
 20
5.1748287904
 30
0.0
 10
5.1020206542
 20
5.1791125852
 30
0.0
 10
5.1120018403
 20
5.1825868316
 30
0.0
 10
5.1221184907
 20
5.1852827429
 30
0.0
 10
5.1323329291
 20
5.1872244288
 30
0.0
 10
5.1426110674
 20
5.1884290322
 30
0.0
 10
5.1494905092
 20
5.1887477326
 30
0.0
 10
5.1529261811
 20
5.1887865844
 30
0.0
  0
SPLINE
  5
29E
100
AcDbEntity
  8
0
100
AcDbSpline
 62
7
  6
CONTINUOUS
 70
0
 71
3
 72
101
 73
97
 74
0
 42
0.0000001
 43
0.0000001
 44
0.0000000001
 40
0.0
 40
0.0
 40
0.0
 40
0.0
 40
0.0000032011
 40
0.0000127359
 40
0.0000285996
 40
0.0000507871
 40
0.0000792938
 40
0.0001141146
 40
0.0002026793
 40
0.0003164424
 40
0.0004553649
 40
0.0006194022
 40
0.0008084904
 40
0.0012615486
 40
0.0018139975
 40
0.0024652695
 40
0.0032147007
 40
0.0040616051
 40
0.0050052692
 40
0.0060448586
 40
0.0071795058
 40
0.0097299788
 40
0.0126466197
 40
0.0159185049
 40
0.0195346278
 40
0.0234840035
 40
0.0277555485
 40
0.0323377342
 40
0.0372187845
 40
0.0478298366
 40
0.0594983897
 40
0.0721414798
 40
0.0856825931
 40
0.1000528839
 40
0.1151910391
 40
0.131042836
 40
0.1647043643
 40
0.2007297291
 40
0.2388784205
 40
0.2789492029
 40
0.2996484075
 40
0.3207550026
 40
0.3422406541
 40
0.3640737185
 40
0.3862182338
 40
0.4086332336
 40
0.4312727481
 40
0.4540858252
 40
0.4999993606
 40
0.5229908137
 40
0.5459222437
 40
0.5687353225
 40
0.5913748299
 40
0.6359263245
 40
0.6577593668
 40
0.6792450585
 40
0.700351638
 40
0.7210508239
 40
0.7611216151
 40
0.7992703136
 40
0.8352956041
 40
0.8689572443
 40
0.8848089847
 40
0.8999469934
 40
0.9143173785
 40
0.9278585456
 40
0.9405017238
 40
0.9521703038
 40
0.9627812622
 40
0.9676622741
 40
0.9722444624
 40
0.9765160171
 40
0.9804653581
 40
0.984081429
 40
0.9873532854
 40
0.9902699479
 40
0.992820499
 40
0.9939552017
 40
0.9949948439
 40
0.9959385441
 40
0.996785458
 40
0.9975348776
 40
0.9981861258
 40
0.9987385465
 40
0.9991915753
 40
0.999380649
 40
0.9995446722
 40
0.9996835814
 40
0.9997973327
 40
0.9998858882
 40
0.9999207057
 40
0.9999492099
 40
0.9999713963
 40
0.9999872599
 40
0.999996796
 40
1.0
 40
1.0
 40
1.0
 40
1.0
 10
6.4074699271
 20
5.0312960123
 30
0.0
 10
6.407469824
 20
5.0312960621
 30
0.0
 10
6.4074695681
 20
5.0312964716
 30
0.0
 10
6.4074688096
 20
5.0312971378
 30
0.0
 10
6.4074676721
 20
5.0312984173
 30
0.0
 10
6.4074660239
 20
5.0313001278
 30
0.0
 10
6.4074639305
 20
5.0313023585
 30
0.0
 10
6.4074602016
 20
5.0313063054
 30
0.0
 10
6.407454389
 20
5.0313124789
 30
0.0
 10
6.4074460278
 20
5.0313213638
 30
0.0
 10
6.4074358257
 20
5.0313322221
 30
0.0
 10
6.4074237875
 20
5.0313450504
 30
0.0
 10
6.4074040773
 20
5.0313660814
 30
0.0
 10
6.4073749008
 20
5.0313972728
 30
0.0
 10
6.4073344866
 20
5.0314405793
 30
0.0
 10
6.4072869018
 20
5.0314916876
 30
0.0
 10
6.4072322071
 20
5.0315505604
 30
0.0
 10
6.4071704673
 20
5.0316171571
 30
0.0
 10
6.407101751
 20
5.0316914322
 30
0.0
 10
6.4070261312
 20
5.0317733355
 30
0.0
 10
6.4069116656
 20
5.0318975629
 30
0.0
 10
6.4067519936
 20
5.0320713914
 30
0.0
 10
6.4065413422
 20
5.0323021476
 30
0.0
 10
6.4063059881
 20
5.0325619382
 30
0.0
 10
6.4060470628
 20
5.0328501928
 30
0.0
 10
6.4057656765
 20
5.0331663088
 30
0.0
 10
6.4054629439
 20
5.0335096583
 30
0.0
 10
6.4051400605
 20
5.0338796421
 30
0.0
 10
6.4046711167
 20
5.034422976
 30
0.0
 10
6.4040434985
 20
5.0351640139
 30
0.0
 10
6.4032495616
 20
5.0361277285
 30
0.0
 10
6.4024046292
 20
5.0371849845
 30
0.0
 10
6.4015179599
 20
5.0383323111
 30
0.0
 10
6.4005983606
 20
5.0395666444
 30
0.0
 10
6.3996542474
 20
5.0408854058
 30
0.0
 10
6.3983473635
 20
5.0427921382
 30
0.0
 10
6.3967020629
 20
5.0453714804
 30
0.0
 10
6.3947881701
 20
5.0487202694
 30
0.0
 10
6.3929541954
 20
5.0523723463
 30
0.0
 10
6.3915557218
 20
5.0556234562
 30
0.0
 10
6.3905289513
 20
5.0583652811
 30
0.0
 10
6.3898063931
 20
5.0605101579
 30
0.0
 10
6.3891473863
 20
5.0627177716
 30
0.0
 10
6.3885589535
 20
5.0649836341
 30
0.0
 10
6.3880471796
 20
5.0673021132
 30
0.0
 10
6.3876190926
 20
5.0696668301
 30
0.0
 10
6.3872799713
 20
5.0720701516
 30
0.0
 10
6.3869510564
 20
5.0753208089
 30
0.0
 10
6.3868187167
 20
5.0786016123
 30
0.0
 10
6.3868848408
 20
5.0818850441
 30
0.0
 10
6.3870339887
 20
5.0843387364
 30
0.0
 10
6.3872799845
 20
5.0867719312
 30
0.0
 10
6.3877294569
 20
5.0899589511
 30
0.0
 10
6.3883576053
 20
5.0930829795
 30
0.0
 10
6.3891472906
 20
5.09612425
 30
0.0
 10
6.3898064902
 20
5.0983318463
 30
0.0
 10
6.3905289648
 20
5.1004767389
 30
0.0
 10
6.3915557114
 20
5.1032185767
 30
0.0
 10
6.3929542054
 20
5.1064696769
 30
0.0
 10
6.3947882014
 20
5.1101217389
 30
0.0
 10
6.3967020231
 20
5.1134705717
 30
0.0
 10
6.3983473941
 20
5.1160498691
 30
0.0
 10
6.3996542605
 20
5.1179566084
 30
0.0
 10
6.4005983155
 20
5.1192754072
 30
0.0
 10
6.401517956
 20
5.1205097101
 30
0.0
 10
6.4024046294
 20
5.1216570439
 30
0.0
 10
6.4032495837
 20
5.1227142904
 30
0.0
 10
6.4040435263
 20
5.1236780011
 30
0.0
 10
6.4046711281
 20
5.1244190478
 30
0.0
 10
6.4051400618
 20
5.1249623845
 30
0.0
 10
6.4054629454
 20
5.1253323668
 30
0.0
 10
6.40576568
 20
5.1256757135
 30
0.0
 10
6.4060470604
 20
5.125991831
 30
0.0
 10
6.406305977
 20
5.1262800878
 30
0.0
 10
6.4065413265
 20
5.1265398798
 30
0.0
 10
6.4067519814
 20
5.1267706363
 30
0.0
 10
6.4069116631
 20
5.1269444634
 30
0.0
 10
6.4070261403
 20
5.1270686891
 30
0.0
 10
6.4071017684
 20
5.1271505918
 30
0.0
 10
6.4071704905
 20
5.1272248663
 30
0.0
 10
6.407232232
 20
5.1272914631
 30
0.0
 10
6.407286925
 20
5.1273503362
 30
0.0
 10
6.4073345062
 20
5.1274014448
 30
0.0
 10
6.4073749159
 20
5.1274447515
 30
0.0
 10
6.4074040885
 20
5.1274759431
 30
0.0
 10
6.4074237956
 20
5.1274969741
 30
0.0
 10
6.4074358316
 20
5.1275098024
 30
0.0
 10
6.4074460317
 20
5.1275206607
 30
0.0
 10
6.4074543912
 20
5.1275295454
 30
0.0
 10
6.4074602026
 20
5.127535719
 30
0.0
 10
6.4074639308
 20
5.1275396657
 30
0.0
 10
6.4074660236
 20
5.1275418968
 30
0.0
 10
6.407467672
 20
5.1275436063
 30
0.0
 10
6.4074688084
 20
5.1275448883
 30
0.0
 10
6.4074695689
 20
5.1275455502
 30
0.0
 10
6.407469823
 20
5.1275459643
 30
0.0
 10
6.4074699271
 20
5.1275460123
 30
0.0
  0
LINE
  5
29F
100
AcDbEntity
  8
0
100
AcDbLine
 62
7
  6
CONTINUOUS
 10
5.2552141533
 20
4.9525460123
 11
5.2420892783
 21
4.9667504239
  0
SPLINE
  5
2A0
100
AcDbEntity
  8
0
100
AcDbSpline
 62
7
  6
CONTINUOUS
 70
0
 71
3
 72
27
 73
23
 74
0
 42
0.0000001
 43
0.0000001
 44
0.0000000001
 40
0.0
 40
0.0
 40
0.0
 40
0.0
 40
0.0554758742
 40
0.1114908312
 40
0.1681273623
 40
0.2254751585
 40
0.2836314806
 40
0.3427006379
 40
0.4027928127
 40
0.464020752
 40
0.5264936885
 40
0.5903071341
 40
0.6555268906
 40
0.7221664937
 40
0.7560102634
 40
0.7901767395
 40
0.8246405857
 40
0.8593686339
 40
0.8943198561
 40
0.929445899
 40
0.9646921978
 40
1.0
 40
1.0
 40
1.0
 40
1.0
 10
5.8686693108
 20
5.1341092041
 30
0.0
 10
5.8677559871
 20
5.1363270535
 30
0.0
 10
5.8658027979
 20
5.1407369296
 30
0.0
 10
5.8625036871
 20
5.1472181635
 30
0.0
 10
5.8588083833
 20
5.1535763383
 30
0.0
 10
5.8547017681
 20
5.1597885915
 30
0.0
 10
5.8501672483
 20
5.1658283497
 30
0.0
 10
5.8451872174
 20
5.171663925
 30
0.0
 10
5.839743808
 20
5.177257552
 30
0.0
 10
5.8338200546
 20
5.1825640519
 30
0.0
 10
5.8274019127
 20
5.187529494
 30
0.0
 10
5.8204811527
 20
5.1920901557
 30
0.0
 10
5.8130603566
 20
5.196171827
 30
0.0
 10
5.8065067784
 20
5.1990901943
 30
0.0
 10
5.8010432665
 20
5.2011053238
 30
0.0
 10
5.7968203315
 20
5.2024509254
 30
0.0
 10
5.7925033298
 20
5.2036117743
 30
0.0
 10
5.7881037387
 20
5.2045776792
 30
0.0
 10
5.7836351628
 20
5.2053394717
 30
0.0
 10
5.7791129583
 20
5.2058894706
 30
0.0
 10
5.774554198
 20
5.2062218847
 30
0.0
 10
5.7715032149
 20
5.2062960109
 30
0.0
 10
5.7699766533
 20
5.2062960123
 30
0.0
  0
SPLINE
  5
2A1
100
AcDbEntity
  8
0
100
AcDbSpline
 62
7
  6
CONTINUOUS
 70
0
 71
3
 72
15
 73
11
 74
0
 42
0.0000001
 43
0.0000001
 44
0.0000000001
 40
0.0
 40
0.0
 40
0.0
 40
0.0
 40
0.1300442383
 40
0.2594647533
 40
0.3877020814
 40
0.5143090562
 40
0.6389720404
 40
0.7615080722
 40
0.8818458674
 40
1.0
 40
1.0
 40
1.0
 40
1.0
 10
5.7699766533
 20
5.2062960123
 30
0.0
 10
5.7674193713
 20
5.20629601
 30
0.0
 10
5.762314637
 20
5.2060881126
 30
0.0
 10
5.7547392208
 20
5.2051613167
 30
0.0
 10
5.747327951
 20
5.2036467807
 30
0.0
 10
5.7401478348
 20
5.2015851009
 30
0.0
 10
5.7332498544
 20
5.1990254859
 30
0.0
 10
5.7266697306
 20
5.1960206246
 30
0.0
 10
5.7204298348
 20
5.1926231502
 30
0.0
 10
5.71646782
 20
5.1901062513
 30
0.0
 10
5.7145481886
 20
5.1887972393
 30
0.0
  0
LINE
  5
2A2
100
AcDbEntity
  8
0
100
AcDbLine
 62
7
  6
CONTINUOUS
 10
5.0670889951
 20
4.9667504808
 11
5.0539641533
 21
4.9525460123
  0
SPLINE
  5
2A3
100
AcDbEntity
  8
0
100
AcDbSpline
 62
7
  6
CONTINUOUS
 70
0
 71
3
 72
38
 73
34
 74
0
 42
0.0000001
 43
0.0000001
 44
0.0000000001
 40
0.0
 40
0.0
 40
0.0
 40
0.0
 40
0.00009527
 40
0.000200493
 40
0.0003439628
 40
0.0007452008
 40
0.0012981006
 40
0.0020017799
 40
0.0028554424
 40
0.0038589126
 40
0.0050122906
 40
0.0077691674
 40
0.0111266172
 40
0.0150830003
 40
0.0196355305
 40
0.0247810252
 40
0.0305150408
 40
0.0437287475
 40
0.0592261421
 40
0.0769494014
 40
0.0968401655
 40
0.1188383341
 40
0.1428823117
 40
0.16890689
 40
0.2266028621
 40
0.2913380616
 40
0.3625447856
 40
0.4396829775
 40
0.5222276083
 40
0.609679698
 40
0.7015762799
 40
0.7975049407
 40
1.0
 40
1.0
 40
1.0
 40
1.0
 10
5.2727141168
 20
4.9700460305
 30
0.0
 10
5.2727130574
 20
4.9700466678
 30
0.0
 10
5.2727110667
 20
4.9700483659
 30
0.0
 10
5.272707492
 20
4.9700510306
 30
0.0
 10
5.2727008486
 20
4.9700562312
 30
0.0
 10
5.2726896177
 20
4.9700649875
 30
0.0
 10
5.2726727321
 20
4.9700783188
 30
0.0
 10
5.2726512816
 20
4.9700953398
 30
0.0
 10
5.2726253177
 20
4.9701160799
 30
0.0
 10
5.2725948398
 20
4.9701405184
 30
0.0
 10
5.2725451397
 20
4.9701804638
 30
0.0
 10
5.2724716842
 20
4.9702396126
 30
0.0
 10
5.2723698885
 20
4.9703215615
 30
0.0
 10
5.2722499112
 20
4.9704180839
 30
0.0
 10
5.2721118122
 20
4.9705290965
 30
0.0
 10
5.2719556783
 20
4.9706544917
 30
0.0
 10
5.2717118327
 20
4.9708501623
 30
0.0
 10
5.2713630194
 20
4.9711296591
 30
0.0
 10
5.2708926561
 20
4.971506266
 30
0.0
 10
5.2703546264
 20
4.9719369896
 30
0.0
 10
5.2697506688
 20
4.9724203412
 30
0.0
 10
5.2690825172
 20
4.9729547478
 30
0.0
 10
5.2683519094
 20
4.9735384992
 30
0.0
 10
5.2672587817
 20
4.974410634
 30
0.0
 10
5.2657519164
 20
4.9756108537
 30
0.0
 10
5.2637849195
 20
4.977174446
 30
0.0
 10
5.2616182882
 20
4.9788923387
 30
0.0
 10
5.2592672809
 20
4.9807496624
 30
0.0
 10
5.2567469305
 20
4.9827326876
 30
0.0
 10
5.2540715831
 20
4.9848284199
 30
0.0
 10
5.2512546239
 20
4.9870250018
 30
0.0
 10
5.2472522514
 20
4.9901290762
 30
0.0
 10
5.2441805926
 20
4.9924873631
 30
0.0
 10
5.2420903855
 20
4.9940797656
 30
0.0
  0
ENDSEC
  0
SECTION
  2
OBJECTS
  0
DICTIONARY
  5
C
100
AcDbDictionary
280
0
281
1
  3
ACAD_GROUP
350
D
  3
ACAD_MLINESTYLE
350
17
  3
ACAD_LAYOUT
350
1A
  3
ACAD_PLOTSETTINGS
350
19
  3
ACAD_PLOTSTYLENAME
350
E
  0
DICTIONARY
  5
D
102
{ACAD_REACTORS
330
C
102
}
100
AcDbDictionary
280
0
281
1
  0
ACDBDICTIONARYWDFLT
  5
E
102
{ACAD_REACTORS
330
C
102
}
100
AcDbDictionary
281
1
  3
Normal
350
F
100
AcDbDictionaryWithDefault
340
F
  0
DICTIONARY
  5
17
102
{ACAD_REACTORS
330
C
102
}
100
AcDbDictionary
280
0
281
1
  3
Standard
350
18
  0
DICTIONARY
  5
19
102
{ACAD_REACTORS
330
C
102
}
100
AcDbDictionary
281
1
  0
DICTIONARY
  5
1A
102
{ACAD_REACTORS
330
C
102
}
100
AcDbDictionary
281
1
  3
Model
350
2A4
  3
Layout1
350
2A5
  0
ACDBPLACEHOLDER
  5
F
102
{ACAD_REACTORS
330
E
102
}
  0
MLINESTYLE
  5
18
102
{ACAD_REACTORS
330
17
102
}
100
AcDbMlineStyle
  2
STANDARD
 70
0
  3

 62
256
 51
90.0
 52
90.0
 71
2
 49
0.5
 62
256
  6
BYLAYER
 49
-0.5
 62
256
  6
BYLAYER
  0
LAYOUT
  5
2A4
102
{ACAD_REACTORS
330
1A
102
}
100
AcDbPlotSettings
  1

  2
none_device
  4
ANSI_A_(11.00_x_8.50_Inches)
  6

 40
0.0
 41
0.0
 42
0.0
 43
0.0
 44
279.4
 45
215.9
 46
0.0
 47
0.0
 48
0.0
 49
0.0
140
0.0
141
0.0
142
1.0
143
1.0
 70
1024
 72
0
 73
0
 74
0
  7

 75
0
147
1.0
148
0.0
149
0.0
100
AcDbLayout
  1
Model
 70
0
 71
0
 10
0.0
 20
0.0
 11
11.0
 21
8.5
 12
0.0
 22
0.0
 32
0.0
 14
0.0
 24
0.0
 34
0.0
 15
0.0
 25
0.0
 35
0.0
146
0.0
 13
0.0
 23
0.0
 33
0.0
 16
1.0
 26
0.0
 36
0.0
 17
0.0
 27
1.0
 37
0.0
 76
0
330
202
345
0
346
0
  0
LAYOUT
  5
2A5
102
{ACAD_REACTORS
330
1A
102
}
100
AcDbPlotSettings
  1

  2
none_device
  4
ANSI_A_(11.00_x_8.50_Inches)
  6

 40
0.0
 41
0.0
 42
0.0
 43
0.0
 44
279.4
 45
215.9
 46
0.0
 47
0.0
 48
0.0
 49
0.0
140
0.0
141
0.0
142
1.0
143
1.0
 70
0
 72
0
 73
0
 74
0
  7

 75
0
147
1.0
148
0.0
149
0.0
100
AcDbLayout
  1
Layout1
 70
0
 71
1
 10
0.0
 20
0.0
 11
11.0
 21
8.5
 12
0.0
 22
0.0
 32
0.0
 14
0.0
 24
0.0
 34
0.0
 15
0.0
 25
0.0
 35
0.0
146
0.0
 13
0.0
 23
0.0
 33
0.0
 16
1.0
 26
0.0
 36
0.0
 17
0.0
 27
1.0
 37
0.0
 76
0
330
203
345
0
346
0
  0
ENDSEC
  0
EOF
