999
DXF file: 1400-5403_front.dxf
999
Pro/ENGINEER 2018400 by Parametric Technology Corporation
  0
SECTION
  2
HEADER
  9
$ACADVER
  1
AC1027
  9
$DWGCODEPAGE
  3
ANSI_1252
  9
$EXTMAX
 10
11.0
 20
8.5
 30
0.0
  9
$EXTMIN
 10
0.0
 20
0.0
 30
0.0
  9
$LIMMIN
 10
0.0
 20
0.0
  9
$LIMMAX
 10
11.0
 20
8.5
  9
$VIEWCTR
 10
5.5
 20
4.25
  9
$VIEWSIZE
 40
8.5
  9
$CLAYER
  8
0
  9
$LTSCALE
 40
0.605
  9
$CELTYPE
  6
BYLAYER
  9
$DIMSCALE
 40
1.0
  9
$DIMASZ
 40
0.1
  9
$DIMEXO
 40
0.0625
  9
$DIMDLI
 40
0.418
  9
$DIMEXE
 40
0.125
  9
$DIMCEN
 40
0.099
  9
$DIMLFAC
 40
1.0
  9
$DIMBLK
  1
_FILLED
  9
$DIMALT
 70
1
  9
$DIMALTD
 70
1
  9
$DIMALTTD
 70
2
  9
$DIMALTF
 40
25.4
  9
$DIMTXT
 40
0.08
  9
$DIMTOL
 70
1
  9
$DIMLIM
 70
0
  9
$DIMTFAC
 40
1.0
  9
$DIMTP
 40
0.01
  9
$DIMTM
 40
0.01
  9
$DIMGAP
 40
0.09
  9
$DIMDSEP
 70
46
  9
$AUNITS
 70
0
  9
$PDMODE
 70
3
  9
$PDSIZE
 40
0.3125
  9
$HANDSEED
  5
2CA
  9
$TILEMODE
 70
1
  9
$MEASUREMENT
 70
0
  9
$INSUNITS
 70
1
  0
ENDSEC
  0
SECTION
  2
CLASSES
  0
CLASS
  1
ACDBDICTIONARYWDFLT
  2
AcDbDictionaryWithDefault
  3
AutoCAD 2000
 90
0
 91
1
280
0
281
0
  0
CLASS
  1
ACDBPLACEHOLDER
  2
AcDbPlaceHolder
  3
AutoCAD 2000
 90
0
 91
1
280
0
281
0
  0
CLASS
  1
LAYOUT
  2
AcDbLayout
  3
AutoCAD 2000
 90
0
 91
0
280
0
281
0
  0
ENDSEC
  0
SECTION
  2
TABLES
  0
TABLE
  2
VPORT
  5
8
100
AcDbSymbolTable
 70
2
  0
VPORT
  5
1F4
100
AcDbSymbolTableRecord
100
AcDbViewportTableRecord
  2
*ACTIVE
 70
0
 10
0.0
 20
0.0
 11
1.0
 21
1.0
 12
5.5
 22
4.25
 13
0.0
 23
0.0
 14
1.0
 24
1.0
 15
0.0
 25
0.0
 16
0.0
 26
0.0
 36
1.0
 17
0.0
 27
0.0
 37
0.0
 40
8.5
 41
1.2941176471
 42
50.0
 43
0.0
 44
0.0
 50
0.0
 51
0.0
 71
0
 72
100
 73
1
 74
1
 75
0
 76
0
 77
0
 78
0
  0
ENDTAB
  0
TABLE
  2
LTYPE
  5
5
100
AcDbSymbolTable
 70
6
  0
LTYPE
  5
14
100
AcDbSymbolTableRecord
100
AcDbLinetypeTableRecord
  2
BYBLOCK
 70
0
  3

 72
65
 73
0
 40
0.0
  0
LTYPE
  5
15
100
AcDbSymbolTableRecord
100
AcDbLinetypeTableRecord
  2
BYLAYER
 70
0
  3

 72
65
 73
0
 40
0.0
  0
LTYPE
  5
16
100
AcDbSymbolTableRecord
100
AcDbLinetypeTableRecord
  2
CONTINUOUS
 70
64
  3
Solid line
 72
65
 73
0
 40
0.0
  0
LTYPE
  5
1F5
100
AcDbSymbolTableRecord
100
AcDbLinetypeTableRecord
  2
CENTER
 70
64
  3
____ _ ____ _ ____ _ ____ _ ____ _ ____ _ ____
 72
65
 73
4
 40
0.6
 49
0.375
 74
0
 49
-0.075
 74
0
 49
0.075
 74
0
 49
-0.075
 74
0
  0
LTYPE
  5
1F6
100
AcDbSymbolTableRecord
100
AcDbLinetypeTableRecord
  2
HIDDEN
 70
64
  3
- - - - - - - - - - - - - - - - - - - -
 72
65
 73
2
 40
0.2
 49
0.1
 74
0
 49
-0.1
 74
0
  0
LTYPE
  5
1F7
100
AcDbSymbolTableRecord
100
AcDbLinetypeTableRecord
  2
PHANTOM
 70
64
  3
_____ _ _ _____ _ _ _____ _ _ _____
 72
65
 73
6
 40
0.8
 49
0.45
 74
0
 49
-0.05
 74
0
 49
0.1
 74
0
 49
-0.05
 74
0
 49
0.1
 74
0
 49
-0.05
 74
0
  0
LTYPE
  5
1F8
100
AcDbSymbolTableRecord
100
AcDbLinetypeTableRecord
  2
DOT
 70
64
  3
. . . . . . . . . . . . . . . . . . . .
 72
65
 73
2
 40
0.2
 49
0.1
 74
0
 49
-0.1
 74
0
  0
LTYPE
  5
1F9
100
AcDbSymbolTableRecord
100
AcDbLinetypeTableRecord
  2
DASHED
 70
64
  3
- - - - - - - - - - - - - - - - - - - -
 72
65
 73
2
 40
0.2
 49
0.1
 74
0
 49
-0.1
 74
0
  0
ENDTAB
  0
TABLE
  2
LAYER
  5
2
100
AcDbSymbolTable
 70
36
  0
LAYER
  5
10
100
AcDbSymbolTableRecord
100
AcDbLayerTableRecord
  2
0
 70
0
 62
7
  6
CONTINUOUS
370
-3
390
F
  0
LAYER
  5
1FA
100
AcDbSymbolTableRecord
100
AcDbLayerTableRecord
  2
DEFAULT_1
 70
0
 62
7
  6
CENTER
370
-3
390
F
  0
LAYER
  5
1FB
100
AcDbSymbolTableRecord
100
AcDbLayerTableRecord
  2
DEFAULT_2
 70
0
 62
8
  6
HIDDEN
370
-3
390
F
  0
LAYER
  5
1FC
100
AcDbSymbolTableRecord
100
AcDbLayerTableRecord
  2
DEFAULT_3
 70
0
 62
7
  6
PHANTOM
370
-3
390
F
  0
LAYER
  5
1FD
100
AcDbSymbolTableRecord
100
AcDbLayerTableRecord
  2
DEFAULT_COORDINATE_SYSTEM
 70
0
 62
7
  6
CONTINUOUS
370
-3
390
F
  0
LAYER
  5
1FE
100
AcDbSymbolTableRecord
100
AcDbLayerTableRecord
  2
DEFAULT_DATUM_AXES
 70
0
 62
7
  6
CONTINUOUS
370
-3
390
F
  0
LAYER
  5
1FF
100
AcDbSymbolTableRecord
100
AcDbLayerTableRecord
  2
DEFAULT_DATUM_PLANES
 70
0
 62
7
  6
CONTINUOUS
370
-3
390
F
  0
ENDTAB
  0
TABLE
  2
STYLE
  5
3
100
AcDbSymbolTable
 70
1
  0
STYLE
  5
11
100
AcDbSymbolTableRecord
100
AcDbTextStyleTableRecord
  2
STANDARD
 70
0
 40
0.0
 41
0.8
 50
0.0
 71
0
 42
0.2
  3
txt
  4

  0
STYLE
  5
200
100
AcDbSymbolTableRecord
100
AcDbTextStyleTableRecord
  2
TEXTSTYLE_1
 70
0
 40
0.0
 41
0.8
 50
0.0
 71
0
 42
0.2
  3
gdt
  4

  0
ENDTAB
  0
TABLE
  2
VIEW
  5
6
100
AcDbSymbolTable
 70
0
  0
ENDTAB
  0
TABLE
  2
UCS
  5
7
100
AcDbSymbolTable
 70
0
  0
ENDTAB
  0
TABLE
  2
APPID
  5
9
100
AcDbSymbolTable
 70
1
  0
APPID
  5
201
100
AcDbSymbolTableRecord
100
AcDbRegAppTableRecord
  2
ACAD
 70
0
  0
ENDTAB
  0
TABLE
  2
BLOCK_RECORD
  5
1
100
AcDbSymbolTable
 70
0
  0
BLOCK_RECORD
  5
202
100
AcDbSymbolTableRecord
100
AcDbBlockTableRecord
  2
*Model_Space
  0
BLOCK_RECORD
  5
203
100
AcDbSymbolTableRecord
100
AcDbBlockTableRecord
  2
*Paper_Space
  0
BLOCK_RECORD
  5
204
100
AcDbSymbolTableRecord
100
AcDbBlockTableRecord
  2
_FILLED
  0
ENDTAB
  0
TABLE
  2
DIMSTYLE
  5
A
100
AcDbSymbolTable
 70
1
100
AcDbDimStyleTable
 71
0
  0
DIMSTYLE
105
205
100
AcDbSymbolTableRecord
100
AcDbDimStyleTableRecord
  2
STANDARD
 70
0
  3

  4

 40
1.0
 41
0.1
 42
0.0625
 43
0.38
 44
0.125
 45
0.0
 46
0.0
 47
0.01
 48
0.01
140
0.08
141
0.09
142
0.0
143
25.4
144
1.0
145
0.0
146
1.0
147
0.09
 71
1.0
 72
0.0
 73
1
 74
1
 75
0
 76
0
 77
0
 78
4
 79
1
170
1
171
1
172
0
173
0
174
0
175
0
176
0
177
0
178
0
270
2
179
2
271
2
272
2
273
2
274
2
275
0
280
0
281
0
282
0
283
1
284
4
285
0
286
0
287
3
288
0
340
11
278
46
341
204
342
204
343
204
344
204
  0
ENDTAB
  0
ENDSEC
  0
SECTION
  2
BLOCKS
  0
BLOCK
  5
20
100
AcDbEntity
  8
0
100
AcDbBlockBegin
  2
*Model_Space
 70
0
 10
0.0
 20
0.0
 30
0.0
  3
*Model_Space
  1

  0
ENDBLK
  5
21
100
AcDbEntity
  8
0
100
AcDbBlockEnd
  0
BLOCK
  5
1C
100
AcDbEntity
  8
0
100
AcDbBlockBegin
  2
*Paper_Space
 70
0
 10
0.0
 20
0.0
 30
0.0
  3
*Paper_Space
  1

  0
ENDBLK
  5
1D
100
AcDbEntity
  8
0
100
AcDbBlockEnd
  0
BLOCK
  5
206
100
AcDbEntity
  8
0
100
AcDbBlockBegin
  2
_FILLED
 70
64
 10
0.0
 20
0.0
  3
_FILLED
  1

  0
SOLID
  5
207
100
AcDbEntity
  8
0
  6
BYBLOCK
 62
0
100
AcDbTrace
 10
0.0
 20
0.0
 11
-1.0
 21
0.2
 12
-1.0
 22
-0.2
 13
-1.0
 23
-0.2
  0
ENDBLK
  5
208
100
AcDbEntity
  8
0
  6
BYBLOCK
 62
0
100
AcDbBlockEnd
  0
ENDSEC
  0
SECTION
  2
ENTITIES
  0
MTEXT
  5
209
100
AcDbEntity
  8
0
100
AcDbMText
 62
2
  6
CONTINUOUS
  7
STANDARD
 71
3
 72
1
 10
5.113761646
 20
0.5155950311
 30
0.0
 11
1.0
 21
0.0
 31
0.0
 73
2
 44
0.9
  1
SCALE  .500
 40
0.08
 41
0.704
  0
LINE
  5
20A
100
AcDbEntity
  8
0
100
AcDbLine
 62
7
  6
CONTINUOUS
 10
0.0
 20
0.0
 11
0.0
 21
8.5
  0
LINE
  5
20B
100
AcDbEntity
  8
0
100
AcDbLine
 62
7
  6
CONTINUOUS
 10
0.0
 20
0.0
 11
11.0
 21
0.0
  0
LINE
  5
20C
100
AcDbEntity
  8
0
100
AcDbLine
 62
7
  6
CONTINUOUS
 10
0.0
 20
8.5
 11
11.0
 21
8.5
  0
LINE
  5
20D
100
AcDbEntity
  8
0
100
AcDbLine
 62
7
  6
CONTINUOUS
 10
11.0
 20
0.0
 11
11.0
 21
8.5
  0
LINE
  5
20E
100
AcDbEntity
  8
0
100
AcDbLine
 62
7
  6
CONTINUOUS
 10
2.618761646
 20
0.6105950311
 11
3.608761646
 21
0.6105950311
  0
LINE
  5
20F
100
AcDbEntity
  8
0
100
AcDbLine
 62
7
  6
CONTINUOUS
 10
6.618761646
 20
0.6105950311
 11
7.608761646
 21
0.6105950311
  0
LINE
  5
210
100
AcDbEntity
  8
0
100
AcDbLine
 62
7
  6
CONTINUOUS
 10
1.619261646
 20
3.430844947
 11
1.619261646
 21
3.7233451151
  0
LINE
  5
211
100
AcDbEntity
  8
0
100
AcDbLine
 62
7
  6
CONTINUOUS
 10
1.629261646
 20
3.4208450311
 11
1.629261646
 21
3.7333450311
  0
LINE
  5
212
100
AcDbEntity
  8
0
100
AcDbLine
 62
7
  6
CONTINUOUS
 10
2.618761646
 20
0.8080950311
 11
3.608761646
 21
0.8080950311
  0
LINE
  5
213
100
AcDbEntity
  8
0
100
AcDbLine
 62
7
  6
CONTINUOUS
 10
6.618761646
 20
0.8080950311
 11
7.608761646
 21
0.8080950311
  0
LINE
  5
214
100
AcDbEntity
  8
0
100
AcDbLine
 62
7
  6
CONTINUOUS
 10
2.633761646
 20
0.8230950311
 11
3.593761646
 21
0.8230950311
  0
LINE
  5
215
100
AcDbEntity
  8
0
100
AcDbLine
 62
7
  6
CONTINUOUS
 10
6.633761646
 20
0.8230950311
 11
7.593761646
 21
0.8230950311
  0
LINE
  5
216
100
AcDbEntity
  8
0
100
AcDbLine
 62
7
  6
CONTINUOUS
 10
3.471261646
 20
1.5355950311
 11
3.113761646
 21
1.8480950311
  0
LINE
  5
217
100
AcDbEntity
  8
0
100
AcDbLine
 62
7
  6
CONTINUOUS
 10
3.471261646
 20
1.5355950311
 11
3.471187633
 21
1.5356611793
  0
LINE
  5
218
100
AcDbEntity
  8
0
100
AcDbLine
 62
7
  6
CONTINUOUS
 10
1.619261646
 20
3.4308450311
 11
1.629261646
 21
3.4208450311
  0
LINE
  5
219
100
AcDbEntity
  8
0
100
AcDbLine
 62
7
  6
CONTINUOUS
 10
2.801261646
 20
2.2890950311
 11
2.816261646
 21
2.2740950311
  0
LINE
  5
21A
100
AcDbEntity
  8
0
100
AcDbLine
 62
7
  6
CONTINUOUS
 10
3.426261646
 20
1.4905950311
 11
3.4261954559
 21
1.4906689081
  0
LINE
  5
21B
100
AcDbEntity
  8
0
100
AcDbLine
 62
7
  6
CONTINUOUS
 10
3.426261646
 20
1.4905950311
 11
3.113761646
 21
1.8480950311
  0
LINE
  5
21C
100
AcDbEntity
  8
0
100
AcDbLine
 62
7
  6
CONTINUOUS
 10
3.425995555
 20
1.490899504
 11
3.4256599839
 21
1.4912868189
  0
LINE
  5
21D
100
AcDbEntity
  8
0
100
AcDbLine
 62
7
  6
CONTINUOUS
 10
6.756261646
 20
1.5355950311
 11
3.471261646
 21
1.5355950311
  0
LINE
  5
21E
100
AcDbEntity
  8
0
100
AcDbLine
 62
7
  6
CONTINUOUS
 10
2.618761646
 20
0.8080950311
 11
2.618761646
 21
0.6105950311
  0
LINE
  5
21F
100
AcDbEntity
  8
0
100
AcDbLine
 62
7
  6
CONTINUOUS
 10
3.411261646
 20
2.2740950311
 11
3.4262616457
 21
2.2590950313
  0
LINE
  5
220
100
AcDbEntity
  8
0
100
AcDbLine
 62
7
  6
CONTINUOUS
 10
2.801261646
 20
0.8230950311
 11
2.801261646
 21
2.2590950311
  0
LINE
  5
221
100
AcDbEntity
  8
0
100
AcDbLine
 62
7
  6
CONTINUOUS
 10
2.801261646
 20
2.2890950311
 11
2.801261646
 21
3.0415950311
  0
LINE
  5
222
100
AcDbEntity
  8
0
100
AcDbLine
 62
7
  6
CONTINUOUS
 10
2.957511646
 20
3.3758450311
 11
2.957511646
 21
3.0720950311
  0
LINE
  5
223
100
AcDbEntity
  8
0
100
AcDbLine
 62
7
  6
CONTINUOUS
 10
1.619261646
 20
3.7233450311
 11
1.629261646
 21
3.7333450311
  0
LINE
  5
224
100
AcDbEntity
  8
0
100
AcDbLine
 62
7
  6
CONTINUOUS
 10
6.756261646
 20
2.1605950311
 11
5.408761646
 21
2.1605950311
  0
LINE
  5
225
100
AcDbEntity
  8
0
100
AcDbLine
 62
7
  6
CONTINUOUS
 10
4.818761646
 20
2.1605950311
 11
3.471261646
 21
2.1605950311
  0
LINE
  5
226
100
AcDbEntity
  8
0
100
AcDbLine
 62
7
  6
CONTINUOUS
 10
2.801261646
 20
2.2590950311
 11
3.426261646
 21
2.2590950311
  0
LINE
  5
227
100
AcDbEntity
  8
0
100
AcDbLine
 62
7
  6
CONTINUOUS
 10
6.801261646
 20
2.2590950311
 11
7.426261646
 21
2.2590950311
  0
LINE
  5
228
100
AcDbEntity
  8
0
100
AcDbLine
 62
7
  6
CONTINUOUS
 10
2.816261646
 20
2.2740950311
 11
3.411261646
 21
2.2740950311
  0
LINE
  5
229
100
AcDbEntity
  8
0
100
AcDbLine
 62
7
  6
CONTINUOUS
 10
6.816261646
 20
2.2740950311
 11
7.411261646
 21
2.2740950311
  0
LINE
  5
22A
100
AcDbEntity
  8
0
100
AcDbLine
 62
7
  6
CONTINUOUS
 10
2.801261646
 20
2.2890950311
 11
3.426261646
 21
2.2890950311
  0
LINE
  5
22B
100
AcDbEntity
  8
0
100
AcDbLine
 62
7
  6
CONTINUOUS
 10
6.801261646
 20
2.2890950311
 11
7.426261646
 21
2.2890950311
  0
LINE
  5
22C
100
AcDbEntity
  8
0
100
AcDbLine
 62
7
  6
CONTINUOUS
 10
3.270011646
 20
3.3758450311
 11
3.2699846497
 21
3.3758788017
  0
LINE
  5
22D
100
AcDbEntity
  8
0
100
AcDbLine
 62
7
  6
CONTINUOUS
 10
3.270011646
 20
3.3758450311
 11
3.113761646
 21
3.5770950311
  0
LINE
  5
22E
100
AcDbEntity
  8
0
100
AcDbLine
 62
7
  6
CONTINUOUS
 10
3.2699846497
 20
3.3758788017
 11
3.269765966
 21
3.3761632489
  0
LINE
  5
22F
100
AcDbEntity
  8
0
100
AcDbLine
 62
7
  6
CONTINUOUS
 10
3.270011646
 20
3.3758450311
 11
3.270011646
 21
3.0720950311
  0
LINE
  5
230
100
AcDbEntity
  8
0
100
AcDbLine
 62
7
  6
CONTINUOUS
 10
3.426261646
 20
0.8230950311
 11
3.426261646
 21
1.4905950311
  0
LINE
  5
231
100
AcDbEntity
  8
0
100
AcDbLine
 62
7
  6
CONTINUOUS
 10
3.426261646
 20
2.2055950311
 11
3.426261646
 21
2.2590950311
  0
LINE
  5
232
100
AcDbEntity
  8
0
100
AcDbLine
 62
7
  6
CONTINUOUS
 10
3.426261646
 20
2.2890950311
 11
3.426261646
 21
3.0415950311
  0
LINE
  5
233
100
AcDbEntity
  8
0
100
AcDbLine
 62
7
  6
CONTINUOUS
 10
5.363761646
 20
2.3730950311
 11
4.863761646
 21
2.3730950311
  0
LINE
  5
234
100
AcDbEntity
  8
0
100
AcDbLine
 62
7
  6
CONTINUOUS
 10
5.3637620762
 20
2.3889950311
 11
4.8637612157
 21
2.3889950311
  0
LINE
  5
235
100
AcDbEntity
  8
0
100
AcDbLine
 62
7
  6
CONTINUOUS
 10
3.3149778335
 20
3.4208719998
 11
3.3144456955
 21
3.4212829802
  0
LINE
  5
236
100
AcDbEntity
  8
0
100
AcDbLine
 62
7
  6
CONTINUOUS
 10
3.315011646
 20
3.4208450311
 11
3.113761646
 21
3.5770950311
  0
LINE
  5
237
100
AcDbEntity
  8
0
100
AcDbLine
 62
7
  6
CONTINUOUS
 10
3.315011646
 20
3.4208450311
 11
3.3149778335
 21
3.4208719998
  0
LINE
  5
238
100
AcDbEntity
  8
0
100
AcDbLine
 62
7
  6
CONTINUOUS
 10
3.546761646
 20
3.7333450311
 11
3.546761646
 21
3.4208450311
  0
LINE
  5
239
100
AcDbEntity
  8
0
100
AcDbLine
 62
7
  6
CONTINUOUS
 10
3.556761646
 20
3.7233451151
 11
3.556761646
 21
3.430844947
  0
LINE
  5
23A
100
AcDbEntity
  8
0
100
AcDbLine
 62
7
  6
CONTINUOUS
 10
3.608761646
 20
0.8080950311
 11
3.608761646
 21
0.6105950311
  0
LINE
  5
23B
100
AcDbEntity
  8
0
100
AcDbLine
 62
7
  6
CONTINUOUS
 10
2.801261646
 20
3.0415950311
 11
3.426261646
 21
3.0415950311
  0
LINE
  5
23C
100
AcDbEntity
  8
0
100
AcDbLine
 62
7
  6
CONTINUOUS
 10
6.801261646
 20
3.0415950311
 11
7.426261646
 21
3.0415950311
  0
LINE
  5
23D
100
AcDbEntity
  8
0
100
AcDbLine
 62
7
  6
CONTINUOUS
 10
3.556761646
 20
3.7233450311
 11
3.546761646
 21
3.7333450311
  0
LWPOLYLINE
  5
23E
100
AcDbEntity
  8
0
100
AcDbPolyline
 62
7
  6
CONTINUOUS
 90
3
 70
0
 10
2.957757262
 20
3.3761631843
 10
2.9575386352
 20
3.3758788015
 10
2.957511646
 20
3.3758450311
  0
LINE
  5
23F
100
AcDbEntity
  8
0
100
AcDbLine
 62
7
  6
CONTINUOUS
 10
3.113761646
 20
3.5770950311
 11
2.9575116459
 21
3.3758450309
  0
LINE
  5
240
100
AcDbEntity
  8
0
100
AcDbLine
 62
7
  6
CONTINUOUS
 10
3.0252145235
 20
3.4630461504
 11
3.0213535828
 21
3.4580739174
  0
LINE
  5
241
100
AcDbEntity
  8
0
100
AcDbLine
 62
7
  6
CONTINUOUS
 10
3.0376144646
 20
3.4790173198
 11
3.03334795
 21
3.4735233791
  0
LINE
  5
242
100
AcDbEntity
  8
0
100
AcDbLine
 62
7
  6
CONTINUOUS
 10
3.0105966831
 20
3.444218459
 11
3.007286172
 21
3.4399555721
  0
LWPOLYLINE
  5
243
100
AcDbEntity
  8
0
100
AcDbPolyline
 62
7
  6
CONTINUOUS
 90
3
 70
0
 10
3.0919533814
 20
3.5490092107
 10
3.0812780267
 20
3.5352560874
 10
3.0511837859
 20
3.4964946636
  0
LINE
  5
244
100
AcDbEntity
  8
0
100
AcDbLine
 62
7
  6
CONTINUOUS
 10
3.0973633908
 20
3.5559740933
 11
3.0919533814
 21
3.5490092107
  0
LINE
  5
245
100
AcDbEntity
  8
0
100
AcDbLine
 62
7
  6
CONTINUOUS
 10
2.9855192974
 20
3.411917481
 11
2.957757262
 21
3.3761631843
  0
LINE
  5
246
100
AcDbEntity
  8
0
100
AcDbLine
 62
7
  6
CONTINUOUS
 10
2.816261646
 20
3.0565950311
 11
3.411261646
 21
3.0565950311
  0
LINE
  5
247
100
AcDbEntity
  8
0
100
AcDbLine
 62
7
  6
CONTINUOUS
 10
6.816261646
 20
3.0565950311
 11
7.411261646
 21
3.0565950311
  0
LINE
  5
248
100
AcDbEntity
  8
0
100
AcDbLine
 62
7
  6
CONTINUOUS
 10
7.270011646
 20
3.0720950311
 11
6.957511646
 21
3.0720950311
  0
LINE
  5
249
100
AcDbEntity
  8
0
100
AcDbLine
 62
7
  6
CONTINUOUS
 10
3.270011646
 20
3.0720950311
 11
2.957511646
 21
3.0720950311
  0
LINE
  5
24A
100
AcDbEntity
  8
0
100
AcDbLine
 62
7
  6
CONTINUOUS
 10
8.598261646
 20
3.4208450311
 11
7.315011646
 21
3.4208450311
  0
LINE
  5
24B
100
AcDbEntity
  8
0
100
AcDbLine
 62
7
  6
CONTINUOUS
 10
6.912511646
 20
3.4208450311
 11
6.680761646
 21
3.4208450311
  0
LINE
  5
24C
100
AcDbEntity
  8
0
100
AcDbLine
 62
7
  6
CONTINUOUS
 10
1.629261646
 20
3.4208450311
 11
2.912511646
 21
3.4208450311
  0
LINE
  5
24D
100
AcDbEntity
  8
0
100
AcDbLine
 62
7
  6
CONTINUOUS
 10
3.315011646
 20
3.4208450311
 11
3.546761646
 21
3.4208450311
  0
LINE
  5
24E
100
AcDbEntity
  8
0
100
AcDbLine
 62
7
  6
CONTINUOUS
 10
3.556761646
 20
3.4308450311
 11
3.546761646
 21
3.4208450311
  0
LINE
  5
24F
100
AcDbEntity
  8
0
100
AcDbLine
 62
7
  6
CONTINUOUS
 10
2.9125454585
 20
3.420871993
 11
2.912511646
 21
3.4208450311
  0
LINE
  5
250
100
AcDbEntity
  8
0
100
AcDbLine
 62
7
  6
CONTINUOUS
 10
3.113761646
 20
3.5770950311
 11
2.9125116458
 21
3.420845031
  0
LINE
  5
251
100
AcDbEntity
  8
0
100
AcDbLine
 62
7
  6
CONTINUOUS
 10
3.0101279712
 20
3.4966331072
 11
2.9996474925
 21
3.4884971585
  0
LINE
  5
252
100
AcDbEntity
  8
0
100
AcDbLine
 62
7
  6
CONTINUOUS
 10
2.9898768011
 20
3.4809105299
 11
2.985256952
 21
3.477324398
  0
LINE
  5
253
100
AcDbEntity
  8
0
100
AcDbLine
 62
7
  6
CONTINUOUS
 10
2.9222414606
 20
3.4283989409
 11
2.9210002431
 21
3.4274355018
  0
LWPOLYLINE
  5
254
100
AcDbEntity
  8
0
100
AcDbPolyline
 62
7
  6
CONTINUOUS
 90
3
 70
0
 10
2.9765532784
 20
3.4705660796
 10
2.9724629213
 20
3.4673911652
 10
2.9685466935
 20
3.4643509086
  0
LINE
  5
255
100
AcDbEntity
  8
0
100
AcDbLine
 62
7
  6
CONTINUOUS
 10
2.9612239531
 20
3.4586651076
 11
2.9578097419
 21
3.4560150108
  0
LINE
  5
256
100
AcDbEntity
  8
0
100
AcDbLine
 62
7
  6
CONTINUOUS
 10
2.9318399305
 20
3.4358507077
 11
2.9299648982
 21
3.4343953284
  0
LINE
  5
257
100
AcDbEntity
  8
0
100
AcDbLine
 62
7
  6
CONTINUOUS
 10
2.9187982047
 20
3.4257249364
 11
2.9178312418
 21
3.4249743986
  0
LINE
  5
258
100
AcDbEntity
  8
0
100
AcDbLine
 62
7
  6
CONTINUOUS
 10
2.9128290652
 20
3.421090162
 11
2.9126512649
 21
3.4209534309
  0
LINE
  5
259
100
AcDbEntity
  8
0
100
AcDbLine
 62
7
  6
CONTINUOUS
 10
8.598261646
 20
3.7333450311
 11
6.680761646
 21
3.7333450311
  0
LINE
  5
25A
100
AcDbEntity
  8
0
100
AcDbLine
 62
7
  6
CONTINUOUS
 10
1.629261646
 20
3.7333450311
 11
3.546761646
 21
3.7333450311
  0
LINE
  5
25B
100
AcDbEntity
  8
0
100
AcDbLine
 62
7
  6
CONTINUOUS
 10
6.8826019122
 20
2.0501576306
 11
6.8909395388
 21
2.0428706774
  0
LINE
  5
25C
100
AcDbEntity
  8
0
100
AcDbLine
 62
7
  6
CONTINUOUS
 10
6.7563356601
 20
2.1605288857
 11
6.7574925807
 21
2.1595221
  0
LINE
  5
25D
100
AcDbEntity
  8
0
100
AcDbLine
 62
7
  6
CONTINUOUS
 10
6.756261646
 20
2.1605950311
 11
7.113761646
 21
1.8480950311
  0
LINE
  5
25E
100
AcDbEntity
  8
0
100
AcDbLine
 62
7
  6
CONTINUOUS
 10
6.9688673495
 20
1.974750846
 11
6.979913843
 21
1.9650938745
  0
LINE
  5
25F
100
AcDbEntity
  8
0
100
AcDbLine
 62
7
  6
CONTINUOUS
 10
6.8995961203
 20
2.0353037661
 11
6.9085681628
 21
2.0274598519
  0
LINE
  5
260
100
AcDbEntity
  8
0
100
AcDbLine
 62
7
  6
CONTINUOUS
 10
6.756261646
 20
2.1605950311
 11
6.7563356601
 21
2.1605288857
  0
LINE
  5
261
100
AcDbEntity
  8
0
100
AcDbLine
 62
7
  6
CONTINUOUS
 10
4.863761646
 20
2.2055950311
 11
4.863761646
 21
2.3730950311
  0
LINE
  5
262
100
AcDbEntity
  8
0
100
AcDbLine
 62
7
  6
CONTINUOUS
 10
4.863761646
 20
2.3889950311
 11
4.863761646
 21
7.8699950311
  0
LINE
  5
263
100
AcDbEntity
  8
0
100
AcDbLine
 62
7
  6
CONTINUOUS
 10
2.816261646
 20
2.2740950311
 11
2.8012616462
 21
2.2590950313
  0
LINE
  5
264
100
AcDbEntity
  8
0
100
AcDbLine
 62
7
  6
CONTINUOUS
 10
6.801261646
 20
2.2890950311
 11
6.816261646
 21
2.2740950311
  0
LINE
  5
265
100
AcDbEntity
  8
0
100
AcDbLine
 62
7
  6
CONTINUOUS
 10
6.801261646
 20
2.2055950311
 11
6.801327833
 21
2.2055211536
  0
LINE
  5
266
100
AcDbEntity
  8
0
100
AcDbLine
 62
7
  6
CONTINUOUS
 10
6.801261646
 20
2.2055950311
 11
7.113761646
 21
1.8480950311
  0
LINE
  5
267
100
AcDbEntity
  8
0
100
AcDbLine
 62
7
  6
CONTINUOUS
 10
6.8015277246
 20
2.2052905646
 11
6.8018632807
 21
2.2049032643
  0
LINE
  5
268
100
AcDbEntity
  8
0
100
AcDbLine
 62
7
  6
CONTINUOUS
 10
5.363761646
 20
2.2055950311
 11
5.363761646
 21
2.3730950311
  0
LINE
  5
269
100
AcDbEntity
  8
0
100
AcDbLine
 62
7
  6
CONTINUOUS
 10
5.363761646
 20
2.3889950311
 11
5.363761646
 21
7.8699950311
  0
LINE
  5
26A
100
AcDbEntity
  8
0
100
AcDbLine
 62
7
  6
CONTINUOUS
 10
3.3083089697
 20
2.0706560293
 11
3.3155938502
 21
2.0789912884
  0
LINE
  5
26B
100
AcDbEntity
  8
0
100
AcDbLine
 62
7
  6
CONTINUOUS
 10
3.113761646
 20
1.8480950311
 11
3.426261646
 21
2.2055950311
  0
LINE
  5
26C
100
AcDbEntity
  8
0
100
AcDbLine
 62
7
  6
CONTINUOUS
 10
3.2929052541
 20
2.0530355519
 11
3.3007449764
 21
2.0620027671
  0
LWPOLYLINE
  5
26D
100
AcDbEntity
  8
0
100
AcDbPolyline
 62
7
  6
CONTINUOUS
 90
3
 70
0
 10
3.1899627499
 20
1.9352634836
 10
3.2106656135
 20
1.9589532146
 10
3.2207351107
 20
1.9704677947
  0
LWPOLYLINE
  5
26E
100
AcDbEntity
  8
0
100
AcDbPolyline
 62
7
  6
CONTINUOUS
 90
3
 70
0
 10
3.1578062342
 20
1.8984761851
 10
3.179375093
 20
1.9231568488
 10
3.1899627499
 20
1.9352634836
  0
LINE
  5
26F
100
AcDbEntity
  8
0
100
AcDbLine
 62
7
  6
CONTINUOUS
 10
3.3225992824
 20
2.0870051586
 11
3.3588973166
 21
2.1285315289
  0
LINE
  5
270
100
AcDbEntity
  8
0
100
AcDbLine
 62
7
  6
CONTINUOUS
 10
3.2207351107
 20
1.9704677947
 11
3.2677468198
 21
2.0242542396
  0
LINE
  5
271
100
AcDbEntity
  8
0
100
AcDbLine
 62
7
  6
CONTINUOUS
 10
3.3588973166
 20
2.1285315289
 11
3.3820921752
 21
2.1550652557
  0
LINE
  5
272
100
AcDbEntity
  8
0
100
AcDbLine
 62
7
  6
CONTINUOUS
 10
3.3820921752
 20
2.1550652557
 11
3.3932468726
 21
2.1678260411
  0
LINE
  5
273
100
AcDbEntity
  8
0
100
AcDbLine
 62
7
  6
CONTINUOUS
 10
3.3932468726
 20
2.1678260411
 11
3.4122652109
 21
2.1895847407
  0
LINE
  5
274
100
AcDbEntity
  8
0
100
AcDbLine
 62
7
  6
CONTINUOUS
 10
3.4142593366
 20
2.1918635853
 11
3.4218239479
 21
2.200519381
  0
LINE
  5
275
100
AcDbEntity
  8
0
100
AcDbLine
 62
7
  6
CONTINUOUS
 10
3.4122652109
 20
2.1895847407
 11
3.4142593366
 21
2.1918635853
  0
LINE
  5
276
100
AcDbEntity
  8
0
100
AcDbLine
 62
7
  6
CONTINUOUS
 10
3.1358904216
 20
1.8734307226
 11
3.1578062342
 21
1.8984761851
  0
LINE
  5
277
100
AcDbEntity
  8
0
100
AcDbLine
 62
7
  6
CONTINUOUS
 10
3.4218239479
 20
2.200519381
 11
3.4261942411
 21
2.2055202773
  0
LINE
  5
278
100
AcDbEntity
  8
0
100
AcDbLine
 62
7
  6
CONTINUOUS
 10
3.4261942411
 20
2.2055202773
 11
3.426261646
 21
2.2055950311
  0
LINE
  5
279
100
AcDbEntity
  8
0
100
AcDbLine
 62
7
  6
CONTINUOUS
 10
3.426261646
 20
2.2890950311
 11
3.411261646
 21
2.2740950311
  0
LINE
  5
27A
100
AcDbEntity
  8
0
100
AcDbLine
 62
7
  6
CONTINUOUS
 10
7.411261646
 20
2.2740950311
 11
7.4262616457
 21
2.2590950313
  0
LINE
  5
27B
100
AcDbEntity
  8
0
100
AcDbLine
 62
7
  6
CONTINUOUS
 10
3.4711868283
 20
2.1605276783
 11
3.471261646
 21
2.1605950311
  0
LINE
  5
27C
100
AcDbEntity
  8
0
100
AcDbLine
 62
7
  6
CONTINUOUS
 10
3.113761646
 20
1.8480950311
 11
3.471261646
 21
2.1605950311
  0
LINE
  5
27D
100
AcDbEntity
  8
0
100
AcDbLine
 62
7
  6
CONTINUOUS
 10
7.3149778342
 20
3.4208720014
 11
7.3144456692
 21
3.4212830073
  0
LINE
  5
27E
100
AcDbEntity
  8
0
100
AcDbLine
 62
7
  6
CONTINUOUS
 10
7.315011646
 20
3.4208450311
 11
7.113761646
 21
3.5770950311
  0
LINE
  5
27F
100
AcDbEntity
  8
0
100
AcDbLine
 62
7
  6
CONTINUOUS
 10
7.2328390586
 20
3.4846432296
 11
7.2278658468
 21
3.4885049204
  0
LINE
  5
280
100
AcDbEntity
  8
0
100
AcDbLine
 62
7
  6
CONTINUOUS
 10
7.1755635273
 20
3.529112215
 11
7.1690265109
 21
3.5341884638
  0
LINE
  5
281
100
AcDbEntity
  8
0
100
AcDbLine
 62
7
  6
CONTINUOUS
 10
7.2173852908
 20
3.4966409268
 11
7.2118890189
 21
3.5009092507
  0
LINE
  5
282
100
AcDbEntity
  8
0
100
AcDbLine
 62
7
  6
CONTINUOUS
 10
7.315011646
 20
3.4208450311
 11
7.3149778342
 21
3.4208720014
  0
LINE
  5
283
100
AcDbEntity
  8
0
100
AcDbLine
 62
7
  6
CONTINUOUS
 10
6.670761646
 20
3.4308450311
 11
6.680761646
 21
3.4208450311
  0
LINE
  5
284
100
AcDbEntity
  8
0
100
AcDbLine
 62
7
  6
CONTINUOUS
 10
7.270011646
 20
3.3758450311
 11
7.269984648
 21
3.375878801
  0
LINE
  5
285
100
AcDbEntity
  8
0
100
AcDbLine
 62
7
  6
CONTINUOUS
 10
7.270011646
 20
3.3758450311
 11
7.113761646
 21
3.5770950311
  0
LWPOLYLINE
  5
286
100
AcDbEntity
  8
0
100
AcDbPolyline
 62
7
  6
CONTINUOUS
 90
3
 70
0
 10
7.2264437778
 20
3.431959979
 10
7.2234033392
 20
3.4358765432
 10
7.220228499
 20
3.4399667925
  0
LINE
  5
287
100
AcDbEntity
  8
0
100
AcDbLine
 62
7
  6
CONTINUOUS
 10
7.2690129253
 20
3.3771322546
 11
7.2686442542
 21
3.3776071604
  0
LINE
  5
288
100
AcDbEntity
  8
0
100
AcDbLine
 62
7
  6
CONTINUOUS
 10
7.2023012298
 20
3.4630558658
 11
7.1941677264
 21
3.4735331896
  0
LINE
  5
289
100
AcDbEntity
  8
0
100
AcDbLine
 62
7
  6
CONTINUOUS
 10
7.2134710846
 20
3.448669202
 11
7.2098857378
 21
3.4532879822
  0
LINE
  5
28A
100
AcDbEntity
  8
0
100
AcDbLine
 62
7
  6
CONTINUOUS
 10
7.2564229943
 20
3.3933476594
 11
7.254965744
 21
3.395224978
  0
LINE
  5
28B
100
AcDbEntity
  8
0
100
AcDbLine
 62
7
  6
CONTINUOUS
 10
7.2347818907
 20
3.4212199105
 11
7.2321307403
 21
3.4246354813
  0
LINE
  5
28C
100
AcDbEntity
  8
0
100
AcDbLine
 62
7
  6
CONTINUOUS
 10
7.269984648
 20
3.375878801
 11
7.2697659504
 21
3.3761632616
  0
LINE
  5
28D
100
AcDbEntity
  8
0
100
AcDbLine
 62
7
  6
CONTINUOUS
 10
6.618761646
 20
0.8080950311
 11
6.618761646
 21
0.6105950311
  0
LINE
  5
28E
100
AcDbEntity
  8
0
100
AcDbLine
 62
7
  6
CONTINUOUS
 10
6.670761646
 20
3.430844947
 11
6.670761646
 21
3.7233451151
  0
LINE
  5
28F
100
AcDbEntity
  8
0
100
AcDbLine
 62
7
  6
CONTINUOUS
 10
6.680761646
 20
3.4208450311
 11
6.680761646
 21
3.7333450311
  0
LINE
  5
290
100
AcDbEntity
  8
0
100
AcDbLine
 62
7
  6
CONTINUOUS
 10
6.801261646
 20
0.8230950311
 11
6.801261646
 21
1.4905950311
  0
LINE
  5
291
100
AcDbEntity
  8
0
100
AcDbLine
 62
7
  6
CONTINUOUS
 10
6.801261646
 20
2.2055950311
 11
6.801261646
 21
2.2590950311
  0
LINE
  5
292
100
AcDbEntity
  8
0
100
AcDbLine
 62
7
  6
CONTINUOUS
 10
6.801261646
 20
2.2890950311
 11
6.801261646
 21
3.0415950311
  0
LINE
  5
293
100
AcDbEntity
  8
0
100
AcDbLine
 62
7
  6
CONTINUOUS
 10
6.670761646
 20
3.7233450311
 11
6.680761646
 21
3.7333450311
  0
LINE
  5
294
100
AcDbEntity
  8
0
100
AcDbLine
 62
7
  6
CONTINUOUS
 10
6.957511646
 20
3.3758450311
 11
6.957511646
 21
3.0720950311
  0
LWPOLYLINE
  5
295
100
AcDbEntity
  8
0
100
AcDbPolyline
 62
7
  6
CONTINUOUS
 90
3
 70
0
 10
6.9577572641
 20
3.3761631901
 10
6.9575386355
 20
3.3758788037
 10
6.957511646
 20
3.3758450311
  0
LINE
  5
296
100
AcDbEntity
  8
0
100
AcDbLine
 62
7
  6
CONTINUOUS
 10
7.113761646
 20
3.5770950311
 11
6.9575116459
 21
3.3758450309
  0
LINE
  5
297
100
AcDbEntity
  8
0
100
AcDbLine
 62
7
  6
CONTINUOUS
 10
7.0973633772
 20
3.5559740754
 11
7.0865846348
 21
3.542089072
  0
LINE
  5
298
100
AcDbEntity
  8
0
100
AcDbLine
 62
7
  6
CONTINUOUS
 10
7.081278004
 20
3.535256058
 11
7.0511837808
 21
3.4964946569
  0
LINE
  5
299
100
AcDbEntity
  8
0
100
AcDbLine
 62
7
  6
CONTINUOUS
 10
7.0010712068
 20
3.431949277
 11
6.9981633416
 21
3.4282056046
  0
LINE
  5
29A
100
AcDbEntity
  8
0
100
AcDbLine
 62
7
  6
CONTINUOUS
 10
6.9855194426
 20
3.4119176694
 11
6.9577572641
 21
3.3761631901
  0
LINE
  5
29B
100
AcDbEntity
  8
0
100
AcDbLine
 62
7
  6
CONTINUOUS
 10
6.9125454608
 20
3.4208719934
 11
6.912511646
 21
3.4208450311
  0
LINE
  5
29C
100
AcDbEntity
  8
0
100
AcDbLine
 62
7
  6
CONTINUOUS
 10
6.9898770264
 20
3.4809107062
 11
6.9852571942
 21
3.477324587
  0
LINE
  5
29D
100
AcDbEntity
  8
0
100
AcDbLine
 62
7
  6
CONTINUOUS
 10
7.113761646
 20
3.5770950311
 11
6.9125116458
 21
3.420845031
  0
LINE
  5
29E
100
AcDbEntity
  8
0
100
AcDbLine
 62
7
  6
CONTINUOUS
 10
6.912829072
 20
3.4210901651
 11
6.9126512695
 21
3.4209534325
  0
LINE
  5
29F
100
AcDbEntity
  8
0
100
AcDbLine
 62
7
  6
CONTINUOUS
 10
5.363761646
 20
6.2149950311
 11
4.863761646
 21
6.2149950311
  0
LINE
  5
2A0
100
AcDbEntity
  8
0
100
AcDbLine
 62
7
  6
CONTINUOUS
 10
8.608261646
 20
3.7233450311
 11
8.598261646
 21
3.7333450311
  0
LINE
  5
2A1
100
AcDbEntity
  8
0
100
AcDbLine
 62
7
  6
CONTINUOUS
 10
7.270011646
 20
3.3758450311
 11
7.270011646
 21
3.0720950311
  0
LINE
  5
2A2
100
AcDbEntity
  8
0
100
AcDbLine
 62
7
  6
CONTINUOUS
 10
7.426261646
 20
0.8230950311
 11
7.426261646
 21
2.2590950311
  0
LINE
  5
2A3
100
AcDbEntity
  8
0
100
AcDbLine
 62
7
  6
CONTINUOUS
 10
7.426261646
 20
2.2890950311
 11
7.426261646
 21
3.0415950311
  0
LINE
  5
2A4
100
AcDbEntity
  8
0
100
AcDbLine
 62
7
  6
CONTINUOUS
 10
7.608761646
 20
0.8080950311
 11
7.608761646
 21
0.6105950311
  0
LINE
  5
2A5
100
AcDbEntity
  8
0
100
AcDbLine
 62
7
  6
CONTINUOUS
 10
6.816261646
 20
2.2740950311
 11
6.8012616462
 21
2.2590950313
  0
LINE
  5
2A6
100
AcDbEntity
  8
0
100
AcDbLine
 62
7
  6
CONTINUOUS
 10
4.863761646
 20
6.9949950311
 11
5.363761646
 21
6.9949950311
  0
LINE
  5
2A7
100
AcDbEntity
  8
0
100
AcDbLine
 62
7
  6
CONTINUOUS
 10
7.426261646
 20
2.2890950311
 11
7.411261646
 21
2.2740950311
  0
LINE
  5
2A8
100
AcDbEntity
  8
0
100
AcDbLine
 62
7
  6
CONTINUOUS
 10
7.113761646
 20
1.8480950311
 11
6.801261646
 21
1.490595031
  0
LINE
  5
2A9
100
AcDbEntity
  8
0
100
AcDbLine
 62
7
  6
CONTINUOUS
 10
6.9049871936
 20
1.6092574115
 11
6.8686880613
 21
1.5677292514
  0
LINE
  5
2AA
100
AcDbEntity
  8
0
100
AcDbLine
 62
7
  6
CONTINUOUS
 10
6.8686880613
 20
1.5677292514
 11
6.8029867909
 21
1.4925679556
  0
LINE
  5
2AB
100
AcDbEntity
  8
0
100
AcDbLine
 62
7
  6
CONTINUOUS
 10
6.8029867909
 20
1.4925679556
 11
6.8013297791
 21
1.4906705598
  0
LINE
  5
2AC
100
AcDbEntity
  8
0
100
AcDbLine
 62
7
  6
CONTINUOUS
 10
7.091643037
 20
1.8227710028
 11
6.9511808273
 21
1.6621050166
  0
LINE
  5
2AD
100
AcDbEntity
  8
0
100
AcDbLine
 62
7
  6
CONTINUOUS
 10
6.8013297791
 20
1.4906705598
 11
6.801261646
 21
1.4905950311
  0
LINE
  5
2AE
100
AcDbEntity
  8
0
100
AcDbLine
 62
7
  6
CONTINUOUS
 10
8.608261646
 20
3.4308450311
 11
8.598261646
 21
3.4208450311
  0
LINE
  5
2AF
100
AcDbEntity
  8
0
100
AcDbLine
 62
7
  6
CONTINUOUS
 10
6.7563371402
 20
1.5356631128
 11
6.756261646
 21
1.5355950311
  0
LINE
  5
2B0
100
AcDbEntity
  8
0
100
AcDbLine
 62
7
  6
CONTINUOUS
 10
7.113761646
 20
1.8480950311
 11
6.756261646
 21
1.5355950311
  0
LINE
  5
2B1
100
AcDbEntity
  8
0
100
AcDbLine
 62
7
  6
CONTINUOUS
 10
8.598261646
 20
3.7333450311
 11
8.598261646
 21
3.4208450311
  0
LINE
  5
2B2
100
AcDbEntity
  8
0
100
AcDbLine
 62
7
  6
CONTINUOUS
 10
8.608261646
 20
3.7233451151
 11
8.608261646
 21
3.430844947
  0
ARC
  5
2B3
100
AcDbEntity
  8
0
100
AcDbCircle
 62
7
  6
CONTINUOUS
 10
5.113761646
 20
7.8699950311
 40
0.25
100
AcDbArc
 50
0.0
 51
180.0
  0
ARC
  5
2B4
100
AcDbEntity
  8
0
100
AcDbCircle
 62
7
  6
CONTINUOUS
 10
4.818761646
 20
2.2055950311
 40
0.045
100
AcDbArc
 50
269.9999999986
 51
360.0
  0
ARC
  5
2B5
100
AcDbEntity
  8
0
100
AcDbCircle
 62
7
  6
CONTINUOUS
 10
5.408761646
 20
2.2055950311
 40
0.045
100
AcDbArc
 50
179.999999999
 51
270.0000000014
  0
ARC
  5
2B6
100
AcDbEntity
  8
0
100
AcDbCircle
 62
7
  6
CONTINUOUS
 10
3.471261646
 20
2.2055950311
 40
0.045
100
AcDbArc
 50
179.9999999986
 51
270.0000000009
  0
ARC
  5
2B7
100
AcDbEntity
  8
0
100
AcDbCircle
 62
7
  6
CONTINUOUS
 10
3.471261646
 20
1.4905950311
 40
0.045
100
AcDbArc
 50
89.999999999
 51
180.0000000018
  0
ARC
  5
2B8
100
AcDbEntity
  8
0
100
AcDbCircle
 62
7
  6
CONTINUOUS
 10
6.756261646
 20
2.2055950311
 40
0.045
100
AcDbArc
 50
269.9999999989
 51
360.0
  0
ARC
  5
2B9
100
AcDbEntity
  8
0
100
AcDbCircle
 62
7
  6
CONTINUOUS
 10
6.756261646
 20
1.4905950311
 40
0.045
100
AcDbArc
 50
0.0
 51
90.000000001
  0
ARC
  5
2BA
100
AcDbEntity
  8
0
100
AcDbCircle
 62
7
  6
CONTINUOUS
 10
7.315011646
 20
3.3758450311
 40
0.045
100
AcDbArc
 50
89.9999999994
 51
180.0000000004
  0
ARC
  5
2BB
100
AcDbEntity
  8
0
100
AcDbCircle
 62
7
  6
CONTINUOUS
 10
6.912511646
 20
3.3758450311
 40
0.045
100
AcDbArc
 50
0.0
 51
90.0000000006
  0
ARC
  5
2BC
100
AcDbEntity
  8
0
100
AcDbCircle
 62
7
  6
CONTINUOUS
 10
2.912511646
 20
3.3758450311
 40
0.045
100
AcDbArc
 50
0.0
 51
90.0000000006
  0
ARC
  5
2BD
100
AcDbEntity
  8
0
100
AcDbCircle
 62
7
  6
CONTINUOUS
 10
3.315011646
 20
3.3758450311
 40
0.045
100
AcDbArc
 50
89.9999999994
 51
180.0000000004
  0
ARC
  5
2BE
100
AcDbEntity
  8
0
100
AcDbCircle
 62
7
  6
CONTINUOUS
 10
6.633761646
 20
0.8080950311
 40
0.015
100
AcDbArc
 50
90.0
 51
180.0
  0
ARC
  5
2BF
100
AcDbEntity
  8
0
100
AcDbCircle
 62
7
  6
CONTINUOUS
 10
7.593761646
 20
0.8080950311
 40
0.015
100
AcDbArc
 50
0.0
 51
90.0
  0
ARC
  5
2C0
100
AcDbEntity
  8
0
100
AcDbCircle
 62
7
  6
CONTINUOUS
 10
2.633761646
 20
0.8080950311
 40
0.015
100
AcDbArc
 50
90.0
 51
180.0
  0
ARC
  5
2C1
100
AcDbEntity
  8
0
100
AcDbCircle
 62
7
  6
CONTINUOUS
 10
3.593761646
 20
0.8080950311
 40
0.015
100
AcDbArc
 50
0.0
 51
90.0
  0
ARC
  5
2C2
100
AcDbEntity
  8
0
100
AcDbCircle
 62
7
  6
CONTINUOUS
 10
7.411261646
 20
3.0415950311
 40
0.015
100
AcDbArc
 50
0.0
 51
90.0
  0
ARC
  5
2C3
100
AcDbEntity
  8
0
100
AcDbCircle
 62
7
  6
CONTINUOUS
 10
6.816261646
 20
3.0415950311
 40
0.015
100
AcDbArc
 50
90.0
 51
180.0
  0
ARC
  5
2C4
100
AcDbEntity
  8
0
100
AcDbCircle
 62
7
  6
CONTINUOUS
 10
2.816261646
 20
3.0415950311
 40
0.015
100
AcDbArc
 50
90.0
 51
180.0
  0
ARC
  5
2C5
100
AcDbEntity
  8
0
100
AcDbCircle
 62
7
  6
CONTINUOUS
 10
3.411261646
 20
3.0415950311
 40
0.015
100
AcDbArc
 50
0.0
 51
90.0
  0
SPLINE
  5
2C6
100
AcDbEntity
  8
0
100
AcDbSpline
 62
7
  6
CONTINUOUS
 70
0
 71
3
 72
115
 73
111
 74
0
 42
0.0000001
 43
0.0000001
 44
0.0000000001
 40
0.0
 40
0.0
 40
0.0
 40
0.0
 40
0.0000034557
 40
0.0000136457
 40
0.0000305616
 40
0.0000541948
 40
0.0001215791
 40
0.0002157303
 40
0.0003365804
 40
0.000484061
 40
0.000658104
 40
0.0008586413
 40
0.0013389262
 40
0.0019243488
 40
0.0026142823
 40
0.0034080895
 40
0.0043051327
 40
0.0053047745
 40
0.007608491
 40
0.0103107291
 40
0.0134023775
 40
0.0168724435
 40
0.0207081096
 40
0.0248965544
 40
0.0294254039
 40
0.0342824641
 40
0.0394552993
 40
0.0506951552
 40
0.0630392888
 40
0.076386695
 40
0.0906449309
 40
0.1057297255
 40
0.1215619262
 40
0.1380675187
 40
0.1551823087
 40
0.1728476681
 40
0.191012736
 40
0.2096306616
 40
0.2286602779
 40
0.2480636719
 40
0.2678076548
 40
0.2878621241
 40
0.3082005512
 40
0.3287991119
 40
0.3496324904
 40
0.3706775148
 40
0.3919129621
 40
0.4133146295
 40
0.4348550845
 40
0.4456691701
 40
0.4565068773
 40
0.4673630752
 40
0.4782335801
 40
0.4891143641
 40
0.5000005084
 40
0.5108865939
 40
0.5217672899
 40
0.5326378186
 40
0.5434941403
 40
0.5651433505
 40
0.5866838099
 40
0.6080866615
 40
0.618727967
 40
0.6293234584
 40
0.6503681495
 40
0.6712014784
 40
0.6917999519
 40
0.712137946
 40
0.7321923381
 40
0.7519366743
 40
0.7713400799
 40
0.7903686897
 40
0.8089857473
 40
0.8271513504
 40
0.844817554
 40
0.8619320896
 40
0.8784367412
 40
0.8942684408
 40
0.9093538141
 40
0.9236136983
 40
0.9369620602
 40
0.9493055406
 40
0.9605442508
 40
0.9657171376
 40
0.9705750346
 40
0.9751048954
 40
0.9792936642
 40
0.9831286259
 40
0.9865977636
 40
0.9896892157
 40
0.9923923628
 40
0.9935953266
 40
0.994697626
 40
0.9956981317
 40
0.9965959888
 40
0.9973904157
 40
0.9980806305
 40
0.9986658516
 40
0.9991453694
 40
0.9993453675
 40
0.9995188135
 40
0.9996656734
 40
0.9997859136
 40
0.9998795001
 40
0.9999162877
 40
0.9999463992
 40
0.9999698304
 40
0.9999865771
 40
0.999996635
 40
1.0
 40
1.0
 40
1.0
 40
1.0
 10
5.408761646
 20
2.1605950311
 30
0.0
 10
5.4087609608
 20
2.1605947023
 30
0.0
 10
5.4087586633
 20
2.1605927089
 30
0.0
 10
5.4087530418
 20
2.1605890604
 30
0.0
 10
5.4087440328
 20
2.1605824498
 30
0.0
 10
5.4087246536
 20
2.1605687578
 30
0.0
 10
5.4086915416
 20
2.1605450417
 30
0.0
 10
5.4086409929
 20
2.1605089703
 30
0.0
 10
5.4085761613
 20
2.1604625817
 30
0.0
 10
5.4084970598
 20
2.1604059456
 30
0.0
 10
5.4084037479
 20
2.1603390523
 30
0.0
 10
5.4082510057
 20
2.1602294407
 30
0.0
 10
5.4080248958
 20
2.1600668929
 30
0.0
 10
5.4077116024
 20
2.1598412345
 30
0.0
 10
5.4073424549
 20
2.1595751479
 30
0.0
 10
5.4069177358
 20
2.1592689564
 30
0.0
 10
5.4064377204
 20
2.1589229971
 30
0.0
 10
5.4056881741
 20
2.1583830867
 30
0.0
 10
5.4046160404
 20
2.1576117749
 30
0.0
 10
5.4031694014
 20
2.1565732224
 30
0.0
 10
5.4015129892
 20
2.1553870394
 30
0.0
 10
5.3996523954
 20
2.1540578578
 30
0.0
 10
5.3975940586
 20
2.1525905284
 30
0.0
 10
5.395344657
 20
2.1509900882
 30
0.0
 10
5.3929101234
 20
2.1492623877
 30
0.0
 10
5.3902962401
 20
2.1474133497
 30
0.0
 10
5.3864727581
 20
2.1447186376
 30
0.0
 10
5.3812931347
 20
2.1410899395
 30
0.0
 10
5.3746223013
 20
2.1364567076
 30
0.0
 10
5.3673839988
 20
2.1314770023
 30
0.0
 10
5.359621351
 20
2.1261962513
 30
0.0
 10
5.351371853
 20
2.1206599385
 30
0.0
 10
5.3426714891
 20
2.1149089469
 30
0.0
 10
5.3335524777
 20
2.108982237
 30
0.0
 10
5.3240417142
 20
2.1029192203
 30
0.0
 10
5.3141616734
 20
2.0967575143
 30
0.0
 10
5.3039299605
 20
2.0905363291
 30
0.0
 10
5.2933611378
 20
2.0842938283
 30
0.0
 10
5.2824659455
 20
2.078070783
 30
0.0
 10
5.2712531339
 20
2.0719076527
 30
0.0
 10
5.2597273726
 20
2.0658502986
 30
0.0
 10
5.2478924375
 20
2.0599448939
 30
0.0
 10
5.2357456877
 20
2.0542515916
 30
0.0
 10
5.2232872052
 20
2.0488311669
 30
0.0
 10
5.2105195251
 20
2.043747623
 30
0.0
 10
5.197447238
 20
2.0390717915
 30
0.0
 10
5.1840740489
 20
2.0348976934
 30
0.0
 10
5.170417499
 20
2.0313127274
 30
0.0
 10
5.1588400066
 20
2.0288907786
 30
0.0
 10
5.1494698347
 20
2.0273261721
 30
0.0
 10
5.1423867606
 20
2.0263486804
 30
0.0
 10
5.1352655164
 20
2.0255793851
 30
0.0
 10
5.1281142872
 20
2.0250308457
 30
0.0
 10
5.1209429019
 20
2.024705106
 30
0.0
 10
5.1137615591
 20
2.0245973974
 30
0.0
 10
5.1065802274
 20
2.0247049261
 30
0.0
 10
5.0994088841
 20
2.0250309194
 30
0.0
 10
5.0922576656
 20
2.0255802781
 30
0.0
 10
5.0827723308
 20
2.0266050769
 30
0.0
 10
5.0710163653
 20
2.0284047709
 30
0.0
 10
5.0571066322
 20
2.0313169661
 30
0.0
 10
5.0457023141
 20
2.0343048921
 30
0.0
 10
5.0367180955
 20
2.0369937857
 30
0.0
 10
5.027870285
 20
2.0398559935
 30
0.0
 10
5.0170025082
 20
2.0437463179
 30
0.0
 10
5.0042351973
 20
2.0488301355
 30
0.0
 10
4.9917765406
 20
2.0542499395
 30
0.0
 10
4.9796303503
 20
2.0599441335
 30
0.0
 10
4.967795815
 20
2.0658502404
 30
0.0
 10
4.9562695848
 20
2.0719068237
 30
0.0
 10
4.9450566744
 20
2.0780695026
 30
0.0
 10
4.9341626381
 20
2.084293764
 30
0.0
 10
4.9235950845
 20
2.0905378193
 30
0.0
 10
4.9133628448
 20
2.0967583346
 30
0.0
 10
4.9034817122
 20
2.1029187642
 30
0.0
 10
4.8939711857
 20
2.108982021
 30
0.0
 10
4.8848532169
 20
2.1149096494
 30
0.0
 10
4.876153256
 20
2.120660902
 30
0.0
 10
4.8679031764
 20
2.1261970245
 30
0.0
 10
4.860139044
 20
2.1314768358
 30
0.0
 10
4.8528999198
 20
2.1364561079
 30
0.0
 10
4.8462295856
 20
2.1410897363
 30
0.0
 10
4.8410507606
 20
2.1447189032
 30
0.0
 10
4.8372273489
 20
2.1474136162
 30
0.0
 10
4.834612824
 20
2.1492624701
 30
0.0
 10
4.8321775251
 20
2.1509899175
 30
0.0
 10
4.829927841
 20
2.1525902003
 30
0.0
 10
4.8278699942
 20
2.1540577216
 30
0.0
 10
4.826010085
 20
2.1553871693
 30
0.0
 10
4.8243538145
 20
2.1565734684
 30
0.0
 10
4.8231034722
 20
2.1574706213
 30
0.0
 10
4.8222089236
 20
2.158113257
 30
0.0
 10
4.82161862
 20
2.1585376158
 30
0.0
 10
4.8210829034
 20
2.1589229539
 30
0.0
 10
4.8206022399
 20
2.1592688778
 30
0.0
 10
4.8201770348
 20
2.15957504
 30
0.0
 10
4.8198076798
 20
2.1598411019
 30
0.0
 10
4.8194945552
 20
2.1600667359
 30
0.0
 10
4.81926891
 20
2.1602293614
 30
0.0
 10
4.8191167371
 20
2.160339048
 30
0.0
 10
4.8190239139
 20
2.1604059587
 30
0.0
 10
4.8189453229
 20
2.1604626178
 30
0.0
 10
4.8188809757
 20
2.1605090002
 30
0.0
 10
4.8188362753
 20
2.1605412462
 30
0.0
 10
4.8188076355
 20
2.1605618666
 30
0.0
 10
4.8187915435
 20
2.1605735272
 30
0.0
 10
4.8187789469
 20
2.1605824564
 30
0.0
 10
4.8187701146
 20
2.1605891672
 30
0.0
 10
4.8187645037
 20
2.1605926064
 30
0.0
 10
4.8187623448
 20
2.1605947877
 30
0.0
 10
4.818761646
 20
2.1605950311
 30
0.0
  0
SPLINE
  5
2C7
100
AcDbEntity
  8
0
100
AcDbSpline
 62
7
  6
CONTINUOUS
 70
0
 71
3
 72
122
 73
118
 74
0
 42
0.0000001
 43
0.0000001
 44
0.0000000001
 40
0.0
 40
0.0
 40
0.0
 40
0.0
 40
0.0000033382
 40
0.0000132088
 40
0.0000296047
 40
0.0000525186
 40
0.0000819433
 40
0.0001178715
 40
0.0002092095
 40
0.0003264748
 40
0.0004696094
 40
0.0006385555
 40
0.0008332552
 40
0.001053651
 40
0.0012996848
 40
0.0018684197
 40
0.00253888
 40
0.0033104477
 40
0.0041825042
 40
0.0051544307
 40
0.0062255903
 40
0.0073950939
 40
0.0100248355
 40
0.0130350385
 40
0.0164163567
 40
0.0201573598
 40
0.0242462511
 40
0.02867135
 40
0.0334211619
 40
0.0384842013
 40
0.0495017561
 40
0.0616249848
 40
0.0747598121
 40
0.0888176551
 40
0.1037161352
 40
0.119378295
 40
0.1357349277
 40
0.1527222542
 40
0.1702830862
 40
0.1883658094
 40
0.2069258356
 40
0.2259220115
 40
0.2453181226
 40
0.2650815868
 40
0.2851848686
 40
0.3056032954
 40
0.3263135567
 40
0.3472963508
 40
0.3578846752
 40
0.3685349844
 40
0.3900076273
 40
0.4116964062
 40
0.422615663
 40
0.433579452
 40
0.4445831931
 40
0.4556223436
 40
0.4666899919
 40
0.4777807596
 40
0.4888870799
 40
0.5000012119
 40
0.511115375
 40
0.5222217372
 40
0.5333124826
 40
0.5443801344
 40
0.5554193271
 40
0.5664230467
 40
0.5773868177
 40
0.5883060631
 40
0.609994665
 40
0.6207601144
 40
0.6314691187
 40
0.6421194332
 40
0.6527077303
 40
0.6632323815
 40
0.6736914481
 40
0.6944013249
 40
0.7148194028
 40
0.7546841521
 40
0.7930746533
 40
0.8297171703
 40
0.8472780486
 40
0.8642649232
 40
0.8806214178
 40
0.8962836912
 40
0.9111824819
 40
0.9252407597
 40
0.9383760883
 40
0.950498834
 40
0.9615154975
 40
0.9665789174
 40
0.9713295698
 40
0.9757553013
 40
0.9798440367
 40
0.9835843388
 40
0.9869650655
 40
0.9899754118
 40
0.9926060336
 40
0.9937761508
 40
0.994847989
 40
0.9958206249
 40
0.996693316
 40
0.9974653271
 40
0.9981359231
 40
0.9987043697
 40
0.9989500849
 40
0.9991700727
 40
0.9993643016
 40
0.99953274
 40
0.9996753562
 40
0.9997921188
 40
0.9998829961
 40
0.9999187178
 40
0.9999479564
 40
0.9999707079
 40
0.9999869683
 40
0.9999967336
 40
1.0
 40
1.0
 40
1.0
 40
1.0
 10
5.363761646
 20
2.2055950311
 30
0.0
 10
5.3637613548
 20
2.2055944277
 30
0.0
 10
5.3637590447
 20
2.2055928609
 30
0.0
 10
5.3637552368
 20
2.2055883882
 30
0.0
 10
5.363747984
 20
2.2055816127
 30
0.0
 10
5.3637382715
 20
2.2055718468
 30
0.0
 10
5.3637256198
 20
2.2055594339
 30
0.0
 10
5.3637032402
 20
2.2055373457
 30
0.0
 10
5.3636682494
 20
2.205502928
 30
0.0
 10
5.3636179047
 20
2.2054534419
 30
0.0
 10
5.3635564002
 20
2.2053930872
 30
0.0
 10
5.3634837565
 20
2.2053218955
 30
0.0
 10
5.3633999808
 20
2.2052399084
 30
0.0
 10
5.3633050849
 20
2.2051471639
 30
0.0
 10
5.3631564036
 20
2.2050020493
 30
0.0
 10
5.3629428579
 20
2.2047940692
 30
0.0
 10
5.3626534983
 20
2.2045127574
 30
0.0
 10
5.3623202911
 20
2.2041892136
 30
0.0
 10
5.3619435207
 20
2.20382368
 30
0.0
 10
5.3615234737
 20
2.2034164013
 30
0.0
 10
5.3610604811
 20
2.2029676545
 30
0.0
 10
5.3603584413
 20
2.2022874678
 30
0.0
 10
5.3593765765
 20
2.2013368137
 30
0.0
 10
5.3580751765
 20
2.2000780029
 30
0.0
 10
5.3566126306
 20
2.1986649936
 30
0.0
 10
5.3549927325
 20
2.1971032699
 30
0.0
 10
5.3532196387
 20
2.1953986197
 30
0.0
 10
5.3512977092
 20
2.193556644
 30
0.0
 10
5.349231713
 20
2.1915824293
 30
0.0
 10
5.3462050168
 20
2.1886984138
 30
0.0
 10
5.3420977573
 20
2.1848031856
 30
0.0
 10
5.3367945526
 20
2.179814824
 30
0.0
 10
5.3310214494
 20
2.1744355404
 30
0.0
 10
5.3248107288
 20
2.1687090037
 30
0.0
 10
5.3181906876
 20
2.1626783191
 30
0.0
 10
5.3111865465
 20
2.1563844593
 30
0.0
 10
5.3038202582
 20
2.1498667712
 30
0.0
 10
5.2961097172
 20
2.1431636172
 30
0.0
 10
5.2880682507
 20
2.1363138301
 30
0.0
 10
5.2797061995
 20
2.1293546307
 30
0.0
 10
5.271031214
 20
2.122322437
 30
0.0
 10
5.2620468613
 20
2.1152550164
 30
0.0
 10
5.2527498669
 20
2.1081968815
 30
0.0
 10
5.2431360699
 20
2.1011919838
 30
0.0
 10
5.2331968179
 20
2.0942901821
 30
0.0
 10
5.2229229638
 20
2.0875434218
 30
0.0
 10
5.2122936359
 20
2.0810262954
 30
0.0
 10
5.2031530621
 20
2.0758672478
 30
0.0
 10
5.1956450745
 20
2.0719367421
 30
0.0
 10
5.1879621701
 20
2.0681331082
 30
0.0
 10
5.1781068478
 20
2.0637026102
 30
0.0
 10
5.1679583014
 20
2.0598309154
 30
0.0
 10
5.1596394631
 20
2.0571292199
 30
0.0
 10
5.1532913006
 20
2.0553161514
 30
0.0
 10
5.146855777
 20
2.0537380925
 30
0.0
 10
5.1403419003
 20
2.0524132541
 30
0.0
 10
5.1337602896
 20
2.0513623947
 30
0.0
 10
5.1271246945
 20
2.0506057783
 30
0.0
 10
5.1204523966
 20
2.050148456
 30
0.0
 10
5.1137614509
 20
2.0499962245
 30
0.0
 10
5.1070705097
 20
2.0501487538
 30
0.0
 10
5.1003981917
 20
2.0506058604
 30
0.0
 10
5.0937625784
 20
2.0513624512
 30
0.0
 10
5.087181082
 20
2.0524141093
 30
0.0
 10
5.0806673926
 20
2.0537398896
 30
0.0
 10
5.0742320387
 20
2.0553185978
 30
0.0
 10
5.0678838923
 20
2.0571317173
 30
0.0
 10
5.0595647522
 20
2.0598319658
 30
0.0
 10
5.0514238273
 20
2.0629343221
 30
0.0
 10
5.043471442
 20
2.0663721383
 30
0.0
 10
5.037623785
 20
2.0690898498
 30
0.0
 10
5.0318773513
 20
2.0719357742
 30
0.0
 10
5.0262294116
 20
2.0748933936
 30
0.0
 10
5.0206786462
 20
2.0779506929
 30
0.0
 10
5.0134288583
 20
2.0821305823
 30
0.0
 10
5.0045995138
 20
2.0875422648
 30
0.0
 10
4.9910088392
 20
2.0964639684
 30
0.0
 10
4.9748836795
 20
2.1079742038
 30
0.0
 10
4.9566455096
 20
2.1220924944
 30
0.0
 10
4.9422912148
 20
2.1338991631
 30
0.0
 10
4.9314140913
 20
2.1431642845
 30
0.0
 10
4.9237029775
 20
2.1498666407
 30
0.0
 10
4.9163364681
 20
2.1563839313
 30
0.0
 10
4.9093325104
 20
2.1626780842
 30
0.0
 10
4.9027125624
 20
2.1687091262
 30
0.0
 10
4.8965019204
 20
2.1744361185
 30
0.0
 10
4.8907291926
 20
2.1798159376
 30
0.0
 10
4.8854258467
 20
2.1848038898
 30
0.0
 10
4.8813179271
 20
2.1886981332
 30
0.0
 10
4.8782914353
 20
2.19158246
 30
0.0
 10
4.8762256582
 20
2.1935574425
 30
0.0
 10
4.8743039555
 20
2.1954000365
 30
0.0
 10
4.872530824
 20
2.1971045821
 30
0.0
 10
4.8709107248
 20
2.1986656781
 30
0.0
 10
4.8694479678
 20
2.2000781369
 30
0.0
 10
4.8681465436
 20
2.2013370475
 30
0.0
 10
4.8671647797
 20
2.2022882782
 30
0.0
 10
4.8664628123
 20
2.2029691661
 30
0.0
 10
4.865999844
 20
2.2034185149
 30
0.0
 10
4.8655798288
 20
2.2038264093
 30
0.0
 10
4.8652030843
 20
2.2041924847
 30
0.0
 10
4.8648698996
 20
2.2045164011
 30
0.0
 10
4.8645805631
 20
2.2047978203
 30
0.0
 10
4.8643669866
 20
2.2050056331
 30
0.0
 10
4.8642182443
 20
2.2051503933
 30
0.0
 10
4.8641233329
 20
2.2052427777
 30
0.0
 10
4.8640395413
 20
2.2053243501
 30
0.0
 10
4.8639668829
 20
2.2053950967
 30
0.0
 10
4.8639053659
 20
2.2054549999
 30
0.0
 10
4.8638550135
 20
2.2055040527
 30
0.0
 10
4.8638200136
 20
2.2055381257
 30
0.0
 10
4.8637976327
 20
2.2055599675
 30
0.0
 10
4.8637849815
 20
2.2055722227
 30
0.0
 10
4.8637752843
 20
2.205581863
 30
0.0
 10
4.8637680203
 20
2.205588517
 30
0.0
 10
4.8637642579
 20
2.2055929376
 30
0.0
 10
4.8637619233
 20
2.205594437
 30
0.0
 10
4.863761646
 20
2.2055950311
 30
0.0
  0
ENDSEC
  0
SECTION
  2
OBJECTS
  0
DICTIONARY
  5
C
100
AcDbDictionary
280
0
281
1
  3
ACAD_GROUP
350
D
  3
ACAD_MLINESTYLE
350
17
  3
ACAD_LAYOUT
350
1A
  3
ACAD_PLOTSETTINGS
350
19
  3
ACAD_PLOTSTYLENAME
350
E
  0
DICTIONARY
  5
D
102
{ACAD_REACTORS
330
C
102
}
100
AcDbDictionary
280
0
281
1
  0
ACDBDICTIONARYWDFLT
  5
E
102
{ACAD_REACTORS
330
C
102
}
100
AcDbDictionary
281
1
  3
Normal
350
F
100
AcDbDictionaryWithDefault
340
F
  0
DICTIONARY
  5
17
102
{ACAD_REACTORS
330
C
102
}
100
AcDbDictionary
280
0
281
1
  3
Standard
350
18
  0
DICTIONARY
  5
19
102
{ACAD_REACTORS
330
C
102
}
100
AcDbDictionary
281
1
  0
DICTIONARY
  5
1A
102
{ACAD_REACTORS
330
C
102
}
100
AcDbDictionary
281
1
  3
Model
350
2C8
  3
Layout1
350
2C9
  0
ACDBPLACEHOLDER
  5
F
102
{ACAD_REACTORS
330
E
102
}
  0
MLINESTYLE
  5
18
102
{ACAD_REACTORS
330
17
102
}
100
AcDbMlineStyle
  2
STANDARD
 70
0
  3

 62
256
 51
90.0
 52
90.0
 71
2
 49
0.5
 62
256
  6
BYLAYER
 49
-0.5
 62
256
  6
BYLAYER
  0
LAYOUT
  5
2C8
102
{ACAD_REACTORS
330
1A
102
}
100
AcDbPlotSettings
  1

  2
none_device
  4
ANSI_A_(11.00_x_8.50_Inches)
  6

 40
0.0
 41
0.0
 42
0.0
 43
0.0
 44
279.4
 45
215.9
 46
0.0
 47
0.0
 48
0.0
 49
0.0
140
0.0
141
0.0
142
1.0
143
1.0
 70
1024
 72
0
 73
0
 74
0
  7

 75
0
147
1.0
148
0.0
149
0.0
100
AcDbLayout
  1
Model
 70
0
 71
0
 10
0.0
 20
0.0
 11
11.0
 21
8.5
 12
0.0
 22
0.0
 32
0.0
 14
0.0
 24
0.0
 34
0.0
 15
0.0
 25
0.0
 35
0.0
146
0.0
 13
0.0
 23
0.0
 33
0.0
 16
1.0
 26
0.0
 36
0.0
 17
0.0
 27
1.0
 37
0.0
 76
0
330
202
345
0
346
0
  0
LAYOUT
  5
2C9
102
{ACAD_REACTORS
330
1A
102
}
100
AcDbPlotSettings
  1

  2
none_device
  4
ANSI_A_(11.00_x_8.50_Inches)
  6

 40
0.0
 41
0.0
 42
0.0
 43
0.0
 44
279.4
 45
215.9
 46
0.0
 47
0.0
 48
0.0
 49
0.0
140
0.0
141
0.0
142
1.0
143
1.0
 70
0
 72
0
 73
0
 74
0
  7

 75
0
147
1.0
148
0.0
149
0.0
100
AcDbLayout
  1
Layout1
 70
0
 71
1
 10
0.0
 20
0.0
 11
11.0
 21
8.5
 12
0.0
 22
0.0
 32
0.0
 14
0.0
 24
0.0
 34
0.0
 15
0.0
 25
0.0
 35
0.0
146
0.0
 13
0.0
 23
0.0
 33
0.0
 16
1.0
 26
0.0
 36
0.0
 17
0.0
 27
1.0
 37
0.0
 76
0
330
203
345
0
346
0
  0
ENDSEC
  0
EOF
