999
DXF file: 1400-5412_front.dxf
999
Pro/ENGINEER 2018400 by Parametric Technology Corporation
  0
SECTION
  2
HEADER
  9
$ACADVER
  1
AC1027
  9
$DWGCODEPAGE
  3
ANSI_1252
  9
$EXTMAX
 10
11.0
 20
8.5
 30
0.0
  9
$EXTMIN
 10
0.0
 20
0.0
 30
0.0
  9
$LIMMIN
 10
0.0
 20
0.0
  9
$LIMMAX
 10
11.0
 20
8.5
  9
$VIEWCTR
 10
5.5
 20
4.25
  9
$VIEWSIZE
 40
8.5
  9
$CLAYER
  8
0
  9
$LTSCALE
 40
0.605
  9
$CELTYPE
  6
BYLAYER
  9
$DIMSCALE
 40
1.0
  9
$DIMASZ
 40
0.1
  9
$DIMEXO
 40
0.0625
  9
$DIMDLI
 40
0.418
  9
$DIMEXE
 40
0.125
  9
$DIMCEN
 40
0.099
  9
$DIMLFAC
 40
1.0
  9
$DIMBLK
  1
_FILLED
  9
$DIMALT
 70
1
  9
$DIMALTD
 70
1
  9
$DIMALTTD
 70
2
  9
$DIMALTF
 40
25.4
  9
$DIMTXT
 40
0.08
  9
$DIMTOL
 70
1
  9
$DIMLIM
 70
0
  9
$DIMTFAC
 40
1.0
  9
$DIMTP
 40
0.01
  9
$DIMTM
 40
0.01
  9
$DIMGAP
 40
0.09
  9
$DIMDSEP
 70
46
  9
$AUNITS
 70
0
  9
$PDMODE
 70
3
  9
$PDSIZE
 40
0.3125
  9
$HANDSEED
  5
454
  9
$TILEMODE
 70
1
  9
$MEASUREMENT
 70
0
  9
$INSUNITS
 70
1
  0
ENDSEC
  0
SECTION
  2
CLASSES
  0
CLASS
  1
ACDBDICTIONARYWDFLT
  2
AcDbDictionaryWithDefault
  3
AutoCAD 2000
 90
0
 91
1
280
0
281
0
  0
CLASS
  1
ACDBPLACEHOLDER
  2
AcDbPlaceHolder
  3
AutoCAD 2000
 90
0
 91
1
280
0
281
0
  0
CLASS
  1
LAYOUT
  2
AcDbLayout
  3
AutoCAD 2000
 90
0
 91
0
280
0
281
0
  0
ENDSEC
  0
SECTION
  2
TABLES
  0
TABLE
  2
VPORT
  5
8
100
AcDbSymbolTable
 70
2
  0
VPORT
  5
1F4
100
AcDbSymbolTableRecord
100
AcDbViewportTableRecord
  2
*ACTIVE
 70
0
 10
0.0
 20
0.0
 11
1.0
 21
1.0
 12
5.5
 22
4.25
 13
0.0
 23
0.0
 14
1.0
 24
1.0
 15
0.0
 25
0.0
 16
0.0
 26
0.0
 36
1.0
 17
0.0
 27
0.0
 37
0.0
 40
8.5
 41
1.2941176471
 42
50.0
 43
0.0
 44
0.0
 50
0.0
 51
0.0
 71
0
 72
100
 73
1
 74
1
 75
0
 76
0
 77
0
 78
0
  0
ENDTAB
  0
TABLE
  2
LTYPE
  5
5
100
AcDbSymbolTable
 70
6
  0
LTYPE
  5
14
100
AcDbSymbolTableRecord
100
AcDbLinetypeTableRecord
  2
BYBLOCK
 70
0
  3

 72
65
 73
0
 40
0.0
  0
LTYPE
  5
15
100
AcDbSymbolTableRecord
100
AcDbLinetypeTableRecord
  2
BYLAYER
 70
0
  3

 72
65
 73
0
 40
0.0
  0
LTYPE
  5
16
100
AcDbSymbolTableRecord
100
AcDbLinetypeTableRecord
  2
CONTINUOUS
 70
64
  3
Solid line
 72
65
 73
0
 40
0.0
  0
LTYPE
  5
1F5
100
AcDbSymbolTableRecord
100
AcDbLinetypeTableRecord
  2
CENTER
 70
64
  3
____ _ ____ _ ____ _ ____ _ ____ _ ____ _ ____
 72
65
 73
4
 40
0.6
 49
0.375
 74
0
 49
-0.075
 74
0
 49
0.075
 74
0
 49
-0.075
 74
0
  0
LTYPE
  5
1F6
100
AcDbSymbolTableRecord
100
AcDbLinetypeTableRecord
  2
HIDDEN
 70
64
  3
- - - - - - - - - - - - - - - - - - - -
 72
65
 73
2
 40
0.2
 49
0.1
 74
0
 49
-0.1
 74
0
  0
LTYPE
  5
1F7
100
AcDbSymbolTableRecord
100
AcDbLinetypeTableRecord
  2
PHANTOM
 70
64
  3
_____ _ _ _____ _ _ _____ _ _ _____
 72
65
 73
6
 40
0.8
 49
0.45
 74
0
 49
-0.05
 74
0
 49
0.1
 74
0
 49
-0.05
 74
0
 49
0.1
 74
0
 49
-0.05
 74
0
  0
LTYPE
  5
1F8
100
AcDbSymbolTableRecord
100
AcDbLinetypeTableRecord
  2
DOT
 70
64
  3
. . . . . . . . . . . . . . . . . . . .
 72
65
 73
2
 40
0.2
 49
0.1
 74
0
 49
-0.1
 74
0
  0
LTYPE
  5
1F9
100
AcDbSymbolTableRecord
100
AcDbLinetypeTableRecord
  2
DASHED
 70
64
  3
- - - - - - - - - - - - - - - - - - - -
 72
65
 73
2
 40
0.2
 49
0.1
 74
0
 49
-0.1
 74
0
  0
ENDTAB
  0
TABLE
  2
LAYER
  5
2
100
AcDbSymbolTable
 70
36
  0
LAYER
  5
10
100
AcDbSymbolTableRecord
100
AcDbLayerTableRecord
  2
0
 70
0
 62
7
  6
CONTINUOUS
370
-3
390
F
  0
LAYER
  5
1FA
100
AcDbSymbolTableRecord
100
AcDbLayerTableRecord
  2
DEFAULT_1
 70
0
 62
7
  6
CENTER
370
-3
390
F
  0
LAYER
  5
1FB
100
AcDbSymbolTableRecord
100
AcDbLayerTableRecord
  2
DEFAULT_2
 70
0
 62
8
  6
HIDDEN
370
-3
390
F
  0
LAYER
  5
1FC
100
AcDbSymbolTableRecord
100
AcDbLayerTableRecord
  2
DEFAULT_3
 70
0
 62
7
  6
PHANTOM
370
-3
390
F
  0
LAYER
  5
1FD
100
AcDbSymbolTableRecord
100
AcDbLayerTableRecord
  2
DEFAULT_COORDINATE_SYSTEM
 70
0
 62
7
  6
CONTINUOUS
370
-3
390
F
  0
LAYER
  5
1FE
100
AcDbSymbolTableRecord
100
AcDbLayerTableRecord
  2
DEFAULT_DATUM_AXES
 70
0
 62
7
  6
CONTINUOUS
370
-3
390
F
  0
LAYER
  5
1FF
100
AcDbSymbolTableRecord
100
AcDbLayerTableRecord
  2
DEFAULT_DATUM_PLANES
 70
0
 62
7
  6
CONTINUOUS
370
-3
390
F
  0
ENDTAB
  0
TABLE
  2
STYLE
  5
3
100
AcDbSymbolTable
 70
1
  0
STYLE
  5
11
100
AcDbSymbolTableRecord
100
AcDbTextStyleTableRecord
  2
STANDARD
 70
0
 40
0.0
 41
0.8
 50
0.0
 71
0
 42
0.2
  3
txt
  4

  0
STYLE
  5
200
100
AcDbSymbolTableRecord
100
AcDbTextStyleTableRecord
  2
TEXTSTYLE_1
 70
0
 40
0.0
 41
0.8
 50
0.0
 71
0
 42
0.2
  3
gdt
  4

  0
ENDTAB
  0
TABLE
  2
VIEW
  5
6
100
AcDbSymbolTable
 70
0
  0
ENDTAB
  0
TABLE
  2
UCS
  5
7
100
AcDbSymbolTable
 70
0
  0
ENDTAB
  0
TABLE
  2
APPID
  5
9
100
AcDbSymbolTable
 70
1
  0
APPID
  5
201
100
AcDbSymbolTableRecord
100
AcDbRegAppTableRecord
  2
ACAD
 70
0
  0
ENDTAB
  0
TABLE
  2
BLOCK_RECORD
  5
1
100
AcDbSymbolTable
 70
0
  0
BLOCK_RECORD
  5
202
100
AcDbSymbolTableRecord
100
AcDbBlockTableRecord
  2
*Model_Space
  0
BLOCK_RECORD
  5
203
100
AcDbSymbolTableRecord
100
AcDbBlockTableRecord
  2
*Paper_Space
  0
BLOCK_RECORD
  5
204
100
AcDbSymbolTableRecord
100
AcDbBlockTableRecord
  2
_FILLED
  0
ENDTAB
  0
TABLE
  2
DIMSTYLE
  5
A
100
AcDbSymbolTable
 70
1
100
AcDbDimStyleTable
 71
0
  0
DIMSTYLE
105
205
100
AcDbSymbolTableRecord
100
AcDbDimStyleTableRecord
  2
STANDARD
 70
0
  3

  4

 40
1.0
 41
0.1
 42
0.0625
 43
0.38
 44
0.125
 45
0.0
 46
0.0
 47
0.01
 48
0.01
140
0.08
141
0.09
142
0.0
143
25.4
144
1.0
145
0.0
146
1.0
147
0.09
 71
1.0
 72
0.0
 73
1
 74
1
 75
0
 76
0
 77
0
 78
4
 79
1
170
1
171
1
172
0
173
0
174
0
175
0
176
0
177
0
178
0
270
2
179
2
271
2
272
2
273
2
274
2
275
0
280
0
281
0
282
0
283
1
284
4
285
0
286
0
287
3
288
0
340
11
278
46
341
204
342
204
343
204
344
204
  0
ENDTAB
  0
ENDSEC
  0
SECTION
  2
BLOCKS
  0
BLOCK
  5
20
100
AcDbEntity
  8
0
100
AcDbBlockBegin
  2
*Model_Space
 70
0
 10
0.0
 20
0.0
 30
0.0
  3
*Model_Space
  1

  0
ENDBLK
  5
21
100
AcDbEntity
  8
0
100
AcDbBlockEnd
  0
BLOCK
  5
1C
100
AcDbEntity
  8
0
100
AcDbBlockBegin
  2
*Paper_Space
 70
0
 10
0.0
 20
0.0
 30
0.0
  3
*Paper_Space
  1

  0
ENDBLK
  5
1D
100
AcDbEntity
  8
0
100
AcDbBlockEnd
  0
BLOCK
  5
206
100
AcDbEntity
  8
0
100
AcDbBlockBegin
  2
_FILLED
 70
64
 10
0.0
 20
0.0
  3
_FILLED
  1

  0
SOLID
  5
207
100
AcDbEntity
  8
0
  6
BYBLOCK
 62
0
100
AcDbTrace
 10
0.0
 20
0.0
 11
-1.0
 21
0.2
 12
-1.0
 22
-0.2
 13
-1.0
 23
-0.2
  0
ENDBLK
  5
208
100
AcDbEntity
  8
0
  6
BYBLOCK
 62
0
100
AcDbBlockEnd
  0
ENDSEC
  0
SECTION
  2
ENTITIES
  0
MTEXT
  5
209
100
AcDbEntity
  8
0
100
AcDbMText
 62
2
  6
CONTINUOUS
  7
STANDARD
 71
3
 72
1
 10
5.061878882
 20
1.1141496894
 30
0.0
 11
1.0
 21
0.0
 31
0.0
 73
2
 44
0.9
  1
SCALE  .375
 40
0.08
 41
0.704
  0
LINE
  5
20A
100
AcDbEntity
  8
0
100
AcDbLine
 62
7
  6
CONTINUOUS
 10
0.0
 20
0.0
 11
0.0
 21
8.5
  0
LINE
  5
20B
100
AcDbEntity
  8
0
100
AcDbLine
 62
7
  6
CONTINUOUS
 10
0.0
 20
0.0
 11
11.0
 21
0.0
  0
LINE
  5
20C
100
AcDbEntity
  8
0
100
AcDbLine
 62
7
  6
CONTINUOUS
 10
0.0
 20
8.5
 11
11.0
 21
8.5
  0
LINE
  5
20D
100
AcDbEntity
  8
0
100
AcDbLine
 62
7
  6
CONTINUOUS
 10
11.0
 20
0.0
 11
11.0
 21
8.5
  0
LINE
  5
20E
100
AcDbEntity
  8
0
100
AcDbLine
 62
7
  6
CONTINUOUS
 10
1.993441382
 20
3.2718371894
 11
1.993441382
 21
3.4387121894
  0
LINE
  5
20F
100
AcDbEntity
  8
0
100
AcDbLine
 62
7
  6
CONTINUOUS
 10
2.274691382
 20
2.4680246894
 11
2.285941382
 21
2.4567746894
  0
LINE
  5
210
100
AcDbEntity
  8
0
100
AcDbLine
 62
7
  6
CONTINUOUS
 10
2.137816382
 20
1.3572746894
 11
2.137816382
 21
1.2091496894
  0
LINE
  5
211
100
AcDbEntity
  8
0
100
AcDbLine
 62
7
  6
CONTINUOUS
 10
2.274691382
 20
1.3685246894
 11
2.274691382
 21
2.4455246894
  0
LINE
  5
212
100
AcDbEntity
  8
0
100
AcDbLine
 62
7
  6
CONTINUOUS
 10
2.274691382
 20
2.4680246894
 11
2.274691382
 21
3.0323996894
  0
LINE
  5
213
100
AcDbEntity
  8
0
100
AcDbLine
 62
7
  6
CONTINUOUS
 10
2.1378163737
 20
1.2091496894
 11
2.8803163903
 21
1.2091496894
  0
LINE
  5
214
100
AcDbEntity
  8
0
100
AcDbLine
 62
7
  6
CONTINUOUS
 10
5.1378163737
 20
1.2091496894
 11
5.8803163903
 21
1.2091496894
  0
LINE
  5
215
100
AcDbEntity
  8
0
100
AcDbLine
 62
7
  6
CONTINUOUS
 10
7.387816382
 20
1.2091496894
 11
8.130316382
 21
1.2091496894
  0
LINE
  5
216
100
AcDbEntity
  8
0
100
AcDbLine
 62
7
  6
CONTINUOUS
 10
2.732191382
 20
2.4567746894
 11
2.7434413818
 21
2.4455246897
  0
LINE
  5
217
100
AcDbEntity
  8
0
100
AcDbLine
 62
7
  6
CONTINUOUS
 10
2.368441382
 20
3.4677746894
 11
2.368441382
 21
3.4433996894
  0
LINE
  5
218
100
AcDbEntity
  8
0
100
AcDbLine
 62
7
  6
CONTINUOUS
 10
2.368441382
 20
3.2671496894
 11
2.368441382
 21
3.2427746894
  0
LINE
  5
219
100
AcDbEntity
  8
0
100
AcDbLine
 62
7
  6
CONTINUOUS
 10
2.410628882
 20
3.2427746894
 11
2.410628882
 21
3.0552746894
  0
LINE
  5
21A
100
AcDbEntity
  8
0
100
AcDbLine
 62
7
  6
CONTINUOUS
 10
2.414191382
 20
3.0436496894
 11
2.414191382
 21
3.0552746894
  0
LINE
  5
21B
100
AcDbEntity
  8
0
100
AcDbLine
 62
7
  6
CONTINUOUS
 10
2.137816382
 20
1.3572746894
 11
2.880316382
 21
1.3572746894
  0
LINE
  5
21C
100
AcDbEntity
  8
0
100
AcDbLine
 62
7
  6
CONTINUOUS
 10
5.137816382
 20
1.3572746894
 11
5.880316382
 21
1.3572746894
  0
LINE
  5
21D
100
AcDbEntity
  8
0
100
AcDbLine
 62
7
  6
CONTINUOUS
 10
7.387816382
 20
1.3572746894
 11
8.130316382
 21
1.3572746894
  0
LINE
  5
21E
100
AcDbEntity
  8
0
100
AcDbLine
 62
7
  6
CONTINUOUS
 10
2.149066382
 20
1.3685246894
 11
2.8690663559
 21
1.3685246894
  0
LINE
  5
21F
100
AcDbEntity
  8
0
100
AcDbLine
 62
7
  6
CONTINUOUS
 10
5.149066382
 20
1.3685246894
 11
5.8690663559
 21
1.3685246894
  0
LINE
  5
220
100
AcDbEntity
  8
0
100
AcDbLine
 62
7
  6
CONTINUOUS
 10
7.399066382
 20
1.3685246894
 11
8.119066382
 21
1.3685246894
  0
LINE
  5
221
100
AcDbEntity
  8
0
100
AcDbLine
 62
7
  6
CONTINUOUS
 10
2.603941382
 20
3.0436496894
 11
2.603941382
 21
3.0552746894
  0
LINE
  5
222
100
AcDbEntity
  8
0
100
AcDbLine
 62
7
  6
CONTINUOUS
 10
2.607503882
 20
3.2427746894
 11
2.607503882
 21
3.0552746894
  0
LINE
  5
223
100
AcDbEntity
  8
0
100
AcDbLine
 62
7
  6
CONTINUOUS
 10
2.649691382
 20
3.4677746894
 11
2.649691382
 21
3.4433996894
  0
LINE
  5
224
100
AcDbEntity
  8
0
100
AcDbLine
 62
7
  6
CONTINUOUS
 10
2.649691382
 20
3.2671496894
 11
2.649691382
 21
3.2427746894
  0
LINE
  5
225
100
AcDbEntity
  8
0
100
AcDbLine
 62
7
  6
CONTINUOUS
 10
2.743441382
 20
1.3685246894
 11
2.743441382
 21
1.8691496894
  0
LINE
  5
226
100
AcDbEntity
  8
0
100
AcDbLine
 62
7
  6
CONTINUOUS
 10
2.743441382
 20
2.4053996894
 11
2.743441382
 21
2.4455246894
  0
LINE
  5
227
100
AcDbEntity
  8
0
100
AcDbLine
 62
7
  6
CONTINUOUS
 10
2.743441382
 20
2.4680246894
 11
2.743441382
 21
3.0323996894
  0
LINE
  5
228
100
AcDbEntity
  8
0
100
AcDbLine
 62
7
  6
CONTINUOUS
 10
7.524691382
 20
1.6160246894
 11
7.993441382
 21
1.6160246894
  0
LINE
  5
229
100
AcDbEntity
  8
0
100
AcDbLine
 62
7
  6
CONTINUOUS
 10
7.9530095882
 20
1.6238996894
 11
7.5651231758
 21
1.6238996894
  0
LINE
  5
22A
100
AcDbEntity
  8
0
100
AcDbLine
 62
7
  6
CONTINUOUS
 10
2.880316382
 20
1.3572746894
 11
2.880316382
 21
1.2091496894
  0
LINE
  5
22B
100
AcDbEntity
  8
0
100
AcDbLine
 62
7
  6
CONTINUOUS
 10
3.024691382
 20
3.2718371894
 11
3.024691382
 21
3.4387121894
  0
LINE
  5
22C
100
AcDbEntity
  8
0
100
AcDbLine
 62
7
  6
CONTINUOUS
 10
5.240941382
 20
1.9028996894
 11
2.777191382
 21
1.9028996894
  0
LINE
  5
22D
100
AcDbEntity
  8
0
100
AcDbLine
 62
7
  6
CONTINUOUS
 10
7.6258069908
 20
2.7515837241
 11
7.6328828292
 21
2.7533479287
  0
LINE
  5
22E
100
AcDbEntity
  8
0
100
AcDbLine
 62
7
  6
CONTINUOUS
 10
7.9503373973
 20
2.8295672394
 11
7.9574526988
 21
2.8312099362
  0
LINE
  5
22F
100
AcDbEntity
  8
0
100
AcDbLine
 62
7
  6
CONTINUOUS
 10
7.6168028345
 20
2.7588025723
 11
7.6239711309
 21
2.760195948
  0
LINE
  5
230
100
AcDbEntity
  8
0
100
AcDbLine
 62
7
  6
CONTINUOUS
 10
7.9449747382
 20
2.81969045
 11
7.9521662606
 21
2.8209585094
  0
LINE
  5
231
100
AcDbEntity
  8
0
100
AcDbLine
 62
7
  6
CONTINUOUS
 10
5.240941382
 20
2.3716496894
 11
4.230316382
 21
2.3716496894
  0
LINE
  5
232
100
AcDbEntity
  8
0
100
AcDbLine
 62
7
  6
CONTINUOUS
 10
3.787816382
 20
2.3716496894
 11
2.777191382
 21
2.3716496894
  0
LINE
  5
233
100
AcDbEntity
  8
0
100
AcDbLine
 62
7
  6
CONTINUOUS
 10
7.8923257731
 20
3.1024656548
 11
7.8852499348
 21
3.1007014502
  0
LINE
  5
234
100
AcDbEntity
  8
0
100
AcDbLine
 62
7
  6
CONTINUOUS
 10
7.5677953667
 20
3.0244821395
 11
7.5606800651
 21
3.0228394427
  0
LINE
  5
235
100
AcDbEntity
  8
0
100
AcDbLine
 62
7
  6
CONTINUOUS
 10
7.9013299295
 20
3.0952468066
 11
7.8941616331
 21
3.0938534309
  0
LINE
  5
236
100
AcDbEntity
  8
0
100
AcDbLine
 62
7
  6
CONTINUOUS
 10
7.5731580258
 20
3.0343589289
 11
7.5659665034
 21
3.0330908695
  0
LINE
  5
237
100
AcDbEntity
  8
0
100
AcDbLine
 62
7
  6
CONTINUOUS
 10
7.6081937363
 20
2.7664786136
 11
7.6154251325
 21
2.7674949201
  0
LINE
  5
238
100
AcDbEntity
  8
0
100
AcDbLine
 62
7
  6
CONTINUOUS
 10
7.9391025172
 20
2.8101078562
 11
7.9463505489
 21
2.8109978026
  0
LINE
  5
239
100
AcDbEntity
  8
0
100
AcDbLine
 62
7
  6
CONTINUOUS
 10
7.5999981697
 20
2.7745947006
 11
7.6072728448
 21
2.7752311523
  0
LINE
  5
23A
100
AcDbEntity
  8
0
100
AcDbLine
 62
7
  6
CONTINUOUS
 10
7.9327431427
 20
2.8008411366
 11
7.9400178341
 21
2.8013498326
  0
LINE
  5
23B
100
AcDbEntity
  8
0
100
AcDbLine
 62
7
  6
CONTINUOUS
 10
2.274691382
 20
2.4455246894
 11
2.743441382
 21
2.4455246894
  0
LINE
  5
23C
100
AcDbEntity
  8
0
100
AcDbLine
 62
7
  6
CONTINUOUS
 10
5.274691382
 20
2.4455246894
 11
5.743441382
 21
2.4455246894
  0
LINE
  5
23D
100
AcDbEntity
  8
0
100
AcDbLine
 62
7
  6
CONTINUOUS
 10
2.285941382
 20
2.4567746894
 11
2.732191382
 21
2.4567746894
  0
LINE
  5
23E
100
AcDbEntity
  8
0
100
AcDbLine
 62
7
  6
CONTINUOUS
 10
5.285941382
 20
2.4567746894
 11
5.732191382
 21
2.4567746894
  0
LINE
  5
23F
100
AcDbEntity
  8
0
100
AcDbLine
 62
7
  6
CONTINUOUS
 10
2.274691382
 20
2.4680246894
 11
2.743441382
 21
2.4680246894
  0
LINE
  5
240
100
AcDbEntity
  8
0
100
AcDbLine
 62
7
  6
CONTINUOUS
 10
5.274691382
 20
2.4680246894
 11
5.743441382
 21
2.4680246894
  0
LINE
  5
241
100
AcDbEntity
  8
0
100
AcDbLine
 62
7
  6
CONTINUOUS
 10
4.196566382
 20
2.5310246894
 11
3.821566382
 21
2.5310246894
  0
LINE
  5
242
100
AcDbEntity
  8
0
100
AcDbLine
 62
7
  6
CONTINUOUS
 10
4.1965664075
 20
2.5429496894
 11
3.8215663565
 21
2.5429496894
  0
LINE
  5
243
100
AcDbEntity
  8
0
100
AcDbLine
 62
7
  6
CONTINUOUS
 10
3.821566382
 20
2.4053996894
 11
3.821566382
 21
2.5310246894
  0
LINE
  5
244
100
AcDbEntity
  8
0
100
AcDbLine
 62
7
  6
CONTINUOUS
 10
3.821566382
 20
2.5429496894
 11
3.821566382
 21
6.6536996894
  0
LINE
  5
245
100
AcDbEntity
  8
0
100
AcDbLine
 62
7
  6
CONTINUOUS
 10
7.9099390276
 20
3.0875707652
 11
7.9027076315
 21
3.0865544588
  0
LINE
  5
246
100
AcDbEntity
  8
0
100
AcDbLine
 62
7
  6
CONTINUOUS
 10
7.5790302468
 20
3.0439415227
 11
7.571782215
 21
3.0430515763
  0
LINE
  5
247
100
AcDbEntity
  8
0
100
AcDbLine
 62
7
  6
CONTINUOUS
 10
7.9181345943
 20
3.0794546782
 11
7.9108599192
 21
3.0788182266
  0
LINE
  5
248
100
AcDbEntity
  8
0
100
AcDbLine
 62
7
  6
CONTINUOUS
 10
7.5853896213
 20
3.0532082422
 11
7.5781149299
 21
3.0526995463
  0
LINE
  5
249
100
AcDbEntity
  8
0
100
AcDbLine
 62
7
  6
CONTINUOUS
 10
7.5922385979
 20
2.7831285876
 11
7.5995366126
 21
2.7833834399
  0
LINE
  5
24A
100
AcDbEntity
  8
0
100
AcDbLine
 62
7
  6
CONTINUOUS
 10
7.9258951235
 20
2.7919294383
 11
7.9331964745
 21
2.7920568839
  0
LINE
  5
24B
100
AcDbEntity
  8
0
100
AcDbLine
 62
7
  6
CONTINUOUS
 10
7.5849362895
 20
2.7920568839
 11
7.5922376405
 21
2.7919294383
  0
LINE
  5
24C
100
AcDbEntity
  8
0
100
AcDbLine
 62
7
  6
CONTINUOUS
 10
7.9185961513
 20
2.7833834399
 11
7.9258941661
 21
2.7831285876
  0
LINE
  5
24D
100
AcDbEntity
  8
0
100
AcDbLine
 62
7
  6
CONTINUOUS
 10
4.196566382
 20
2.4053996894
 11
4.196566382
 21
2.5310246894
  0
LINE
  5
24E
100
AcDbEntity
  8
0
100
AcDbLine
 62
7
  6
CONTINUOUS
 10
4.196566382
 20
2.5429496894
 11
4.196566382
 21
6.6536996894
  0
LINE
  5
24F
100
AcDbEntity
  8
0
100
AcDbLine
 62
7
  6
CONTINUOUS
 10
2.285941382
 20
2.4567746894
 11
2.2746913822
 21
2.4455246897
  0
LINE
  5
250
100
AcDbEntity
  8
0
100
AcDbLine
 62
7
  6
CONTINUOUS
 10
7.9258941661
 20
3.0709207912
 11
7.9185961513
 21
3.0706659389
  0
LINE
  5
251
100
AcDbEntity
  8
0
100
AcDbLine
 62
7
  6
CONTINUOUS
 10
7.5922376405
 20
3.0621199406
 11
7.5849362895
 21
3.061992495
  0
LINE
  5
252
100
AcDbEntity
  8
0
100
AcDbLine
 62
7
  6
CONTINUOUS
 10
2.274691382
 20
3.0323996894
 11
2.743441382
 21
3.0323996894
  0
LINE
  5
253
100
AcDbEntity
  8
0
100
AcDbLine
 62
7
  6
CONTINUOUS
 10
5.274691382
 20
3.0323996894
 11
5.743441382
 21
3.0323996894
  0
LINE
  5
254
100
AcDbEntity
  8
0
100
AcDbLine
 62
7
  6
CONTINUOUS
 10
2.285941382
 20
3.0436496894
 11
2.732191382
 21
3.0436496894
  0
LINE
  5
255
100
AcDbEntity
  8
0
100
AcDbLine
 62
7
  6
CONTINUOUS
 10
5.285941382
 20
3.0436496894
 11
5.732191382
 21
3.0436496894
  0
LINE
  5
256
100
AcDbEntity
  8
0
100
AcDbLine
 62
7
  6
CONTINUOUS
 10
2.410628882
 20
3.0552746894
 11
2.607503882
 21
3.0552746894
  0
LINE
  5
257
100
AcDbEntity
  8
0
100
AcDbLine
 62
7
  6
CONTINUOUS
 10
5.410628882
 20
3.0552746894
 11
5.607503882
 21
3.0552746894
  0
LINE
  5
258
100
AcDbEntity
  8
0
100
AcDbLine
 62
7
  6
CONTINUOUS
 10
7.9331964745
 20
3.061992495
 11
7.9258951235
 21
3.0621199406
  0
LINE
  5
259
100
AcDbEntity
  8
0
100
AcDbLine
 62
7
  6
CONTINUOUS
 10
7.5995366126
 20
3.0706659389
 11
7.5922385979
 21
3.0709207912
  0
LINE
  5
25A
100
AcDbEntity
  8
0
100
AcDbLine
 62
7
  6
CONTINUOUS
 10
7.5781149299
 20
2.8013498326
 11
7.5853896213
 21
2.8008411366
  0
LINE
  5
25B
100
AcDbEntity
  8
0
100
AcDbLine
 62
7
  6
CONTINUOUS
 10
7.9108599192
 20
2.7752311523
 11
7.9181345943
 21
2.7745947006
  0
LINE
  5
25C
100
AcDbEntity
  8
0
100
AcDbLine
 62
7
  6
CONTINUOUS
 10
7.571782215
 20
2.8109978026
 11
7.5790302468
 21
2.8101078562
  0
LINE
  5
25D
100
AcDbEntity
  8
0
100
AcDbLine
 62
7
  6
CONTINUOUS
 10
7.9027076315
 20
2.7674949201
 11
7.9099390276
 21
2.7664786136
  0
LINE
  5
25E
100
AcDbEntity
  8
0
100
AcDbLine
 62
7
  6
CONTINUOUS
 10
5.274691382
 20
2.4680246894
 11
5.285941382
 21
2.4567746894
  0
LINE
  5
25F
100
AcDbEntity
  8
0
100
AcDbLine
 62
7
  6
CONTINUOUS
 10
2.6602556088
 20
2.3102350459
 11
2.6637264993
 21
2.3142060251
  0
LINE
  5
260
100
AcDbEntity
  8
0
100
AcDbLine
 62
7
  6
CONTINUOUS
 10
2.6493047643
 20
2.2977072781
 11
2.6530447677
 21
2.3019859562
  0
LINE
  5
261
100
AcDbEntity
  8
0
100
AcDbLine
 62
7
  6
CONTINUOUS
 10
2.509066382
 20
2.1372746894
 11
2.743441382
 21
2.4053996895
  0
LWPOLYLINE
  5
262
100
AcDbEntity
  8
0
100
AcDbPolyline
 62
7
  6
CONTINUOUS
 90
4
 70
0
 10
2.6071189696
 20
2.2494461892
 10
2.6162260575
 20
2.2598654124
 10
2.6206586689
 20
2.2649357393
 10
2.6250095054
 20
2.2699137201
  0
LWPOLYLINE
  5
263
100
AcDbEntity
  8
0
100
AcDbPolyline
 62
7
  6
CONTINUOUS
 90
3
 70
0
 10
2.5928905199
 20
2.2331686505
 10
2.6024500065
 20
2.2441056295
 10
2.6071189696
 20
2.2494461892
  0
LINE
  5
264
100
AcDbEntity
  8
0
100
AcDbLine
 62
7
  6
CONTINUOUS
 10
2.6415570446
 20
2.2888441733
 11
2.6454751576
 21
2.2933261873
  0
LWPOLYLINE
  5
265
100
AcDbEntity
  8
0
100
AcDbPolyline
 62
7
  6
CONTINUOUS
 90
3
 70
0
 10
2.6292756029
 20
2.2747940813
 10
2.6334560691
 20
2.2795761661
 10
2.6375505215
 20
2.2842606313
  0
LWPOLYLINE
  5
266
100
AcDbEntity
  8
0
100
AcDbPolyline
 62
7
  6
CONTINUOUS
 90
3
 70
0
 10
2.5780449115
 20
2.2161851076
 10
2.5880070928
 20
2.2275828714
 10
2.5928905199
 20
2.2331686505
  0
LWPOLYLINE
  5
267
100
AcDbEntity
  8
0
100
AcDbPolyline
 62
7
  6
CONTINUOUS
 90
6
 70
0
 10
2.6671077831
 20
2.3180742008
 10
2.6703998948
 20
2.3218400172
 10
2.6736031933
 20
2.3255048595
 10
2.6767179851
 20
2.3290683486
 10
2.6797449969
 20
2.3325308636
 10
2.6826852966
 20
2.3358949278
  0
LINE
  5
268
100
AcDbEntity
  8
0
100
AcDbLine
 62
7
  6
CONTINUOUS
 10
2.688308267
 20
2.3423271334
 11
2.7009118116
 21
2.3567463651
  0
LINE
  5
269
100
AcDbEntity
  8
0
100
AcDbLine
 62
7
  6
CONTINUOUS
 10
2.7031921727
 20
2.3593542938
 11
2.7134639772
 21
2.371105997
  0
LINE
  5
26A
100
AcDbEntity
  8
0
100
AcDbLine
 62
7
  6
CONTINUOUS
 10
2.7009118116
 20
2.3567463651
 11
2.7031921727
 21
2.3593542938
  0
LINE
  5
26B
100
AcDbEntity
  8
0
100
AcDbLine
 62
7
  6
CONTINUOUS
 10
2.7134639772
 20
2.371105997
 11
2.727605313
 21
2.3872835569
  0
LINE
  5
26C
100
AcDbEntity
  8
0
100
AcDbLine
 62
7
  6
CONTINUOUS
 10
2.5145107422
 20
2.1435085518
 11
2.5780449115
 21
2.2161851076
  0
LINE
  5
26D
100
AcDbEntity
  8
0
100
AcDbLine
 62
7
  6
CONTINUOUS
 10
2.727605313
 20
2.3872835569
 11
2.7428938485
 21
2.4047727499
  0
LINE
  5
26E
100
AcDbEntity
  8
0
100
AcDbLine
 62
7
  6
CONTINUOUS
 10
2.7428938485
 20
2.4047727499
 11
2.7433544083
 21
2.4053000527
  0
LINE
  5
26F
100
AcDbEntity
  8
0
100
AcDbLine
 62
7
  6
CONTINUOUS
 10
2.7434196933
 20
2.4053751174
 11
2.743441382
 21
2.4053996894
  0
LINE
  5
270
100
AcDbEntity
  8
0
100
AcDbLine
 62
7
  6
CONTINUOUS
 10
2.743441382
 20
2.4680246894
 11
2.732191382
 21
2.4567746894
  0
LINE
  5
271
100
AcDbEntity
  8
0
100
AcDbLine
 62
7
  6
CONTINUOUS
 10
2.3684414602
 20
3.2427746894
 11
2.6496913038
 21
3.2427746894
  0
LINE
  5
272
100
AcDbEntity
  8
0
100
AcDbLine
 62
7
  6
CONTINUOUS
 10
5.368441382
 20
3.2427746894
 11
5.649691382
 21
3.2427746894
  0
LINE
  5
273
100
AcDbEntity
  8
0
100
AcDbLine
 62
7
  6
CONTINUOUS
 10
6.024691382
 20
3.2718371894
 11
5.6468024768
 21
3.2718371894
  0
LINE
  5
274
100
AcDbEntity
  8
0
100
AcDbLine
 62
7
  6
CONTINUOUS
 10
3.024691382
 20
3.2718371894
 11
2.6468024768
 21
3.2718371894
  0
LINE
  5
275
100
AcDbEntity
  8
0
100
AcDbLine
 62
7
  6
CONTINUOUS
 10
1.993441382
 20
3.2718371894
 11
2.3713302871
 21
3.2718371894
  0
LINE
  5
276
100
AcDbEntity
  8
0
100
AcDbLine
 62
7
  6
CONTINUOUS
 10
4.993441382
 20
3.2718371894
 11
5.3713302871
 21
3.2718371894
  0
LINE
  5
277
100
AcDbEntity
  8
0
100
AcDbLine
 62
7
  6
CONTINUOUS
 10
6.024691382
 20
3.4387121894
 11
5.6468024768
 21
3.4387121894
  0
LINE
  5
278
100
AcDbEntity
  8
0
100
AcDbLine
 62
7
  6
CONTINUOUS
 10
3.024691382
 20
3.4387121894
 11
2.6468024768
 21
3.4387121894
  0
LINE
  5
279
100
AcDbEntity
  8
0
100
AcDbLine
 62
7
  6
CONTINUOUS
 10
1.993441382
 20
3.4387121894
 11
2.3713302871
 21
3.4387121894
  0
LINE
  5
27A
100
AcDbEntity
  8
0
100
AcDbLine
 62
7
  6
CONTINUOUS
 10
4.993441382
 20
3.4387121894
 11
5.3713302871
 21
3.4387121894
  0
LINE
  5
27B
100
AcDbEntity
  8
0
100
AcDbLine
 62
7
  6
CONTINUOUS
 10
2.3684414602
 20
3.4677746894
 11
2.6496913038
 21
3.4677746894
  0
LINE
  5
27C
100
AcDbEntity
  8
0
100
AcDbLine
 62
7
  6
CONTINUOUS
 10
5.368441382
 20
3.4677746894
 11
5.649691382
 21
3.4677746894
  0
LINE
  5
27D
100
AcDbEntity
  8
0
100
AcDbLine
 62
7
  6
CONTINUOUS
 10
7.9400178341
 20
3.0526995463
 11
7.9327431427
 21
3.0532082422
  0
LINE
  5
27E
100
AcDbEntity
  8
0
100
AcDbLine
 62
7
  6
CONTINUOUS
 10
7.6072728448
 20
3.0788182266
 11
7.5999981697
 21
3.0794546782
  0
LINE
  5
27F
100
AcDbEntity
  8
0
100
AcDbLine
 62
7
  6
CONTINUOUS
 10
7.9463505489
 20
3.0430515763
 11
7.9391025172
 21
3.0439415227
  0
LINE
  5
280
100
AcDbEntity
  8
0
100
AcDbLine
 62
7
  6
CONTINUOUS
 10
7.6154251325
 20
3.0865544588
 11
7.6081937363
 21
3.0875707652
  0
LINE
  5
281
100
AcDbEntity
  8
0
100
AcDbLine
 62
7
  6
CONTINUOUS
 10
7.5659665034
 20
2.8209585094
 11
7.5731580258
 21
2.81969045
  0
LINE
  5
282
100
AcDbEntity
  8
0
100
AcDbLine
 62
7
  6
CONTINUOUS
 10
7.8941616331
 20
2.760195948
 11
7.9013299295
 21
2.7588025723
  0
LINE
  5
283
100
AcDbEntity
  8
0
100
AcDbLine
 62
7
  6
CONTINUOUS
 10
7.5606800651
 20
2.8312099362
 11
7.5677953667
 21
2.8295672394
  0
LINE
  5
284
100
AcDbEntity
  8
0
100
AcDbLine
 62
7
  6
CONTINUOUS
 10
7.8852499348
 20
2.7533479287
 11
7.8923257731
 21
2.7515837241
  0
LINE
  5
285
100
AcDbEntity
  8
0
100
AcDbLine
 62
7
  6
CONTINUOUS
 10
5.732191382
 20
2.4567746894
 11
5.7434413818
 21
2.4455246897
  0
LINE
  5
286
100
AcDbEntity
  8
0
100
AcDbLine
 62
7
  6
CONTINUOUS
 10
2.509066382
 20
2.1372746894
 11
2.777191382
 21
2.3716496894
  0
LINE
  5
287
100
AcDbEntity
  8
0
100
AcDbLine
 62
7
  6
CONTINUOUS
 10
7.9521662606
 20
3.0330908695
 11
7.9449747382
 21
3.0343589289
  0
LINE
  5
288
100
AcDbEntity
  8
0
100
AcDbLine
 62
7
  6
CONTINUOUS
 10
7.6239711309
 20
3.0938534309
 11
7.6168028345
 21
3.0952468066
  0
LINE
  5
289
100
AcDbEntity
  8
0
100
AcDbLine
 62
7
  6
CONTINUOUS
 10
7.9574526988
 20
3.0228394427
 11
7.9503373973
 21
3.0244821395
  0
LINE
  5
28A
100
AcDbEntity
  8
0
100
AcDbLine
 62
7
  6
CONTINUOUS
 10
7.6328828292
 20
3.1007014502
 11
7.6258069908
 21
3.1024656548
  0
LINE
  5
28B
100
AcDbEntity
  8
0
100
AcDbLine
 62
7
  6
CONTINUOUS
 10
7.5559373899
 20
2.8417239846
 11
7.5629569681
 21
2.8397111529
  0
LINE
  5
28C
100
AcDbEntity
  8
0
100
AcDbLine
 62
7
  6
CONTINUOUS
 10
7.8759832152
 20
2.7469885543
 11
7.8829665955
 21
2.7448535206
  0
LINE
  5
28D
100
AcDbEntity
  8
0
100
AcDbLine
 62
7
  6
CONTINUOUS
 10
7.5517514772
 20
2.8524718363
 11
7.5586560918
 21
2.8500943868
  0
LINE
  5
28E
100
AcDbEntity
  8
0
100
AcDbLine
 62
7
  6
CONTINUOUS
 10
7.8664006215
 20
2.7411163333
 11
7.8732626923
 21
2.7386187437
  0
LINE
  5
28F
100
AcDbEntity
  8
0
100
AcDbLine
 62
7
  6
CONTINUOUS
 10
4.993441382
 20
3.2718371894
 11
4.993441382
 21
3.4387121894
  0
LINE
  5
290
100
AcDbEntity
  8
0
100
AcDbLine
 62
7
  6
CONTINUOUS
 10
7.962195374
 20
3.0123253943
 11
7.9551757959
 21
3.014338226
  0
LINE
  5
291
100
AcDbEntity
  8
0
100
AcDbLine
 62
7
  6
CONTINUOUS
 10
7.6421495488
 20
3.1070608246
 11
7.6351661685
 21
3.1091958582
  0
LINE
  5
292
100
AcDbEntity
  8
0
100
AcDbLine
 62
7
  6
CONTINUOUS
 10
7.9663812868
 20
3.0015775426
 11
7.9594766721
 21
3.0039549921
  0
LINE
  5
293
100
AcDbEntity
  8
0
100
AcDbLine
 62
7
  6
CONTINUOUS
 10
7.6517321425
 20
3.1129330456
 11
7.6448700717
 21
3.1154306351
  0
LINE
  5
294
100
AcDbEntity
  8
0
100
AcDbLine
 62
7
  6
CONTINUOUS
 10
7.5481356578
 20
2.8634178718
 11
7.5548971047
 21
2.8606860699
  0
LINE
  5
295
100
AcDbEntity
  8
0
100
AcDbLine
 62
7
  6
CONTINUOUS
 10
7.856523832
 20
2.7357536741
 11
7.8632457849
 21
2.7329003744
  0
LINE
  5
296
100
AcDbEntity
  8
0
100
AcDbLine
 62
7
  6
CONTINUOUS
 10
7.5450942748
 20
2.874550553
 11
7.5517125541
 21
2.8714643987
  0
LINE
  5
297
100
AcDbEntity
  8
0
100
AcDbLine
 62
7
  6
CONTINUOUS
 10
5.137816382
 20
1.3572746894
 11
5.137816382
 21
1.2091496894
  0
LINE
  5
298
100
AcDbEntity
  8
0
100
AcDbLine
 62
7
  6
CONTINUOUS
 10
5.274691382
 20
1.3685246894
 11
5.274691382
 21
1.8691496894
  0
LINE
  5
299
100
AcDbEntity
  8
0
100
AcDbLine
 62
7
  6
CONTINUOUS
 10
5.274691382
 20
2.4053996894
 11
5.274691382
 21
2.4455246894
  0
LINE
  5
29A
100
AcDbEntity
  8
0
100
AcDbLine
 62
7
  6
CONTINUOUS
 10
5.274691382
 20
2.4680246894
 11
5.274691382
 21
3.0323996894
  0
LINE
  5
29B
100
AcDbEntity
  8
0
100
AcDbLine
 62
7
  6
CONTINUOUS
 10
5.368441382
 20
3.4677746894
 11
5.368441382
 21
3.4433996894
  0
LINE
  5
29C
100
AcDbEntity
  8
0
100
AcDbLine
 62
7
  6
CONTINUOUS
 10
5.368441382
 20
3.2671496894
 11
5.368441382
 21
3.2427746894
  0
LINE
  5
29D
100
AcDbEntity
  8
0
100
AcDbLine
 62
7
  6
CONTINUOUS
 10
7.9699971062
 20
2.9906315071
 11
7.9632356592
 21
2.993363309
  0
LINE
  5
29E
100
AcDbEntity
  8
0
100
AcDbLine
 62
7
  6
CONTINUOUS
 10
7.6616089319
 20
3.1182957047
 11
7.6548869791
 21
3.1211490044
  0
LINE
  5
29F
100
AcDbEntity
  8
0
100
AcDbLine
 62
7
  6
CONTINUOUS
 10
7.9730384892
 20
2.9794988259
 11
7.9664202099
 21
2.9825849802
  0
LINE
  5
2A0
100
AcDbEntity
  8
0
100
AcDbLine
 62
7
  6
CONTINUOUS
 10
7.8463799185
 20
2.7309152756
 11
7.852943329
 21
2.7277140864
  0
LINE
  5
2A1
100
AcDbEntity
  8
0
100
AcDbLine
 62
7
  6
CONTINUOUS
 10
7.542641232
 20
2.8858209018
 11
7.5490889243
 21
2.882392603
  0
LINE
  5
2A2
100
AcDbEntity
  8
0
100
AcDbLine
 62
7
  6
CONTINUOUS
 10
7.8359966846
 20
2.7266143993
 11
7.8423835629
 21
2.7230740949
  0
LINE
  5
2A3
100
AcDbEntity
  8
0
100
AcDbLine
 62
7
  6
CONTINUOUS
 10
7.5407813955
 20
2.8972041874
 11
7.5470408282
 21
2.8934431408
  0
LINE
  5
2A4
100
AcDbEntity
  8
0
100
AcDbLine
 62
7
  6
CONTINUOUS
 10
5.410628882
 20
3.2427746894
 11
5.410628882
 21
3.0552746894
  0
LINE
  5
2A5
100
AcDbEntity
  8
0
100
AcDbLine
 62
7
  6
CONTINUOUS
 10
5.414191382
 20
3.0436496894
 11
5.414191382
 21
3.0552746894
  0
LINE
  5
2A6
100
AcDbEntity
  8
0
100
AcDbLine
 62
7
  6
CONTINUOUS
 10
5.603941382
 20
3.0436496894
 11
5.603941382
 21
3.0552746894
  0
LINE
  5
2A7
100
AcDbEntity
  8
0
100
AcDbLine
 62
7
  6
CONTINUOUS
 10
5.607503882
 20
3.2427746894
 11
5.607503882
 21
3.0552746894
  0
LINE
  5
2A8
100
AcDbEntity
  8
0
100
AcDbLine
 62
7
  6
CONTINUOUS
 10
5.649691382
 20
3.4677746894
 11
5.649691382
 21
3.4433996894
  0
LINE
  5
2A9
100
AcDbEntity
  8
0
100
AcDbLine
 62
7
  6
CONTINUOUS
 10
5.649691382
 20
3.2671496894
 11
5.649691382
 21
3.2427746894
  0
LINE
  5
2AA
100
AcDbEntity
  8
0
100
AcDbLine
 62
7
  6
CONTINUOUS
 10
7.6717528455
 20
3.1231341033
 11
7.665189435
 21
3.1263352925
  0
LINE
  5
2AB
100
AcDbEntity
  8
0
100
AcDbLine
 62
7
  6
CONTINUOUS
 10
7.975491532
 20
2.9682284771
 11
7.9690438397
 21
2.9716567759
  0
LINE
  5
2AC
100
AcDbEntity
  8
0
100
AcDbLine
 62
7
  6
CONTINUOUS
 10
7.6821360793
 20
3.1274349796
 11
7.6757492011
 21
3.130975284
  0
LINE
  5
2AD
100
AcDbEntity
  8
0
100
AcDbLine
 62
7
  6
CONTINUOUS
 10
7.9773513684
 20
2.9568451915
 11
7.9710919358
 21
2.9606062381
  0
LINE
  5
2AE
100
AcDbEntity
  8
0
100
AcDbLine
 62
7
  6
CONTINUOUS
 10
7.8254050015
 20
2.7228554122
 11
7.8315893545
 21
2.7189909996
  0
LINE
  5
2AF
100
AcDbEntity
  8
0
100
AcDbLine
 62
7
  6
CONTINUOUS
 10
7.539519863
 20
2.9086692088
 11
7.5455738794
 21
2.9045857232
  0
LINE
  5
2B0
100
AcDbEntity
  8
0
100
AcDbLine
 62
7
  6
CONTINUOUS
 10
7.8146266727
 20
2.7196708615
 11
7.8206085004
 21
2.7154823407
  0
LINE
  5
2B1
100
AcDbEntity
  8
0
100
AcDbLine
 62
7
  6
CONTINUOUS
 10
5.743441382
 20
1.3685246894
 11
5.743441382
 21
2.4455246894
  0
LINE
  5
2B2
100
AcDbEntity
  8
0
100
AcDbLine
 62
7
  6
CONTINUOUS
 10
5.743441382
 20
2.4680246894
 11
5.743441382
 21
3.0323996894
  0
LINE
  5
2B3
100
AcDbEntity
  8
0
100
AcDbLine
 62
7
  6
CONTINUOUS
 10
5.880316382
 20
1.3572746894
 11
5.880316382
 21
1.2091496894
  0
LINE
  5
2B4
100
AcDbEntity
  8
0
100
AcDbLine
 62
7
  6
CONTINUOUS
 10
7.6927277624
 20
3.1311939667
 11
7.6865434095
 21
3.1350583793
  0
LINE
  5
2B5
100
AcDbEntity
  8
0
100
AcDbLine
 62
7
  6
CONTINUOUS
 10
7.9786129009
 20
2.9453801701
 11
7.9725588846
 21
2.9494636557
  0
LINE
  5
2B6
100
AcDbEntity
  8
0
100
AcDbLine
 62
7
  6
CONTINUOUS
 10
7.7035060912
 20
3.1343785174
 11
7.6975242636
 21
3.1385670382
  0
LINE
  5
2B7
100
AcDbEntity
  8
0
100
AcDbLine
 62
7
  6
CONTINUOUS
 10
7.5388600923
 20
2.9201845414
 11
7.5446920987
 21
2.9157898093
  0
LINE
  5
2B8
100
AcDbEntity
  8
0
100
AcDbLine
 62
7
  6
CONTINUOUS
 10
7.8036984684
 20
2.7170472318
 11
7.809452888
 21
2.7125513865
  0
LINE
  5
2B9
100
AcDbEntity
  8
0
100
AcDbLine
 62
7
  6
CONTINUOUS
 10
7.5388037547
 20
2.9317121894
 11
7.5443900996
 21
2.9270246894
  0
LINE
  5
2BA
100
AcDbEntity
  8
0
100
AcDbLine
 62
7
  6
CONTINUOUS
 10
7.7926479307
 20
2.7149991357
 11
7.7981591696
 21
2.7102082887
  0
LINE
  5
2BB
100
AcDbEntity
  8
0
100
AcDbLine
 62
7
  6
CONTINUOUS
 10
6.024691382
 20
3.2718371894
 11
6.024691382
 21
3.4387121894
  0
LINE
  5
2BC
100
AcDbEntity
  8
0
100
AcDbLine
 62
7
  6
CONTINUOUS
 10
7.9792726717
 20
2.9338648375
 11
7.9734406653
 21
2.9382595696
  0
LINE
  5
2BD
100
AcDbEntity
  8
0
100
AcDbLine
 62
7
  6
CONTINUOUS
 10
7.7144342956
 20
3.1370021471
 11
7.708679876
 21
3.1414979924
  0
LINE
  5
2BE
100
AcDbEntity
  8
0
100
AcDbLine
 62
7
  6
CONTINUOUS
 10
7.9793290093
 20
2.9223371894
 11
7.9737426644
 21
2.9270246894
  0
LINE
  5
2BF
100
AcDbEntity
  8
0
100
AcDbLine
 62
7
  6
CONTINUOUS
 10
7.7254848333
 20
3.1390502432
 11
7.7199735944
 21
3.1438410901
  0
LINE
  5
2C0
100
AcDbEntity
  8
0
100
AcDbLine
 62
7
  6
CONTINUOUS
 10
7.5393514152
 20
2.9432398375
 11
7.5446920987
 21
2.9382595696
  0
LINE
  5
2C1
100
AcDbEntity
  8
0
100
AcDbLine
 62
7
  6
CONTINUOUS
 10
7.7815053482
 20
2.7135321869
 11
7.7867583006
 21
2.7084594697
  0
LINE
  5
2C2
100
AcDbEntity
  8
0
100
AcDbLine
 62
7
  6
CONTINUOUS
 10
7.5405011622
 20
2.9547166081
 11
7.5455738794
 21
2.9494636557
  0
LINE
  5
2C3
100
AcDbEntity
  8
0
100
AcDbLine
 62
7
  6
CONTINUOUS
 10
7.7703012621
 20
2.7126504062
 11
7.77528153
 21
2.7073097227
  0
LINE
  5
2C4
100
AcDbEntity
  8
0
100
AcDbLine
 62
7
  6
CONTINUOUS
 10
5.285941382
 20
2.4567746894
 11
5.2746913822
 21
2.4455246897
  0
LINE
  5
2C5
100
AcDbEntity
  8
0
100
AcDbLine
 62
7
  6
CONTINUOUS
 10
4.196566382
 20
5.4124496894
 11
3.821566382
 21
5.4124496894
  0
LINE
  5
2C6
100
AcDbEntity
  8
0
100
AcDbLine
 62
7
  6
CONTINUOUS
 10
7.9787813488
 20
2.9108095414
 11
7.9734406653
 21
2.9157898093
  0
LINE
  5
2C7
100
AcDbEntity
  8
0
100
AcDbLine
 62
7
  6
CONTINUOUS
 10
7.7366274158
 20
3.140517192
 11
7.7313744633
 21
3.1455899092
  0
LINE
  5
2C8
100
AcDbEntity
  8
0
100
AcDbLine
 62
7
  6
CONTINUOUS
 10
7.9776316018
 20
2.8993327708
 11
7.9725588846
 21
2.9045857232
  0
LINE
  5
2C9
100
AcDbEntity
  8
0
100
AcDbLine
 62
7
  6
CONTINUOUS
 10
7.7478315019
 20
3.1413989727
 11
7.7428512339
 21
3.1467396562
  0
LINE
  5
2CA
100
AcDbEntity
  8
0
100
AcDbLine
 62
7
  6
CONTINUOUS
 10
7.5422499813
 20
2.9661174771
 11
7.5470408282
 21
2.9606062381
  0
LINE
  5
2CB
100
AcDbEntity
  8
0
100
AcDbLine
 62
7
  6
CONTINUOUS
 10
7.759066382
 20
2.7123484071
 11
7.763753882
 21
2.7067620621
  0
LINE
  5
2CC
100
AcDbEntity
  8
0
100
AcDbLine
 62
7
  6
CONTINUOUS
 10
7.5445930791
 20
2.9774111954
 11
7.5490889243
 21
2.9716567759
  0
LINE
  5
2CD
100
AcDbEntity
  8
0
100
AcDbLine
 62
7
  6
CONTINUOUS
 10
7.7478315019
 20
2.7126504062
 11
7.7522262339
 21
2.7068183997
  0
LINE
  5
2CE
100
AcDbEntity
  8
0
100
AcDbLine
 62
7
  6
CONTINUOUS
 10
5.3579244286
 20
1.9643683903
 11
5.3544536477
 21
1.9603975922
  0
LWPOLYLINE
  5
2CF
100
AcDbEntity
  8
0
100
AcDbPolyline
 62
7
  6
CONTINUOUS
 90
4
 70
0
 10
5.3477804376
 20
1.9527637767
 10
5.3414622598
 20
1.9455353283
 10
5.3384350923
 20
1.9420726434
 10
5.3354946504
 20
1.9387084058
  0
LINE
  5
2D0
100
AcDbEntity
  8
0
100
AcDbLine
 62
7
  6
CONTINUOUS
 10
5.509066382
 20
2.1372746894
 11
5.274691382
 21
1.8691496894
  0
LINE
  5
2D1
100
AcDbEntity
  8
0
100
AcDbLine
 62
7
  6
CONTINUOUS
 10
5.3766207093
 20
1.985756799
 11
5.3727032783
 21
1.9812754926
  0
LWPOLYLINE
  5
2D2
100
AcDbEntity
  8
0
100
AcDbPolyline
 62
7
  6
CONTINUOUS
 90
4
 70
0
 10
5.4252757061
 20
2.041418984
 10
5.4157189094
 20
2.0304851028
 10
5.4110512064
 20
2.0251460133
 10
5.4064589889
 20
2.0198916332
  0
LWPOLYLINE
  5
2D3
100
AcDbEntity
  8
0
100
AcDbPolyline
 62
7
  6
CONTINUOUS
 90
3
 70
0
 10
5.4401165463
 20
2.0583970776
 10
5.4301576584
 20
2.0470030725
 10
5.4252757061
 20
2.041418984
  0
LINE
  5
2D4
100
AcDbEntity
  8
0
100
AcDbLine
 62
7
  6
CONTINUOUS
 10
5.3510724764
 20
1.9565295403
 11
5.3477804376
 21
1.9527637767
  0
LWPOLYLINE
  5
2D5
100
AcDbEntity
  8
0
100
AcDbPolyline
 62
7
  6
CONTINUOUS
 90
3
 70
0
 10
5.3889001195
 20
1.9998043127
 10
5.3847204206
 20
1.9950231801
 10
5.3806266092
 20
1.9903395688
  0
LWPOLYLINE
  5
2D6
100
AcDbEntity
  8
0
100
AcDbPolyline
 62
7
  6
CONTINUOUS
 90
3
 70
0
 10
5.4019464688
 20
2.0147295176
 10
5.3975149989
 20
2.0096604326
 10
5.3931652559
 20
2.004683612
  0
LINE
  5
2D7
100
AcDbEntity
  8
0
100
AcDbLine
 62
7
  6
CONTINUOUS
 10
5.324584564
 20
1.9262270629
 11
5.3106529999
 21
1.9102892485
  0
LINE
  5
2D8
100
AcDbEntity
  8
0
100
AcDbLine
 62
7
  6
CONTINUOUS
 10
5.3085996845
 20
1.9079410794
 11
5.2994040839
 21
1.8974205961
  0
LINE
  5
2D9
100
AcDbEntity
  8
0
100
AcDbLine
 62
7
  6
CONTINUOUS
 10
5.3106529999
 20
1.9102892485
 11
5.3085996845
 21
1.9079410794
  0
LINE
  5
2DA
100
AcDbEntity
  8
0
100
AcDbLine
 62
7
  6
CONTINUOUS
 10
5.2932585616
 20
1.8903909135
 11
5.2869613061
 21
1.8831861813
  0
LINE
  5
2DB
100
AcDbEntity
  8
0
100
AcDbLine
 62
7
  6
CONTINUOUS
 10
5.2994040839
 20
1.8974205961
 11
5.2946989556
 21
1.8920380135
  0
LINE
  5
2DC
100
AcDbEntity
  8
0
100
AcDbLine
 62
7
  6
CONTINUOUS
 10
5.2858755143
 20
1.881944644
 11
5.2820766665
 21
1.8775984953
  0
LINE
  5
2DD
100
AcDbEntity
  8
0
100
AcDbLine
 62
7
  6
CONTINUOUS
 10
5.2804922193
 20
1.8757860724
 11
5.2773991282
 21
1.8722472378
  0
LINE
  5
2DE
100
AcDbEntity
  8
0
100
AcDbLine
 62
7
  6
CONTINUOUS
 10
5.2946989556
 20
1.8920380135
 11
5.2932585616
 21
1.8903909135
  0
LINE
  5
2DF
100
AcDbEntity
  8
0
100
AcDbLine
 62
7
  6
CONTINUOUS
 10
5.2869613061
 20
1.8831861813
 11
5.2858755143
 21
1.881944644
  0
LINE
  5
2E0
100
AcDbEntity
  8
0
100
AcDbLine
 62
7
  6
CONTINUOUS
 10
5.2820766665
 20
1.8775984953
 11
5.2804922193
 21
1.8757860724
  0
LINE
  5
2E1
100
AcDbEntity
  8
0
100
AcDbLine
 62
7
  6
CONTINUOUS
 10
5.5036244088
 20
2.1310435614
 11
5.4401165463
 21
2.0583970776
  0
LINE
  5
2E2
100
AcDbEntity
  8
0
100
AcDbLine
 62
7
  6
CONTINUOUS
 10
5.2773991282
 20
1.8722472378
 11
5.2747133076
 21
1.8691743665
  0
LINE
  5
2E3
100
AcDbEntity
  8
0
100
AcDbLine
 62
7
  6
CONTINUOUS
 10
5.2747133076
 20
1.8691743665
 11
5.274691382
 21
1.8691496894
  0
LINE
  5
2E4
100
AcDbEntity
  8
0
100
AcDbLine
 62
7
  6
CONTINUOUS
 10
5.743441382
 20
2.4680246894
 11
5.732191382
 21
2.4567746894
  0
LINE
  5
2E5
100
AcDbEntity
  8
0
100
AcDbLine
 62
7
  6
CONTINUOUS
 10
7.8829665955
 20
3.1091958582
 11
7.8759832152
 21
3.1070608246
  0
LINE
  5
2E6
100
AcDbEntity
  8
0
100
AcDbLine
 62
7
  6
CONTINUOUS
 10
7.5629569681
 20
3.014338226
 11
7.5559373899
 21
3.0123253943
  0
LINE
  5
2E7
100
AcDbEntity
  8
0
100
AcDbLine
 62
7
  6
CONTINUOUS
 10
7.9758827827
 20
2.8879319018
 11
7.9710919358
 21
2.8934431408
  0
LINE
  5
2E8
100
AcDbEntity
  8
0
100
AcDbLine
 62
7
  6
CONTINUOUS
 10
7.759066382
 20
3.1417009718
 11
7.754378882
 21
3.1472873168
  0
LINE
  5
2E9
100
AcDbEntity
  8
0
100
AcDbLine
 62
7
  6
CONTINUOUS
 10
7.9735396849
 20
2.8766381835
 11
7.9690438397
 21
2.882392603
  0
LINE
  5
2EA
100
AcDbEntity
  8
0
100
AcDbLine
 62
7
  6
CONTINUOUS
 10
7.7703012621
 20
3.1413989727
 11
7.76590653
 21
3.1472309792
  0
LINE
  5
2EB
100
AcDbEntity
  8
0
100
AcDbLine
 62
7
  6
CONTINUOUS
 10
7.5475240332
 20
2.9885668079
 11
7.5517125541
 21
2.9825849802
  0
LINE
  5
2EC
100
AcDbEntity
  8
0
100
AcDbLine
 62
7
  6
CONTINUOUS
 10
7.7366274158
 20
2.7135321869
 11
7.7407109014
 21
2.7074781705
  0
LINE
  5
2ED
100
AcDbEntity
  8
0
100
AcDbLine
 62
7
  6
CONTINUOUS
 10
7.5510326921
 20
2.9995476619
 11
7.5548971047
 21
2.993363309
  0
LINE
  5
2EE
100
AcDbEntity
  8
0
100
AcDbLine
 62
7
  6
CONTINUOUS
 10
7.7254848333
 20
2.7149991357
 11
7.7292458799
 21
2.708739703
  0
LINE
  5
2EF
100
AcDbEntity
  8
0
100
AcDbLine
 62
7
  6
CONTINUOUS
 10
7.5551157874
 20
3.0103418703
 11
7.5586560918
 21
3.0039549921
  0
LINE
  5
2F0
100
AcDbEntity
  8
0
100
AcDbLine
 62
7
  6
CONTINUOUS
 10
5.2409660584
 20
1.9029216018
 11
5.240941382
 21
1.9028996894
  0
LINE
  5
2F1
100
AcDbEntity
  8
0
100
AcDbLine
 62
7
  6
CONTINUOUS
 10
5.509066382
 20
2.1372746894
 11
5.240941382
 21
1.9028996894
  0
LINE
  5
2F2
100
AcDbEntity
  8
0
100
AcDbLine
 62
7
  6
CONTINUOUS
 10
7.8632457849
 20
3.1211490044
 11
7.856523832
 21
3.1182957047
  0
LINE
  5
2F3
100
AcDbEntity
  8
0
100
AcDbLine
 62
7
  6
CONTINUOUS
 10
7.5548971047
 20
2.993363309
 11
7.5481356578
 21
2.9906315071
  0
LINE
  5
2F4
100
AcDbEntity
  8
0
100
AcDbLine
 62
7
  6
CONTINUOUS
 10
7.8732626923
 20
3.1154306351
 11
7.8664006215
 21
3.1129330456
  0
LINE
  5
2F5
100
AcDbEntity
  8
0
100
AcDbLine
 62
7
  6
CONTINUOUS
 10
7.5586560918
 20
3.0039549921
 11
7.5517514772
 21
3.0015775426
  0
LINE
  5
2F6
100
AcDbEntity
  8
0
100
AcDbLine
 62
7
  6
CONTINUOUS
 10
7.6351661685
 20
2.7448535206
 11
7.6421495488
 21
2.7469885543
  0
LINE
  5
2F7
100
AcDbEntity
  8
0
100
AcDbLine
 62
7
  6
CONTINUOUS
 10
7.9551757959
 20
2.8397111529
 11
7.962195374
 21
2.8417239846
  0
LINE
  5
2F8
100
AcDbEntity
  8
0
100
AcDbLine
 62
7
  6
CONTINUOUS
 10
3.821566382
 20
5.9974496894
 11
4.196566382
 21
5.9974496894
  0
LINE
  5
2F9
100
AcDbEntity
  8
0
100
AcDbLine
 62
7
  6
CONTINUOUS
 10
7.9706087307
 20
2.865482571
 11
7.9664202099
 21
2.8714643987
  0
LINE
  5
2FA
100
AcDbEntity
  8
0
100
AcDbLine
 62
7
  6
CONTINUOUS
 10
7.7815053482
 20
3.140517192
 11
7.7774218626
 21
3.1465712084
  0
LINE
  5
2FB
100
AcDbEntity
  8
0
100
AcDbLine
 62
7
  6
CONTINUOUS
 10
7.9671000718
 20
2.8545017169
 11
7.9632356592
 21
2.8606860699
  0
LINE
  5
2FC
100
AcDbEntity
  8
0
100
AcDbLine
 62
7
  6
CONTINUOUS
 10
7.7926479307
 20
3.1390502432
 11
7.7888868841
 21
3.1453096759
  0
LINE
  5
2FD
100
AcDbEntity
  8
0
100
AcDbLine
 62
7
  6
CONTINUOUS
 10
7.9630169766
 20
2.8437075086
 11
7.9594766721
 21
2.8500943868
  0
LINE
  5
2FE
100
AcDbEntity
  8
0
100
AcDbLine
 62
7
  6
CONTINUOUS
 10
7.7144342956
 20
2.7170472318
 11
7.7178625944
 21
2.7105995395
  0
LINE
  5
2FF
100
AcDbEntity
  8
0
100
AcDbLine
 62
7
  6
CONTINUOUS
 10
7.5597557789
 20
3.0209016364
 11
7.5629569681
 21
3.014338226
  0
LINE
  5
300
100
AcDbEntity
  8
0
100
AcDbLine
 62
7
  6
CONTINUOUS
 10
7.7035060912
 20
2.7196708615
 11
7.7065922456
 21
2.7130525822
  0
LINE
  5
301
100
AcDbEntity
  8
0
100
AcDbLine
 62
7
  6
CONTINUOUS
 10
7.564942067
 20
3.0312040923
 11
7.5677953667
 21
3.0244821395
  0
LINE
  5
302
100
AcDbEntity
  8
0
100
AcDbLine
 62
7
  6
CONTINUOUS
 10
7.6927277624
 20
2.7228554122
 11
7.6954595643
 21
2.7160939653
  0
LINE
  5
303
100
AcDbEntity
  8
0
100
AcDbLine
 62
7
  6
CONTINUOUS
 10
7.8315893545
 20
3.1350583793
 11
7.8254050015
 21
3.1311939667
  0
LINE
  5
304
100
AcDbEntity
  8
0
100
AcDbLine
 62
7
  6
CONTINUOUS
 10
7.5470408282
 20
2.9606062381
 11
7.5407813955
 21
2.9568451915
  0
LINE
  5
305
100
AcDbEntity
  8
0
100
AcDbLine
 62
7
  6
CONTINUOUS
 10
7.8423835629
 20
3.130975284
 11
7.8359966846
 21
3.1274349796
  0
LINE
  5
306
100
AcDbEntity
  8
0
100
AcDbLine
 62
7
  6
CONTINUOUS
 10
7.5490889243
 20
2.9716567759
 11
7.542641232
 21
2.9682284771
  0
LINE
  5
307
100
AcDbEntity
  8
0
100
AcDbLine
 62
7
  6
CONTINUOUS
 10
7.852943329
 20
3.1263352925
 11
7.8463799185
 21
3.1231341033
  0
LINE
  5
308
100
AcDbEntity
  8
0
100
AcDbLine
 62
7
  6
CONTINUOUS
 10
7.5517125541
 20
2.9825849802
 11
7.5450942748
 21
2.9794988259
  0
LINE
  5
309
100
AcDbEntity
  8
0
100
AcDbLine
 62
7
  6
CONTINUOUS
 10
7.6548869791
 20
2.7329003744
 11
7.6616089319
 21
2.7357536741
  0
LINE
  5
30A
100
AcDbEntity
  8
0
100
AcDbLine
 62
7
  6
CONTINUOUS
 10
7.9632356592
 20
2.8606860699
 11
7.9699971062
 21
2.8634178718
  0
LINE
  5
30B
100
AcDbEntity
  8
0
100
AcDbLine
 62
7
  6
CONTINUOUS
 10
7.6448700717
 20
2.7386187437
 11
7.6517321425
 21
2.7411163333
  0
LINE
  5
30C
100
AcDbEntity
  8
0
100
AcDbLine
 62
7
  6
CONTINUOUS
 10
7.9594766721
 20
2.8500943868
 11
7.9663812868
 21
2.8524718363
  0
LINE
  5
30D
100
AcDbEntity
  8
0
100
AcDbLine
 62
7
  6
CONTINUOUS
 10
7.8036984684
 20
3.1370021471
 11
7.8002701696
 21
3.1434498394
  0
LINE
  5
30E
100
AcDbEntity
  8
0
100
AcDbLine
 62
7
  6
CONTINUOUS
 10
7.958376985
 20
2.8331477425
 11
7.9551757959
 21
2.8397111529
  0
LINE
  5
30F
100
AcDbEntity
  8
0
100
AcDbLine
 62
7
  6
CONTINUOUS
 10
7.8146266727
 20
3.1343785174
 11
7.8115405184
 21
3.1409967966
  0
LINE
  5
310
100
AcDbEntity
  8
0
100
AcDbLine
 62
7
  6
CONTINUOUS
 10
7.953190697
 20
2.8228452866
 11
7.9503373973
 21
2.8295672394
  0
LINE
  5
311
100
AcDbEntity
  8
0
100
AcDbLine
 62
7
  6
CONTINUOUS
 10
7.8254050015
 20
3.1311939667
 11
7.8226731996
 21
3.1379554136
  0
LINE
  5
312
100
AcDbEntity
  8
0
100
AcDbLine
 62
7
  6
CONTINUOUS
 10
7.5706604363
 20
3.0412209997
 11
7.5731580258
 21
3.0343589289
  0
LINE
  5
313
100
AcDbEntity
  8
0
100
AcDbLine
 62
7
  6
CONTINUOUS
 10
7.6821360793
 20
2.7266143993
 11
7.6845135288
 21
2.7197097847
  0
LINE
  5
314
100
AcDbEntity
  8
0
100
AcDbLine
 62
7
  6
CONTINUOUS
 10
7.5768952132
 20
3.050924903
 11
7.5790302468
 21
3.0439415227
  0
LINE
  5
315
100
AcDbEntity
  8
0
100
AcDbLine
 62
7
  6
CONTINUOUS
 10
7.6717528455
 20
2.7309152756
 11
7.6737656771
 21
2.7238956974
  0
LINE
  5
316
100
AcDbEntity
  8
0
100
AcDbLine
 62
7
  6
CONTINUOUS
 10
7.5836254166
 20
3.0602840806
 11
7.5853896213
 21
3.0532082422
  0
LINE
  5
317
100
AcDbEntity
  8
0
100
AcDbLine
 62
7
  6
CONTINUOUS
 10
7.6616089319
 20
2.7357536741
 11
7.6632516287
 21
2.7286383726
  0
LINE
  5
318
100
AcDbEntity
  8
0
100
AcDbLine
 62
7
  6
CONTINUOUS
 10
7.6066363932
 20
3.0860929018
 11
7.6072728448
 21
3.0788182266
  0
LINE
  5
319
100
AcDbEntity
  8
0
100
AcDbLine
 62
7
  6
CONTINUOUS
 10
7.6328828292
 20
2.7533479287
 11
7.6333915252
 21
2.7460732373
  0
LINE
  5
31A
100
AcDbEntity
  8
0
100
AcDbLine
 62
7
  6
CONTINUOUS
 10
7.6151702802
 20
3.0938524735
 11
7.6154251325
 21
3.0865544588
  0
LINE
  5
31B
100
AcDbEntity
  8
0
100
AcDbLine
 62
7
  6
CONTINUOUS
 10
7.5652606345
 20
1.6160246894
 11
7.5651231758
 21
1.6238996894
  0
LINE
  5
31C
100
AcDbEntity
  8
0
100
AcDbLine
 62
7
  6
CONTINUOUS
 10
7.387816382
 20
1.3572746894
 11
7.387816382
 21
1.2091496894
  0
LINE
  5
31D
100
AcDbEntity
  8
0
100
AcDbLine
 62
7
  6
CONTINUOUS
 10
7.524691382
 20
1.6160246894
 11
7.524691382
 21
1.3685246894
  0
LINE
  5
31E
100
AcDbEntity
  8
0
100
AcDbLine
 62
7
  6
CONTINUOUS
 10
7.571566382
 20
2.8199710997
 11
7.571566382
 21
2.8153174445
  0
LINE
  5
31F
100
AcDbEntity
  8
0
100
AcDbLine
 62
7
  6
CONTINUOUS
 10
7.571566382
 20
2.8113469638
 11
7.571566382
 21
1.6238996894
  0
LINE
  5
320
100
AcDbEntity
  8
0
100
AcDbLine
 62
7
  6
CONTINUOUS
 10
7.7867583006
 20
3.1455899092
 11
7.7815053482
 21
3.140517192
  0
LINE
  5
321
100
AcDbEntity
  8
0
100
AcDbLine
 62
7
  6
CONTINUOUS
 10
7.5446920987
 20
2.9157898093
 11
7.5393514152
 21
2.9108095414
  0
LINE
  5
322
100
AcDbEntity
  8
0
100
AcDbLine
 62
7
  6
CONTINUOUS
 10
7.7981591696
 20
3.1438410901
 11
7.7926479307
 21
3.1390502432
  0
LINE
  5
323
100
AcDbEntity
  8
0
100
AcDbLine
 62
7
  6
CONTINUOUS
 10
7.5443900996
 20
2.9270246894
 11
7.5388037547
 21
2.9223371894
  0
LINE
  5
324
100
AcDbEntity
  8
0
100
AcDbLine
 62
7
  6
CONTINUOUS
 10
7.809452888
 20
3.1414979924
 11
7.8036984684
 21
3.1370021471
  0
LINE
  5
325
100
AcDbEntity
  8
0
100
AcDbLine
 62
7
  6
CONTINUOUS
 10
7.5446920987
 20
2.9382595696
 11
7.5388600923
 21
2.9338648375
  0
LINE
  5
326
100
AcDbEntity
  8
0
100
AcDbLine
 62
7
  6
CONTINUOUS
 10
7.8206085004
 20
3.1385670382
 11
7.8146266727
 21
3.1343785174
  0
LINE
  5
327
100
AcDbEntity
  8
0
100
AcDbLine
 62
7
  6
CONTINUOUS
 10
7.5455738794
 20
2.9494636557
 11
7.539519863
 21
2.9453801701
  0
LINE
  5
328
100
AcDbEntity
  8
0
100
AcDbLine
 62
7
  6
CONTINUOUS
 10
7.6865434095
 20
2.7189909996
 11
7.6927277624
 21
2.7228554122
  0
LINE
  5
329
100
AcDbEntity
  8
0
100
AcDbLine
 62
7
  6
CONTINUOUS
 10
7.9710919358
 20
2.8934431408
 11
7.9773513684
 21
2.8972041874
  0
LINE
  5
32A
100
AcDbEntity
  8
0
100
AcDbLine
 62
7
  6
CONTINUOUS
 10
7.6757492011
 20
2.7230740949
 11
7.6821360793
 21
2.7266143993
  0
LINE
  5
32B
100
AcDbEntity
  8
0
100
AcDbLine
 62
7
  6
CONTINUOUS
 10
7.9690438397
 20
2.882392603
 11
7.975491532
 21
2.8858209018
  0
LINE
  5
32C
100
AcDbEntity
  8
0
100
AcDbLine
 62
7
  6
CONTINUOUS
 10
7.665189435
 20
2.7277140864
 11
7.6717528455
 21
2.7309152756
  0
LINE
  5
32D
100
AcDbEntity
  8
0
100
AcDbLine
 62
7
  6
CONTINUOUS
 10
7.9664202099
 20
2.8714643987
 11
7.9730384892
 21
2.874550553
  0
LINE
  5
32E
100
AcDbEntity
  8
0
100
AcDbLine
 62
7
  6
CONTINUOUS
 10
7.9474723277
 20
2.8128283792
 11
7.9449747382
 21
2.81969045
  0
LINE
  5
32F
100
AcDbEntity
  8
0
100
AcDbLine
 62
7
  6
CONTINUOUS
 10
7.8359966846
 20
3.1274349796
 11
7.8336192352
 21
3.1343395942
  0
LINE
  5
330
100
AcDbEntity
  8
0
100
AcDbLine
 62
7
  6
CONTINUOUS
 10
7.9412375508
 20
2.8031244759
 11
7.9391025172
 21
2.8101078562
  0
LINE
  5
331
100
AcDbEntity
  8
0
100
AcDbLine
 62
7
  6
CONTINUOUS
 10
7.8463799185
 20
3.1231341033
 11
7.8443670869
 21
3.1301536815
  0
LINE
  5
332
100
AcDbEntity
  8
0
100
AcDbLine
 62
7
  6
CONTINUOUS
 10
7.9345073474
 20
2.7937652983
 11
7.9327431427
 21
2.8008411366
  0
LINE
  5
333
100
AcDbEntity
  8
0
100
AcDbLine
 62
7
  6
CONTINUOUS
 10
7.856523832
 20
3.1182957047
 11
7.8548811352
 21
3.1254110063
  0
LINE
  5
334
100
AcDbEntity
  8
0
100
AcDbLine
 62
7
  6
CONTINUOUS
 10
7.5908442648
 20
3.069288237
 11
7.5922376405
 21
3.0621199406
  0
LINE
  5
335
100
AcDbEntity
  8
0
100
AcDbLine
 62
7
  6
CONTINUOUS
 10
7.6517321425
 20
2.7411163333
 11
7.6530002019
 21
2.7339248109
  0
LINE
  5
336
100
AcDbEntity
  8
0
100
AcDbLine
 62
7
  6
CONTINUOUS
 10
7.5985203062
 20
3.0778973351
 11
7.5995366126
 21
3.0706659389
  0
LINE
  5
337
100
AcDbEntity
  8
0
100
AcDbLine
 62
7
  6
CONTINUOUS
 10
7.6421495488
 20
2.7469885543
 11
7.6430394951
 21
2.7397405225
  0
LINE
  5
338
100
AcDbEntity
  8
0
100
AcDbLine
 62
7
  6
CONTINUOUS
 10
7.9114963708
 20
2.7679564771
 11
7.9108599192
 21
2.7752311523
  0
LINE
  5
339
100
AcDbEntity
  8
0
100
AcDbLine
 62
7
  6
CONTINUOUS
 10
7.8852499348
 20
3.1007014502
 11
7.8847412388
 21
3.1079761415
  0
LINE
  5
33A
100
AcDbEntity
  8
0
100
AcDbLine
 62
7
  6
CONTINUOUS
 10
7.9029624838
 20
2.7601969053
 11
7.9027076315
 21
2.7674949201
  0
LINE
  5
33B
100
AcDbEntity
  8
0
100
AcDbLine
 62
7
  6
CONTINUOUS
 10
7.6239711309
 20
2.760195948
 11
7.6240985764
 21
2.7528945969
  0
LINE
  5
33C
100
AcDbEntity
  8
0
100
AcDbLine
 62
7
  6
CONTINUOUS
 10
7.6240985764
 20
3.1011547819
 11
7.6239711309
 21
3.0938534309
  0
LINE
  5
33D
100
AcDbEntity
  8
0
100
AcDbLine
 62
7
  6
CONTINUOUS
 10
7.6154251325
 20
2.7674949201
 11
7.6151702802
 21
2.7601969053
  0
LINE
  5
33E
100
AcDbEntity
  8
0
100
AcDbLine
 62
7
  6
CONTINUOUS
 10
7.6333915252
 20
3.1079761415
 11
7.6328828292
 21
3.1007014502
  0
LINE
  5
33F
100
AcDbEntity
  8
0
100
AcDbLine
 62
7
  6
CONTINUOUS
 10
7.6072728448
 20
2.7752311523
 11
7.6066363932
 21
2.7679564771
  0
LINE
  5
340
100
AcDbEntity
  8
0
100
AcDbLine
 62
7
  6
CONTINUOUS
 10
7.6430394951
 20
3.1143088564
 11
7.6421495488
 21
3.1070608246
  0
LINE
  5
341
100
AcDbEntity
  8
0
100
AcDbLine
 62
7
  6
CONTINUOUS
 10
7.5995366126
 20
2.7833834399
 11
7.5985203062
 21
2.7761520438
  0
LINE
  5
342
100
AcDbEntity
  8
0
100
AcDbLine
 62
7
  6
CONTINUOUS
 10
7.6530002019
 20
3.120124568
 11
7.6517321425
 21
3.1129330456
  0
LINE
  5
343
100
AcDbEntity
  8
0
100
AcDbLine
 62
7
  6
CONTINUOUS
 10
7.5922376405
 20
2.7919294383
 11
7.5908442648
 21
2.7847611419
  0
LINE
  5
344
100
AcDbEntity
  8
0
100
AcDbLine
 62
7
  6
CONTINUOUS
 10
7.6632516287
 20
3.1254110063
 11
7.6616089319
 21
3.1182957047
  0
LINE
  5
345
100
AcDbEntity
  8
0
100
AcDbLine
 62
7
  6
CONTINUOUS
 10
7.5853896213
 20
2.8008411366
 11
7.5836254166
 21
2.7937652983
  0
LINE
  5
346
100
AcDbEntity
  8
0
100
AcDbLine
 62
7
  6
CONTINUOUS
 10
7.6737656771
 20
3.1301536815
 11
7.6717528455
 21
3.1231341033
  0
LINE
  5
347
100
AcDbEntity
  8
0
100
AcDbLine
 62
7
  6
CONTINUOUS
 10
7.5790302468
 20
2.8101078562
 11
7.5768952132
 21
2.8031244759
  0
LINE
  5
348
100
AcDbEntity
  8
0
100
AcDbLine
 62
7
  6
CONTINUOUS
 10
7.6845135288
 20
3.1343395942
 11
7.6821360793
 21
3.1274349796
  0
LINE
  5
349
100
AcDbEntity
  8
0
100
AcDbLine
 62
7
  6
CONTINUOUS
 10
7.5731580258
 20
2.81969045
 11
7.5706604363
 21
2.8128283792
  0
LINE
  5
34A
100
AcDbEntity
  8
0
100
AcDbLine
 62
7
  6
CONTINUOUS
 10
7.6954595643
 20
3.1379554136
 11
7.6927277624
 21
3.1311939667
  0
LINE
  5
34B
100
AcDbEntity
  8
0
100
AcDbLine
 62
7
  6
CONTINUOUS
 10
7.5677953667
 20
2.8295672394
 11
7.564942067
 21
2.8228452866
  0
LINE
  5
34C
100
AcDbEntity
  8
0
100
AcDbLine
 62
7
  6
CONTINUOUS
 10
7.7065922456
 20
3.1409967966
 11
7.7035060912
 21
3.1343785174
  0
LINE
  5
34D
100
AcDbEntity
  8
0
100
AcDbLine
 62
7
  6
CONTINUOUS
 10
7.5629569681
 20
2.8397111529
 11
7.5597557789
 21
2.8331477425
  0
LINE
  5
34E
100
AcDbEntity
  8
0
100
AcDbLine
 62
7
  6
CONTINUOUS
 10
7.7178625944
 20
3.1434498394
 11
7.7144342956
 21
3.1370021471
  0
LINE
  5
34F
100
AcDbEntity
  8
0
100
AcDbLine
 62
7
  6
CONTINUOUS
 10
7.5586560918
 20
2.8500943868
 11
7.5551157874
 21
2.8437075086
  0
LINE
  5
350
100
AcDbEntity
  8
0
100
AcDbLine
 62
7
  6
CONTINUOUS
 10
7.7292458799
 20
3.1453096759
 11
7.7254848333
 21
3.1390502432
  0
LINE
  5
351
100
AcDbEntity
  8
0
100
AcDbLine
 62
7
  6
CONTINUOUS
 10
7.5548971047
 20
2.8606860699
 11
7.5510326921
 21
2.8545017169
  0
LINE
  5
352
100
AcDbEntity
  8
0
100
AcDbLine
 62
7
  6
CONTINUOUS
 10
7.7407109014
 20
3.1465712084
 11
7.7366274158
 21
3.140517192
  0
LINE
  5
353
100
AcDbEntity
  8
0
100
AcDbLine
 62
7
  6
CONTINUOUS
 10
7.5517125541
 20
2.8714643987
 11
7.5475240332
 21
2.865482571
  0
LINE
  5
354
100
AcDbEntity
  8
0
100
AcDbLine
 62
7
  6
CONTINUOUS
 10
7.7522262339
 20
3.1472309792
 11
7.7478315019
 21
3.1413989727
  0
LINE
  5
355
100
AcDbEntity
  8
0
100
AcDbLine
 62
7
  6
CONTINUOUS
 10
7.5490889243
 20
2.882392603
 11
7.5445930791
 21
2.8766381835
  0
LINE
  5
356
100
AcDbEntity
  8
0
100
AcDbLine
 62
7
  6
CONTINUOUS
 10
7.763753882
 20
3.1472873168
 11
7.759066382
 21
3.1417009718
  0
LINE
  5
357
100
AcDbEntity
  8
0
100
AcDbLine
 62
7
  6
CONTINUOUS
 10
7.5470408282
 20
2.8934431408
 11
7.5422499813
 21
2.8879319018
  0
LINE
  5
358
100
AcDbEntity
  8
0
100
AcDbLine
 62
7
  6
CONTINUOUS
 10
7.77528153
 20
3.1467396562
 11
7.7703012621
 21
3.1413989727
  0
LINE
  5
359
100
AcDbEntity
  8
0
100
AcDbLine
 62
7
  6
CONTINUOUS
 10
7.5455738794
 20
2.9045857232
 11
7.5405011622
 21
2.8993327708
  0
LINE
  5
35A
100
AcDbEntity
  8
0
100
AcDbLine
 62
7
  6
CONTINUOUS
 10
7.7313744633
 20
2.7084594697
 11
7.7366274158
 21
2.7135321869
  0
LINE
  5
35B
100
AcDbEntity
  8
0
100
AcDbLine
 62
7
  6
CONTINUOUS
 10
7.9734406653
 20
2.9382595696
 11
7.9787813488
 21
2.9432398375
  0
LINE
  5
35C
100
AcDbEntity
  8
0
100
AcDbLine
 62
7
  6
CONTINUOUS
 10
7.7199735944
 20
2.7102082887
 11
7.7254848333
 21
2.7149991357
  0
LINE
  5
35D
100
AcDbEntity
  8
0
100
AcDbLine
 62
7
  6
CONTINUOUS
 10
7.9737426644
 20
2.9270246894
 11
7.9793290093
 21
2.9317121894
  0
LINE
  5
35E
100
AcDbEntity
  8
0
100
AcDbLine
 62
7
  6
CONTINUOUS
 10
7.708679876
 20
2.7125513865
 11
7.7144342956
 21
2.7170472318
  0
LINE
  5
35F
100
AcDbEntity
  8
0
100
AcDbLine
 62
7
  6
CONTINUOUS
 10
7.9734406653
 20
2.9157898093
 11
7.9792726717
 21
2.9201845414
  0
LINE
  5
360
100
AcDbEntity
  8
0
100
AcDbLine
 62
7
  6
CONTINUOUS
 10
7.6975242636
 20
2.7154823407
 11
7.7035060912
 21
2.7196708615
  0
LINE
  5
361
100
AcDbEntity
  8
0
100
AcDbLine
 62
7
  6
CONTINUOUS
 10
7.9725588846
 20
2.9045857232
 11
7.9786129009
 21
2.9086692088
  0
LINE
  5
362
100
AcDbEntity
  8
0
100
AcDbLine
 62
7
  6
CONTINUOUS
 10
7.9272884991
 20
2.7847611419
 11
7.9258951235
 21
2.7919294383
  0
LINE
  5
363
100
AcDbEntity
  8
0
100
AcDbLine
 62
7
  6
CONTINUOUS
 10
7.8664006215
 20
3.1129330456
 11
7.865132562
 21
3.120124568
  0
LINE
  5
364
100
AcDbEntity
  8
0
100
AcDbLine
 62
7
  6
CONTINUOUS
 10
7.9196124578
 20
2.7761520438
 11
7.9185961513
 21
2.7833834399
  0
LINE
  5
365
100
AcDbEntity
  8
0
100
AcDbLine
 62
7
  6
CONTINUOUS
 10
7.8759832152
 20
3.1070608246
 11
7.8750932688
 21
3.1143088564
  0
LINE
  5
366
100
AcDbEntity
  8
0
100
AcDbLine
 62
7
  6
CONTINUOUS
 10
7.8941616331
 20
3.0938534309
 11
7.8940341876
 21
3.1011547819
  0
LINE
  5
367
100
AcDbEntity
  8
0
100
AcDbLine
 62
7
  6
CONTINUOUS
 10
7.946566382
 20
2.8199710997
 11
7.946566382
 21
2.8153174445
  0
LINE
  5
368
100
AcDbEntity
  8
0
100
AcDbLine
 62
7
  6
CONTINUOUS
 10
7.946566382
 20
2.8113469638
 11
7.946566382
 21
1.6238996894
  0
LINE
  5
369
100
AcDbEntity
  8
0
100
AcDbLine
 62
7
  6
CONTINUOUS
 10
7.993441382
 20
1.6160246894
 11
7.993441382
 21
1.3685246894
  0
LINE
  5
36A
100
AcDbEntity
  8
0
100
AcDbLine
 62
7
  6
CONTINUOUS
 10
8.130316382
 20
1.3572746894
 11
8.130316382
 21
1.2091496894
  0
LINE
  5
36B
100
AcDbEntity
  8
0
100
AcDbLine
 62
7
  6
CONTINUOUS
 10
7.8940341876
 20
2.7528945969
 11
7.8941616331
 21
2.760195948
  0
LINE
  5
36C
100
AcDbEntity
  8
0
100
AcDbLine
 62
7
  6
CONTINUOUS
 10
7.9528721295
 20
1.6160246894
 11
7.9530095882
 21
1.6238996894
  0
LINE
  5
36D
100
AcDbEntity
  8
0
100
AcDbLine
 62
7
  6
CONTINUOUS
 10
7.9027076315
 20
3.0865544588
 11
7.9029624838
 21
3.0938524735
  0
LINE
  5
36E
100
AcDbEntity
  8
0
100
AcDbLine
 62
7
  6
CONTINUOUS
 10
7.8847412388
 20
2.7460732373
 11
7.8852499348
 21
2.7533479287
  0
LINE
  5
36F
100
AcDbEntity
  8
0
100
AcDbLine
 62
7
  6
CONTINUOUS
 10
7.9108599192
 20
3.0788182266
 11
7.9114963708
 21
3.0860929018
  0
LINE
  5
370
100
AcDbEntity
  8
0
100
AcDbLine
 62
7
  6
CONTINUOUS
 10
7.8750932688
 20
2.7397405225
 11
7.8759832152
 21
2.7469885543
  0
LINE
  5
371
100
AcDbEntity
  8
0
100
AcDbLine
 62
7
  6
CONTINUOUS
 10
7.9185961513
 20
3.0706659389
 11
7.9196124578
 21
3.0778973351
  0
LINE
  5
372
100
AcDbEntity
  8
0
100
AcDbLine
 62
7
  6
CONTINUOUS
 10
7.865132562
 20
2.7339248109
 11
7.8664006215
 21
2.7411163333
  0
LINE
  5
373
100
AcDbEntity
  8
0
100
AcDbLine
 62
7
  6
CONTINUOUS
 10
7.9258951235
 20
3.0621199406
 11
7.9272884991
 21
3.069288237
  0
LINE
  5
374
100
AcDbEntity
  8
0
100
AcDbLine
 62
7
  6
CONTINUOUS
 10
7.8548811352
 20
2.7286383726
 11
7.856523832
 21
2.7357536741
  0
LINE
  5
375
100
AcDbEntity
  8
0
100
AcDbLine
 62
7
  6
CONTINUOUS
 10
7.9327431427
 20
3.0532082422
 11
7.9345073474
 21
3.0602840806
  0
LINE
  5
376
100
AcDbEntity
  8
0
100
AcDbLine
 62
7
  6
CONTINUOUS
 10
7.8443670869
 20
2.7238956974
 11
7.8463799185
 21
2.7309152756
  0
LINE
  5
377
100
AcDbEntity
  8
0
100
AcDbLine
 62
7
  6
CONTINUOUS
 10
7.9391025172
 20
3.0439415227
 11
7.9412375508
 21
3.050924903
  0
LINE
  5
378
100
AcDbEntity
  8
0
100
AcDbLine
 62
7
  6
CONTINUOUS
 10
7.8336192352
 20
2.7197097847
 11
7.8359966846
 21
2.7266143993
  0
LINE
  5
379
100
AcDbEntity
  8
0
100
AcDbLine
 62
7
  6
CONTINUOUS
 10
7.9449747382
 20
3.0343589289
 11
7.9474723277
 21
3.0412209997
  0
LINE
  5
37A
100
AcDbEntity
  8
0
100
AcDbLine
 62
7
  6
CONTINUOUS
 10
7.8226731996
 20
2.7160939653
 11
7.8254050015
 21
2.7228554122
  0
LINE
  5
37B
100
AcDbEntity
  8
0
100
AcDbLine
 62
7
  6
CONTINUOUS
 10
7.9503373973
 20
3.0244821395
 11
7.953190697
 21
3.0312040923
  0
LINE
  5
37C
100
AcDbEntity
  8
0
100
AcDbLine
 62
7
  6
CONTINUOUS
 10
7.8115405184
 20
2.7130525822
 11
7.8146266727
 21
2.7196708615
  0
LINE
  5
37D
100
AcDbEntity
  8
0
100
AcDbLine
 62
7
  6
CONTINUOUS
 10
7.9551757959
 20
3.014338226
 11
7.958376985
 21
3.0209016364
  0
LINE
  5
37E
100
AcDbEntity
  8
0
100
AcDbLine
 62
7
  6
CONTINUOUS
 10
7.8002701696
 20
2.7105995395
 11
7.8036984684
 21
2.7170472318
  0
LINE
  5
37F
100
AcDbEntity
  8
0
100
AcDbLine
 62
7
  6
CONTINUOUS
 10
7.9594766721
 20
3.0039549921
 11
7.9630169766
 21
3.0103418703
  0
LINE
  5
380
100
AcDbEntity
  8
0
100
AcDbLine
 62
7
  6
CONTINUOUS
 10
7.7888868841
 20
2.708739703
 11
7.7926479307
 21
2.7149991357
  0
LINE
  5
381
100
AcDbEntity
  8
0
100
AcDbLine
 62
7
  6
CONTINUOUS
 10
7.9632356592
 20
2.993363309
 11
7.9671000718
 21
2.9995476619
  0
LINE
  5
382
100
AcDbEntity
  8
0
100
AcDbLine
 62
7
  6
CONTINUOUS
 10
7.7774218626
 20
2.7074781705
 11
7.7815053482
 21
2.7135321869
  0
LINE
  5
383
100
AcDbEntity
  8
0
100
AcDbLine
 62
7
  6
CONTINUOUS
 10
7.9664202099
 20
2.9825849802
 11
7.9706087307
 21
2.9885668079
  0
LINE
  5
384
100
AcDbEntity
  8
0
100
AcDbLine
 62
7
  6
CONTINUOUS
 10
7.76590653
 20
2.7068183997
 11
7.7703012621
 21
2.7126504062
  0
LINE
  5
385
100
AcDbEntity
  8
0
100
AcDbLine
 62
7
  6
CONTINUOUS
 10
7.9690438397
 20
2.9716567759
 11
7.9735396849
 21
2.9774111954
  0
LINE
  5
386
100
AcDbEntity
  8
0
100
AcDbLine
 62
7
  6
CONTINUOUS
 10
7.754378882
 20
2.7067620621
 11
7.759066382
 21
2.7123484071
  0
LINE
  5
387
100
AcDbEntity
  8
0
100
AcDbLine
 62
7
  6
CONTINUOUS
 10
7.9710919358
 20
2.9606062381
 11
7.9758827827
 21
2.9661174771
  0
LINE
  5
388
100
AcDbEntity
  8
0
100
AcDbLine
 62
7
  6
CONTINUOUS
 10
7.7428512339
 20
2.7073097227
 11
7.7478315019
 21
2.7126504062
  0
LINE
  5
389
100
AcDbEntity
  8
0
100
AcDbLine
 62
7
  6
CONTINUOUS
 10
7.9725588846
 20
2.9494636557
 11
7.9776316018
 21
2.9547166081
  0
CIRCLE
  5
38A
100
AcDbEntity
  8
0
100
AcDbCircle
 62
7
  6
CONTINUOUS
 10
2.509066382
 20
3.3552746894
 40
0.088125
  0
CIRCLE
  5
38B
100
AcDbEntity
  8
0
100
AcDbCircle
 62
7
  6
CONTINUOUS
 10
2.509066382
 20
3.3552746894
 40
0.0834375
  0
ARC
  5
38C
100
AcDbEntity
  8
0
100
AcDbCircle
 62
7
  6
CONTINUOUS
 10
3.787816382
 20
2.4053996894
 40
0.03375
100
AcDbArc
 50
269.9999999987
 51
360.0
  0
ARC
  5
38D
100
AcDbEntity
  8
0
100
AcDbCircle
 62
7
  6
CONTINUOUS
 10
4.230316382
 20
2.4053996894
 40
0.03375
100
AcDbArc
 50
179.9999999991
 51
270.0000000013
  0
ARC
  5
38E
100
AcDbEntity
  8
0
100
AcDbCircle
 62
7
  6
CONTINUOUS
 10
2.777191382
 20
2.4053996894
 40
0.03375
100
AcDbArc
 50
179.9999999986
 51
270.0000000009
  0
ARC
  5
38F
100
AcDbEntity
  8
0
100
AcDbCircle
 62
7
  6
CONTINUOUS
 10
2.777191382
 20
1.8691496894
 40
0.03375
100
AcDbArc
 50
89.999999999
 51
180.0000000017
  0
ARC
  5
390
100
AcDbEntity
  8
0
100
AcDbCircle
 62
7
  6
CONTINUOUS
 10
2.149066382
 20
1.3572746894
 40
0.01125
100
AcDbArc
 50
90.0
 51
180.0
  0
ARC
  5
391
100
AcDbEntity
  8
0
100
AcDbCircle
 62
7
  6
CONTINUOUS
 10
2.869066382
 20
1.3572746894
 40
0.01125
100
AcDbArc
 50
0.0
 51
90.0
  0
ARC
  5
392
100
AcDbEntity
  8
0
100
AcDbCircle
 62
7
  6
CONTINUOUS
 10
2.285941382
 20
3.0323996894
 40
0.01125
100
AcDbArc
 50
90.0
 51
180.0
  0
ARC
  5
393
100
AcDbEntity
  8
0
100
AcDbCircle
 62
7
  6
CONTINUOUS
 10
2.732191382
 20
3.0323996894
 40
0.01125
100
AcDbArc
 50
0.0
 51
90.0
  0
ARC
  5
394
100
AcDbEntity
  8
0
100
AcDbCircle
 62
7
  6
CONTINUOUS
 10
4.009066382
 20
6.6536996894
 40
0.1875
100
AcDbArc
 50
0.0
 51
180.0
  0
ARC
  5
395
100
AcDbEntity
  8
0
100
AcDbCircle
 62
7
  6
CONTINUOUS
 10
5.240941382
 20
1.8691496894
 40
0.03375
100
AcDbArc
 50
0.0
 51
90.000000001
  0
ARC
  5
396
100
AcDbEntity
  8
0
100
AcDbCircle
 62
7
  6
CONTINUOUS
 10
5.149066382
 20
1.3572746894
 40
0.01125
100
AcDbArc
 50
90.0
 51
180.0
  0
ARC
  5
397
100
AcDbEntity
  8
0
100
AcDbCircle
 62
7
  6
CONTINUOUS
 10
5.869066382
 20
1.3572746894
 40
0.01125
100
AcDbArc
 50
0.0
 51
90.0
  0
CIRCLE
  5
398
100
AcDbEntity
  8
0
100
AcDbCircle
 62
7
  6
CONTINUOUS
 10
5.509066382
 20
3.3552746894
 40
0.088125
  0
CIRCLE
  5
399
100
AcDbEntity
  8
0
100
AcDbCircle
 62
7
  6
CONTINUOUS
 10
5.509066382
 20
3.3552746894
 40
0.0834375
  0
ARC
  5
39A
100
AcDbEntity
  8
0
100
AcDbCircle
 62
7
  6
CONTINUOUS
 10
5.240941382
 20
2.4053996894
 40
0.03375
100
AcDbArc
 50
269.999999999
 51
360.0
  0
ARC
  5
39B
100
AcDbEntity
  8
0
100
AcDbCircle
 62
7
  6
CONTINUOUS
 10
5.732191382
 20
3.0323996894
 40
0.01125
100
AcDbArc
 50
0.0
 51
90.0
  0
ARC
  5
39C
100
AcDbEntity
  8
0
100
AcDbCircle
 62
7
  6
CONTINUOUS
 10
5.285941382
 20
3.0323996894
 40
0.01125
100
AcDbArc
 50
90.0
 51
180.0
  0
ARC
  5
39D
100
AcDbEntity
  8
0
100
AcDbCircle
 62
7
  6
CONTINUOUS
 10
7.399066382
 20
1.3572746894
 40
0.01125
100
AcDbArc
 50
90.0
 51
180.0
  0
ARC
  5
39E
100
AcDbEntity
  8
0
100
AcDbCircle
 62
7
  6
CONTINUOUS
 10
8.119066382
 20
1.3572746894
 40
0.01125
100
AcDbArc
 50
0.0
 51
90.0
  0
ARC
  5
39F
100
AcDbEntity
  8
0
100
AcDbCircle
 62
7
  6
CONTINUOUS
 10
7.7204664868
 20
2.8971424765
 40
0.2223432124
100
AcDbArc
 50
321.3597802904
 51
321.899573869
  0
ARC
  5
3A0
100
AcDbEntity
  8
0
100
AcDbCircle
 62
7
  6
CONTINUOUS
 10
7.7264674801
 20
2.8921392029
 40
0.2145293169
100
AcDbArc
 50
317.5815723211
 51
319.3404433104
  0
ARC
  5
3A1
100
AcDbEntity
  8
0
100
AcDbCircle
 62
7
  6
CONTINUOUS
 10
7.6402651832
 20
2.9270231377
 40
0.0077758164
100
AcDbArc
 50
0.0114341334
 51
168.0588921133
  0
CIRCLE
  5
3A2
100
AcDbEntity
  8
0
100
AcDbCircle
 62
7
  6
CONTINUOUS
 10
7.7136019473
 20
2.8172673026
 40
0.0077756494
  0
ARC
  5
3A3
100
AcDbEntity
  8
0
100
AcDbCircle
 62
7
  6
CONTINUOUS
 10
7.7590650548
 20
2.8082236003
 40
0.0077756494
100
AcDbArc
 50
258.0798146047
 51
79.4381170033
  0
CIRCLE
  5
3A4
100
AcDbEntity
  8
0
100
AcDbCircle
 62
7
  6
CONTINUOUS
 10
7.6493079786
 20
2.8815627066
 40
0.0077756493
  0
CIRCLE
  5
3A5
100
AcDbEntity
  8
0
100
AcDbCircle
 62
7
  6
CONTINUOUS
 10
7.6750603872
 20
2.8430205715
 40
0.0077756493
  0
ARC
  5
3A6
100
AcDbEntity
  8
0
100
AcDbCircle
 62
7
  6
CONTINUOUS
 10
7.7590663711
 20
2.8538327237
 40
0.0073454965
100
AcDbArc
 50
210.6274744926
 51
31.7144741415
  0
CIRCLE
  5
3A7
100
AcDbEntity
  8
0
100
AcDbCircle
 62
7
  6
CONTINUOUS
 10
7.7073121928
 20
2.8752704821
 40
0.0073454954
  0
ARC
  5
3A8
100
AcDbEntity
  8
0
100
AcDbCircle
 62
7
  6
CONTINUOUS
 10
7.6858741492
 20
2.9270246032
 40
0.0073453321
100
AcDbArc
 50
0.0030291534
 51
179.9993270823
  0
ARC
  5
3A9
100
AcDbEntity
  8
0
100
AcDbCircle
 62
7
  6
CONTINUOUS
 10
7.7590650244
 20
3.045825918
 40
0.0077756716
100
AcDbArc
 50
259.4577535548
 51
78.0602465588
  0
CIRCLE
  5
3AA
100
AcDbEntity
  8
0
100
AcDbCircle
 62
7
  6
CONTINUOUS
 10
7.6750622648
 20
3.0110306835
 40
0.0077756494
  0
CIRCLE
  5
3AB
100
AcDbEntity
  8
0
100
AcDbCircle
 62
7
  6
CONTINUOUS
 10
7.7136043996
 20
3.0367830918
 40
0.0077756494
  0
CIRCLE
  5
3AC
100
AcDbEntity
  8
0
100
AcDbCircle
 62
7
  6
CONTINUOUS
 10
7.6493089943
 20
2.9724891245
 40
0.0077756493
  0
ARC
  5
3AD
100
AcDbEntity
  8
0
100
AcDbCircle
 62
7
  6
CONTINUOUS
 10
7.6402623973
 20
2.9270246949
 40
0.0077726977
100
AcDbArc
 50
168.0658731574
 51
359.9998649525
  0
CIRCLE
  5
3AE
100
AcDbEntity
  8
0
100
AcDbCircle
 62
7
  6
CONTINUOUS
 10
7.7073121755
 20
2.9787788783
 40
0.0073454942
  0
ARC
  5
3AF
100
AcDbEntity
  8
0
100
AcDbCircle
 62
7
  6
CONTINUOUS
 10
7.7590663696
 20
3.0002161774
 40
0.0073454938
100
AcDbArc
 50
211.7113994631
 51
30.6305886008
  0
ARC
  5
3B0
100
AcDbEntity
  8
0
100
AcDbCircle
 62
7
  6
CONTINUOUS
 10
7.6858751644
 20
2.92702477
 40
0.007345322
100
AcDbArc
 50
180.003074368
 51
359.9993715456
  0
ARC
  5
3B1
100
AcDbEntity
  8
0
100
AcDbCircle
 62
7
  6
CONTINUOUS
 10
7.7975162893
 20
2.8970248559
 40
0.2221525859
100
AcDbArc
 50
218.1005011774
 51
218.64088537
  0
ARC
  5
3B2
100
AcDbEntity
  8
0
100
AcDbCircle
 62
7
  6
CONTINUOUS
 10
7.7910732922
 20
2.8916125906
 40
0.2137371069
100
AcDbArc
 50
220.6559080228
 51
222.4210402879
  0
ARC
  5
3B3
100
AcDbEntity
  8
0
100
AcDbCircle
 62
7
  6
CONTINUOUS
 10
7.7590677395
 20
2.8082234607
 40
0.0077756716
100
AcDbArc
 50
79.4577535443
 51
258.0602465384
  0
CIRCLE
  5
3B4
100
AcDbEntity
  8
0
100
AcDbCircle
 62
7
  6
CONTINUOUS
 10
7.8688237697
 20
2.8815602541
 40
0.0077756494
  0
CIRCLE
  5
3B5
100
AcDbEntity
  8
0
100
AcDbCircle
 62
7
  6
CONTINUOUS
 10
7.8045283645
 20
2.8172662869
 40
0.0077756494
  0
CIRCLE
  5
3B6
100
AcDbEntity
  8
0
100
AcDbCircle
 62
7
  6
CONTINUOUS
 10
7.8430704993
 20
2.8430186953
 40
0.0077756494
  0
ARC
  5
3B7
100
AcDbEntity
  8
0
100
AcDbCircle
 62
7
  6
CONTINUOUS
 10
7.8778703667
 20
2.927024684
 40
0.0077726977
100
AcDbArc
 50
348.0658731572
 51
179.9998649527
  0
ARC
  5
3B8
100
AcDbEntity
  8
0
100
AcDbCircle
 62
7
  6
CONTINUOUS
 10
7.7590663948
 20
2.8538332003
 40
0.0073454954
100
AcDbArc
 50
31.711408987
 51
210.6305790417
  0
CIRCLE
  5
3B9
100
AcDbEntity
  8
0
100
AcDbCircle
 62
7
  6
CONTINUOUS
 10
7.8108205882
 20
2.8752705004
 40
0.0073454939
  0
ARC
  5
3BA
100
AcDbEntity
  8
0
100
AcDbCircle
 62
7
  6
CONTINUOUS
 10
7.8322575992
 20
2.9270246081
 40
0.007345322
100
AcDbArc
 50
0.0030721608
 51
179.9993656681
  0
ARC
  5
3BB
100
AcDbEntity
  8
0
100
AcDbCircle
 62
7
  6
CONTINUOUS
 10
7.759066382
 20
2.9270246894
 40
0.2203125
100
AcDbArc
 50
106.2208244843
 51
106.780848866
  0
ARC
  5
3BC
100
AcDbEntity
  8
0
100
AcDbCircle
 62
7
  6
CONTINUOUS
 10
7.759066382
 20
2.9270246894
 40
0.2203125
100
AcDbArc
 50
109.219151134
 51
109.7791755157
  0
ARC
  5
3BD
100
AcDbEntity
  8
0
100
AcDbCircle
 62
7
  6
CONTINUOUS
 10
7.759066382
 20
2.9270246894
 40
0.2203125
100
AcDbArc
 50
112.2208244843
 51
112.7791755157
  0
ARC
  5
3BE
100
AcDbEntity
  8
0
100
AcDbCircle
 62
7
  6
CONTINUOUS
 10
7.759066382
 20
2.9270246894
 40
0.2203125
100
AcDbArc
 50
115.2208244843
 51
115.7791755157
  0
ARC
  5
3BF
100
AcDbEntity
  8
0
100
AcDbCircle
 62
7
  6
CONTINUOUS
 10
7.759066382
 20
2.9270246894
 40
0.2203125
100
AcDbArc
 50
118.2208244843
 51
118.7791755157
  0
ARC
  5
3C0
100
AcDbEntity
  8
0
100
AcDbCircle
 62
7
  6
CONTINUOUS
 10
7.759066382
 20
2.9270246894
 40
0.2203125
100
AcDbArc
 50
121.2208244843
 51
121.7791755157
  0
ARC
  5
3C1
100
AcDbEntity
  8
0
100
AcDbCircle
 62
7
  6
CONTINUOUS
 10
7.759066382
 20
2.9270246894
 40
0.2203125
100
AcDbArc
 50
124.2208244843
 51
124.780848866
  0
ARC
  5
3C2
100
AcDbEntity
  8
0
100
AcDbCircle
 62
7
  6
CONTINUOUS
 10
7.759066382
 20
2.9270246894
 40
0.2203125
100
AcDbArc
 50
127.219151134
 51
127.7791755157
  0
ARC
  5
3C3
100
AcDbEntity
  8
0
100
AcDbCircle
 62
7
  6
CONTINUOUS
 10
7.759066382
 20
2.9270246894
 40
0.2203125
100
AcDbArc
 50
130.2208244843
 51
130.7791755157
  0
ARC
  5
3C4
100
AcDbEntity
  8
0
100
AcDbCircle
 62
7
  6
CONTINUOUS
 10
7.759066382
 20
2.9270246894
 40
0.2203125
100
AcDbArc
 50
133.2208244843
 51
133.7791755157
  0
ARC
  5
3C5
100
AcDbEntity
  8
0
100
AcDbCircle
 62
7
  6
CONTINUOUS
 10
7.759066382
 20
2.9270246894
 40
0.2203125
100
AcDbArc
 50
136.2208244843
 51
136.7791755157
  0
ARC
  5
3C6
100
AcDbEntity
  8
0
100
AcDbCircle
 62
7
  6
CONTINUOUS
 10
7.759066382
 20
2.9270246894
 40
0.2203125
100
AcDbArc
 50
139.2208244843
 51
139.7791755157
  0
ARC
  5
3C7
100
AcDbEntity
  8
0
100
AcDbCircle
 62
7
  6
CONTINUOUS
 10
7.759066382
 20
2.9270246894
 40
0.2203125
100
AcDbArc
 50
142.2208244843
 51
142.780848866
  0
ARC
  5
3C8
100
AcDbEntity
  8
0
100
AcDbCircle
 62
7
  6
CONTINUOUS
 10
7.759066382
 20
2.9270246894
 40
0.2203125
100
AcDbArc
 50
145.219151134
 51
145.7791755157
  0
ARC
  5
3C9
100
AcDbEntity
  8
0
100
AcDbCircle
 62
7
  6
CONTINUOUS
 10
7.759066382
 20
2.9270246894
 40
0.2203125
100
AcDbArc
 50
148.2208244843
 51
148.7791755157
  0
ARC
  5
3CA
100
AcDbEntity
  8
0
100
AcDbCircle
 62
7
  6
CONTINUOUS
 10
7.759066382
 20
2.9270246894
 40
0.2203125
100
AcDbArc
 50
151.2208244843
 51
151.7791755157
  0
ARC
  5
3CB
100
AcDbEntity
  8
0
100
AcDbCircle
 62
7
  6
CONTINUOUS
 10
7.759066382
 20
2.9270246894
 40
0.2203125
100
AcDbArc
 50
154.2208244843
 51
154.7791755157
  0
ARC
  5
3CC
100
AcDbEntity
  8
0
100
AcDbCircle
 62
7
  6
CONTINUOUS
 10
7.759066382
 20
2.9270246894
 40
0.2203125
100
AcDbArc
 50
157.2208244843
 51
157.7791755157
  0
ARC
  5
3CD
100
AcDbEntity
  8
0
100
AcDbCircle
 62
7
  6
CONTINUOUS
 10
7.759066382
 20
2.9270246894
 40
0.2203125
100
AcDbArc
 50
160.2208244843
 51
160.780848866
  0
ARC
  5
3CE
100
AcDbEntity
  8
0
100
AcDbCircle
 62
7
  6
CONTINUOUS
 10
7.759066382
 20
2.9270246894
 40
0.2203125
100
AcDbArc
 50
163.219151134
 51
163.7791755157
  0
ARC
  5
3CF
100
AcDbEntity
  8
0
100
AcDbCircle
 62
7
  6
CONTINUOUS
 10
7.759066382
 20
2.9270246894
 40
0.2203125
100
AcDbArc
 50
166.2208244843
 51
166.7791755157
  0
ARC
  5
3D0
100
AcDbEntity
  8
0
100
AcDbCircle
 62
7
  6
CONTINUOUS
 10
7.759066382
 20
2.9270246894
 40
0.2203125
100
AcDbArc
 50
169.2208244843
 51
169.7791755157
  0
ARC
  5
3D1
100
AcDbEntity
  8
0
100
AcDbCircle
 62
7
  6
CONTINUOUS
 10
7.759066382
 20
2.9270246894
 40
0.2203125
100
AcDbArc
 50
172.2208244843
 51
172.7791755157
  0
ARC
  5
3D2
100
AcDbEntity
  8
0
100
AcDbCircle
 62
7
  6
CONTINUOUS
 10
7.759066382
 20
2.9270246894
 40
0.2203125
100
AcDbArc
 50
175.2208244843
 51
175.7791755157
  0
ARC
  5
3D3
100
AcDbEntity
  8
0
100
AcDbCircle
 62
7
  6
CONTINUOUS
 10
7.759066382
 20
2.9270246894
 40
0.2203125
100
AcDbArc
 50
178.2208244843
 51
178.780848866
  0
ARC
  5
3D4
100
AcDbEntity
  8
0
100
AcDbCircle
 62
7
  6
CONTINUOUS
 10
7.759066382
 20
2.9270246894
 40
0.2203125
100
AcDbArc
 50
181.219151134
 51
181.7791755157
  0
ARC
  5
3D5
100
AcDbEntity
  8
0
100
AcDbCircle
 62
7
  6
CONTINUOUS
 10
7.759066382
 20
2.9270246894
 40
0.2203125
100
AcDbArc
 50
184.2208244843
 51
184.7791755157
  0
ARC
  5
3D6
100
AcDbEntity
  8
0
100
AcDbCircle
 62
7
  6
CONTINUOUS
 10
7.759066382
 20
2.9270246894
 40
0.2203125
100
AcDbArc
 50
187.2208244843
 51
187.7791755157
  0
ARC
  5
3D7
100
AcDbEntity
  8
0
100
AcDbCircle
 62
7
  6
CONTINUOUS
 10
7.759066382
 20
2.9270246894
 40
0.2203125
100
AcDbArc
 50
190.2208244843
 51
190.7791755157
  0
ARC
  5
3D8
100
AcDbEntity
  8
0
100
AcDbCircle
 62
7
  6
CONTINUOUS
 10
7.759066382
 20
2.9270246894
 40
0.2203125
100
AcDbArc
 50
193.2208244843
 51
193.7791755157
  0
ARC
  5
3D9
100
AcDbEntity
  8
0
100
AcDbCircle
 62
7
  6
CONTINUOUS
 10
7.759066382
 20
2.9270246894
 40
0.2203125
100
AcDbArc
 50
196.2208244843
 51
196.780848866
  0
ARC
  5
3DA
100
AcDbEntity
  8
0
100
AcDbCircle
 62
7
  6
CONTINUOUS
 10
7.759066382
 20
2.9270246894
 40
0.2203125
100
AcDbArc
 50
199.219151134
 51
199.7791755157
  0
ARC
  5
3DB
100
AcDbEntity
  8
0
100
AcDbCircle
 62
7
  6
CONTINUOUS
 10
7.759066382
 20
2.9270246894
 40
0.2203125
100
AcDbArc
 50
202.2208244843
 51
202.7791755157
  0
ARC
  5
3DC
100
AcDbEntity
  8
0
100
AcDbCircle
 62
7
  6
CONTINUOUS
 10
7.759066382
 20
2.9270246894
 40
0.2203125
100
AcDbArc
 50
205.2208244843
 51
205.7791755157
  0
ARC
  5
3DD
100
AcDbEntity
  8
0
100
AcDbCircle
 62
7
  6
CONTINUOUS
 10
7.759066382
 20
2.9270246894
 40
0.2203125
100
AcDbArc
 50
208.2208244843
 51
208.7791755157
  0
ARC
  5
3DE
100
AcDbEntity
  8
0
100
AcDbCircle
 62
7
  6
CONTINUOUS
 10
7.759066382
 20
2.9270246894
 40
0.2203125
100
AcDbArc
 50
211.2208244843
 51
211.7791755157
  0
ARC
  5
3DF
100
AcDbEntity
  8
0
100
AcDbCircle
 62
7
  6
CONTINUOUS
 10
7.759066382
 20
2.9270246894
 40
0.2203125
100
AcDbArc
 50
214.2208244843
 51
214.780848866
  0
ARC
  5
3E0
100
AcDbEntity
  8
0
100
AcDbCircle
 62
7
  6
CONTINUOUS
 10
7.759066382
 20
2.9270246894
 40
0.2203125
100
AcDbArc
 50
217.219151134
 51
217.7791755157
  0
ARC
  5
3E1
100
AcDbEntity
  8
0
100
AcDbCircle
 62
7
  6
CONTINUOUS
 10
7.759066382
 20
2.9270246894
 40
0.2203125
100
AcDbArc
 50
220.2208244843
 51
220.7791755157
  0
ARC
  5
3E2
100
AcDbEntity
  8
0
100
AcDbCircle
 62
7
  6
CONTINUOUS
 10
7.759066382
 20
2.9270246894
 40
0.2203125
100
AcDbArc
 50
223.2208244843
 51
223.7791755157
  0
ARC
  5
3E3
100
AcDbEntity
  8
0
100
AcDbCircle
 62
7
  6
CONTINUOUS
 10
7.759066382
 20
2.9270246894
 40
0.2203125
100
AcDbArc
 50
226.2208244843
 51
226.7791755157
  0
ARC
  5
3E4
100
AcDbEntity
  8
0
100
AcDbCircle
 62
7
  6
CONTINUOUS
 10
7.759066382
 20
2.9270246894
 40
0.2203125
100
AcDbArc
 50
229.2208244843
 51
229.7791755157
  0
ARC
  5
3E5
100
AcDbEntity
  8
0
100
AcDbCircle
 62
7
  6
CONTINUOUS
 10
7.759066382
 20
2.9270246894
 40
0.2203125
100
AcDbArc
 50
232.2208244843
 51
232.780848866
  0
ARC
  5
3E6
100
AcDbEntity
  8
0
100
AcDbCircle
 62
7
  6
CONTINUOUS
 10
7.759066382
 20
2.9270246894
 40
0.2203125
100
AcDbArc
 50
235.219151134
 51
235.7791755157
  0
ARC
  5
3E7
100
AcDbEntity
  8
0
100
AcDbCircle
 62
7
  6
CONTINUOUS
 10
7.759066382
 20
2.9270246894
 40
0.2203125
100
AcDbArc
 50
238.2208244843
 51
238.7791755157
  0
ARC
  5
3E8
100
AcDbEntity
  8
0
100
AcDbCircle
 62
7
  6
CONTINUOUS
 10
7.759066382
 20
2.9270246894
 40
0.2203125
100
AcDbArc
 50
241.2208244843
 51
241.7791755157
  0
ARC
  5
3E9
100
AcDbEntity
  8
0
100
AcDbCircle
 62
7
  6
CONTINUOUS
 10
7.759066382
 20
2.9270246894
 40
0.2203125
100
AcDbArc
 50
244.2208244843
 51
244.7791755157
  0
ARC
  5
3EA
100
AcDbEntity
  8
0
100
AcDbCircle
 62
7
  6
CONTINUOUS
 10
7.759066382
 20
2.9270246894
 40
0.2203125
100
AcDbArc
 50
247.2208244843
 51
247.7791755157
  0
ARC
  5
3EB
100
AcDbEntity
  8
0
100
AcDbCircle
 62
7
  6
CONTINUOUS
 10
7.759066382
 20
2.9270246894
 40
0.2203125
100
AcDbArc
 50
250.2208244843
 51
250.780848866
  0
ARC
  5
3EC
100
AcDbEntity
  8
0
100
AcDbCircle
 62
7
  6
CONTINUOUS
 10
7.759066382
 20
2.9270246894
 40
0.2203125
100
AcDbArc
 50
253.219151134
 51
253.7791755157
  0
ARC
  5
3ED
100
AcDbEntity
  8
0
100
AcDbCircle
 62
7
  6
CONTINUOUS
 10
7.759066382
 20
2.9270246894
 40
0.2203125
100
AcDbArc
 50
256.2208244843
 51
256.7791755157
  0
ARC
  5
3EE
100
AcDbEntity
  8
0
100
AcDbCircle
 62
7
  6
CONTINUOUS
 10
7.759066382
 20
2.9270246894
 40
0.2203125
100
AcDbArc
 50
259.2208244843
 51
259.7791755157
  0
ARC
  5
3EF
100
AcDbEntity
  8
0
100
AcDbCircle
 62
7
  6
CONTINUOUS
 10
7.759066382
 20
2.9270246894
 40
0.2203125
100
AcDbArc
 50
262.2208244843
 51
262.7791755157
  0
ARC
  5
3F0
100
AcDbEntity
  8
0
100
AcDbCircle
 62
7
  6
CONTINUOUS
 10
7.759066382
 20
2.9270246894
 40
0.2203125
100
AcDbArc
 50
265.2208244843
 51
265.7791755157
  0
ARC
  5
3F1
100
AcDbEntity
  8
0
100
AcDbCircle
 62
7
  6
CONTINUOUS
 10
7.759066382
 20
2.9270246894
 40
0.2203125
100
AcDbArc
 50
268.2208244843
 51
268.780848866
  0
ARC
  5
3F2
100
AcDbEntity
  8
0
100
AcDbCircle
 62
7
  6
CONTINUOUS
 10
7.759066382
 20
2.9270246894
 40
0.2203125
100
AcDbArc
 50
271.219151134
 51
271.7791755157
  0
ARC
  5
3F3
100
AcDbEntity
  8
0
100
AcDbCircle
 62
7
  6
CONTINUOUS
 10
7.759066382
 20
2.9270246894
 40
0.2203125
100
AcDbArc
 50
274.2208244843
 51
274.7791755157
  0
ARC
  5
3F4
100
AcDbEntity
  8
0
100
AcDbCircle
 62
7
  6
CONTINUOUS
 10
7.759066382
 20
2.9270246894
 40
0.2203125
100
AcDbArc
 50
277.2208244843
 51
277.7791755157
  0
ARC
  5
3F5
100
AcDbEntity
  8
0
100
AcDbCircle
 62
7
  6
CONTINUOUS
 10
7.759066382
 20
2.9270246894
 40
0.2203125
100
AcDbArc
 50
280.2208244843
 51
280.7791755157
  0
ARC
  5
3F6
100
AcDbEntity
  8
0
100
AcDbCircle
 62
7
  6
CONTINUOUS
 10
7.759066382
 20
2.9270246894
 40
0.2203125
100
AcDbArc
 50
283.2208244843
 51
283.7791755157
  0
ARC
  5
3F7
100
AcDbEntity
  8
0
100
AcDbCircle
 62
7
  6
CONTINUOUS
 10
7.759066382
 20
2.9270246894
 40
0.2203125
100
AcDbArc
 50
286.2208244843
 51
286.780848866
  0
ARC
  5
3F8
100
AcDbEntity
  8
0
100
AcDbCircle
 62
7
  6
CONTINUOUS
 10
7.759066382
 20
2.9270246894
 40
0.2203125
100
AcDbArc
 50
289.219151134
 51
289.7791755157
  0
ARC
  5
3F9
100
AcDbEntity
  8
0
100
AcDbCircle
 62
7
  6
CONTINUOUS
 10
7.759066382
 20
2.9270246894
 40
0.2203125
100
AcDbArc
 50
292.2208244843
 51
292.7791755157
  0
ARC
  5
3FA
100
AcDbEntity
  8
0
100
AcDbCircle
 62
7
  6
CONTINUOUS
 10
7.759066382
 20
2.9270246894
 40
0.2203125
100
AcDbArc
 50
295.2208244843
 51
295.7791755157
  0
ARC
  5
3FB
100
AcDbEntity
  8
0
100
AcDbCircle
 62
7
  6
CONTINUOUS
 10
7.759066382
 20
2.9270246894
 40
0.2203125
100
AcDbArc
 50
298.2208244843
 51
298.7791755157
  0
ARC
  5
3FC
100
AcDbEntity
  8
0
100
AcDbCircle
 62
7
  6
CONTINUOUS
 10
7.759066382
 20
2.9270246894
 40
0.2203125
100
AcDbArc
 50
301.2208244843
 51
301.7791755157
  0
ARC
  5
3FD
100
AcDbEntity
  8
0
100
AcDbCircle
 62
7
  6
CONTINUOUS
 10
7.759066382
 20
2.9270246894
 40
0.2203125
100
AcDbArc
 50
304.2208244843
 51
304.780848866
  0
ARC
  5
3FE
100
AcDbEntity
  8
0
100
AcDbCircle
 62
7
  6
CONTINUOUS
 10
7.759066382
 20
2.9270246894
 40
0.2203125
100
AcDbArc
 50
307.219151134
 51
307.7791755157
  0
ARC
  5
3FF
100
AcDbEntity
  8
0
100
AcDbCircle
 62
7
  6
CONTINUOUS
 10
7.759066382
 20
2.9270246894
 40
0.2203125
100
AcDbArc
 50
310.2208244843
 51
310.7791755157
  0
ARC
  5
400
100
AcDbEntity
  8
0
100
AcDbCircle
 62
7
  6
CONTINUOUS
 10
7.759066382
 20
2.9270246894
 40
0.2203125
100
AcDbArc
 50
313.2208244843
 51
313.7791755157
  0
ARC
  5
401
100
AcDbEntity
  8
0
100
AcDbCircle
 62
7
  6
CONTINUOUS
 10
7.759066382
 20
2.9270246894
 40
0.2203125
100
AcDbArc
 50
316.2208244843
 51
316.7791755157
  0
ARC
  5
402
100
AcDbEntity
  8
0
100
AcDbCircle
 62
7
  6
CONTINUOUS
 10
7.759066382
 20
2.9270246894
 40
0.2203125
100
AcDbArc
 50
319.2208244843
 51
319.7791755157
  0
ARC
  5
403
100
AcDbEntity
  8
0
100
AcDbCircle
 62
7
  6
CONTINUOUS
 10
7.759066382
 20
2.9270246894
 40
0.2203125
100
AcDbArc
 50
322.2208244843
 51
322.780848866
  0
ARC
  5
404
100
AcDbEntity
  8
0
100
AcDbCircle
 62
7
  6
CONTINUOUS
 10
7.759066382
 20
2.9270246894
 40
0.2203125
100
AcDbArc
 50
325.219151134
 51
325.7791755157
  0
ARC
  5
405
100
AcDbEntity
  8
0
100
AcDbCircle
 62
7
  6
CONTINUOUS
 10
7.759066382
 20
2.9270246894
 40
0.2203125
100
AcDbArc
 50
328.2208244843
 51
328.7791755157
  0
ARC
  5
406
100
AcDbEntity
  8
0
100
AcDbCircle
 62
7
  6
CONTINUOUS
 10
7.759066382
 20
2.9270246894
 40
0.2203125
100
AcDbArc
 50
331.2208244843
 51
331.7791755157
  0
ARC
  5
407
100
AcDbEntity
  8
0
100
AcDbCircle
 62
7
  6
CONTINUOUS
 10
7.759066382
 20
2.9270246894
 40
0.2203125
100
AcDbArc
 50
334.2208244843
 51
334.7791755157
  0
ARC
  5
408
100
AcDbEntity
  8
0
100
AcDbCircle
 62
7
  6
CONTINUOUS
 10
7.759066382
 20
2.9270246894
 40
0.2203125
100
AcDbArc
 50
337.2208244843
 51
337.7791755157
  0
ARC
  5
409
100
AcDbEntity
  8
0
100
AcDbCircle
 62
7
  6
CONTINUOUS
 10
7.759066382
 20
2.9270246894
 40
0.2203125
100
AcDbArc
 50
340.2208244843
 51
340.780848866
  0
ARC
  5
40A
100
AcDbEntity
  8
0
100
AcDbCircle
 62
7
  6
CONTINUOUS
 10
7.759066382
 20
2.9270246894
 40
0.2203125
100
AcDbArc
 50
343.219151134
 51
343.7791755157
  0
ARC
  5
40B
100
AcDbEntity
  8
0
100
AcDbCircle
 62
7
  6
CONTINUOUS
 10
7.759066382
 20
2.9270246894
 40
0.2203125
100
AcDbArc
 50
346.2208244843
 51
346.7791755157
  0
ARC
  5
40C
100
AcDbEntity
  8
0
100
AcDbCircle
 62
7
  6
CONTINUOUS
 10
7.759066382
 20
2.9270246894
 40
0.2203125
100
AcDbArc
 50
349.2208244843
 51
349.7791755157
  0
ARC
  5
40D
100
AcDbEntity
  8
0
100
AcDbCircle
 62
7
  6
CONTINUOUS
 10
7.759066382
 20
2.9270246894
 40
0.2203125
100
AcDbArc
 50
352.2208244843
 51
352.7791755157
  0
ARC
  5
40E
100
AcDbEntity
  8
0
100
AcDbCircle
 62
7
  6
CONTINUOUS
 10
7.759066382
 20
2.9270246894
 40
0.2203125
100
AcDbArc
 50
355.2208244843
 51
355.7791755157
  0
ARC
  5
40F
100
AcDbEntity
  8
0
100
AcDbCircle
 62
7
  6
CONTINUOUS
 10
7.759066382
 20
2.9270246894
 40
0.2203125
100
AcDbArc
 50
358.2208244843
 51
358.780848866
  0
ARC
  5
410
100
AcDbEntity
  8
0
100
AcDbCircle
 62
7
  6
CONTINUOUS
 10
7.759066382
 20
2.9270246894
 40
0.2203125
100
AcDbArc
 50
1.219151134
 51
1.7791755157
  0
ARC
  5
411
100
AcDbEntity
  8
0
100
AcDbCircle
 62
7
  6
CONTINUOUS
 10
7.759066382
 20
2.9270246894
 40
0.2203125
100
AcDbArc
 50
4.2208244843
 51
4.7791755157
  0
ARC
  5
412
100
AcDbEntity
  8
0
100
AcDbCircle
 62
7
  6
CONTINUOUS
 10
7.759066382
 20
2.9270246894
 40
0.2203125
100
AcDbArc
 50
7.2208244843
 51
7.7791755157
  0
ARC
  5
413
100
AcDbEntity
  8
0
100
AcDbCircle
 62
7
  6
CONTINUOUS
 10
7.759066382
 20
2.9270246894
 40
0.2203125
100
AcDbArc
 50
10.2208244843
 51
10.7791755157
  0
ARC
  5
414
100
AcDbEntity
  8
0
100
AcDbCircle
 62
7
  6
CONTINUOUS
 10
7.759066382
 20
2.9270246894
 40
0.2203125
100
AcDbArc
 50
13.2208244843
 51
13.7791755157
  0
ARC
  5
415
100
AcDbEntity
  8
0
100
AcDbCircle
 62
7
  6
CONTINUOUS
 10
7.759066382
 20
2.9270246894
 40
0.2203125
100
AcDbArc
 50
16.2208244843
 51
16.780848866
  0
ARC
  5
416
100
AcDbEntity
  8
0
100
AcDbCircle
 62
7
  6
CONTINUOUS
 10
7.759066382
 20
2.9270246894
 40
0.2203125
100
AcDbArc
 50
19.219151134
 51
19.7791755157
  0
ARC
  5
417
100
AcDbEntity
  8
0
100
AcDbCircle
 62
7
  6
CONTINUOUS
 10
7.759066382
 20
2.9270246894
 40
0.2203125
100
AcDbArc
 50
22.2208244843
 51
22.7791755157
  0
ARC
  5
418
100
AcDbEntity
  8
0
100
AcDbCircle
 62
7
  6
CONTINUOUS
 10
7.759066382
 20
2.9270246894
 40
0.2203125
100
AcDbArc
 50
25.2208244843
 51
25.7791755157
  0
ARC
  5
419
100
AcDbEntity
  8
0
100
AcDbCircle
 62
7
  6
CONTINUOUS
 10
7.759066382
 20
2.9270246894
 40
0.2203125
100
AcDbArc
 50
28.2208244843
 51
28.7791755157
  0
ARC
  5
41A
100
AcDbEntity
  8
0
100
AcDbCircle
 62
7
  6
CONTINUOUS
 10
7.759066382
 20
2.9270246894
 40
0.2203125
100
AcDbArc
 50
31.2208244843
 51
31.7791755157
  0
ARC
  5
41B
100
AcDbEntity
  8
0
100
AcDbCircle
 62
7
  6
CONTINUOUS
 10
7.759066382
 20
2.9270246894
 40
0.2203125
100
AcDbArc
 50
34.2208244843
 51
34.780848866
  0
ARC
  5
41C
100
AcDbEntity
  8
0
100
AcDbCircle
 62
7
  6
CONTINUOUS
 10
7.759066382
 20
2.9270246894
 40
0.2203125
100
AcDbArc
 50
37.219151134
 51
37.7791755157
  0
ARC
  5
41D
100
AcDbEntity
  8
0
100
AcDbCircle
 62
7
  6
CONTINUOUS
 10
7.759066382
 20
2.9270246894
 40
0.2203125
100
AcDbArc
 50
40.2208244843
 51
40.7791755157
  0
ARC
  5
41E
100
AcDbEntity
  8
0
100
AcDbCircle
 62
7
  6
CONTINUOUS
 10
7.759066382
 20
2.9270246894
 40
0.2203125
100
AcDbArc
 50
43.2208244843
 51
43.7791755157
  0
ARC
  5
41F
100
AcDbEntity
  8
0
100
AcDbCircle
 62
7
  6
CONTINUOUS
 10
7.759066382
 20
2.9270246894
 40
0.2203125
100
AcDbArc
 50
46.2208244843
 51
46.7791755157
  0
ARC
  5
420
100
AcDbEntity
  8
0
100
AcDbCircle
 62
7
  6
CONTINUOUS
 10
7.759066382
 20
2.9270246894
 40
0.2203125
100
AcDbArc
 50
49.2208244843
 51
49.7791755157
  0
ARC
  5
421
100
AcDbEntity
  8
0
100
AcDbCircle
 62
7
  6
CONTINUOUS
 10
7.759066382
 20
2.9270246894
 40
0.2203125
100
AcDbArc
 50
52.2208244843
 51
52.780848866
  0
ARC
  5
422
100
AcDbEntity
  8
0
100
AcDbCircle
 62
7
  6
CONTINUOUS
 10
7.759066382
 20
2.9270246894
 40
0.2203125
100
AcDbArc
 50
55.219151134
 51
55.7791755157
  0
ARC
  5
423
100
AcDbEntity
  8
0
100
AcDbCircle
 62
7
  6
CONTINUOUS
 10
7.759066382
 20
2.9270246894
 40
0.2203125
100
AcDbArc
 50
58.2208244843
 51
58.7791755157
  0
ARC
  5
424
100
AcDbEntity
  8
0
100
AcDbCircle
 62
7
  6
CONTINUOUS
 10
7.759066382
 20
2.9270246894
 40
0.2203125
100
AcDbArc
 50
61.2208244843
 51
61.7791755157
  0
ARC
  5
425
100
AcDbEntity
  8
0
100
AcDbCircle
 62
7
  6
CONTINUOUS
 10
7.759066382
 20
2.9270246894
 40
0.2203125
100
AcDbArc
 50
64.2208244843
 51
64.7791755157
  0
ARC
  5
426
100
AcDbEntity
  8
0
100
AcDbCircle
 62
7
  6
CONTINUOUS
 10
7.759066382
 20
2.9270246894
 40
0.2203125
100
AcDbArc
 50
67.2208244843
 51
67.7791755157
  0
ARC
  5
427
100
AcDbEntity
  8
0
100
AcDbCircle
 62
7
  6
CONTINUOUS
 10
7.759066382
 20
2.9270246894
 40
0.2203125
100
AcDbArc
 50
70.2208244843
 51
70.780848866
  0
ARC
  5
428
100
AcDbEntity
  8
0
100
AcDbCircle
 62
7
  6
CONTINUOUS
 10
7.759066382
 20
2.9270246894
 40
0.2203125
100
AcDbArc
 50
73.219151134
 51
73.7791755157
  0
ARC
  5
429
100
AcDbEntity
  8
0
100
AcDbCircle
 62
7
  6
CONTINUOUS
 10
7.759066382
 20
2.9270246894
 40
0.2203125
100
AcDbArc
 50
76.2208244843
 51
76.7791755157
  0
ARC
  5
42A
100
AcDbEntity
  8
0
100
AcDbCircle
 62
7
  6
CONTINUOUS
 10
7.759066382
 20
2.9270246894
 40
0.2203125
100
AcDbArc
 50
79.2208244843
 51
79.7791755157
  0
ARC
  5
42B
100
AcDbEntity
  8
0
100
AcDbCircle
 62
7
  6
CONTINUOUS
 10
7.759066382
 20
2.9270246894
 40
0.2203125
100
AcDbArc
 50
82.2208244843
 51
82.7791755157
  0
ARC
  5
42C
100
AcDbEntity
  8
0
100
AcDbCircle
 62
7
  6
CONTINUOUS
 10
7.759066382
 20
2.9270246894
 40
0.2203125
100
AcDbArc
 50
85.2208244843
 51
85.7791755157
  0
ARC
  5
42D
100
AcDbEntity
  8
0
100
AcDbCircle
 62
7
  6
CONTINUOUS
 10
7.759066382
 20
2.9270246894
 40
0.2203125
100
AcDbArc
 50
88.2208244843
 51
88.780848866
  0
ARC
  5
42E
100
AcDbEntity
  8
0
100
AcDbCircle
 62
7
  6
CONTINUOUS
 10
7.759066382
 20
2.9270246894
 40
0.2203125
100
AcDbArc
 50
103.2208244843
 51
103.7791755157
  0
ARC
  5
42F
100
AcDbEntity
  8
0
100
AcDbCircle
 62
7
  6
CONTINUOUS
 10
7.759066382
 20
2.9270246894
 40
0.2203125
100
AcDbArc
 50
100.2208244843
 51
100.7791755157
  0
ARC
  5
430
100
AcDbEntity
  8
0
100
AcDbCircle
 62
7
  6
CONTINUOUS
 10
7.759066382
 20
2.9270246894
 40
0.2203125
100
AcDbArc
 50
97.2208244843
 51
97.7791755157
  0
ARC
  5
431
100
AcDbEntity
  8
0
100
AcDbCircle
 62
7
  6
CONTINUOUS
 10
7.759066382
 20
2.9270246894
 40
0.2203125
100
AcDbArc
 50
94.2208244843
 51
94.7791755157
  0
ARC
  5
432
100
AcDbEntity
  8
0
100
AcDbCircle
 62
7
  6
CONTINUOUS
 10
7.759066382
 20
2.9270246894
 40
0.2203125
100
AcDbArc
 50
91.219151134
 51
91.7791755157
  0
CIRCLE
  5
433
100
AcDbEntity
  8
0
100
AcDbCircle
 62
7
  6
CONTINUOUS
 10
7.759066382
 20
2.9270246894
 40
0.20625
  0
CIRCLE
  5
434
100
AcDbEntity
  8
0
100
AcDbCircle
 62
7
  6
CONTINUOUS
 10
7.759066382
 20
2.9270246894
 40
0.195
  0
CIRCLE
  5
435
100
AcDbEntity
  8
0
100
AcDbCircle
 62
7
  6
CONTINUOUS
 10
7.759066382
 20
2.9270246894
 40
0.16875
  0
CIRCLE
  5
436
100
AcDbEntity
  8
0
100
AcDbCircle
 62
7
  6
CONTINUOUS
 10
7.759066382
 20
2.9270246894
 40
0.1575
  0
CIRCLE
  5
437
100
AcDbEntity
  8
0
100
AcDbCircle
 62
7
  6
CONTINUOUS
 10
7.759066382
 20
2.9270246894
 40
0.1565625
  0
CIRCLE
  5
438
100
AcDbEntity
  8
0
100
AcDbCircle
 62
7
  6
CONTINUOUS
 10
7.759066382
 20
2.9270246894
 40
0.1553887795
  0
CIRCLE
  5
439
100
AcDbEntity
  8
0
100
AcDbCircle
 62
7
  6
CONTINUOUS
 10
7.759066382
 20
2.9270246894
 40
0.152786636
  0
CIRCLE
  5
43A
100
AcDbEntity
  8
0
100
AcDbCircle
 62
7
  6
CONTINUOUS
 10
7.8108205707
 20
2.9787788957
 40
0.0073454938
  0
ARC
  5
43B
100
AcDbEntity
  8
0
100
AcDbCircle
 62
7
  6
CONTINUOUS
 10
7.7590677091
 20
3.0458257784
 40
0.0077756494
100
AcDbArc
 50
78.0798146317
 51
259.4381170098
  0
CIRCLE
  5
43C
100
AcDbEntity
  8
0
100
AcDbCircle
 62
7
  6
CONTINUOUS
 10
7.8045308165
 20
3.0367820761
 40
0.0077756493
  0
ARC
  5
43D
100
AcDbEntity
  8
0
100
AcDbCircle
 62
7
  6
CONTINUOUS
 10
7.7590663931
 20
3.0002166543
 40
0.0073454973
100
AcDbArc
 50
30.627480807
 51
211.7144678615
  0
ARC
  5
43E
100
AcDbEntity
  8
0
100
AcDbCircle
 62
7
  6
CONTINUOUS
 10
7.8778675807
 20
2.9270262412
 40
0.0077758164
100
AcDbArc
 50
180.01143442
 51
348.0588919743
  0
CIRCLE
  5
43F
100
AcDbEntity
  8
0
100
AcDbCircle
 62
7
  6
CONTINUOUS
 10
7.8688247856
 20
2.9724866721
 40
0.0077756494
  0
ARC
  5
440
100
AcDbEntity
  8
0
100
AcDbCircle
 62
7
  6
CONTINUOUS
 10
7.8322586152
 20
2.9270247765
 40
0.0073453321
100
AcDbArc
 50
180.0030310543
 51
359.9993211888
  0
CIRCLE
  5
441
100
AcDbEntity
  8
0
100
AcDbCircle
 62
7
  6
CONTINUOUS
 10
7.8430723771
 20
3.0110288074
 40
0.0077756494
  0
SPLINE
  5
442
100
AcDbEntity
  8
0
100
AcDbSpline
 62
7
  6
CONTINUOUS
 70
0
 71
3
 72
22
 73
18
 74
0
 42
0.0000001
 43
0.0000001
 44
0.0000000001
 40
0.0
 40
0.0
 40
0.0
 40
0.0
 40
0.0470516734
 40
0.0939837977
 40
0.1406802065
 40
0.1870306331
 40
0.2782780842
 40
0.3670220988
 40
0.4526475139
 40
0.5345942519
 40
0.6123033771
 40
0.6851737649
 40
0.7525329151
 40
0.8136222755
 40
0.9135522529
 40
0.9777531742
 40
1.0
 40
1.0
 40
1.0
 40
1.0
 10
5.399479088
 20
3.3552746894
 30
0.0
 10
5.399479088
 20
3.3537897277
 30
0.0
 10
5.3994187312
 20
3.3508232226
 30
0.0
 10
5.3991489774
 20
3.3463903998
 30
0.0
 10
5.39870573
 20
3.341993732
 30
0.0
 10
5.3978998422
 20
3.3362322669
 30
0.0
 10
5.3965202782
 20
3.3292166812
 30
0.0
 10
5.3943602474
 20
3.3211114655
 30
0.0
 10
5.3918289306
 20
3.3134242301
 30
0.0
 10
5.3890479268
 20
3.3061970794
 30
0.0
 10
5.3861300138
 20
3.2994616238
 30
0.0
 10
5.3831783439
 20
3.2932477053
 30
0.0
 10
5.3802882292
 20
3.2875885839
 30
0.0
 10
5.3768591297
 20
3.2812483197
 30
0.0
 10
5.3733106672
 20
3.2750879304
 30
0.0
 10
5.3702565954
 20
3.2700605153
 30
0.0
 10
5.368814213
 20
3.2677446367
 30
0.0
 10
5.368441382
 20
3.2671496894
 30
0.0
  0
SPLINE
  5
443
100
AcDbEntity
  8
0
100
AcDbSpline
 62
7
  6
CONTINUOUS
 70
0
 71
3
 72
22
 73
18
 74
0
 42
0.0000001
 43
0.0000001
 44
0.0000000001
 40
0.0
 40
0.0
 40
0.0
 40
0.0
 40
0.0470516734
 40
0.0939837977
 40
0.1406802065
 40
0.1870306331
 40
0.2782780843
 40
0.3670220988
 40
0.4526475139
 40
0.534594252
 40
0.6123033771
 40
0.6851737649
 40
0.7525329151
 40
0.8136222756
 40
0.9135522529
 40
0.9777531742
 40
1.0
 40
1.0
 40
1.0
 40
1.0
 10
5.618653676
 20
3.3552746894
 30
0.0
 10
5.618653676
 20
3.3567596512
 30
0.0
 10
5.6187140327
 20
3.3597261563
 30
0.0
 10
5.6189837866
 20
3.364158979
 30
0.0
 10
5.619427034
 20
3.3685556469
 30
0.0
 10
5.6202329218
 20
3.374317112
 30
0.0
 10
5.6216124858
 20
3.3813326977
 30
0.0
 10
5.6237725165
 20
3.3894379134
 30
0.0
 10
5.6263038333
 20
3.3971251488
 30
0.0
 10
5.6290848371
 20
3.4043522995
 30
0.0
 10
5.6320027502
 20
3.4110877551
 30
0.0
 10
5.6349544201
 20
3.4173016736
 30
0.0
 10
5.6378445348
 20
3.422960795
 30
0.0
 10
5.6412736343
 20
3.4293010592
 30
0.0
 10
5.6448220968
 20
3.4354614485
 30
0.0
 10
5.6478761686
 20
3.4404888636
 30
0.0
 10
5.649318551
 20
3.4428047422
 30
0.0
 10
5.649691382
 20
3.4433996894
 30
0.0
  0
SPLINE
  5
444
100
AcDbEntity
  8
0
100
AcDbSpline
 62
7
  6
CONTINUOUS
 70
0
 71
3
 72
22
 73
18
 74
0
 42
0.0000001
 43
0.0000001
 44
0.0000000001
 40
0.0
 40
0.0
 40
0.0
 40
0.0
 40
0.0470516734
 40
0.0939837977
 40
0.1406802065
 40
0.1870306331
 40
0.2782780842
 40
0.3670220988
 40
0.4526475139
 40
0.5345942519
 40
0.6123033771
 40
0.6851737649
 40
0.7525329151
 40
0.8136222755
 40
0.9135522529
 40
0.9777531742
 40
1.0
 40
1.0
 40
1.0
 40
1.0
 10
2.618653676
 20
3.3552746894
 30
0.0
 10
2.618653676
 20
3.3567596512
 30
0.0
 10
2.6187140327
 20
3.3597261563
 30
0.0
 10
2.6189837866
 20
3.364158979
 30
0.0
 10
2.619427034
 20
3.3685556469
 30
0.0
 10
2.6202329218
 20
3.374317112
 30
0.0
 10
2.6216124858
 20
3.3813326977
 30
0.0
 10
2.6237725165
 20
3.3894379133
 30
0.0
 10
2.6263038333
 20
3.3971251488
 30
0.0
 10
2.6290848371
 20
3.4043522995
 30
0.0
 10
2.6320027502
 20
3.4110877551
 30
0.0
 10
2.6349544201
 20
3.4173016736
 30
0.0
 10
2.6378445348
 20
3.422960795
 30
0.0
 10
2.6412736343
 20
3.4293010592
 30
0.0
 10
2.6448220968
 20
3.4354614485
 30
0.0
 10
2.6478761686
 20
3.4404888636
 30
0.0
 10
2.649318551
 20
3.4428047422
 30
0.0
 10
2.649691382
 20
3.4433996894
 30
0.0
  0
SPLINE
  5
445
100
AcDbEntity
  8
0
100
AcDbSpline
 62
7
  6
CONTINUOUS
 70
0
 71
3
 72
22
 73
18
 74
0
 42
0.0000001
 43
0.0000001
 44
0.0000000001
 40
0.0
 40
0.0
 40
0.0
 40
0.0
 40
0.0470516734
 40
0.0939837977
 40
0.1406802065
 40
0.1870306331
 40
0.2782780843
 40
0.3670220988
 40
0.4526475139
 40
0.534594252
 40
0.6123033771
 40
0.6851737649
 40
0.7525329151
 40
0.8136222756
 40
0.9135522529
 40
0.9777531742
 40
1.0
 40
1.0
 40
1.0
 40
1.0
 10
2.399479088
 20
3.3552746894
 30
0.0
 10
2.399479088
 20
3.3537897277
 30
0.0
 10
2.3994187312
 20
3.3508232226
 30
0.0
 10
2.3991489774
 20
3.3463903998
 30
0.0
 10
2.39870573
 20
3.341993732
 30
0.0
 10
2.3978998422
 20
3.3362322669
 30
0.0
 10
2.3965202782
 20
3.3292166812
 30
0.0
 10
2.3943602474
 20
3.3211114655
 30
0.0
 10
2.3918289306
 20
3.3134242301
 30
0.0
 10
2.3890479268
 20
3.3061970794
 30
0.0
 10
2.3861300138
 20
3.2994616238
 30
0.0
 10
2.3831783439
 20
3.2932477053
 30
0.0
 10
2.3802882292
 20
3.2875885839
 30
0.0
 10
2.3768591297
 20
3.2812483197
 30
0.0
 10
2.3733106672
 20
3.2750879304
 30
0.0
 10
2.3702565954
 20
3.2700605153
 30
0.0
 10
2.368814213
 20
3.2677446367
 30
0.0
 10
2.368441382
 20
3.2671496894
 30
0.0
  0
SPLINE
  5
446
100
AcDbEntity
  8
0
100
AcDbSpline
 62
7
  6
CONTINUOUS
 70
0
 71
3
 72
22
 73
18
 74
0
 42
0.0000001
 43
0.0000001
 44
0.0000000001
 40
0.0
 40
0.0
 40
0.0
 40
0.0
 40
0.0222468258
 40
0.0864477471
 40
0.1863777245
 40
0.2474670849
 40
0.3148262351
 40
0.3876966229
 40
0.4654057481
 40
0.5473524861
 40
0.6329779012
 40
0.7217219158
 40
0.8129693669
 40
0.8593197935
 40
0.9060162023
 40
0.9529483266
 40
1.0
 40
1.0
 40
1.0
 40
1.0
 10
2.368441382
 20
3.4433996894
 30
0.0
 10
2.368814213
 20
3.4428047422
 30
0.0
 10
2.3702565954
 20
3.4404888636
 30
0.0
 10
2.3733106672
 20
3.4354614485
 30
0.0
 10
2.3768591297
 20
3.4293010592
 30
0.0
 10
2.3802882292
 20
3.422960795
 30
0.0
 10
2.3831783439
 20
3.4173016736
 30
0.0
 10
2.3861300138
 20
3.4110877551
 30
0.0
 10
2.3890479268
 20
3.4043522995
 30
0.0
 10
2.3918289306
 20
3.3971251488
 30
0.0
 10
2.3943602474
 20
3.3894379133
 30
0.0
 10
2.3965202782
 20
3.3813326977
 30
0.0
 10
2.3978998422
 20
3.374317112
 30
0.0
 10
2.39870573
 20
3.3685556469
 30
0.0
 10
2.3991489774
 20
3.364158979
 30
0.0
 10
2.3994187312
 20
3.3597261563
 30
0.0
 10
2.399479088
 20
3.3567596512
 30
0.0
 10
2.399479088
 20
3.3552746894
 30
0.0
  0
SPLINE
  5
447
100
AcDbEntity
  8
0
100
AcDbSpline
 62
7
  6
CONTINUOUS
 70
0
 71
3
 72
22
 73
18
 74
0
 42
0.0000001
 43
0.0000001
 44
0.0000000001
 40
0.0
 40
0.0
 40
0.0
 40
0.0
 40
0.0222468258
 40
0.0864477471
 40
0.1863777244
 40
0.2474670849
 40
0.3148262351
 40
0.3876966229
 40
0.465405748
 40
0.5473524861
 40
0.6329779012
 40
0.7217219157
 40
0.8129693669
 40
0.8593197935
 40
0.9060162023
 40
0.9529483266
 40
1.0
 40
1.0
 40
1.0
 40
1.0
 10
2.649691382
 20
3.2671496894
 30
0.0
 10
2.649318551
 20
3.2677446367
 30
0.0
 10
2.6478761686
 20
3.2700605153
 30
0.0
 10
2.6448220968
 20
3.2750879304
 30
0.0
 10
2.6412736343
 20
3.2812483197
 30
0.0
 10
2.6378445348
 20
3.2875885839
 30
0.0
 10
2.6349544201
 20
3.2932477053
 30
0.0
 10
2.6320027502
 20
3.2994616238
 30
0.0
 10
2.6290848371
 20
3.3061970794
 30
0.0
 10
2.6263038333
 20
3.3134242301
 30
0.0
 10
2.6237725165
 20
3.3211114655
 30
0.0
 10
2.6216124858
 20
3.3292166812
 30
0.0
 10
2.6202329218
 20
3.3362322669
 30
0.0
 10
2.619427034
 20
3.341993732
 30
0.0
 10
2.6189837866
 20
3.3463903998
 30
0.0
 10
2.6187140327
 20
3.3508232226
 30
0.0
 10
2.618653676
 20
3.3537897277
 30
0.0
 10
2.618653676
 20
3.3552746894
 30
0.0
  0
SPLINE
  5
448
100
AcDbEntity
  8
0
100
AcDbSpline
 62
7
  6
CONTINUOUS
 70
0
 71
3
 72
22
 73
18
 74
0
 42
0.0000001
 43
0.0000001
 44
0.0000000001
 40
0.0
 40
0.0
 40
0.0
 40
0.0
 40
0.0222468258
 40
0.0864477471
 40
0.1863777245
 40
0.2474670849
 40
0.3148262351
 40
0.3876966229
 40
0.4654057481
 40
0.5473524861
 40
0.6329779012
 40
0.7217219158
 40
0.8129693669
 40
0.8593197935
 40
0.9060162023
 40
0.9529483266
 40
1.0
 40
1.0
 40
1.0
 40
1.0
 10
5.649691382
 20
3.2671496894
 30
0.0
 10
5.649318551
 20
3.2677446367
 30
0.0
 10
5.6478761686
 20
3.2700605153
 30
0.0
 10
5.6448220968
 20
3.2750879304
 30
0.0
 10
5.6412736343
 20
3.2812483197
 30
0.0
 10
5.6378445348
 20
3.2875885839
 30
0.0
 10
5.6349544201
 20
3.2932477053
 30
0.0
 10
5.6320027502
 20
3.2994616238
 30
0.0
 10
5.6290848371
 20
3.3061970794
 30
0.0
 10
5.6263038333
 20
3.3134242301
 30
0.0
 10
5.6237725165
 20
3.3211114655
 30
0.0
 10
5.6216124858
 20
3.3292166812
 30
0.0
 10
5.6202329218
 20
3.3362322669
 30
0.0
 10
5.619427034
 20
3.341993732
 30
0.0
 10
5.6189837866
 20
3.3463903998
 30
0.0
 10
5.6187140327
 20
3.3508232226
 30
0.0
 10
5.618653676
 20
3.3537897277
 30
0.0
 10
5.618653676
 20
3.3552746894
 30
0.0
  0
SPLINE
  5
449
100
AcDbEntity
  8
0
100
AcDbSpline
 62
7
  6
CONTINUOUS
 70
0
 71
3
 72
22
 73
18
 74
0
 42
0.0000001
 43
0.0000001
 44
0.0000000001
 40
0.0
 40
0.0
 40
0.0
 40
0.0
 40
0.0222468258
 40
0.0864477471
 40
0.1863777244
 40
0.2474670849
 40
0.3148262351
 40
0.3876966229
 40
0.465405748
 40
0.5473524861
 40
0.6329779012
 40
0.7217219157
 40
0.8129693669
 40
0.8593197935
 40
0.9060162023
 40
0.9529483266
 40
1.0
 40
1.0
 40
1.0
 40
1.0
 10
5.368441382
 20
3.4433996894
 30
0.0
 10
5.368814213
 20
3.4428047422
 30
0.0
 10
5.3702565954
 20
3.4404888636
 30
0.0
 10
5.3733106672
 20
3.4354614485
 30
0.0
 10
5.3768591297
 20
3.4293010592
 30
0.0
 10
5.3802882292
 20
3.422960795
 30
0.0
 10
5.3831783439
 20
3.4173016736
 30
0.0
 10
5.3861300138
 20
3.4110877551
 30
0.0
 10
5.3890479268
 20
3.4043522995
 30
0.0
 10
5.3918289306
 20
3.3971251488
 30
0.0
 10
5.3943602474
 20
3.3894379134
 30
0.0
 10
5.3965202782
 20
3.3813326977
 30
0.0
 10
5.3978998422
 20
3.374317112
 30
0.0
 10
5.39870573
 20
3.3685556469
 30
0.0
 10
5.3991489774
 20
3.364158979
 30
0.0
 10
5.3994187312
 20
3.3597261563
 30
0.0
 10
5.399479088
 20
3.3567596512
 30
0.0
 10
5.399479088
 20
3.3552746894
 30
0.0
  0
SPLINE
  5
44A
100
AcDbEntity
  8
0
100
AcDbSpline
 62
7
  6
CONTINUOUS
 70
0
 71
3
 72
132
 73
128
 74
0
 42
0.0000001
 43
0.0000001
 44
0.0000000001
 40
0.0
 40
0.0
 40
0.0
 40
0.0
 40
0.0000033343
 40
0.0000074489
 40
0.0000131941
 40
0.0000295734
 40
0.0000524664
 40
0.0000818671
 40
0.0001177695
 40
0.0001601677
 40
0.0002090557
 40
0.0003262775
 40
0.0004693874
 40
0.0006383379
 40
0.0008330737
 40
0.0010535237
 40
0.001299615
 40
0.0018684295
 40
0.0025389332
 40
0.0033105185
 40
0.0041825246
 40
0.0051542832
 40
0.006225112
 40
0.0073941968
 40
0.0100235876
 40
0.0130344299
 40
0.0164158927
 40
0.0201565913
 40
0.0242450928
 40
0.0286699652
 40
0.0334197679
 40
0.0384827626
 40
0.0494999206
 40
0.0616230975
 40
0.0747576147
 40
0.0888154432
 40
0.1037140475
 40
0.1193765855
 40
0.1357331395
 40
0.1702818786
 40
0.1883654096
 40
0.2069254363
 40
0.2259222547
 40
0.2453192582
 40
0.2650836392
 40
0.2851872461
 40
0.2953589332
 40
0.3056065634
 40
0.3263176117
 40
0.3473006786
 40
0.357889216
 40
0.3685391905
 40
0.3900119989
 40
0.4117000544
 40
0.42261895
 40
0.4335822214
 40
0.4445854128
 40
0.4556235047
 40
0.4666908201
 40
0.4722336839
 40
0.4777814148
 40
0.4888868707
 40
0.5000001859
 40
0.5111134971
 40
0.5222189674
 40
0.5277666884
 40
0.533309544
 40
0.544376882
 40
0.5554149773
 40
0.5664181579
 40
0.58829685
 40
0.5991677683
 40
0.609987454
 40
0.6314602017
 40
0.6421102134
 40
0.6526989389
 40
0.6632239672
 40
0.6736829412
 40
0.6943933688
 40
0.7148122146
 40
0.7349168617
 40
0.7546810492
 40
0.774077267
 40
0.7930741026
 40
0.811635088
 40
0.8297186729
 40
0.8472795534
 40
0.8642669518
 40
0.880623629
 40
0.8962862028
 40
0.9111849354
 40
0.925243244
 40
0.938378266
 40
0.9505008647
 40
0.9561532475
 40
0.9615172561
 40
0.9665807168
 40
0.9713311998
 40
0.9757565765
 40
0.979845
 40
0.9835850698
 40
0.9869657175
 40
0.9899762553
 40
0.99260658
 40
0.9937765242
 40
0.994848342
 40
0.9958210939
 40
0.9966938999
 40
0.9974658832
 40
0.9981362243
 40
0.9987044138
 40
0.9989500757
 40
0.9991700484
 40
0.9993642815
 40
0.9995327267
 40
0.9996753481
 40
0.9997921142
 40
0.9998407918
 40
0.9998829938
 40
0.9999187164
 40
0.9999479556
 40
0.9999707074
 40
0.9999869681
 40
0.999992663
 40
0.9999967336
 40
0.9999991794
 40
1.0
 40
1.0
 40
1.0
 40
1.0
 10
4.196566382
 20
2.4053996894
 30
0.0
 10
4.1965661638
 20
2.4053992374
 30
0.0
 10
4.1965651596
 20
2.4053985937
 30
0.0
 10
4.196563858
 20
2.4053971184
 30
0.0
 10
4.1965609922
 20
2.4053943806
 30
0.0
 10
4.1965562205
 20
2.4053895825
 30
0.0
 10
4.1965488456
 20
2.4053823323
 30
0.0
 10
4.1965394051
 20
2.4053730007
 30
0.0
 10
4.1965278576
 20
2.4053616205
 30
0.0
 10
4.1965142193
 20
2.4053481842
 30
0.0
 10
4.1964918494
 20
2.4053261686
 30
0.0
 10
4.1964586539
 20
2.4052935405
 30
0.0
 10
4.1964125332
 20
2.4052482804
 30
0.0
 10
4.1963580433
 20
2.40519489
 30
0.0
 10
4.1962951923
 20
2.4051333985
 30
0.0
 10
4.1962239976
 20
2.4050638311
 30
0.0
 10
4.1961124668
 20
2.4049549735
 30
0.0
 10
4.1959523292
 20
2.4047989262
 30
0.0
 10
4.195735347
 20
2.4045878718
 30
0.0
 10
4.1954854555
 20
2.4043451958
 30
0.0
 10
4.1952028807
 20
2.4040710838
 30
0.0
 10
4.1948878491
 20
2.4037657377
 30
0.0
 10
4.1945406059
 20
2.4034293724
 30
0.0
 10
4.1940140392
 20
2.4029195049
 30
0.0
 10
4.1932775853
 20
2.4022065946
 30
0.0
 10
4.1923018171
 20
2.4012620949
 30
0.0
 10
4.1912049571
 20
2.4002021751
 30
0.0
 10
4.1899899962
 20
2.3990310319
 30
0.0
 10
4.1886601668
 20
2.3977527446
 30
0.0
 10
4.1872187884
 20
2.3963713174
 30
0.0
 10
4.1856694021
 20
2.3948905908
 30
0.0
 10
4.1833994115
 20
2.3927276287
 30
0.0
 10
4.1803189213
 20
2.3898063427
 30
0.0
 10
4.1763417202
 20
2.3860649959
 30
0.0
 10
4.1720118475
 20
2.3820306344
 30
0.0
 10
4.1673536685
 20
2.3777358946
 30
0.0
 10
4.1623887691
 20
2.3732125986
 30
0.0
 10
4.1571357081
 20
2.3684920046
 30
0.0
 10
4.1496306804
 20
2.3618525724
 30
0.0
 10
4.1417619007
 20
2.3550745085
 30
0.0
 10
4.1335250972
 20
2.3482187421
 30
0.0
 10
4.127017828
 20
2.3429454557
 30
0.0
 10
4.1202790072
 20
2.3376452008
 30
0.0
 10
4.113306835
 20
2.332350179
 30
0.0
 10
4.1060966247
 20
2.3270957516
 30
0.0
 10
4.0999084297
 20
2.3227998116
 30
0.0
 10
4.0948309663
 20
2.3194190933
 30
0.0
 10
4.0896298307
 20
2.316060222
 30
0.0
 10
4.0829636012
 20
2.3119716737
 30
0.0
 10
4.0761078855
 20
2.3081024815
 30
0.0
 10
4.0704768424
 20
2.3051545918
 30
0.0
 10
4.0647142498
 20
2.3023026495
 30
0.0
 10
4.0573231683
 20
2.2989791366
 30
0.0
 10
4.0497116103
 20
2.2960760304
 30
0.0
 10
4.0434727475
 20
2.2940496694
 30
0.0
 10
4.0387118302
 20
2.2926898699
 30
0.0
 10
4.0338853958
 20
2.2915066772
 30
0.0
 10
4.0290001728
 20
2.2905137357
 30
0.0
 10
4.0248890647
 20
2.2898568488
 30
0.0
 10
4.0215794606
 20
2.2894409775
 30
0.0
 10
4.0182555628
 20
2.2890997689
 30
0.0
 10
4.0140840892
 20
2.2888148255
 30
0.0
 10
4.0090662791
 20
2.2887011908
 30
0.0
 10
4.0040484771
 20
2.2888150601
 30
0.0
 10
3.9998769971
 20
2.2890998673
 30
0.0
 10
3.9965530912
 20
2.2894410061
 30
0.0
 10
3.9932435124
 20
2.289857105
 30
0.0
 10
3.9891324601
 20
2.290514286
 30
0.0
 10
3.9842473213
 20
2.2915079621
 30
0.0
 10
3.9778251489
 20
2.2930831976
 30
0.0
 10
3.9715210137
 20
2.2950122388
 30
0.0
 10
3.9653536464
 20
2.2972452551
 30
0.0
 10
3.959316167
 20
2.2996485009
 30
0.0
 10
3.953417024
 20
2.3023002932
 30
0.0
 10
3.9476553048
 20
2.3051538517
 30
0.0
 10
3.9434199021
 20
2.3073734144
 30
0.0
 10
3.9392568594
 20
2.3096666494
 30
0.0
 10
3.9338185314
 20
2.3128001546
 30
0.0
 10
3.9271957863
 20
2.3168581084
 30
0.0
 10
3.9194896328
 20
2.3219175649
 30
0.0
 10
3.9120376241
 20
2.3270981628
 30
0.0
 10
3.9048264332
 20
2.3323512265
 30
0.0
 10
3.8978528776
 20
2.3376441961
 30
0.0
 10
3.891113967
 20
2.3429444183
 30
0.0
 10
3.8846083353
 20
2.3482199569
 30
0.0
 10
3.8783366788
 20
2.3534396876
 30
0.0
 10
3.8723051219
 20
2.3585767606
 30
0.0
 10
3.8665218459
 20
2.3636037788
 30
0.0
 10
3.8609969327
 20
2.3684919824
 30
0.0
 10
3.855743827
 20
2.373212575
 30
0.0
 10
3.850778901
 20
2.3777359906
 30
0.0
 10
3.8461208815
 20
2.382031151
 30
0.0
 10
3.8417913447
 20
2.3860659614
 30
0.0
 10
3.838402115
 20
2.3892537339
 30
0.0
 10
3.8358720971
 20
2.3916476236
 30
0.0
 10
3.8341170883
 20
2.393314533
 30
0.0
 10
3.8324632766
 20
2.3948908484
 30
0.0
 10
3.830914005
 20
2.3963720545
 30
0.0
 10
3.8294727344
 20
2.3977538347
 30
0.0
 10
3.8281429013
 20
2.3990320738
 30
0.0
 10
3.8269278528
 20
2.4002027959
 30
0.0
 10
3.8258308579
 20
2.4012621972
 30
0.0
 10
3.8248549235
 20
2.4022064851
 30
0.0
 10
3.8241185832
 20
2.4029198348
 30
0.0
 10
3.823592123
 20
2.4034304141
 30
0.0
 10
3.82324491
 20
2.4037674251
 30
0.0
 10
3.8229299163
 20
2.4040734118
 30
0.0
 10
3.8226473781
 20
2.4043480348
 30
0.0
 10
3.8223975261
 20
2.4045909751
 30
0.0
 10
3.8221805422
 20
2.4048019436
 30
0.0
 10
3.8220203618
 20
2.4049576841
 30
0.0
 10
3.8219087981
 20
2.4050661776
 30
0.0
 10
3.8218375973
 20
2.4051354348
 30
0.0
 10
3.8217747388
 20
2.4051965985
 30
0.0
 10
3.8217202398
 20
2.4052496572
 30
0.0
 10
3.8216741093
 20
2.4052945951
 30
0.0
 10
3.821640902
 20
2.4053269628
 30
0.0
 10
3.8216185248
 20
2.4053487853
 30
0.0
 10
3.8216048828
 20
2.4053620922
 30
0.0
 10
3.8215933391
 20
2.4053733592
 30
0.0
 10
3.821583887
 20
2.4053825792
 30
0.0
 10
3.8215765468
 20
2.4053897643
 30
0.0
 10
3.8215717119
 20
2.4053944522
 30
0.0
 10
3.8215689388
 20
2.4053972107
 30
0.0
 10
3.8215675778
 20
2.405398463
 30
0.0
 10
3.8215668714
 20
2.4053992938
 30
0.0
 10
3.8215664342
 20
2.4053995775
 30
0.0
 10
3.821566382
 20
2.4053996894
 30
0.0
  0
LINE
  5
44B
100
AcDbEntity
  8
0
100
AcDbLine
 62
7
  6
CONTINUOUS
 10
5.274691382
 20
2.4053996894
 11
5.509066382
 21
2.1372746894
  0
SPLINE
  5
44C
100
AcDbEntity
  8
0
100
AcDbSpline
 62
7
  6
CONTINUOUS
 70
0
 71
3
 72
135
 73
131
 74
0
 42
0.0000001
 43
0.0000001
 44
0.0000000001
 40
0.0
 40
0.0
 40
0.0
 40
0.0
 40
0.0000034517
 40
0.0000136306
 40
0.0000305297
 40
0.0000541416
 40
0.0000844594
 40
0.0001214758
 40
0.0002155758
 40
0.0003363842
 40
0.000483844
 40
0.0006578968
 40
0.0008584715
 40
0.0010854877
 40
0.0013388647
 40
0.0019243788
 40
0.0026143669
 40
0.0034081596
 40
0.004305069
 40
0.0053044058
 40
0.0064054102
 40
0.0076072076
 40
0.0103095417
 40
0.0134017561
 40
0.0168716431
 40
0.0207068417
 40
0.0248949787
 40
0.0294236975
 40
0.0342805829
 40
0.0394530786
 40
0.0506925424
 40
0.0630363185
 40
0.0763836845
 40
0.0906415308
 40
0.1057260507
 40
0.1215584679
 40
0.1380648364
 40
0.1465497528
 40
0.1551788958
 40
0.1728440643
 40
0.1910104246
 40
0.2096295579
 40
0.2190952888
 40
0.2286584933
 40
0.2383151774
 40
0.2480616338
 40
0.2678073492
 40
0.2878627024
 40
0.2979981191
 40
0.3082014108
 40
0.3184696138
 40
0.3288000938
 40
0.3391897309
 40
0.3496350544
 40
0.3706799222
 40
0.391915017
 40
0.4133166861
 40
0.4348568425
 40
0.4456704371
 40
0.4565073016
 40
0.4673634505
 40
0.4727974214
 40
0.4782344986
 40
0.4891151315
 40
0.5000003659
 40
0.5108856205
 40
0.5217662264
 40
0.5272032904
 40
0.5326372772
 40
0.5434934419
 40
0.5543302071
 40
0.5651436864
 40
0.5866837671
 40
0.6080862532
 40
0.6293222939
 40
0.6503666089
 40
0.6711989428
 40
0.6815296586
 40
0.6917990478
 40
0.7020034248
 40
0.7121391396
 40
0.7222033988
 40
0.7321932803
 40
0.7421056096
 40
0.7519370652
 40
0.7616840345
 40
0.7713420961
 40
0.7809063792
 40
0.790372021
 40
0.8089891158
 40
0.8271543774
 40
0.8448211808
 40
0.8619357843
 40
0.8784406762
 40
0.8942723051
 40
0.9093574787
 40
0.923616978
 40
0.9369653319
 40
0.9493083592
 40
0.9605464144
 40
0.9657193215
 40
0.9705772566
 40
0.9751067506
 40
0.9792950146
 40
0.9831296286
 40
0.9865985622
 40
0.989690119
 40
0.9923931309
 40
0.9935958669
 40
0.9946980289
 40
0.9956985884
 40
0.9965965756
 40
0.9973910466
 40
0.9980810688
 40
0.9986659696
 40
0.9989188691
 40
0.9991453342
 40
0.9993453144
 40
0.9995187594
 40
0.9996656256
 40
0.9997858764
 40
0.9998360097
 40
0.9998794755
 40
0.9999162693
 40
0.9999463866
 40
0.9999698229
 40
0.9999865735
 40
0.9999924404
 40
0.9999966341
 40
1.0
 40
1.0
 40
1.0
 40
1.0
 10
4.230316382
 20
2.3716496894
 30
0.0
 10
4.2303158687
 20
2.3716494431
 30
0.0
 10
4.2303141461
 20
2.3716479517
 30
0.0
 10
4.2303099331
 20
2.3716452199
 30
0.0
 10
4.2303031805
 20
2.3716402699
 30
0.0
 10
4.2302936368
 20
2.3716335401
 30
0.0
 10
4.2302814309
 20
2.3716248167
 30
0.0
 10
4.2302597476
 20
2.3716093638
 30
0.0
 10
4.2302259349
 20
2.3715852104
 30
0.0
 10
4.230177316
 20
2.371550446
 30
0.0
 10
4.2301179999
 20
2.3715079685
 30
0.0
 10
4.2300480192
 20
2.3714577859
 30
0.0
 10
4.2299674069
 20
2.3713999118
 30
0.0
 10
4.229876194
 20
2.3713343682
 30
0.0
 10
4.2297334573
 20
2.3712317225
 30
0.0
 10
4.2295287922
 20
2.3710843975
 30
0.0
 10
4.2292518798
 20
2.370884864
 30
0.0
 10
4.2289333506
 20
2.3706552291
 30
0.0
 10
4.2285734253
 20
2.3703957636
 30
0.0
 10
4.2281723462
 20
2.3701067345
 30
0.0
 10
4.2277303641
 20
2.3697884492
 30
0.0
 10
4.2270602005
 20
2.3693063495
 30
0.0
 10
4.2261227021
 20
2.3686334577
 30
0.0
 10
4.2248801115
 20
2.3677440623
 30
0.0
 10
4.2234846868
 20
2.366747154
 30
0.0
 10
4.2219411491
 20
2.3656466085
 30
0.0
 10
4.220254203
 20
2.3644463686
 30
0.0
 10
4.2184283256
 20
2.3631507145
 30
0.0
 10
4.2164680115
 20
2.3617639583
 30
0.0
 10
4.2136005694
 20
2.3597429096
 30
0.0
 10
4.2097159103
 20
2.35702157
 30
0.0
 10
4.2047129592
 20
2.3535465647
 30
0.0
 10
4.1992841474
 20
2.3498120732
 30
0.0
 10
4.1934622877
 20
2.3458514647
 30
0.0
 10
4.1872754437
 20
2.3416988697
 30
0.0
 10
4.1807498083
 20
2.3373858814
 30
0.0
 10
4.1751035667
 20
2.3337169142
 30
0.0
 10
4.1704343484
 20
2.330725253
 30
0.0
 10
4.1655901572
 20
2.3276525
 30
0.0
 10
4.1593678611
 20
2.3237712495
 30
0.0
 10
4.1516929812
 20
2.3191063436
 30
0.0
 10
4.1451236438
 20
2.3152275029
 30
0.0
 10
4.1397431604
 20
2.3121272359
 30
0.0
 10
4.1356258686
 20
2.3097959385
 30
0.0
 10
4.1314489853
 20
2.3074762149
 30
0.0
 10
4.1257759655
 20
2.3043917207
 30
0.0
 10
4.1185401745
 20
2.3005915737
 30
0.0
 10
4.1111688028
 20
2.2969150511
 30
0.0
 10
4.1051537651
 20
2.2940493403
 30
0.0
 10
4.100568372
 20
2.2919371062
 30
0.0
 10
4.0959244286
 20
2.2898762101
 30
0.0
 10
4.091221637
 20
2.2878735246
 30
0.0
 10
4.086460377
 20
2.2859351329
 30
0.0
 10
4.0800197904
 20
2.2834373775
 30
0.0
 10
4.071829243
 20
2.2805075462
 30
0.0
 10
4.0617999015
 20
2.277375398
 30
0.0
 10
4.0515571775
 20
2.2746878732
 30
0.0
 10
4.0428740842
 20
2.2728718819
 30
0.0
 10
4.0358467994
 20
2.2716977322
 30
0.0
 10
4.0305347215
 20
2.2709644941
 30
0.0
 10
4.0260854616
 20
2.2704842571
 30
0.0
 10
4.0225143672
 20
2.2701822441
 30
0.0
 10
4.0189349402
 20
2.2699361088
 30
0.0
 10
4.0144519084
 20
2.2697324702
 30
0.0
 10
4.0090661957
 20
2.2696513504
 30
0.0
 10
4.0036804944
 20
2.2697327456
 30
0.0
 10
3.9991974655
 20
2.2699363695
 30
0.0
 10
3.9956180505
 20
2.2701826287
 30
0.0
 10
3.99204696
 20
2.270484709
 30
0.0
 10
3.9875976919
 20
2.2709647905
 30
0.0
 10
3.9822857253
 20
2.2716986428
 30
0.0
 10
3.9752586856
 20
2.2728739906
 30
0.0
 10
3.9665757157
 20
2.2746908164
 30
0.0
 10
3.9563317698
 20
2.2773744837
 30
0.0
 10
3.9463009594
 20
2.2805029852
 30
0.0
 10
3.9364975947
 20
2.2840118632
 30
0.0
 10
3.9284968077
 20
2.2872006167
 30
0.0
 10
3.9222089391
 20
2.2898778956
 30
0.0
 10
3.9175635185
 20
2.291936496
 30
0.0
 10
3.9129766594
 20
2.2940465585
 30
0.0
 10
3.9084489612
 20
2.2962031594
 30
0.0
 10
3.9039801149
 20
2.2984001012
 30
0.0
 10
3.899569489
 20
2.3006311852
 30
0.0
 10
3.8952166979
 20
2.3028909004
 30
0.0
 10
3.8909218247
 20
2.3051746813
 30
0.0
 10
3.8866848519
 20
2.3074775718
 30
0.0
 10
3.8825065677
 20
2.3097957703
 30
0.0
 10
3.8783880873
 20
2.3121257692
 30
0.0
 10
3.8730078628
 20
2.3152261512
 30
0.0
 10
3.8664404339
 20
2.319107184
 30
0.0
 10
3.8587664157
 20
2.3237730042
 30
0.0
 10
3.8513553543
 20
2.3283931825
 30
0.0
 10
3.8442223412
 20
2.3329408061
 30
0.0
 10
3.8373837848
 20
2.3373865575
 30
0.0
 10
3.8308586246
 20
2.3416997808
 30
0.0
 10
3.8246713022
 20
2.3458521077
 30
0.0
 10
3.818848316
 20
2.349812026
 30
0.0
 10
3.8134188816
 20
2.3535461655
 30
0.0
 10
3.8084163195
 20
2.357021396
 30
0.0
 10
3.8045324461
 20
2.3597433535
 30
0.0
 10
3.8016648442
 20
2.3617641897
 30
0.0
 10
3.7997039044
 20
2.3631507001
 30
0.0
 10
3.7978775604
 20
2.364446253
 30
0.0
 10
3.7961905324
 20
2.3656464684
 30
0.0
 10
3.7946473331
 20
2.3667470877
 30
0.0
 10
3.7932524335
 20
2.3677441081
 30
0.0
 10
3.7920101735
 20
2.3686337008
 30
0.0
 10
3.7910724446
 20
2.3693065422
 30
0.0
 10
3.7904016193
 20
2.3697885052
 30
0.0
 10
3.78995894
 20
2.3701067587
 30
0.0
 10
3.7895571281
 20
2.3703957462
 30
0.0
 10
3.7891965686
 20
2.3706551717
 30
0.0
 10
3.7888776429
 20
2.3708847615
 30
0.0
 10
3.7886006955
 20
2.3710842744
 30
0.0
 10
3.78839628
 20
2.3712316476
 30
0.0
 10
3.7882539034
 20
2.37133433
 30
0.0
 10
3.7881630247
 20
2.3713998796
 30
0.0
 10
3.7880827746
 20
2.3714577619
 30
0.0
 10
3.7880131665
 20
2.3715079553
 30
0.0
 10
3.7879542166
 20
2.3715504451
 30
0.0
 10
3.7879117604
 20
2.3715810335
 30
0.0
 10
3.7878831387
 20
2.3716016483
 30
0.0
 10
3.7878656849
 20
2.3716142147
 30
0.0
 10
3.7878509113
 20
2.3716248547
 30
0.0
 10
3.7878388115
 20
2.3716335506
 30
0.0
 10
3.7878294107
 20
2.3716403465
 30
0.0
 10
3.787823219
 20
2.3716447337
 30
0.0
 10
3.787819662
 20
2.3716473802
 30
0.0
 10
3.7878178046
 20
2.3716485585
 30
0.0
 10
3.7878169063
 20
2.3716495069
 30
0.0
 10
3.787816382
 20
2.3716496894
 30
0.0
  0
LINE
  5
44D
100
AcDbEntity
  8
0
100
AcDbLine
 62
7
  6
CONTINUOUS
 10
5.240941382
 20
2.3716496894
 11
5.509066382
 21
2.1372746894
  0
LINE
  5
44E
100
AcDbEntity
  8
0
100
AcDbLine
 62
7
  6
CONTINUOUS
 10
2.777191382
 20
1.9028996894
 11
2.509066382
 21
2.1372746894
  0
SPLINE
  5
44F
100
AcDbEntity
  8
0
100
AcDbSpline
 62
7
  6
CONTINUOUS
 70
0
 71
3
 72
18
 73
14
 74
0
 42
0.0000001
 43
0.0000001
 44
0.0000000001
 40
0.0
 40
0.0
 40
0.0
 40
0.0
 40
0.0666694633
 40
0.099956728
 40
0.1331840265
 40
0.1993765403
 40
0.2651197425
 40
0.3947860462
 40
0.521657118
 40
0.6455128826
 40
0.7663905901
 40
0.8844722051
 40
1.0
 40
1.0
 40
1.0
 40
1.0
 10
7.759066382
 20
2.6883371894
 30
0.0
 10
7.7559617598
 20
2.6883372335
 30
0.0
 10
7.751305433
 20
2.6884800538
 30
0.0
 10
7.7451206884
 20
2.6889516583
 30
0.0
 10
7.7389749119
 20
2.6896073027
 30
0.0
 10
7.7313667494
 20
2.6907694417
 30
0.0
 10
7.7194487028
 20
2.6933195315
 30
0.0
 10
7.7050665572
 20
2.6977297996
 30
0.0
 10
7.6887735084
 20
2.7047633915
 30
0.0
 10
7.6736484332
 20
2.7132292135
 30
0.0
 10
7.6597391148
 20
2.7228620254
 30
0.0
 10
7.647035965
 20
2.7334336966
 30
0.0
 10
7.6392624682
 20
2.7410628353
 30
0.0
 10
7.6355706145
 20
2.7449759865
 30
0.0
  0
SPLINE
  5
450
100
AcDbEntity
  8
0
100
AcDbSpline
 62
7
  6
CONTINUOUS
 70
0
 71
3
 72
24
 73
20
 74
0
 42
0.0000001
 43
0.0000001
 44
0.0000000001
 40
0.0
 40
0.0
 40
0.0
 40
0.0
 40
0.11550688
 40
0.2335671374
 40
0.2936472298
 40
0.354454798
 40
0.41601052
 40
0.4783261371
 40
0.5414012204
 40
0.6052190577
 40
0.6697432635
 40
0.7349137863
 40
0.7677191883
 40
0.8006521736
 40
0.8336978644
 40
0.8668401224
 40
0.9000614011
 40
0.933342632
 40
1.0
 40
1.0
 40
1.0
 40
1.0
 10
7.8825622246
 20
2.7449761047
 30
0.0
 10
7.8788704066
 20
2.7410629146
 30
0.0
 10
7.8710972283
 20
2.7334340596
 30
0.0
 10
7.8605709969
 20
2.7246742101
 30
0.0
 10
7.8515637526
 20
2.7181319203
 30
0.0
 10
7.8444638479
 20
2.7134572561
 30
0.0
 10
7.8370594614
 20
2.7090731944
 30
0.0
 10
7.8293533054
 20
2.705011824
 30
0.0
 10
7.8213529794
 20
2.7013068932
 30
0.0
 10
7.8130708838
 20
2.697994851
 30
0.0
 10
7.8045269718
 20
2.6951107606
 30
0.0
 10
7.7972259259
 20
2.6930989887
 30
0.0
 10
7.7912822622
 20
2.6917361555
 30
0.0
 10
7.7867688423
 20
2.6908393893
 30
0.0
 10
7.7822153508
 20
2.6900742837
 30
0.0
 10
7.7776276621
 20
2.6894442048
 30
0.0
 10
7.7730120443
 20
2.6889517978
 30
0.0
 10
7.7668273501
 20
2.6884801512
 30
0.0
 10
7.7621710052
 20
2.6883372625
 30
0.0
 10
7.759066382
 20
2.6883371894
 30
0.0
  0
LINE
  5
451
100
AcDbEntity
  8
0
100
AcDbLine
 62
7
  6
CONTINUOUS
 10
2.743441382
 20
1.8691496894
 11
2.509066382
 21
2.1372746894
  0
ENDSEC
  0
SECTION
  2
OBJECTS
  0
DICTIONARY
  5
C
100
AcDbDictionary
280
0
281
1
  3
ACAD_GROUP
350
D
  3
ACAD_MLINESTYLE
350
17
  3
ACAD_LAYOUT
350
1A
  3
ACAD_PLOTSETTINGS
350
19
  3
ACAD_PLOTSTYLENAME
350
E
  0
DICTIONARY
  5
D
102
{ACAD_REACTORS
330
C
102
}
100
AcDbDictionary
280
0
281
1
  0
ACDBDICTIONARYWDFLT
  5
E
102
{ACAD_REACTORS
330
C
102
}
100
AcDbDictionary
281
1
  3
Normal
350
F
100
AcDbDictionaryWithDefault
340
F
  0
DICTIONARY
  5
17
102
{ACAD_REACTORS
330
C
102
}
100
AcDbDictionary
280
0
281
1
  3
Standard
350
18
  0
DICTIONARY
  5
19
102
{ACAD_REACTORS
330
C
102
}
100
AcDbDictionary
281
1
  0
DICTIONARY
  5
1A
102
{ACAD_REACTORS
330
C
102
}
100
AcDbDictionary
281
1
  3
Model
350
452
  3
Layout1
350
453
  0
ACDBPLACEHOLDER
  5
F
102
{ACAD_REACTORS
330
E
102
}
  0
MLINESTYLE
  5
18
102
{ACAD_REACTORS
330
17
102
}
100
AcDbMlineStyle
  2
STANDARD
 70
0
  3

 62
256
 51
90.0
 52
90.0
 71
2
 49
0.5
 62
256
  6
BYLAYER
 49
-0.5
 62
256
  6
BYLAYER
  0
LAYOUT
  5
452
102
{ACAD_REACTORS
330
1A
102
}
100
AcDbPlotSettings
  1

  2
none_device
  4
ANSI_A_(11.00_x_8.50_Inches)
  6

 40
0.0
 41
0.0
 42
0.0
 43
0.0
 44
279.4
 45
215.9
 46
0.0
 47
0.0
 48
0.0
 49
0.0
140
0.0
141
0.0
142
1.0
143
1.0
 70
1024
 72
0
 73
0
 74
0
  7

 75
0
147
1.0
148
0.0
149
0.0
100
AcDbLayout
  1
Model
 70
0
 71
0
 10
0.0
 20
0.0
 11
11.0
 21
8.5
 12
0.0
 22
0.0
 32
0.0
 14
0.0
 24
0.0
 34
0.0
 15
0.0
 25
0.0
 35
0.0
146
0.0
 13
0.0
 23
0.0
 33
0.0
 16
1.0
 26
0.0
 36
0.0
 17
0.0
 27
1.0
 37
0.0
 76
0
330
202
345
0
346
0
  0
LAYOUT
  5
453
102
{ACAD_REACTORS
330
1A
102
}
100
AcDbPlotSettings
  1

  2
none_device
  4
ANSI_A_(11.00_x_8.50_Inches)
  6

 40
0.0
 41
0.0
 42
0.0
 43
0.0
 44
279.4
 45
215.9
 46
0.0
 47
0.0
 48
0.0
 49
0.0
140
0.0
141
0.0
142
1.0
143
1.0
 70
0
 72
0
 73
0
 74
0
  7

 75
0
147
1.0
148
0.0
149
0.0
100
AcDbLayout
  1
Layout1
 70
0
 71
1
 10
0.0
 20
0.0
 11
11.0
 21
8.5
 12
0.0
 22
0.0
 32
0.0
 14
0.0
 24
0.0
 34
0.0
 15
0.0
 25
0.0
 35
0.0
146
0.0
 13
0.0
 23
0.0
 33
0.0
 16
1.0
 26
0.0
 36
0.0
 17
0.0
 27
1.0
 37
0.0
 76
0
330
203
345
0
346
0
  0
ENDSEC
  0
EOF
