999
DXF file: 1400-5412_top.dxf
999
Pro/ENGINEER 2018400 by Parametric Technology Corporation
  0
SECTION
  2
HEADER
  9
$ACADVER
  1
AC1027
  9
$DWGCODEPAGE
  3
ANSI_1252
  9
$EXTMAX
 10
11.0
 20
8.5
 30
0.0
  9
$EXTMIN
 10
0.0
 20
0.0
 30
0.0
  9
$LIMMIN
 10
0.0
 20
0.0
  9
$LIMMAX
 10
11.0
 20
8.5
  9
$VIEWCTR
 10
5.5
 20
4.25
  9
$VIEWSIZE
 40
8.5
  9
$CLAYER
  8
0
  9
$LTSCALE
 40
0.605
  9
$CELTYPE
  6
BYLAYER
  9
$DIMSCALE
 40
1.0
  9
$DIMASZ
 40
0.1
  9
$DIMEXO
 40
0.0625
  9
$DIMDLI
 40
0.418
  9
$DIMEXE
 40
0.125
  9
$DIMCEN
 40
0.099
  9
$DIMLFAC
 40
1.0
  9
$DIMBLK
  1
_FILLED
  9
$DIMALT
 70
1
  9
$DIMALTD
 70
1
  9
$DIMALTTD
 70
2
  9
$DIMALTF
 40
25.4
  9
$DIMTXT
 40
0.08
  9
$DIMTOL
 70
1
  9
$DIMLIM
 70
0
  9
$DIMTFAC
 40
1.0
  9
$DIMTP
 40
0.01
  9
$DIMTM
 40
0.01
  9
$DIMGAP
 40
0.09
  9
$DIMDSEP
 70
46
  9
$AUNITS
 70
0
  9
$PDMODE
 70
3
  9
$PDSIZE
 40
0.3125
  9
$HANDSEED
  5
465
  9
$TILEMODE
 70
1
  9
$MEASUREMENT
 70
0
  9
$INSUNITS
 70
1
  0
ENDSEC
  0
SECTION
  2
CLASSES
  0
CLASS
  1
ACDBDICTIONARYWDFLT
  2
AcDbDictionaryWithDefault
  3
AutoCAD 2000
 90
0
 91
1
280
0
281
0
  0
CLASS
  1
ACDBPLACEHOLDER
  2
AcDbPlaceHolder
  3
AutoCAD 2000
 90
0
 91
1
280
0
281
0
  0
CLASS
  1
LAYOUT
  2
AcDbLayout
  3
AutoCAD 2000
 90
0
 91
0
280
0
281
0
  0
ENDSEC
  0
SECTION
  2
TABLES
  0
TABLE
  2
VPORT
  5
8
100
AcDbSymbolTable
 70
2
  0
VPORT
  5
1F4
100
AcDbSymbolTableRecord
100
AcDbViewportTableRecord
  2
*ACTIVE
 70
0
 10
0.0
 20
0.0
 11
1.0
 21
1.0
 12
5.5
 22
4.25
 13
0.0
 23
0.0
 14
1.0
 24
1.0
 15
0.0
 25
0.0
 16
0.0
 26
0.0
 36
1.0
 17
0.0
 27
0.0
 37
0.0
 40
8.5
 41
1.2941176471
 42
50.0
 43
0.0
 44
0.0
 50
0.0
 51
0.0
 71
0
 72
100
 73
1
 74
1
 75
0
 76
0
 77
0
 78
0
  0
ENDTAB
  0
TABLE
  2
LTYPE
  5
5
100
AcDbSymbolTable
 70
6
  0
LTYPE
  5
14
100
AcDbSymbolTableRecord
100
AcDbLinetypeTableRecord
  2
BYBLOCK
 70
0
  3

 72
65
 73
0
 40
0.0
  0
LTYPE
  5
15
100
AcDbSymbolTableRecord
100
AcDbLinetypeTableRecord
  2
BYLAYER
 70
0
  3

 72
65
 73
0
 40
0.0
  0
LTYPE
  5
16
100
AcDbSymbolTableRecord
100
AcDbLinetypeTableRecord
  2
CONTINUOUS
 70
64
  3
Solid line
 72
65
 73
0
 40
0.0
  0
LTYPE
  5
1F5
100
AcDbSymbolTableRecord
100
AcDbLinetypeTableRecord
  2
CENTER
 70
64
  3
____ _ ____ _ ____ _ ____ _ ____ _ ____ _ ____
 72
65
 73
4
 40
0.6
 49
0.375
 74
0
 49
-0.075
 74
0
 49
0.075
 74
0
 49
-0.075
 74
0
  0
LTYPE
  5
1F6
100
AcDbSymbolTableRecord
100
AcDbLinetypeTableRecord
  2
HIDDEN
 70
64
  3
- - - - - - - - - - - - - - - - - - - -
 72
65
 73
2
 40
0.2
 49
0.1
 74
0
 49
-0.1
 74
0
  0
LTYPE
  5
1F7
100
AcDbSymbolTableRecord
100
AcDbLinetypeTableRecord
  2
PHANTOM
 70
64
  3
_____ _ _ _____ _ _ _____ _ _ _____
 72
65
 73
6
 40
0.8
 49
0.45
 74
0
 49
-0.05
 74
0
 49
0.1
 74
0
 49
-0.05
 74
0
 49
0.1
 74
0
 49
-0.05
 74
0
  0
LTYPE
  5
1F8
100
AcDbSymbolTableRecord
100
AcDbLinetypeTableRecord
  2
DOT
 70
64
  3
. . . . . . . . . . . . . . . . . . . .
 72
65
 73
2
 40
0.2
 49
0.1
 74
0
 49
-0.1
 74
0
  0
LTYPE
  5
1F9
100
AcDbSymbolTableRecord
100
AcDbLinetypeTableRecord
  2
DASHED
 70
64
  3
- - - - - - - - - - - - - - - - - - - -
 72
65
 73
2
 40
0.2
 49
0.1
 74
0
 49
-0.1
 74
0
  0
ENDTAB
  0
TABLE
  2
LAYER
  5
2
100
AcDbSymbolTable
 70
36
  0
LAYER
  5
10
100
AcDbSymbolTableRecord
100
AcDbLayerTableRecord
  2
0
 70
0
 62
7
  6
CONTINUOUS
370
-3
390
F
  0
LAYER
  5
1FA
100
AcDbSymbolTableRecord
100
AcDbLayerTableRecord
  2
DEFAULT_1
 70
0
 62
7
  6
CENTER
370
-3
390
F
  0
LAYER
  5
1FB
100
AcDbSymbolTableRecord
100
AcDbLayerTableRecord
  2
DEFAULT_2
 70
0
 62
8
  6
HIDDEN
370
-3
390
F
  0
LAYER
  5
1FC
100
AcDbSymbolTableRecord
100
AcDbLayerTableRecord
  2
DEFAULT_3
 70
0
 62
7
  6
PHANTOM
370
-3
390
F
  0
LAYER
  5
1FD
100
AcDbSymbolTableRecord
100
AcDbLayerTableRecord
  2
DEFAULT_COORDINATE_SYSTEM
 70
0
 62
7
  6
CONTINUOUS
370
-3
390
F
  0
LAYER
  5
1FE
100
AcDbSymbolTableRecord
100
AcDbLayerTableRecord
  2
DEFAULT_DATUM_AXES
 70
0
 62
7
  6
CONTINUOUS
370
-3
390
F
  0
LAYER
  5
1FF
100
AcDbSymbolTableRecord
100
AcDbLayerTableRecord
  2
DEFAULT_DATUM_PLANES
 70
0
 62
7
  6
CONTINUOUS
370
-3
390
F
  0
ENDTAB
  0
TABLE
  2
STYLE
  5
3
100
AcDbSymbolTable
 70
1
  0
STYLE
  5
11
100
AcDbSymbolTableRecord
100
AcDbTextStyleTableRecord
  2
STANDARD
 70
0
 40
0.0
 41
0.8
 50
0.0
 71
0
 42
0.2
  3
txt
  4

  0
STYLE
  5
200
100
AcDbSymbolTableRecord
100
AcDbTextStyleTableRecord
  2
TEXTSTYLE_1
 70
0
 40
0.0
 41
0.8
 50
0.0
 71
0
 42
0.2
  3
gdt
  4

  0
ENDTAB
  0
TABLE
  2
VIEW
  5
6
100
AcDbSymbolTable
 70
0
  0
ENDTAB
  0
TABLE
  2
UCS
  5
7
100
AcDbSymbolTable
 70
0
  0
ENDTAB
  0
TABLE
  2
APPID
  5
9
100
AcDbSymbolTable
 70
1
  0
APPID
  5
201
100
AcDbSymbolTableRecord
100
AcDbRegAppTableRecord
  2
ACAD
 70
0
  0
ENDTAB
  0
TABLE
  2
BLOCK_RECORD
  5
1
100
AcDbSymbolTable
 70
0
  0
BLOCK_RECORD
  5
202
100
AcDbSymbolTableRecord
100
AcDbBlockTableRecord
  2
*Model_Space
  0
BLOCK_RECORD
  5
203
100
AcDbSymbolTableRecord
100
AcDbBlockTableRecord
  2
*Paper_Space
  0
BLOCK_RECORD
  5
204
100
AcDbSymbolTableRecord
100
AcDbBlockTableRecord
  2
_FILLED
  0
ENDTAB
  0
TABLE
  2
DIMSTYLE
  5
A
100
AcDbSymbolTable
 70
1
100
AcDbDimStyleTable
 71
0
  0
DIMSTYLE
105
205
100
AcDbSymbolTableRecord
100
AcDbDimStyleTableRecord
  2
STANDARD
 70
0
  3

  4

 40
1.0
 41
0.1
 42
0.0625
 43
0.38
 44
0.125
 45
0.0
 46
0.0
 47
0.01
 48
0.01
140
0.08
141
0.09
142
0.0
143
25.4
144
1.0
145
0.0
146
1.0
147
0.09
 71
1.0
 72
0.0
 73
1
 74
1
 75
0
 76
0
 77
0
 78
4
 79
1
170
1
171
1
172
0
173
0
174
0
175
0
176
0
177
0
178
0
270
2
179
2
271
2
272
2
273
2
274
2
275
0
280
0
281
0
282
0
283
1
284
4
285
0
286
0
287
3
288
0
340
11
278
46
341
204
342
204
343
204
344
204
  0
ENDTAB
  0
ENDSEC
  0
SECTION
  2
BLOCKS
  0
BLOCK
  5
20
100
AcDbEntity
  8
0
100
AcDbBlockBegin
  2
*Model_Space
 70
0
 10
0.0
 20
0.0
 30
0.0
  3
*Model_Space
  1

  0
ENDBLK
  5
21
100
AcDbEntity
  8
0
100
AcDbBlockEnd
  0
BLOCK
  5
1C
100
AcDbEntity
  8
0
100
AcDbBlockBegin
  2
*Paper_Space
 70
0
 10
0.0
 20
0.0
 30
0.0
  3
*Paper_Space
  1

  0
ENDBLK
  5
1D
100
AcDbEntity
  8
0
100
AcDbBlockEnd
  0
BLOCK
  5
206
100
AcDbEntity
  8
0
100
AcDbBlockBegin
  2
_FILLED
 70
64
 10
0.0
 20
0.0
  3
_FILLED
  1

  0
SOLID
  5
207
100
AcDbEntity
  8
0
  6
BYBLOCK
 62
0
100
AcDbTrace
 10
0.0
 20
0.0
 11
-1.0
 21
0.2
 12
-1.0
 22
-0.2
 13
-1.0
 23
-0.2
  0
ENDBLK
  5
208
100
AcDbEntity
  8
0
  6
BYBLOCK
 62
0
100
AcDbBlockEnd
  0
ENDSEC
  0
SECTION
  2
ENTITIES
  0
MTEXT
  5
209
100
AcDbEntity
  8
0
100
AcDbMText
 62
2
  6
CONTINUOUS
  7
STANDARD
 71
3
 72
1
 10
5.061878882
 20
1.8883135317
 30
0.0
 11
1.0
 21
0.0
 31
0.0
 73
2
 44
0.9
  1
SCALE  .375
 40
0.08
 41
0.704
  0
LINE
  5
20A
100
AcDbEntity
  8
0
100
AcDbLine
 62
7
  6
CONTINUOUS
 10
0.0
 20
0.0
 11
0.0
 21
8.5
  0
LINE
  5
20B
100
AcDbEntity
  8
0
100
AcDbLine
 62
7
  6
CONTINUOUS
 10
0.0
 20
0.0
 11
11.0
 21
0.0
  0
LINE
  5
20C
100
AcDbEntity
  8
0
100
AcDbLine
 62
7
  6
CONTINUOUS
 10
0.0
 20
8.5
 11
11.0
 21
8.5
  0
LINE
  5
20D
100
AcDbEntity
  8
0
100
AcDbLine
 62
7
  6
CONTINUOUS
 10
11.0
 20
0.0
 11
11.0
 21
8.5
  0
LINE
  5
20E
100
AcDbEntity
  8
0
100
AcDbLine
 62
7
  6
CONTINUOUS
 10
1.993441382
 20
5.6292510317
 11
1.993441382
 21
5.4623760317
  0
LINE
  5
20F
100
AcDbEntity
  8
0
100
AcDbLine
 62
7
  6
CONTINUOUS
 10
2.425628882
 20
6.0614385317
 11
2.425628882
 21
5.6590060203
  0
LINE
  5
210
100
AcDbEntity
  8
0
100
AcDbLine
 62
7
  6
CONTINUOUS
 10
2.425628882
 20
5.0301885317
 11
2.425628882
 21
5.4326210431
  0
LINE
  5
211
100
AcDbEntity
  8
0
100
AcDbLine
 62
7
  6
CONTINUOUS
 10
2.592503882
 20
6.0614385317
 11
2.592503882
 21
5.6590060203
  0
LINE
  5
212
100
AcDbEntity
  8
0
100
AcDbLine
 62
7
  6
CONTINUOUS
 10
2.592503882
 20
5.0301885317
 11
2.592503882
 21
5.4326210431
  0
LINE
  5
213
100
AcDbEntity
  8
0
100
AcDbLine
 62
7
  6
CONTINUOUS
 10
3.024691382
 20
5.6292510317
 11
3.024691382
 21
5.4623760317
  0
LINE
  5
214
100
AcDbEntity
  8
0
100
AcDbLine
 62
7
  6
CONTINUOUS
 10
3.821566382
 20
2.1708135317
 11
3.821566382
 21
5.5458135317
  0
LINE
  5
215
100
AcDbEntity
  8
0
100
AcDbLine
 62
7
  6
CONTINUOUS
 10
3.821566382
 20
2.8270635317
 11
4.196566382
 21
2.8270635317
  0
LINE
  5
216
100
AcDbEntity
  8
0
100
AcDbLine
 62
7
  6
CONTINUOUS
 10
4.196566382
 20
2.1708135317
 11
4.196566382
 21
5.5458135317
  0
LINE
  5
217
100
AcDbEntity
  8
0
100
AcDbLine
 62
7
  6
CONTINUOUS
 10
4.993441382
 20
5.4623760317
 11
4.993441382
 21
5.6292510317
  0
LINE
  5
218
100
AcDbEntity
  8
0
100
AcDbLine
 62
7
  6
CONTINUOUS
 10
5.425628882
 20
6.0614385317
 11
5.425628882
 21
5.659006357
  0
LINE
  5
219
100
AcDbEntity
  8
0
100
AcDbLine
 62
7
  6
CONTINUOUS
 10
5.425628882
 20
5.0301885317
 11
5.425628882
 21
5.4326207064
  0
LINE
  5
21A
100
AcDbEntity
  8
0
100
AcDbLine
 62
7
  6
CONTINUOUS
 10
7.8856383517
 20
5.0602481205
 11
7.8856430644
 21
5.0602492805
  0
LINE
  5
21B
100
AcDbEntity
  8
0
100
AcDbLine
 62
7
  6
CONTINUOUS
 10
7.8856383682
 20
5.0602481249
 11
7.8856430644
 21
5.0602492805
  0
LINE
  5
21C
100
AcDbEntity
  8
0
100
AcDbLine
 62
7
  6
CONTINUOUS
 10
7.8848668738
 20
5.0600583315
 11
7.8849800343
 21
5.0600861653
  0
LWPOLYLINE
  5
21D
100
AcDbEntity
  8
0
100
AcDbPolyline
 62
7
  6
CONTINUOUS
 90
9
 70
0
 10
7.8834790631
 20
5.0597171084
 10
7.8836643425
 20
5.0597626497
 10
7.8838422596
 20
5.0598063848
 10
7.8840128409
 20
5.0598483202
 10
7.8841754723
 20
5.0598883056
 10
7.8843300625
 20
5.0599263166
 10
7.8844767031
 20
5.0599623751
 10
7.8846150544
 20
5.0599963985
 10
7.8848668738
 20
5.0600583315
  0
LWPOLYLINE
  5
21E
100
AcDbEntity
  8
0
100
AcDbPolyline
 62
7
  6
CONTINUOUS
 90
4
 70
0
 10
7.8826689828
 20
5.0595180459
 10
7.8828814078
 20
5.0595702372
 10
7.883087191
 20
5.0596208026
 10
7.8834790631
 20
5.0597171084
  0
LWPOLYLINE
  5
21F
100
AcDbEntity
  8
0
100
AcDbPolyline
 62
7
  6
CONTINUOUS
 90
5
 70
0
 10
7.8777708911
 20
5.0583161739
 10
7.8780490472
 20
5.0583843463
 10
7.8783270831
 20
5.0584524987
 10
7.878604142
 20
5.0585204215
 10
7.8791553516
 20
5.0586555824
  0
LINE
  5
220
100
AcDbEntity
  8
0
100
AcDbLine
 62
7
  6
CONTINUOUS
 10
7.8703409899
 20
5.0564987592
 11
7.8856383682
 21
5.0602481249
  0
LINE
  5
221
100
AcDbEntity
  8
0
100
AcDbLine
 62
7
  6
CONTINUOUS
 10
7.8702235623
 20
5.0564700903
 11
7.8703409804
 21
5.056498757
  0
LINE
  5
222
100
AcDbEntity
  8
0
100
AcDbLine
 62
7
  6
CONTINUOUS
 10
7.8700920212
 20
5.0564379777
 11
7.8702235623
 21
5.0564700903
  0
LINE
  5
223
100
AcDbEntity
  8
0
100
AcDbLine
 62
7
  6
CONTINUOUS
 10
5.592503882
 20
6.0614385317
 11
5.592503882
 21
5.659006357
  0
LINE
  5
224
100
AcDbEntity
  8
0
100
AcDbLine
 62
7
  6
CONTINUOUS
 10
5.592503882
 20
5.0301885317
 11
5.592503882
 21
5.4326207064
  0
LINE
  5
225
100
AcDbEntity
  8
0
100
AcDbLine
 62
7
  6
CONTINUOUS
 10
7.824912282
 20
5.0482957572
 11
7.8396039417
 21
5.0504738322
  0
LINE
  5
226
100
AcDbEntity
  8
0
100
AcDbLine
 62
7
  6
CONTINUOUS
 10
6.024691382
 20
5.4623760317
 11
6.024691382
 21
5.6292510317
  0
LINE
  5
227
100
AcDbEntity
  8
0
100
AcDbLine
 62
7
  6
CONTINUOUS
 10
3.821566382
 20
4.8895635317
 11
4.196566382
 21
4.8895635317
  0
LINE
  5
228
100
AcDbEntity
  8
0
100
AcDbLine
 62
7
  6
CONTINUOUS
 10
2.425628882
 20
5.0301885317
 11
2.592503882
 21
5.0301885317
  0
LINE
  5
229
100
AcDbEntity
  8
0
100
AcDbLine
 62
7
  6
CONTINUOUS
 10
5.425628882
 20
5.0301885317
 11
5.592503882
 21
5.0301885317
  0
LWPOLYLINE
  5
22A
100
AcDbEntity
  8
0
100
AcDbPolyline
 62
7
  6
CONTINUOUS
 90
75
 70
0
 10
7.8818394004
 20
5.7976777231
 10
7.8823293347
 20
5.7977649153
 10
7.8828084754
 20
5.7978524639
 10
7.8832772165
 20
5.7979404254
 10
7.8837357506
 20
5.798028822
 10
7.8841843272
 20
5.7981176895
 10
7.8846234512
 20
5.7982071187
 10
7.8850533279
 20
5.7982971461
 10
7.8854742046
 20
5.7983878196
 10
7.8858866705
 20
5.7984792675
 10
7.8862909249
 20
5.7985715402
 10
7.8866872303
 20
5.798664705
 10
7.8870762887
 20
5.7987589414
 10
7.8874583072
 20
5.7988543219
 10
7.8878335401
 20
5.7989509356
 10
7.8882027782
 20
5.7990490221
 10
7.8885663291
 20
5.7991487116
 10
7.8889243353
 20
5.7992500962
 10
7.8892773775
 20
5.7993534025
 10
7.8896257132
 20
5.7994587791
 10
7.8899695551
 20
5.7995663702
 10
7.8903094685
 20
5.7996764447
 10
7.8906456649
 20
5.799789176
 10
7.8909784073
 20
5.7999047656
 10
7.8913083759
 20
5.8000235807
 10
7.8916356724
 20
5.800145805
 10
7.8919606313
 20
5.8002717223
 10
7.8922842738
 20
5.8004019195
 10
7.8926067291
 20
5.8005366721
 10
7.8929281812
 20
5.8006762956
 10
7.8932496844
 20
5.800821528
 10
7.8935713677
 20
5.8009727527
 10
7.8938932422
 20
5.801130321
 10
7.8942161162
 20
5.8012950193
 10
7.8945403119
 20
5.8014674634
 10
7.8948654299
 20
5.8016479205
 10
7.8951911551
 20
5.8018367034
 10
7.8955176968
 20
5.802034454
 10
7.8958446061
 20
5.8022414515
 10
7.896170603
 20
5.8024574067
 10
7.8964955599
 20
5.8026827363
 10
7.8968192606
 20
5.8029178195
 10
7.8971403442
 20
5.8031621644
 10
7.8974584022
 20
5.8034159104
 10
7.8977734023
 20
5.8036795059
 10
7.8980845651
 20
5.803952778
 10
7.8983915615
 20
5.804235906
 10
7.8986941268
 20
5.8045291375
 10
7.8989915658
 20
5.8048322921
 10
7.8992834468
 20
5.8051454127
 10
7.8995694928
 20
5.8054687096
 10
7.899849219
 20
5.8058021667
 10
7.9001221318
 20
5.8061457369
 10
7.9003878993
 20
5.8064995717
 10
7.900646225
 20
5.8068639041
 10
7.9008966186
 20
5.8072387221
 10
7.901138598
 20
5.8076240226
 10
7.9013718054
 20
5.8080200244
 10
7.9015958683
 20
5.8084269909
 10
7.9018100364
 20
5.8088445157
 10
7.902013403
 20
5.8092717411
 10
7.902205517
 20
5.8097086289
 10
7.9023857939
 20
5.8101548328
 10
7.9025532901
 20
5.8106089088
 10
7.902707592
 20
5.8110705357
 10
7.9028483027
 20
5.8115394071
 10
7.9029747264
 20
5.8120139861
 10
7.9030865696
 20
5.8124938139
 10
7.9031835802
 20
5.8129785401
 10
7.9032653447
 20
5.8134667128
 10
7.9033317126
 20
5.8139578631
 10
7.9033825514
 20
5.8144515418
 10
7.9034176861
 20
5.8149462824
 10
7.9034370981
 20
5.8154412717
 10
7.9034413616
 20
5.8158066048
  0
LINE
  5
22B
100
AcDbEntity
  8
0
100
AcDbLine
 62
7
  6
CONTINUOUS
 10
7.911853018
 20
5.0678922226
 11
7.606279746
 21
5.0678922226
  0
LINE
  5
22C
100
AcDbEntity
  8
0
100
AcDbLine
 62
7
  6
CONTINUOUS
 10
7.916566359
 20
5.0700064451
 11
7.601566405
 21
5.0700064451
  0
LINE
  5
22D
100
AcDbEntity
  8
0
100
AcDbLine
 62
7
  6
CONTINUOUS
 10
7.927816382
 20
5.0812564451
 11
7.590316382
 21
5.0812564451
  0
LINE
  5
22E
100
AcDbEntity
  8
0
100
AcDbLine
 62
7
  6
CONTINUOUS
 10
7.564066404
 20
5.0962564451
 11
7.95406636
 21
5.0962564451
  0
LINE
  5
22F
100
AcDbEntity
  8
0
100
AcDbLine
 62
7
  6
CONTINUOUS
 10
7.552816382
 20
5.1075064451
 11
7.965316382
 21
5.1075064451
  0
LINE
  5
230
100
AcDbEntity
  8
0
100
AcDbLine
 62
7
  6
CONTINUOUS
 10
7.9793290093
 20
5.1468814451
 11
7.5388600923
 21
5.1468814451
  0
LINE
  5
231
100
AcDbEntity
  8
0
100
AcDbLine
 62
7
  6
CONTINUOUS
 10
7.9793290093
 20
5.2575064451
 11
7.9792726717
 21
5.2575064451
  0
LINE
  5
232
100
AcDbEntity
  8
0
100
AcDbLine
 62
7
  6
CONTINUOUS
 10
7.9787813488
 20
5.2575064451
 11
7.9786129009
 21
5.2575064451
  0
LINE
  5
233
100
AcDbEntity
  8
0
100
AcDbLine
 62
7
  6
CONTINUOUS
 10
7.9776316018
 20
5.2575064451
 11
7.9773513684
 21
5.2575064451
  0
LINE
  5
234
100
AcDbEntity
  8
0
100
AcDbLine
 62
7
  6
CONTINUOUS
 10
7.9758827827
 20
5.2575064451
 11
7.975491532
 21
5.2575064451
  0
LINE
  5
235
100
AcDbEntity
  8
0
100
AcDbLine
 62
7
  6
CONTINUOUS
 10
7.9735396849
 20
5.2575064451
 11
7.9730384892
 21
5.2575064451
  0
LINE
  5
236
100
AcDbEntity
  8
0
100
AcDbLine
 62
7
  6
CONTINUOUS
 10
7.9706087307
 20
5.2575064451
 11
7.9699971062
 21
5.2575064451
  0
LINE
  5
237
100
AcDbEntity
  8
0
100
AcDbLine
 62
7
  6
CONTINUOUS
 10
7.9671000718
 20
5.2575064451
 11
7.9663812868
 21
5.2575064451
  0
LINE
  5
238
100
AcDbEntity
  8
0
100
AcDbLine
 62
7
  6
CONTINUOUS
 10
7.9630169766
 20
5.2575064451
 11
7.962195374
 21
5.2575064451
  0
LINE
  5
239
100
AcDbEntity
  8
0
100
AcDbLine
 62
7
  6
CONTINUOUS
 10
7.958376985
 20
5.2575064451
 11
7.9574526988
 21
5.2575064451
  0
LINE
  5
23A
100
AcDbEntity
  8
0
100
AcDbLine
 62
7
  6
CONTINUOUS
 10
7.953190697
 20
5.2575064451
 11
7.9521662606
 21
5.2575064451
  0
LINE
  5
23B
100
AcDbEntity
  8
0
100
AcDbLine
 62
7
  6
CONTINUOUS
 10
7.9474723277
 20
5.2575064451
 11
7.9463505489
 21
5.2575064451
  0
LINE
  5
23C
100
AcDbEntity
  8
0
100
AcDbLine
 62
7
  6
CONTINUOUS
 10
7.9412375508
 20
5.2575064451
 11
7.9400178341
 21
5.2575064451
  0
LINE
  5
23D
100
AcDbEntity
  8
0
100
AcDbLine
 62
7
  6
CONTINUOUS
 10
7.9345073474
 20
5.2575064451
 11
7.9331964745
 21
5.2575064451
  0
LINE
  5
23E
100
AcDbEntity
  8
0
100
AcDbLine
 62
7
  6
CONTINUOUS
 10
7.9272884991
 20
5.2575064451
 11
7.9258941661
 21
5.2575064451
  0
LINE
  5
23F
100
AcDbEntity
  8
0
100
AcDbLine
 62
7
  6
CONTINUOUS
 10
7.9196124578
 20
5.2575064451
 11
7.9181345943
 21
5.2575064451
  0
LINE
  5
240
100
AcDbEntity
  8
0
100
AcDbLine
 62
7
  6
CONTINUOUS
 10
7.9114963708
 20
5.2575064451
 11
7.9099390276
 21
5.2575064451
  0
LINE
  5
241
100
AcDbEntity
  8
0
100
AcDbLine
 62
7
  6
CONTINUOUS
 10
7.9029624838
 20
5.2575064451
 11
7.9013299295
 21
5.2575064451
  0
LINE
  5
242
100
AcDbEntity
  8
0
100
AcDbLine
 62
7
  6
CONTINUOUS
 10
7.8940341876
 20
5.2575064451
 11
7.8923257731
 21
5.2575064451
  0
LINE
  5
243
100
AcDbEntity
  8
0
100
AcDbLine
 62
7
  6
CONTINUOUS
 10
7.8847412388
 20
5.2575064451
 11
7.8829665955
 21
5.2575064451
  0
LINE
  5
244
100
AcDbEntity
  8
0
100
AcDbLine
 62
7
  6
CONTINUOUS
 10
7.8750932688
 20
5.2575064451
 11
7.8732626923
 21
5.2575064451
  0
LINE
  5
245
100
AcDbEntity
  8
0
100
AcDbLine
 62
7
  6
CONTINUOUS
 10
7.865132562
 20
5.2575064451
 11
7.8632457849
 21
5.2575064451
  0
LINE
  5
246
100
AcDbEntity
  8
0
100
AcDbLine
 62
7
  6
CONTINUOUS
 10
7.8548811352
 20
5.2575064451
 11
7.852943329
 21
5.2575064451
  0
LINE
  5
247
100
AcDbEntity
  8
0
100
AcDbLine
 62
7
  6
CONTINUOUS
 10
7.8443670869
 20
5.2575064451
 11
7.8423835629
 21
5.2575064451
  0
LINE
  5
248
100
AcDbEntity
  8
0
100
AcDbLine
 62
7
  6
CONTINUOUS
 10
7.8336192352
 20
5.2575064451
 11
7.8315893545
 21
5.2575064451
  0
LINE
  5
249
100
AcDbEntity
  8
0
100
AcDbLine
 62
7
  6
CONTINUOUS
 10
7.8226731996
 20
5.2575064451
 11
7.8206085004
 21
5.2575064451
  0
LINE
  5
24A
100
AcDbEntity
  8
0
100
AcDbLine
 62
7
  6
CONTINUOUS
 10
7.8115405184
 20
5.2575064451
 11
7.809452888
 21
5.2575064451
  0
LINE
  5
24B
100
AcDbEntity
  8
0
100
AcDbLine
 62
7
  6
CONTINUOUS
 10
7.8002701696
 20
5.2575064451
 11
7.7981591696
 21
5.2575064451
  0
LINE
  5
24C
100
AcDbEntity
  8
0
100
AcDbLine
 62
7
  6
CONTINUOUS
 10
7.7888868841
 20
5.2575064451
 11
7.7867583006
 21
5.2575064451
  0
LINE
  5
24D
100
AcDbEntity
  8
0
100
AcDbLine
 62
7
  6
CONTINUOUS
 10
7.7774218626
 20
5.2575064451
 11
7.77528153
 21
5.2575064451
  0
LINE
  5
24E
100
AcDbEntity
  8
0
100
AcDbLine
 62
7
  6
CONTINUOUS
 10
7.76590653
 20
5.2575064451
 11
7.763753882
 21
5.2575064451
  0
LINE
  5
24F
100
AcDbEntity
  8
0
100
AcDbLine
 62
7
  6
CONTINUOUS
 10
7.754378882
 20
5.2575064451
 11
7.7522262339
 21
5.2575064451
  0
LINE
  5
250
100
AcDbEntity
  8
0
100
AcDbLine
 62
7
  6
CONTINUOUS
 10
7.7428512339
 20
5.2575064451
 11
7.7407109014
 21
5.2575064451
  0
LINE
  5
251
100
AcDbEntity
  8
0
100
AcDbLine
 62
7
  6
CONTINUOUS
 10
7.7313744633
 20
5.2575064451
 11
7.7292458799
 21
5.2575064451
  0
LINE
  5
252
100
AcDbEntity
  8
0
100
AcDbLine
 62
7
  6
CONTINUOUS
 10
7.7199735944
 20
5.2575064451
 11
7.7178625944
 21
5.2575064451
  0
LINE
  5
253
100
AcDbEntity
  8
0
100
AcDbLine
 62
7
  6
CONTINUOUS
 10
7.708679876
 20
5.2575064451
 11
7.7065922456
 21
5.2575064451
  0
LINE
  5
254
100
AcDbEntity
  8
0
100
AcDbLine
 62
7
  6
CONTINUOUS
 10
7.6975242636
 20
5.2575064451
 11
7.6954595643
 21
5.2575064451
  0
LINE
  5
255
100
AcDbEntity
  8
0
100
AcDbLine
 62
7
  6
CONTINUOUS
 10
7.6865434095
 20
5.2575064451
 11
7.6845135288
 21
5.2575064451
  0
LINE
  5
256
100
AcDbEntity
  8
0
100
AcDbLine
 62
7
  6
CONTINUOUS
 10
7.6757492011
 20
5.2575064451
 11
7.6737656771
 21
5.2575064451
  0
LINE
  5
257
100
AcDbEntity
  8
0
100
AcDbLine
 62
7
  6
CONTINUOUS
 10
7.665189435
 20
5.2575064451
 11
7.6632516287
 21
5.2575064451
  0
LINE
  5
258
100
AcDbEntity
  8
0
100
AcDbLine
 62
7
  6
CONTINUOUS
 10
7.6548869791
 20
5.2575064451
 11
7.6530002019
 21
5.2575064451
  0
LINE
  5
259
100
AcDbEntity
  8
0
100
AcDbLine
 62
7
  6
CONTINUOUS
 10
7.6448700717
 20
5.2575064451
 11
7.6430394951
 21
5.2575064451
  0
LINE
  5
25A
100
AcDbEntity
  8
0
100
AcDbLine
 62
7
  6
CONTINUOUS
 10
7.6351661685
 20
5.2575064451
 11
7.6333915252
 21
5.2575064451
  0
LINE
  5
25B
100
AcDbEntity
  8
0
100
AcDbLine
 62
7
  6
CONTINUOUS
 10
7.6258069908
 20
5.2575064451
 11
7.6240985764
 21
5.2575064451
  0
LINE
  5
25C
100
AcDbEntity
  8
0
100
AcDbLine
 62
7
  6
CONTINUOUS
 10
7.6168028345
 20
5.2575064451
 11
7.6151702802
 21
5.2575064451
  0
LINE
  5
25D
100
AcDbEntity
  8
0
100
AcDbLine
 62
7
  6
CONTINUOUS
 10
7.6081937363
 20
5.2575064451
 11
7.6066363932
 21
5.2575064451
  0
LINE
  5
25E
100
AcDbEntity
  8
0
100
AcDbLine
 62
7
  6
CONTINUOUS
 10
7.5922385979
 20
5.2575064451
 11
7.5908442648
 21
5.2575064451
  0
LINE
  5
25F
100
AcDbEntity
  8
0
100
AcDbLine
 62
7
  6
CONTINUOUS
 10
7.5999981697
 20
5.2575064451
 11
7.5985203062
 21
5.2575064451
  0
LINE
  5
260
100
AcDbEntity
  8
0
100
AcDbLine
 62
7
  6
CONTINUOUS
 10
7.5849362895
 20
5.2575064451
 11
7.5836254166
 21
5.2575064451
  0
LINE
  5
261
100
AcDbEntity
  8
0
100
AcDbLine
 62
7
  6
CONTINUOUS
 10
7.571782215
 20
5.2575064451
 11
7.5706604363
 21
5.2575064451
  0
LINE
  5
262
100
AcDbEntity
  8
0
100
AcDbLine
 62
7
  6
CONTINUOUS
 10
7.5781149299
 20
5.2575064451
 11
7.5768952132
 21
5.2575064451
  0
LINE
  5
263
100
AcDbEntity
  8
0
100
AcDbLine
 62
7
  6
CONTINUOUS
 10
7.5606800651
 20
5.2575064451
 11
7.5597557789
 21
5.2575064451
  0
LINE
  5
264
100
AcDbEntity
  8
0
100
AcDbLine
 62
7
  6
CONTINUOUS
 10
7.5659665034
 20
5.2575064451
 11
7.564942067
 21
5.2575064451
  0
LINE
  5
265
100
AcDbEntity
  8
0
100
AcDbLine
 62
7
  6
CONTINUOUS
 10
7.5481356578
 20
5.2575064451
 11
7.5475240332
 21
5.2575064451
  0
LINE
  5
266
100
AcDbEntity
  8
0
100
AcDbLine
 62
7
  6
CONTINUOUS
 10
7.5517514772
 20
5.2575064451
 11
7.5510326921
 21
5.2575064451
  0
LINE
  5
267
100
AcDbEntity
  8
0
100
AcDbLine
 62
7
  6
CONTINUOUS
 10
7.5559373899
 20
5.2575064451
 11
7.5551157874
 21
5.2575064451
  0
LINE
  5
268
100
AcDbEntity
  8
0
100
AcDbLine
 62
7
  6
CONTINUOUS
 10
7.539519863
 20
5.2575064451
 11
7.5393514152
 21
5.2575064451
  0
LINE
  5
269
100
AcDbEntity
  8
0
100
AcDbLine
 62
7
  6
CONTINUOUS
 10
7.5407813955
 20
5.2575064451
 11
7.5405011622
 21
5.2575064451
  0
LINE
  5
26A
100
AcDbEntity
  8
0
100
AcDbLine
 62
7
  6
CONTINUOUS
 10
7.542641232
 20
5.2575064451
 11
7.5422499813
 21
5.2575064451
  0
LINE
  5
26B
100
AcDbEntity
  8
0
100
AcDbLine
 62
7
  6
CONTINUOUS
 10
7.5450942748
 20
5.2575064451
 11
7.5445930791
 21
5.2575064451
  0
LINE
  5
26C
100
AcDbEntity
  8
0
100
AcDbLine
 62
7
  6
CONTINUOUS
 10
7.971878882
 20
5.2650064451
 11
7.546253882
 21
5.2650064451
  0
LINE
  5
26D
100
AcDbEntity
  8
0
100
AcDbLine
 62
7
  6
CONTINUOUS
 10
7.8808262974
 20
5.797504329
 11
7.8818394004
 21
5.7976777231
  0
LINE
  5
26E
100
AcDbEntity
  8
0
100
AcDbLine
 62
7
  6
CONTINUOUS
 10
7.8797671406
 20
5.7973320875
 11
7.8808262974
 21
5.797504329
  0
LINE
  5
26F
100
AcDbEntity
  8
0
100
AcDbLine
 62
7
  6
CONTINUOUS
 10
7.8786596979
 20
5.7971608011
 11
7.8797671406
 21
5.7973320875
  0
LINE
  5
270
100
AcDbEntity
  8
0
100
AcDbLine
 62
7
  6
CONTINUOUS
 10
7.8775007881
 20
5.7969901745
 11
7.8786596979
 21
5.7971608011
  0
LINE
  5
271
100
AcDbEntity
  8
0
100
AcDbLine
 62
7
  6
CONTINUOUS
 10
7.8762870529
 20
5.7968199499
 11
7.8775007881
 21
5.7969901745
  0
LINE
  5
272
100
AcDbEntity
  8
0
100
AcDbLine
 62
7
  6
CONTINUOUS
 10
7.8750156579
 20
5.7966499976
 11
7.8762870529
 21
5.7968199499
  0
LINE
  5
273
100
AcDbEntity
  8
0
100
AcDbLine
 62
7
  6
CONTINUOUS
 10
7.8736832666
 20
5.7964801627
 11
7.8750156579
 21
5.7966499976
  0
LINE
  5
274
100
AcDbEntity
  8
0
100
AcDbLine
 62
7
  6
CONTINUOUS
 10
7.8722865796
 20
5.7963103345
 11
7.8736832666
 21
5.7964801627
  0
LINE
  5
275
100
AcDbEntity
  8
0
100
AcDbLine
 62
7
  6
CONTINUOUS
 10
7.8708226071
 20
5.7961404794
 11
7.8722865796
 21
5.7963103345
  0
LINE
  5
276
100
AcDbEntity
  8
0
100
AcDbLine
 62
7
  6
CONTINUOUS
 10
7.8692883303
 20
5.7959705944
 11
7.8708226071
 21
5.7961404794
  0
LINE
  5
277
100
AcDbEntity
  8
0
100
AcDbLine
 62
7
  6
CONTINUOUS
 10
7.8676765783
 20
5.7958002791
 11
7.8692883303
 21
5.7959705944
  0
LINE
  5
278
100
AcDbEntity
  8
0
100
AcDbLine
 62
7
  6
CONTINUOUS
 10
7.865980792
 20
5.7956292939
 11
7.8676765783
 21
5.7958002791
  0
LWPOLYLINE
  5
279
100
AcDbEntity
  8
0
100
AcDbPolyline
 62
7
  6
CONTINUOUS
 90
3
 70
0
 10
7.8632556985
 20
5.7953703657
 10
7.8641902173
 20
5.7954570869
 10
7.865980792
 20
5.7956292939
  0
LINE
  5
27A
100
AcDbEntity
  8
0
100
AcDbLine
 62
7
  6
CONTINUOUS
 10
2.592503882
 20
5.3114385317
 11
3.821566382
 21
5.3114385317
  0
LINE
  5
27B
100
AcDbEntity
  8
0
100
AcDbLine
 62
7
  6
CONTINUOUS
 10
4.196566382
 20
5.3114385317
 11
5.425628882
 21
5.3114385317
  0
LINE
  5
27C
100
AcDbEntity
  8
0
100
AcDbLine
 62
7
  6
CONTINUOUS
 10
5.3958736003
 20
5.4623760317
 11
4.993441382
 21
5.4623760317
  0
LINE
  5
27D
100
AcDbEntity
  8
0
100
AcDbLine
 62
7
  6
CONTINUOUS
 10
2.3958749924
 20
5.4623760317
 11
1.993441382
 21
5.4623760317
  0
LINE
  5
27E
100
AcDbEntity
  8
0
100
AcDbLine
 62
7
  6
CONTINUOUS
 10
2.6222577716
 20
5.4623760317
 11
3.024691382
 21
5.4623760317
  0
LINE
  5
27F
100
AcDbEntity
  8
0
100
AcDbLine
 62
7
  6
CONTINUOUS
 10
5.6222591637
 20
5.4623760317
 11
6.024691382
 21
5.4623760317
  0
LINE
  5
280
100
AcDbEntity
  8
0
100
AcDbLine
 62
7
  6
CONTINUOUS
 10
7.6785288226
 20
5.0504738322
 11
7.6932204819
 21
5.0482957572
  0
LINE
  5
281
100
AcDbEntity
  8
0
100
AcDbLine
 62
7
  6
CONTINUOUS
 10
7.8602810482
 20
5.7951075118
 11
7.8632556985
 21
5.7953703657
  0
LINE
  5
282
100
AcDbEntity
  8
0
100
AcDbLine
 62
7
  6
CONTINUOUS
 10
7.8570193473
 20
5.7948401112
 11
7.8602810482
 21
5.7951075118
  0
LINE
  5
283
100
AcDbEntity
  8
0
100
AcDbLine
 62
7
  6
CONTINUOUS
 10
7.8534502717
 20
5.7945694416
 11
7.8570193473
 21
5.7948401112
  0
LINE
  5
284
100
AcDbEntity
  8
0
100
AcDbLine
 62
7
  6
CONTINUOUS
 10
7.8495642265
 20
5.7942977333
 11
7.8534502717
 21
5.7945694416
  0
LINE
  5
285
100
AcDbEntity
  8
0
100
AcDbLine
 62
7
  6
CONTINUOUS
 10
7.8453365136
 20
5.7940262418
 11
7.8495642265
 21
5.7942977333
  0
LINE
  5
286
100
AcDbEntity
  8
0
100
AcDbLine
 62
7
  6
CONTINUOUS
 10
7.8407268082
 20
5.7937556857
 11
7.8453365136
 21
5.7940262418
  0
LINE
  5
287
100
AcDbEntity
  8
0
100
AcDbLine
 62
7
  6
CONTINUOUS
 10
7.8356924053
 20
5.7934873084
 11
7.8407268082
 21
5.7937556857
  0
LINE
  5
288
100
AcDbEntity
  8
0
100
AcDbLine
 62
7
  6
CONTINUOUS
 10
7.8302044013
 20
5.7932236899
 11
7.8356924053
 21
5.7934873084
  0
LINE
  5
289
100
AcDbEntity
  8
0
100
AcDbLine
 62
7
  6
CONTINUOUS
 10
7.8243393785
 20
5.7929720827
 11
7.8302044013
 21
5.7932236899
  0
LINE
  5
28A
100
AcDbEntity
  8
0
100
AcDbLine
 62
7
  6
CONTINUOUS
 10
7.8182311898
 20
5.792740152
 11
7.8243393785
 21
5.7929720827
  0
LINE
  5
28B
100
AcDbEntity
  8
0
100
AcDbLine
 62
7
  6
CONTINUOUS
 10
7.8120044479
 20
5.7925327585
 11
7.8182311898
 21
5.792740152
  0
LINE
  5
28C
100
AcDbEntity
  8
0
100
AcDbLine
 62
7
  6
CONTINUOUS
 10
7.8056791875
 20
5.792349953
 11
7.8120044479
 21
5.7925327585
  0
LINE
  5
28D
100
AcDbEntity
  8
0
100
AcDbLine
 62
7
  6
CONTINUOUS
 10
7.7970727543
 20
5.7921432459
 11
7.8056791875
 21
5.792349953
  0
LINE
  5
28E
100
AcDbEntity
  8
0
100
AcDbLine
 62
7
  6
CONTINUOUS
 10
7.7882735258
 20
5.7919788761
 11
7.7970727543
 21
5.7921432459
  0
LINE
  5
28F
100
AcDbEntity
  8
0
100
AcDbLine
 62
7
  6
CONTINUOUS
 10
7.7793329828
 20
5.7918578869
 11
7.7882735258
 21
5.7919788761
  0
LWPOLYLINE
  5
290
100
AcDbEntity
  8
0
100
AcDbPolyline
 62
7
  6
CONTINUOUS
 90
3
 70
0
 10
7.7680372361
 20
5.7917685897
 10
7.7703035812
 20
5.7917809219
 10
7.7793329828
 20
5.7918578869
  0
LINE
  5
291
100
AcDbEntity
  8
0
100
AcDbLine
 62
7
  6
CONTINUOUS
 10
5.3958736003
 20
5.6292510317
 11
4.993441382
 21
5.6292510317
  0
LINE
  5
292
100
AcDbEntity
  8
0
100
AcDbLine
 62
7
  6
CONTINUOUS
 10
2.3958749924
 20
5.6292510317
 11
1.993441382
 21
5.6292510317
  0
LINE
  5
293
100
AcDbEntity
  8
0
100
AcDbLine
 62
7
  6
CONTINUOUS
 10
2.6222577716
 20
5.6292510317
 11
3.024691382
 21
5.6292510317
  0
LINE
  5
294
100
AcDbEntity
  8
0
100
AcDbLine
 62
7
  6
CONTINUOUS
 10
5.6222591637
 20
5.6292510317
 11
6.024691382
 21
5.6292510317
  0
LINE
  5
295
100
AcDbEntity
  8
0
100
AcDbLine
 62
7
  6
CONTINUOUS
 10
7.950878882
 20
5.7528135317
 11
7.567253882
 21
5.7528135317
  0
LINE
  5
296
100
AcDbEntity
  8
0
100
AcDbLine
 62
7
  6
CONTINUOUS
 10
7.5785038929
 20
5.7640635317
 11
7.9396288711
 21
5.7640635317
  0
LWPOLYLINE
  5
297
100
AcDbEntity
  8
0
100
AcDbPolyline
 62
7
  6
CONTINUOUS
 90
9
 70
0
 10
7.6461019125
 20
5.0569115128
 10
7.646276202
 20
5.0568689257
 10
7.6464432262
 20
5.0568281169
 10
7.6466024468
 20
5.0567892191
 10
7.6467537827
 20
5.0567522501
 10
7.6468973141
 20
5.0567171896
 10
7.6470327442
 20
5.0566841109
 10
7.6471600729
 20
5.0566530129
 10
7.6472792997
 20
5.0566238952
  0
LWPOLYLINE
  5
298
100
AcDbEntity
  8
0
100
AcDbPolyline
 62
7
  6
CONTINUOUS
 90
5
 70
0
 10
7.6451253913
 20
5.0571501923
 10
7.6453340033
 20
5.0570991933
 10
7.6455359933
 20
5.057049819
 10
7.6457314696
 20
5.0570020415
 10
7.6461019125
 20
5.0569115128
  0
LWPOLYLINE
  5
299
100
AcDbEntity
  8
0
100
AcDbPolyline
 62
7
  6
CONTINUOUS
 90
5
 70
0
 10
7.6402903479
 20
5.0583337028
 10
7.6405666116
 20
5.0582660013
 10
7.640842517
 20
5.0581983968
 10
7.6411171659
 20
5.0581311102
 10
7.6416626183
 20
5.0579975063
  0
LINE
  5
29A
100
AcDbEntity
  8
0
100
AcDbLine
 62
7
  6
CONTINUOUS
 10
7.6324897003
 20
5.0602492803
 11
7.6480361124
 21
5.056439108
  0
LINE
  5
29B
100
AcDbEntity
  8
0
100
AcDbLine
 62
7
  6
CONTINUOUS
 10
7.7589537045
 20
5.7917469655
 11
7.7680372361
 21
5.7917685897
  0
LINE
  5
29C
100
AcDbEntity
  8
0
100
AcDbLine
 62
7
  6
CONTINUOUS
 10
7.586003882
 20
5.7790635317
 11
7.932128882
 21
5.7790635317
  0
LINE
  5
29D
100
AcDbEntity
  8
0
100
AcDbLine
 62
7
  6
CONTINUOUS
 10
2.592503882
 20
5.7801885317
 11
5.425628882
 21
5.7801885317
  0
LINE
  5
29E
100
AcDbEntity
  8
0
100
AcDbLine
 62
7
  6
CONTINUOUS
 10
7.597253882
 20
5.7903135317
 11
7.920878882
 21
5.7903135317
  0
LINE
  5
29F
100
AcDbEntity
  8
0
100
AcDbLine
 62
7
  6
CONTINUOUS
 10
7.629691382
 20
5.8512615018
 11
7.888441382
 21
5.8512615018
  0
LINE
  5
2A0
100
AcDbEntity
  8
0
100
AcDbLine
 62
7
  6
CONTINUOUS
 10
7.629691382
 20
5.8902956078
 11
7.888441382
 21
5.8902956078
  0
LINE
  5
2A1
100
AcDbEntity
  8
0
100
AcDbLine
 62
7
  6
CONTINUOUS
 10
7.7498706712
 20
5.7917696889
 11
7.7589537045
 21
5.7917469655
  0
LINE
  5
2A2
100
AcDbEntity
  8
0
100
AcDbLine
 62
7
  6
CONTINUOUS
 10
7.7408270792
 20
5.7918367002
 11
7.7498706712
 21
5.7917696889
  0
LINE
  5
2A3
100
AcDbEntity
  8
0
100
AcDbLine
 62
7
  6
CONTINUOUS
 10
7.7318624495
 20
5.7919478125
 11
7.7408270792
 21
5.7918367002
  0
LINE
  5
2A4
100
AcDbEntity
  8
0
100
AcDbLine
 62
7
  6
CONTINUOUS
 10
7.7230264669
 20
5.7921024958
 11
7.7318624495
 21
5.7919478125
  0
LINE
  5
2A5
100
AcDbEntity
  8
0
100
AcDbLine
 62
7
  6
CONTINUOUS
 10
7.7143743261
 20
5.7922997246
 11
7.7230264669
 21
5.7921024958
  0
LINE
  5
2A6
100
AcDbEntity
  8
0
100
AcDbLine
 62
7
  6
CONTINUOUS
 10
7.7059209535
 20
5.7925392163
 11
7.7143743261
 21
5.7922997246
  0
LINE
  5
2A7
100
AcDbEntity
  8
0
100
AcDbLine
 62
7
  6
CONTINUOUS
 10
7.6996975484
 20
5.7927474309
 11
7.7059209535
 21
5.7925392163
  0
LINE
  5
2A8
100
AcDbEntity
  8
0
100
AcDbLine
 62
7
  6
CONTINUOUS
 10
7.6935950107
 20
5.7929801155
 11
7.6996975484
 21
5.7927474309
  0
LINE
  5
2A9
100
AcDbEntity
  8
0
100
AcDbLine
 62
7
  6
CONTINUOUS
 10
7.6877397362
 20
5.7932322825
 11
7.6935950107
 21
5.7929801155
  0
LINE
  5
2AA
100
AcDbEntity
  8
0
100
AcDbLine
 62
7
  6
CONTINUOUS
 10
7.6822649406
 20
5.7934962163
 11
7.6877397362
 21
5.7932322825
  0
LINE
  5
2AB
100
AcDbEntity
  8
0
100
AcDbLine
 62
7
  6
CONTINUOUS
 10
7.6772440121
 20
5.7937647724
 11
7.6822649406
 21
5.7934962163
  0
LINE
  5
2AC
100
AcDbEntity
  8
0
100
AcDbLine
 62
7
  6
CONTINUOUS
 10
7.6726465695
 20
5.7940354566
 11
7.6772440121
 21
5.7937647724
  0
LINE
  5
2AD
100
AcDbEntity
  8
0
100
AcDbLine
 62
7
  6
CONTINUOUS
 10
7.6684299555
 20
5.7943070421
 11
7.6726465695
 21
5.7940354566
  0
LINE
  5
2AE
100
AcDbEntity
  8
0
100
AcDbLine
 62
7
  6
CONTINUOUS
 10
7.6645539989
 20
5.7945788197
 11
7.6684299555
 21
5.7943070421
  0
LINE
  5
2AF
100
AcDbEntity
  8
0
100
AcDbLine
 62
7
  6
CONTINUOUS
 10
7.6609946683
 20
5.7948494953
 11
7.6645539989
 21
5.7945788197
  0
LINE
  5
2B0
100
AcDbEntity
  8
0
100
AcDbLine
 62
7
  6
CONTINUOUS
 10
7.6577423927
 20
5.7951168364
 11
7.6609946683
 21
5.7948494953
  0
LINE
  5
2B1
100
AcDbEntity
  8
0
100
AcDbLine
 62
7
  6
CONTINUOUS
 10
7.6547762075
 20
5.7953796252
 11
7.6577423927
 21
5.7951168364
  0
LWPOLYLINE
  5
2B2
100
AcDbEntity
  8
0
100
AcDbPolyline
 62
7
  6
CONTINUOUS
 90
81
 70
0
 10
7.673911817
 20
6.0670359382
 10
7.672784421
 20
6.0670254182
 10
7.671657844
 20
6.0670061462
 10
7.670533121
 20
6.0669781565
 10
7.6694103244
 20
6.0669414588
 10
7.6682885657
 20
6.0668960013
 10
7.6671684033
 20
6.0668417577
 10
7.6660504068
 20
6.0667786978
 10
7.6649336994
 20
6.0667066984
 10
7.6638187048
 20
6.0666257322
 10
7.6627059044
 20
6.0665357844
 10
7.6615944433
 20
6.0664367117
 10
7.6604847507
 20
6.066328453
 10
7.6593773661
 20
6.0662109518
 10
7.6582716244
 20
6.0660840044
 10
7.6571680601
 20
6.0659475125
 10
7.6560672163
 20
6.065801372
 10
7.6549684501
 20
6.0656453137
 10
7.653872315
 20
6.0654792403
 10
7.6527793332
 20
6.0653030478
 10
7.6516887973
 20
6.0651164067
 10
7.6506013305
 20
6.0649191746
 10
7.6495175439
 20
6.0647111968
 10
7.6484367323
 20
6.0644920321
 10
7.6473595037
 20
6.0642614533
 10
7.6462866739
 20
6.0640192642
 10
7.6452177745
 20
6.0637649861
 10
7.6441535206
 20
6.0634983989
 10
7.6430945242
 20
6.0632192408
 10
7.6420400913
 20
6.0629268555
 10
7.6409909533
 20
6.06262091
 10
7.6399479179
 20
6.0623010661
 10
7.6389103559
 20
6.0619664815
 10
7.6378773956
 20
6.0616160981
 10
7.6368516823
 20
6.0612500127
 10
7.6358374418
 20
6.0608690569
 10
7.6348334133
 20
6.0604720735
 10
7.6338420229
 20
6.0600592779
 10
7.6328719446
 20
6.0596338035
 10
7.6319227597
 20
6.0591952003
 10
7.6309947849
 20
6.0587432961
 10
7.6300963408
 20
6.0582821182
 10
7.6292270279
 20
6.0578117803
 10
7.6283857299
 20
6.0573320012
 10
7.6275784263
 20
6.0568467792
 10
7.6268061779
 20
6.056357745
 10
7.6260654282
 20
6.0558636213
 10
7.6253548221
 20
6.0553643326
 10
7.6246738822
 20
6.0548603709
 10
7.6240211459
 20
6.0543514698
 10
7.6233941468
 20
6.05383638
 10
7.6227919511
 20
6.0533148758
 10
7.6222142782
 20
6.052787264
 10
7.621660047
 20
6.0522530873
 10
7.6211287669
 20
6.0517123493
 10
7.6206201324
 20
6.0511652106
 10
7.6201335905
 20
6.0506115299
 10
7.6196688688
 20
6.0500514264
 10
7.6192257679
 20
6.0494850909
 10
7.6188040101
 20
6.0489125948
 10
7.6184034626
 20
6.0483341802
 10
7.6180239975
 20
6.0477500952
 10
7.6176654574
 20
6.0471605329
 10
7.6173277388
 20
6.0465657599
 10
7.6170108084
 20
6.0459661742
 10
7.616714664
 20
6.0453622837
 10
7.6164392848
 20
6.0447546345
 10
7.6161845249
 20
6.0441435332
 10
7.6159502207
 20
6.043529218
 10
7.6157363408
 20
6.0429122771
 10
7.6155427533
 20
6.0422930634
 10
7.6153692157
 20
6.0416715007
 10
7.6152156817
 20
6.0410481132
 10
7.6150820698
 20
6.0404233554
 10
7.6149681838
 20
6.0397970605
 10
7.6148739864
 20
6.0391697469
 10
7.6147994156
 20
6.0385418921
 10
7.6147443438
 20
6.0379132723
 10
7.6147087351
 20
6.0372841467
 10
7.6146925695
 20
6.0366552561
 10
7.6146914923
 20
6.0364517305
  0
LINE
  5
2B3
100
AcDbEntity
  8
0
100
AcDbLine
 62
7
  6
CONTINUOUS
 10
2.425628882
 20
6.0614385317
 11
2.592503882
 21
6.0614385317
  0
LINE
  5
2B4
100
AcDbEntity
  8
0
100
AcDbLine
 62
7
  6
CONTINUOUS
 10
5.425628882
 20
6.0614385317
 11
5.592503882
 21
6.0614385317
  0
LINE
  5
2B5
100
AcDbEntity
  8
0
100
AcDbLine
 62
7
  6
CONTINUOUS
 10
7.674691382
 20
6.0662209102
 11
7.843441382
 21
6.0662209102
  0
LINE
  5
2B6
100
AcDbEntity
  8
0
100
AcDbLine
 62
7
  6
CONTINUOUS
 10
7.673911817
 20
6.0670359382
 11
7.8434413811
 21
6.0670381316
  0
LINE
  5
2B7
100
AcDbEntity
  8
0
100
AcDbLine
 62
7
  6
CONTINUOUS
 10
7.6529393708
 20
5.7955525565
 11
7.6547762075
 21
5.7953796252
  0
LINE
  5
2B8
100
AcDbEntity
  8
0
100
AcDbLine
 62
7
  6
CONTINUOUS
 10
7.6512011931
 20
5.7957241686
 11
7.6529393708
 21
5.7955525565
  0
LINE
  5
2B9
100
AcDbEntity
  8
0
100
AcDbLine
 62
7
  6
CONTINUOUS
 10
7.649553296
 20
5.7958947048
 11
7.6512011931
 21
5.7957241686
  0
LINE
  5
2BA
100
AcDbEntity
  8
0
100
AcDbLine
 62
7
  6
CONTINUOUS
 10
7.6479849855
 20
5.7960647792
 11
7.649553296
 21
5.7958947048
  0
LINE
  5
2BB
100
AcDbEntity
  8
0
100
AcDbLine
 62
7
  6
CONTINUOUS
 10
7.6464896888
 20
5.7962346922
 11
7.6479849855
 21
5.7960647792
  0
LINE
  5
2BC
100
AcDbEntity
  8
0
100
AcDbLine
 62
7
  6
CONTINUOUS
 10
7.6450632926
 20
5.796404544
 11
7.6464896888
 21
5.7962346922
  0
LINE
  5
2BD
100
AcDbEntity
  8
0
100
AcDbLine
 62
7
  6
CONTINUOUS
 10
7.6437025044
 20
5.796574387
 11
7.6450632926
 21
5.796404544
  0
LINE
  5
2BE
100
AcDbEntity
  8
0
100
AcDbLine
 62
7
  6
CONTINUOUS
 10
7.6424039875
 20
5.7967443212
 11
7.6437025044
 21
5.796574387
  0
LINE
  5
2BF
100
AcDbEntity
  8
0
100
AcDbLine
 62
7
  6
CONTINUOUS
 10
7.6411648817
 20
5.7969144211
 11
7.6424039875
 21
5.7967443212
  0
LINE
  5
2C0
100
AcDbEntity
  8
0
100
AcDbLine
 62
7
  6
CONTINUOUS
 10
7.6399819124
 20
5.7970848539
 11
7.6411648817
 21
5.7969144211
  0
LINE
  5
2C1
100
AcDbEntity
  8
0
100
AcDbLine
 62
7
  6
CONTINUOUS
 10
7.6388516554
 20
5.7972558637
 11
7.6399819124
 21
5.7970848539
  0
LINE
  5
2C2
100
AcDbEntity
  8
0
100
AcDbLine
 62
7
  6
CONTINUOUS
 10
7.63777142
 20
5.7974276418
 11
7.6388516554
 21
5.7972558637
  0
LINE
  5
2C3
100
AcDbEntity
  8
0
100
AcDbLine
 62
7
  6
CONTINUOUS
 10
7.5388037547
 20
5.1468814451
 11
7.5388037547
 21
5.2575064451
  0
LINE
  5
2C4
100
AcDbEntity
  8
0
100
AcDbLine
 62
7
  6
CONTINUOUS
 10
7.5388600923
 20
5.1468814451
 11
7.5388600923
 21
5.2575064451
  0
LINE
  5
2C5
100
AcDbEntity
  8
0
100
AcDbLine
 62
7
  6
CONTINUOUS
 10
7.5393514152
 20
5.1468814451
 11
7.5393514152
 21
5.2575064451
  0
LINE
  5
2C6
100
AcDbEntity
  8
0
100
AcDbLine
 62
7
  6
CONTINUOUS
 10
7.539519863
 20
5.1468814451
 11
7.539519863
 21
5.2575064451
  0
LINE
  5
2C7
100
AcDbEntity
  8
0
100
AcDbLine
 62
7
  6
CONTINUOUS
 10
7.5405011622
 20
5.1468814451
 11
7.5405011622
 21
5.2575064451
  0
LINE
  5
2C8
100
AcDbEntity
  8
0
100
AcDbLine
 62
7
  6
CONTINUOUS
 10
7.5407813955
 20
5.1468814451
 11
7.5407813955
 21
5.2575064451
  0
LINE
  5
2C9
100
AcDbEntity
  8
0
100
AcDbLine
 62
7
  6
CONTINUOUS
 10
7.5422499813
 20
5.1468814451
 11
7.5422499813
 21
5.2575064451
  0
LINE
  5
2CA
100
AcDbEntity
  8
0
100
AcDbLine
 62
7
  6
CONTINUOUS
 10
7.542641232
 20
5.1468814451
 11
7.542641232
 21
5.2575064451
  0
LINE
  5
2CB
100
AcDbEntity
  8
0
100
AcDbLine
 62
7
  6
CONTINUOUS
 10
7.5445930791
 20
5.1468814451
 11
7.5445930791
 21
5.2575064451
  0
LINE
  5
2CC
100
AcDbEntity
  8
0
100
AcDbLine
 62
7
  6
CONTINUOUS
 10
7.5450942748
 20
5.1468814451
 11
7.5450942748
 21
5.2575064451
  0
LINE
  5
2CD
100
AcDbEntity
  8
0
100
AcDbLine
 62
7
  6
CONTINUOUS
 10
7.5475240332
 20
5.1468814451
 11
7.5475240332
 21
5.2575064451
  0
LINE
  5
2CE
100
AcDbEntity
  8
0
100
AcDbLine
 62
7
  6
CONTINUOUS
 10
7.5481356578
 20
5.1468814451
 11
7.5481356578
 21
5.2575064451
  0
LINE
  5
2CF
100
AcDbEntity
  8
0
100
AcDbLine
 62
7
  6
CONTINUOUS
 10
7.5510326921
 20
5.1468814451
 11
7.5510326921
 21
5.2575064451
  0
LINE
  5
2D0
100
AcDbEntity
  8
0
100
AcDbLine
 62
7
  6
CONTINUOUS
 10
7.5517514772
 20
5.1468814451
 11
7.5517514772
 21
5.2575064451
  0
LWPOLYLINE
  5
2D1
100
AcDbEntity
  8
0
100
AcDbPolyline
 62
7
  6
CONTINUOUS
 90
77
 70
0
 10
7.6146914054
 20
5.8158066198
 10
7.614694452
 20
5.8154977469
 10
7.6147120767
 20
5.815002671
 10
7.6147454288
 20
5.8145077597
 10
7.6147944955
 20
5.8140138262
 10
7.61485911
 20
5.8135223365
 10
7.6149391445
 20
5.8130337421
 10
7.6150344529
 20
5.8125485125
 10
7.6151446306
 20
5.8120680993
 10
7.6152694294
 20
5.8115928556
 10
7.6154085606
 20
5.8111232427
 10
7.6155613382
 20
5.8106607967
 10
7.6157273697
 20
5.8102058268
 10
7.615906245
 20
5.8097586591
 10
7.6160970288
 20
5.809320742
 10
7.6162991446
 20
5.8088924178
 10
7.6165121398
 20
5.8084737381
 10
7.6167350984
 20
5.8080655919
 10
7.6169672695
 20
5.8076683923
 10
7.6172082803
 20
5.8072818765
 10
7.6174577607
 20
5.8069058453
 10
7.617715222
 20
5.8065403102
 10
7.6179801756
 20
5.8061852798
 10
7.618252323
 20
5.8058405219
 10
7.6185313266
 20
5.8055058904
 10
7.6188166931
 20
5.8051814319
 10
7.6191079447
 20
5.8048671551
 10
7.6194048023
 20
5.8045628519
 10
7.6197068316
 20
5.804268483
 10
7.6200133439
 20
5.8039842252
 10
7.6203240721
 20
5.8037098337
 10
7.6206386844
 20
5.8034451327
 10
7.620956409
 20
5.8031902918
 10
7.6212772066
 20
5.8029448685
 10
7.62160067
 20
5.8027087239
 10
7.6219254598
 20
5.8024823401
 10
7.6222513726
 20
5.8022653321
 10
7.6225782649
 20
5.8020572962
 10
7.6229048366
 20
5.8018585386
 10
7.6232306451
 20
5.8016687769
 10
7.6235558889
 20
5.8014873746
 10
7.6238802046
 20
5.8013140437
 10
7.6242031807
 20
5.8011485202
 10
7.624525144
 20
5.8009901809
 10
7.6248468777
 20
5.8008382458
 10
7.6251683813
 20
5.8006923642
 10
7.6254897879
 20
5.8005521465
 10
7.6258121497
 20
5.8004168497
 10
7.6261356459
 20
5.8002861563
 10
7.6264604049
 20
5.8001597879
 10
7.6267874528
 20
5.800037151
 10
7.6271171203
 20
5.7999179604
 10
7.6274495095
 20
5.7998020296
 10
7.6277853128
 20
5.7996889845
 10
7.6281247964
 20
5.7995786205
 10
7.6284681682
 20
5.799470764
 10
7.6288159974
 20
5.7993651428
 10
7.6291684999
 20
5.7992616107
 10
7.6295259308
 20
5.7991600183
 10
7.6298888657
 20
5.799060139
 10
7.6302574468
 20
5.7989618796
 10
7.6306319824
 20
5.7988651087
 10
7.6310132595
 20
5.7987695859
 10
7.6314015292
 20
5.7986752221
 10
7.6317970017
 20
5.7985819429
 10
7.6322003834
 20
5.7984895666
 10
7.6326119371
 20
5.798398025
 10
7.6330318621
 20
5.7983072671
 10
7.6334607523
 20
5.7982171628
 10
7.6338988555
 20
5.7981276636
 10
7.6343463773
 20
5.7980387326
 10
7.6348038266
 20
5.7979502772
 10
7.6352714537
 20
5.7978622616
 10
7.6357494514
 20
5.7977746629
 10
7.6362382179
 20
5.7976874238
 10
7.636737971
 20
5.7976005229
 10
7.63777142
 20
5.7974276418
  0
LINE
  5
2D2
100
AcDbEntity
  8
0
100
AcDbLine
 62
7
  6
CONTINUOUS
 10
7.552816382
 20
5.1075064451
 11
7.552816382
 21
5.1468814451
  0
LINE
  5
2D3
100
AcDbEntity
  8
0
100
AcDbLine
 62
7
  6
CONTINUOUS
 10
7.5551157874
 20
5.1468814451
 11
7.5551157874
 21
5.2575064451
  0
LINE
  5
2D4
100
AcDbEntity
  8
0
100
AcDbLine
 62
7
  6
CONTINUOUS
 10
7.5559373899
 20
5.1468814451
 11
7.5559373899
 21
5.2575064451
  0
LINE
  5
2D5
100
AcDbEntity
  8
0
100
AcDbLine
 62
7
  6
CONTINUOUS
 10
7.5597557789
 20
5.1468814451
 11
7.5597557789
 21
5.2575064451
  0
LINE
  5
2D6
100
AcDbEntity
  8
0
100
AcDbLine
 62
7
  6
CONTINUOUS
 10
7.5606800651
 20
5.1468814451
 11
7.5606800651
 21
5.2575064451
  0
LINE
  5
2D7
100
AcDbEntity
  8
0
100
AcDbLine
 62
7
  6
CONTINUOUS
 10
7.564942067
 20
5.1468814451
 11
7.564942067
 21
5.2575064451
  0
LINE
  5
2D8
100
AcDbEntity
  8
0
100
AcDbLine
 62
7
  6
CONTINUOUS
 10
7.5659665034
 20
5.1468814451
 11
7.5659665034
 21
5.2575064451
  0
LINE
  5
2D9
100
AcDbEntity
  8
0
100
AcDbLine
 62
7
  6
CONTINUOUS
 10
7.567253882
 20
5.7528135317
 11
7.567253882
 21
5.2650064451
  0
LINE
  5
2DA
100
AcDbEntity
  8
0
100
AcDbLine
 62
7
  6
CONTINUOUS
 10
7.5706604363
 20
5.1468814451
 11
7.5706604363
 21
5.2575064451
  0
LINE
  5
2DB
100
AcDbEntity
  8
0
100
AcDbLine
 62
7
  6
CONTINUOUS
 10
7.571782215
 20
5.1468814451
 11
7.571782215
 21
5.2575064451
  0
LINE
  5
2DC
100
AcDbEntity
  8
0
100
AcDbLine
 62
7
  6
CONTINUOUS
 10
7.5768952132
 20
5.1468814451
 11
7.5768952132
 21
5.2575064451
  0
LINE
  5
2DD
100
AcDbEntity
  8
0
100
AcDbLine
 62
7
  6
CONTINUOUS
 10
7.5781149299
 20
5.1468814451
 11
7.5781149299
 21
5.2575064451
  0
LINE
  5
2DE
100
AcDbEntity
  8
0
100
AcDbLine
 62
7
  6
CONTINUOUS
 10
7.5836254166
 20
5.1468814451
 11
7.5836254166
 21
5.2575064451
  0
LINE
  5
2DF
100
AcDbEntity
  8
0
100
AcDbLine
 62
7
  6
CONTINUOUS
 10
7.5849362895
 20
5.1468814451
 11
7.5849362895
 21
5.2575064451
  0
LINE
  5
2E0
100
AcDbEntity
  8
0
100
AcDbLine
 62
7
  6
CONTINUOUS
 10
7.586003882
 20
5.7640635317
 11
7.586003882
 21
5.7790635317
  0
LINE
  5
2E1
100
AcDbEntity
  8
0
100
AcDbLine
 62
7
  6
CONTINUOUS
 10
7.590316382
 20
5.0962564451
 11
7.590316382
 21
5.0812564451
  0
LINE
  5
2E2
100
AcDbEntity
  8
0
100
AcDbLine
 62
7
  6
CONTINUOUS
 10
7.5908442648
 20
5.1468814451
 11
7.5908442648
 21
5.2575064451
  0
LINE
  5
2E3
100
AcDbEntity
  8
0
100
AcDbLine
 62
7
  6
CONTINUOUS
 10
7.5922385979
 20
5.1468814451
 11
7.5922385979
 21
5.2575064451
  0
LINE
  5
2E4
100
AcDbEntity
  8
0
100
AcDbLine
 62
7
  6
CONTINUOUS
 10
7.5985203062
 20
5.1468814451
 11
7.5985203062
 21
5.2575064451
  0
LINE
  5
2E5
100
AcDbEntity
  8
0
100
AcDbLine
 62
7
  6
CONTINUOUS
 10
7.5999981697
 20
5.1468814451
 11
7.5999981697
 21
5.2575064451
  0
LINE
  5
2E6
100
AcDbEntity
  8
0
100
AcDbLine
 62
7
  6
CONTINUOUS
 10
7.6066363932
 20
5.1468814451
 11
7.6066363932
 21
5.2575064451
  0
LINE
  5
2E7
100
AcDbEntity
  8
0
100
AcDbLine
 62
7
  6
CONTINUOUS
 10
7.6081937363
 20
5.1468814451
 11
7.6081937363
 21
5.2575064451
  0
LINE
  5
2E8
100
AcDbEntity
  8
0
100
AcDbLine
 62
7
  6
CONTINUOUS
 10
7.614691382
 20
5.8158062758
 11
7.614691382
 21
6.036446432
  0
LINE
  5
2E9
100
AcDbEntity
  8
0
100
AcDbLine
 62
7
  6
CONTINUOUS
 10
7.6151702802
 20
5.1468814451
 11
7.6151702802
 21
5.2575064451
  0
LINE
  5
2EA
100
AcDbEntity
  8
0
100
AcDbLine
 62
7
  6
CONTINUOUS
 10
7.6168028345
 20
5.1468814451
 11
7.6168028345
 21
5.2575064451
  0
LINE
  5
2EB
100
AcDbEntity
  8
0
100
AcDbLine
 62
7
  6
CONTINUOUS
 10
7.6239711309
 20
5.2647731735
 11
7.6239711309
 21
5.1468814451
  0
LINE
  5
2EC
100
AcDbEntity
  8
0
100
AcDbLine
 62
7
  6
CONTINUOUS
 10
7.6240985764
 20
5.1468814451
 11
7.6240985764
 21
5.2575064451
  0
LINE
  5
2ED
100
AcDbEntity
  8
0
100
AcDbLine
 62
7
  6
CONTINUOUS
 10
7.6258069908
 20
5.1468814451
 11
7.6258069908
 21
5.2575064451
  0
LINE
  5
2EE
100
AcDbEntity
  8
0
100
AcDbLine
 62
7
  6
CONTINUOUS
 10
7.629691382
 20
5.8494022044
 11
7.629691382
 21
6.0506301025
  0
LINE
  5
2EF
100
AcDbEntity
  8
0
100
AcDbLine
 62
7
  6
CONTINUOUS
 10
7.6328828292
 20
5.264771176
 11
7.6328828292
 21
5.1468814451
  0
LINE
  5
2F0
100
AcDbEntity
  8
0
100
AcDbLine
 62
7
  6
CONTINUOUS
 10
7.6333915252
 20
5.1468814451
 11
7.6333915252
 21
5.2575064451
  0
LINE
  5
2F1
100
AcDbEntity
  8
0
100
AcDbLine
 62
7
  6
CONTINUOUS
 10
7.634378882
 20
5.7903135317
 11
7.634378882
 21
5.7980324472
  0
LINE
  5
2F2
100
AcDbEntity
  8
0
100
AcDbLine
 62
7
  6
CONTINUOUS
 10
7.6351661685
 20
5.1468814451
 11
7.6351661685
 21
5.2575064451
  0
LINE
  5
2F3
100
AcDbEntity
  8
0
100
AcDbLine
 62
7
  6
CONTINUOUS
 10
7.6421495488
 20
5.2647731735
 11
7.6421495488
 21
5.1468814451
  0
LINE
  5
2F4
100
AcDbEntity
  8
0
100
AcDbLine
 62
7
  6
CONTINUOUS
 10
7.6430394951
 20
5.1468814451
 11
7.6430394951
 21
5.2575064451
  0
LINE
  5
2F5
100
AcDbEntity
  8
0
100
AcDbLine
 62
7
  6
CONTINUOUS
 10
7.6448700717
 20
5.1468814451
 11
7.6448700717
 21
5.2575064451
  0
LINE
  5
2F6
100
AcDbEntity
  8
0
100
AcDbLine
 62
7
  6
CONTINUOUS
 10
7.6517321425
 20
5.2647731735
 11
7.6517321425
 21
5.1468814451
  0
LINE
  5
2F7
100
AcDbEntity
  8
0
100
AcDbLine
 62
7
  6
CONTINUOUS
 10
7.6530002019
 20
5.1468814451
 11
7.6530002019
 21
5.2575064451
  0
LINE
  5
2F8
100
AcDbEntity
  8
0
100
AcDbLine
 62
7
  6
CONTINUOUS
 10
7.6548869791
 20
5.1468814451
 11
7.6548869791
 21
5.2575064451
  0
LINE
  5
2F9
100
AcDbEntity
  8
0
100
AcDbLine
 62
7
  6
CONTINUOUS
 10
7.6616089319
 20
5.2647731735
 11
7.6616089319
 21
5.1468814451
  0
LINE
  5
2FA
100
AcDbEntity
  8
0
100
AcDbLine
 62
7
  6
CONTINUOUS
 10
7.6632516287
 20
5.1468814451
 11
7.6632516287
 21
5.2575064451
  0
LINE
  5
2FB
100
AcDbEntity
  8
0
100
AcDbLine
 62
7
  6
CONTINUOUS
 10
7.665189435
 20
5.1468814451
 11
7.665189435
 21
5.2575064451
  0
LINE
  5
2FC
100
AcDbEntity
  8
0
100
AcDbLine
 62
7
  6
CONTINUOUS
 10
7.6717528455
 20
5.2647731735
 11
7.6717528455
 21
5.1468814451
  0
LINE
  5
2FD
100
AcDbEntity
  8
0
100
AcDbLine
 62
7
  6
CONTINUOUS
 10
7.6737656771
 20
5.1468814451
 11
7.6737656771
 21
5.2575064451
  0
LINE
  5
2FE
100
AcDbEntity
  8
0
100
AcDbLine
 62
7
  6
CONTINUOUS
 10
7.674691382
 20
6.0670381316
 11
7.674691382
 21
6.0662209102
  0
LINE
  5
2FF
100
AcDbEntity
  8
0
100
AcDbLine
 62
7
  6
CONTINUOUS
 10
7.6757492011
 20
5.1468814451
 11
7.6757492011
 21
5.2575064451
  0
LINE
  5
300
100
AcDbEntity
  8
0
100
AcDbLine
 62
7
  6
CONTINUOUS
 10
7.6821360793
 20
5.2647731735
 11
7.6821360793
 21
5.1468814451
  0
LINE
  5
301
100
AcDbEntity
  8
0
100
AcDbLine
 62
7
  6
CONTINUOUS
 10
7.6845135288
 20
5.1468814451
 11
7.6845135288
 21
5.2575064451
  0
LINE
  5
302
100
AcDbEntity
  8
0
100
AcDbLine
 62
7
  6
CONTINUOUS
 10
7.6865434095
 20
5.1468814451
 11
7.6865434095
 21
5.2575064451
  0
LINE
  5
303
100
AcDbEntity
  8
0
100
AcDbLine
 62
7
  6
CONTINUOUS
 10
7.6927277624
 20
5.264771176
 11
7.6927277624
 21
5.1468814451
  0
LINE
  5
304
100
AcDbEntity
  8
0
100
AcDbLine
 62
7
  6
CONTINUOUS
 10
7.6954595643
 20
5.1468814451
 11
7.6954595643
 21
5.2575064451
  0
LINE
  5
305
100
AcDbEntity
  8
0
100
AcDbLine
 62
7
  6
CONTINUOUS
 10
7.6975242636
 20
5.1468814451
 11
7.6975242636
 21
5.2575065761
  0
LINE
  5
306
100
AcDbEntity
  8
0
100
AcDbLine
 62
7
  6
CONTINUOUS
 10
7.7035060912
 20
5.2647731735
 11
7.7035060912
 21
5.1468814451
  0
LINE
  5
307
100
AcDbEntity
  8
0
100
AcDbLine
 62
7
  6
CONTINUOUS
 10
7.7065922456
 20
5.1468814451
 11
7.7065922456
 21
5.2575067788
  0
LINE
  5
308
100
AcDbEntity
  8
0
100
AcDbLine
 62
7
  6
CONTINUOUS
 10
7.708679876
 20
5.1468814451
 11
7.708679876
 21
5.2575066558
  0
LINE
  5
309
100
AcDbEntity
  8
0
100
AcDbLine
 62
7
  6
CONTINUOUS
 10
7.7144342956
 20
5.2647731735
 11
7.7144342956
 21
5.1468814451
  0
LINE
  5
30A
100
AcDbEntity
  8
0
100
AcDbLine
 62
7
  6
CONTINUOUS
 10
7.7178625944
 20
5.1468814451
 11
7.7178625944
 21
5.25750646
  0
LINE
  5
30B
100
AcDbEntity
  8
0
100
AcDbLine
 62
7
  6
CONTINUOUS
 10
7.7199735944
 20
5.1468814451
 11
7.7199735944
 21
5.2575065699
  0
LINE
  5
30C
100
AcDbEntity
  8
0
100
AcDbLine
 62
7
  6
CONTINUOUS
 10
7.7254848333
 20
5.2647731735
 11
7.7254848333
 21
5.1468814451
  0
LINE
  5
30D
100
AcDbEntity
  8
0
100
AcDbLine
 62
7
  6
CONTINUOUS
 10
7.7292458799
 20
5.1468814451
 11
7.7292458799
 21
5.2575066829
  0
LINE
  5
30E
100
AcDbEntity
  8
0
100
AcDbLine
 62
7
  6
CONTINUOUS
 10
7.7313744633
 20
5.1468814451
 11
7.7313744633
 21
5.2575066233
  0
LINE
  5
30F
100
AcDbEntity
  8
0
100
AcDbLine
 62
7
  6
CONTINUOUS
 10
7.7366274158
 20
5.2647731735
 11
7.7366274158
 21
5.1468814451
  0
LINE
  5
310
100
AcDbEntity
  8
0
100
AcDbLine
 62
7
  6
CONTINUOUS
 10
7.7407109014
 20
5.1468814451
 11
7.7407109014
 21
5.2575064497
  0
LINE
  5
311
100
AcDbEntity
  8
0
100
AcDbLine
 62
7
  6
CONTINUOUS
 10
7.7428512339
 20
5.1468814451
 11
7.7428512339
 21
5.2575067594
  0
LINE
  5
312
100
AcDbEntity
  8
0
100
AcDbLine
 62
7
  6
CONTINUOUS
 10
7.7478315019
 20
5.2647731735
 11
7.7478315019
 21
5.1468814451
  0
LINE
  5
313
100
AcDbEntity
  8
0
100
AcDbLine
 62
7
  6
CONTINUOUS
 10
7.7522262339
 20
5.1468814451
 11
7.7522262339
 21
5.25750645
  0
LINE
  5
314
100
AcDbEntity
  8
0
100
AcDbLine
 62
7
  6
CONTINUOUS
 10
7.754378882
 20
5.1468814451
 11
7.754378882
 21
5.257506455
  0
LINE
  5
315
100
AcDbEntity
  8
0
100
AcDbLine
 62
7
  6
CONTINUOUS
 10
7.759066382
 20
5.264771176
 11
7.759066382
 21
5.1468814451
  0
LINE
  5
316
100
AcDbEntity
  8
0
100
AcDbLine
 62
7
  6
CONTINUOUS
 10
7.763753882
 20
5.1468814451
 11
7.763753882
 21
5.25750646
  0
LINE
  5
317
100
AcDbEntity
  8
0
100
AcDbLine
 62
7
  6
CONTINUOUS
 10
7.76590653
 20
5.1468814451
 11
7.76590653
 21
5.2575064451
  0
LINE
  5
318
100
AcDbEntity
  8
0
100
AcDbLine
 62
7
  6
CONTINUOUS
 10
7.7703012621
 20
5.2647731735
 11
7.7703012621
 21
5.1468814451
  0
LINE
  5
319
100
AcDbEntity
  8
0
100
AcDbLine
 62
7
  6
CONTINUOUS
 10
7.77528153
 20
5.1468814451
 11
7.77528153
 21
5.2575064451
  0
LINE
  5
31A
100
AcDbEntity
  8
0
100
AcDbLine
 62
7
  6
CONTINUOUS
 10
7.7774218626
 20
5.1468814451
 11
7.7774218626
 21
5.2575064451
  0
LINE
  5
31B
100
AcDbEntity
  8
0
100
AcDbLine
 62
7
  6
CONTINUOUS
 10
7.7815053482
 20
5.2647731735
 11
7.7815053482
 21
5.1468814451
  0
LINE
  5
31C
100
AcDbEntity
  8
0
100
AcDbLine
 62
7
  6
CONTINUOUS
 10
7.7867583006
 20
5.1468814451
 11
7.7867583006
 21
5.2575064451
  0
LINE
  5
31D
100
AcDbEntity
  8
0
100
AcDbLine
 62
7
  6
CONTINUOUS
 10
7.7888868841
 20
5.1468814451
 11
7.7888868841
 21
5.2575064451
  0
LINE
  5
31E
100
AcDbEntity
  8
0
100
AcDbLine
 62
7
  6
CONTINUOUS
 10
7.7926479307
 20
5.2647731735
 11
7.7926479307
 21
5.1468814451
  0
LWPOLYLINE
  5
31F
100
AcDbEntity
  8
0
100
AcDbPolyline
 62
7
  6
CONTINUOUS
 90
82
 70
0
 10
7.9034412834
 20
6.0364516071
 10
7.9034398208
 20
6.0366899016
 10
7.9034225993
 20
6.0373184946
 10
7.9033859494
 20
6.0379473136
 10
7.9033298511
 20
6.0385756189
 10
7.9032542676
 20
6.0392031515
 10
7.9031590696
 20
6.0398301343
 10
7.9030441947
 20
6.0404560908
 10
7.902909605
 20
6.0410805032
 10
7.902755103
 20
6.0417035371
 10
7.9025806067
 20
6.0423247394
 10
7.9023860691
 20
6.0429435862
 10
7.9021712476
 20
6.0435601509
 10
7.9019360107
 20
6.0441740789
 10
7.9016803257
 20
6.0447847858
 10
7.9014040257
 20
6.0453920395
 10
7.9011069624
 20
6.0459955362
 10
7.9007891144
 20
6.0465947283
 10
7.9004504774
 20
6.0471891081
 10
7.9000910146
 20
6.047778281
 10
7.8997106223
 20
6.0483619785
 10
7.8993091465
 20
6.0489400006
 10
7.8988864563
 20
6.0495121028
 10
7.8984424185
 20
6.0500780423
 10
7.897976765
 20
6.0506377354
 10
7.8974892944
 20
6.0511909951
 10
7.8969797345
 20
6.0517377025
 10
7.8964475474
 20
6.0522779843
 10
7.8958924361
 20
6.0528116754
 10
7.8953139031
 20
6.0533387822
 10
7.89471086
 20
6.0538597698
 10
7.8940830275
 20
6.054374331
 10
7.893429468
 20
6.0548826952
 10
7.8927476977
 20
6.0553861227
 10
7.8920362441
 20
6.0558848858
 10
7.891294637
 20
6.0563784873
 10
7.8905215291
 20
6.0568669971
 10
7.8897133574
 20
6.0573516937
 10
7.8888711902
 20
6.0578309453
 10
7.8880010411
 20
6.0583007439
 10
7.8871017974
 20
6.0587613699
 10
7.8861730591
 20
6.0592127101
 10
7.8852231869
 20
6.0596507294
 10
7.88425251
 20
6.060075599
 10
7.8832606114
 20
6.0604877725
 10
7.8822561915
 20
6.0608841167
 10
7.8812417061
 20
6.0612644112
 10
7.8802158808
 20
6.0616298217
 10
7.8791829
 20
6.0619795362
 10
7.8781454003
 20
6.0623134606
 10
7.8771025191
 20
6.0626326501
 10
7.8760535981
 20
6.0629379561
 10
7.8749994478
 20
6.0632297167
 10
7.8739407998
 20
6.0635082653
 10
7.872876922
 20
6.0637742672
 10
7.8718084239
 20
6.064027984
 10
7.8707360229
 20
6.0642696343
 10
7.8696592092
 20
6.0644997016
 10
7.8685787832
 20
6.0647183825
 10
7.8674953631
 20
6.0649259004
 10
7.8664082424
 20
6.0651226951
 10
7.8653180286
 20
6.0653089206
 10
7.8642253457
 20
6.0654847178
 10
7.8631294919
 20
6.0656504139
 10
7.8620309882
 20
6.065806112
 10
7.8609303868
 20
6.0659519078
 10
7.8598270482
 20
6.0660880661
 10
7.8587215148
 20
6.0662146906
 10
7.8576143208
 20
6.066331879
 10
7.8565048098
 20
6.0664398336
 10
7.8553935209
 20
6.0665386106
 10
7.8542808833
 20
6.0666282709
 10
7.853166052
 20
6.0667089565
 10
7.8520495084
 20
6.0667806824
 10
7.8509316713
 20
6.0668434736
 10
7.8498116696
 20
6.0668974507
 10
7.8486900731
 20
6.0669426442
 10
7.8475674401
 20
6.0669790808
 10
7.8464428939
 20
6.0670068125
 10
7.8453165112
 20
6.0670258299
 10
7.8441893228
 20
6.0670360999
 10
7.8434413811
 20
6.0670380751
  0
LINE
  5
320
100
AcDbEntity
  8
0
100
AcDbLine
 62
7
  6
CONTINUOUS
 10
7.7981591696
 20
5.1468814451
 11
7.7981591696
 21
5.2575064451
  0
LINE
  5
321
100
AcDbEntity
  8
0
100
AcDbLine
 62
7
  6
CONTINUOUS
 10
7.8002701696
 20
5.1468814451
 11
7.8002701696
 21
5.2575064451
  0
LINE
  5
322
100
AcDbEntity
  8
0
100
AcDbLine
 62
7
  6
CONTINUOUS
 10
7.8036984684
 20
5.2647731735
 11
7.8036984684
 21
5.1468814451
  0
LINE
  5
323
100
AcDbEntity
  8
0
100
AcDbLine
 62
7
  6
CONTINUOUS
 10
7.809452888
 20
5.1468814451
 11
7.809452888
 21
5.2575064451
  0
LINE
  5
324
100
AcDbEntity
  8
0
100
AcDbLine
 62
7
  6
CONTINUOUS
 10
7.8115405184
 20
5.1468814451
 11
7.8115405184
 21
5.2575064451
  0
LINE
  5
325
100
AcDbEntity
  8
0
100
AcDbLine
 62
7
  6
CONTINUOUS
 10
7.8146266727
 20
5.2647731735
 11
7.8146266727
 21
5.1468814451
  0
LINE
  5
326
100
AcDbEntity
  8
0
100
AcDbLine
 62
7
  6
CONTINUOUS
 10
7.8206085004
 20
5.1468814451
 11
7.8206085004
 21
5.2575064451
  0
LINE
  5
327
100
AcDbEntity
  8
0
100
AcDbLine
 62
7
  6
CONTINUOUS
 10
7.8226731996
 20
5.1468814451
 11
7.8226731996
 21
5.2575064451
  0
LINE
  5
328
100
AcDbEntity
  8
0
100
AcDbLine
 62
7
  6
CONTINUOUS
 10
7.8254050015
 20
5.264771176
 11
7.8254050015
 21
5.1468814451
  0
LINE
  5
329
100
AcDbEntity
  8
0
100
AcDbLine
 62
7
  6
CONTINUOUS
 10
7.8315893545
 20
5.1468814451
 11
7.8315893545
 21
5.2575064451
  0
LINE
  5
32A
100
AcDbEntity
  8
0
100
AcDbLine
 62
7
  6
CONTINUOUS
 10
7.8336192352
 20
5.1468814451
 11
7.8336192352
 21
5.2575064451
  0
LINE
  5
32B
100
AcDbEntity
  8
0
100
AcDbLine
 62
7
  6
CONTINUOUS
 10
7.8359966846
 20
5.2647731735
 11
7.8359966846
 21
5.1468814451
  0
LINE
  5
32C
100
AcDbEntity
  8
0
100
AcDbLine
 62
7
  6
CONTINUOUS
 10
7.8423835629
 20
5.1468814451
 11
7.8423835629
 21
5.2575064451
  0
LINE
  5
32D
100
AcDbEntity
  8
0
100
AcDbLine
 62
7
  6
CONTINUOUS
 10
7.8434413811
 20
6.0670381316
 11
7.843441382
 21
6.0662209102
  0
LINE
  5
32E
100
AcDbEntity
  8
0
100
AcDbLine
 62
7
  6
CONTINUOUS
 10
7.8443670869
 20
5.1468814451
 11
7.8443670869
 21
5.2575064451
  0
LINE
  5
32F
100
AcDbEntity
  8
0
100
AcDbLine
 62
7
  6
CONTINUOUS
 10
7.8463799185
 20
5.2647731735
 11
7.8463799185
 21
5.1468814451
  0
LINE
  5
330
100
AcDbEntity
  8
0
100
AcDbLine
 62
7
  6
CONTINUOUS
 10
7.852943329
 20
5.1468814451
 11
7.852943329
 21
5.2575064451
  0
LINE
  5
331
100
AcDbEntity
  8
0
100
AcDbLine
 62
7
  6
CONTINUOUS
 10
7.8548811352
 20
5.1468814451
 11
7.8548811352
 21
5.2575064451
  0
LINE
  5
332
100
AcDbEntity
  8
0
100
AcDbLine
 62
7
  6
CONTINUOUS
 10
7.856523832
 20
5.2647731735
 11
7.856523832
 21
5.1468814451
  0
LINE
  5
333
100
AcDbEntity
  8
0
100
AcDbLine
 62
7
  6
CONTINUOUS
 10
7.8632457849
 20
5.1468814451
 11
7.8632457849
 21
5.2575064451
  0
LINE
  5
334
100
AcDbEntity
  8
0
100
AcDbLine
 62
7
  6
CONTINUOUS
 10
7.865132562
 20
5.1468814451
 11
7.865132562
 21
5.2575064451
  0
LINE
  5
335
100
AcDbEntity
  8
0
100
AcDbLine
 62
7
  6
CONTINUOUS
 10
7.8664006215
 20
5.2647731735
 11
7.8664006215
 21
5.1468814451
  0
LINE
  5
336
100
AcDbEntity
  8
0
100
AcDbLine
 62
7
  6
CONTINUOUS
 10
7.8732626923
 20
5.1468814451
 11
7.8732626923
 21
5.2575064451
  0
LINE
  5
337
100
AcDbEntity
  8
0
100
AcDbLine
 62
7
  6
CONTINUOUS
 10
7.8750932688
 20
5.1468814451
 11
7.8750932688
 21
5.2575064451
  0
LINE
  5
338
100
AcDbEntity
  8
0
100
AcDbLine
 62
7
  6
CONTINUOUS
 10
7.8759832152
 20
5.2647731735
 11
7.8759832152
 21
5.1468814451
  0
LINE
  5
339
100
AcDbEntity
  8
0
100
AcDbLine
 62
7
  6
CONTINUOUS
 10
7.8829665955
 20
5.1468814451
 11
7.8829665955
 21
5.2575064451
  0
LINE
  5
33A
100
AcDbEntity
  8
0
100
AcDbLine
 62
7
  6
CONTINUOUS
 10
7.883753882
 20
5.7903135317
 11
7.883753882
 21
5.8017776052
  0
LINE
  5
33B
100
AcDbEntity
  8
0
100
AcDbLine
 62
7
  6
CONTINUOUS
 10
7.8847412388
 20
5.1468814451
 11
7.8847412388
 21
5.2575064451
  0
LINE
  5
33C
100
AcDbEntity
  8
0
100
AcDbLine
 62
7
  6
CONTINUOUS
 10
7.8852499348
 20
5.264771176
 11
7.8852499348
 21
5.1468814451
  0
LINE
  5
33D
100
AcDbEntity
  8
0
100
AcDbLine
 62
7
  6
CONTINUOUS
 10
7.888441382
 20
6.0506301025
 11
7.888441382
 21
5.8494022044
  0
LINE
  5
33E
100
AcDbEntity
  8
0
100
AcDbLine
 62
7
  6
CONTINUOUS
 10
7.8923257731
 20
5.1468814451
 11
7.8923257731
 21
5.2575064451
  0
LINE
  5
33F
100
AcDbEntity
  8
0
100
AcDbLine
 62
7
  6
CONTINUOUS
 10
7.8940341876
 20
5.1468814451
 11
7.8940341876
 21
5.2575064451
  0
LINE
  5
340
100
AcDbEntity
  8
0
100
AcDbLine
 62
7
  6
CONTINUOUS
 10
7.8941616331
 20
5.2647731735
 11
7.8941616331
 21
5.1468814451
  0
LINE
  5
341
100
AcDbEntity
  8
0
100
AcDbLine
 62
7
  6
CONTINUOUS
 10
7.9013299295
 20
5.1468814451
 11
7.9013299295
 21
5.2575064451
  0
LINE
  5
342
100
AcDbEntity
  8
0
100
AcDbLine
 62
7
  6
CONTINUOUS
 10
7.9029624838
 20
5.1468814451
 11
7.9029624838
 21
5.2575064451
  0
LINE
  5
343
100
AcDbEntity
  8
0
100
AcDbLine
 62
7
  6
CONTINUOUS
 10
7.903441382
 20
5.8158062717
 11
7.9034413813
 21
6.0364516071
  0
LINE
  5
344
100
AcDbEntity
  8
0
100
AcDbLine
 62
7
  6
CONTINUOUS
 10
7.9099390276
 20
5.1468814451
 11
7.9099390276
 21
5.2575064451
  0
LINE
  5
345
100
AcDbEntity
  8
0
100
AcDbLine
 62
7
  6
CONTINUOUS
 10
7.9114963708
 20
5.1468814451
 11
7.9114963708
 21
5.2575064451
  0
LINE
  5
346
100
AcDbEntity
  8
0
100
AcDbLine
 62
7
  6
CONTINUOUS
 10
7.9181345943
 20
5.1468814451
 11
7.9181345943
 21
5.2575064451
  0
LINE
  5
347
100
AcDbEntity
  8
0
100
AcDbLine
 62
7
  6
CONTINUOUS
 10
7.9196124578
 20
5.1468814451
 11
7.9196124578
 21
5.2575064451
  0
LINE
  5
348
100
AcDbEntity
  8
0
100
AcDbLine
 62
7
  6
CONTINUOUS
 10
7.9258941661
 20
5.1468814451
 11
7.9258941661
 21
5.2575064451
  0
LINE
  5
349
100
AcDbEntity
  8
0
100
AcDbLine
 62
7
  6
CONTINUOUS
 10
7.9272884991
 20
5.1468814451
 11
7.9272884991
 21
5.2575064451
  0
LINE
  5
34A
100
AcDbEntity
  8
0
100
AcDbLine
 62
7
  6
CONTINUOUS
 10
7.927816382
 20
5.0962564451
 11
7.927816382
 21
5.0812564451
  0
LINE
  5
34B
100
AcDbEntity
  8
0
100
AcDbLine
 62
7
  6
CONTINUOUS
 10
7.932128882
 20
5.7640635317
 11
7.932128882
 21
5.7790635317
  0
LINE
  5
34C
100
AcDbEntity
  8
0
100
AcDbLine
 62
7
  6
CONTINUOUS
 10
7.9331964745
 20
5.1468814451
 11
7.9331964745
 21
5.2575064451
  0
LINE
  5
34D
100
AcDbEntity
  8
0
100
AcDbLine
 62
7
  6
CONTINUOUS
 10
7.9345073474
 20
5.1468814451
 11
7.9345073474
 21
5.2575064451
  0
LINE
  5
34E
100
AcDbEntity
  8
0
100
AcDbLine
 62
7
  6
CONTINUOUS
 10
7.9400178341
 20
5.1468814451
 11
7.9400178341
 21
5.2575064451
  0
LINE
  5
34F
100
AcDbEntity
  8
0
100
AcDbLine
 62
7
  6
CONTINUOUS
 10
7.9412375508
 20
5.1468814451
 11
7.9412375508
 21
5.2575064451
  0
LINE
  5
350
100
AcDbEntity
  8
0
100
AcDbLine
 62
7
  6
CONTINUOUS
 10
7.9463505489
 20
5.1468814451
 11
7.9463505489
 21
5.2575064451
  0
LINE
  5
351
100
AcDbEntity
  8
0
100
AcDbLine
 62
7
  6
CONTINUOUS
 10
7.9474723277
 20
5.1468814451
 11
7.9474723277
 21
5.2575064451
  0
LINE
  5
352
100
AcDbEntity
  8
0
100
AcDbLine
 62
7
  6
CONTINUOUS
 10
7.950878882
 20
5.7528135317
 11
7.950878882
 21
5.2650064451
  0
LINE
  5
353
100
AcDbEntity
  8
0
100
AcDbLine
 62
7
  6
CONTINUOUS
 10
7.9521662606
 20
5.1468814451
 11
7.9521662606
 21
5.2575064451
  0
LINE
  5
354
100
AcDbEntity
  8
0
100
AcDbLine
 62
7
  6
CONTINUOUS
 10
7.953190697
 20
5.1468814451
 11
7.953190697
 21
5.2575064451
  0
LINE
  5
355
100
AcDbEntity
  8
0
100
AcDbLine
 62
7
  6
CONTINUOUS
 10
7.9574526988
 20
5.1468814451
 11
7.9574526988
 21
5.2575064451
  0
LINE
  5
356
100
AcDbEntity
  8
0
100
AcDbLine
 62
7
  6
CONTINUOUS
 10
7.958376985
 20
5.1468814451
 11
7.958376985
 21
5.2575064451
  0
LINE
  5
357
100
AcDbEntity
  8
0
100
AcDbLine
 62
7
  6
CONTINUOUS
 10
7.962195374
 20
5.1468814451
 11
7.962195374
 21
5.2575064451
  0
LINE
  5
358
100
AcDbEntity
  8
0
100
AcDbLine
 62
7
  6
CONTINUOUS
 10
7.9630169766
 20
5.1468814451
 11
7.9630169766
 21
5.2575064451
  0
LINE
  5
359
100
AcDbEntity
  8
0
100
AcDbLine
 62
7
  6
CONTINUOUS
 10
7.965316382
 20
5.1075064451
 11
7.965316382
 21
5.1468814451
  0
LINE
  5
35A
100
AcDbEntity
  8
0
100
AcDbLine
 62
7
  6
CONTINUOUS
 10
7.9663812868
 20
5.1468814451
 11
7.9663812868
 21
5.2575064451
  0
LINE
  5
35B
100
AcDbEntity
  8
0
100
AcDbLine
 62
7
  6
CONTINUOUS
 10
7.9671000718
 20
5.1468814451
 11
7.9671000718
 21
5.2575064451
  0
LINE
  5
35C
100
AcDbEntity
  8
0
100
AcDbLine
 62
7
  6
CONTINUOUS
 10
7.9699971062
 20
5.1468814451
 11
7.9699971062
 21
5.2575064451
  0
LINE
  5
35D
100
AcDbEntity
  8
0
100
AcDbLine
 62
7
  6
CONTINUOUS
 10
7.9706087307
 20
5.1468814451
 11
7.9706087307
 21
5.2575064451
  0
LINE
  5
35E
100
AcDbEntity
  8
0
100
AcDbLine
 62
7
  6
CONTINUOUS
 10
7.9730384892
 20
5.1468814451
 11
7.9730384892
 21
5.2575064451
  0
LINE
  5
35F
100
AcDbEntity
  8
0
100
AcDbLine
 62
7
  6
CONTINUOUS
 10
7.9735396849
 20
5.1468814451
 11
7.9735396849
 21
5.2575064451
  0
LINE
  5
360
100
AcDbEntity
  8
0
100
AcDbLine
 62
7
  6
CONTINUOUS
 10
7.975491532
 20
5.1468814451
 11
7.975491532
 21
5.2575064451
  0
LINE
  5
361
100
AcDbEntity
  8
0
100
AcDbLine
 62
7
  6
CONTINUOUS
 10
7.9758827827
 20
5.1468814451
 11
7.9758827827
 21
5.2575064451
  0
LINE
  5
362
100
AcDbEntity
  8
0
100
AcDbLine
 62
7
  6
CONTINUOUS
 10
7.9773513684
 20
5.1468814451
 11
7.9773513684
 21
5.2575064451
  0
LINE
  5
363
100
AcDbEntity
  8
0
100
AcDbLine
 62
7
  6
CONTINUOUS
 10
7.9776316018
 20
5.1468814451
 11
7.9776316018
 21
5.2575064451
  0
LINE
  5
364
100
AcDbEntity
  8
0
100
AcDbLine
 62
7
  6
CONTINUOUS
 10
7.9786129009
 20
5.1468814451
 11
7.9786129009
 21
5.2575064451
  0
LINE
  5
365
100
AcDbEntity
  8
0
100
AcDbLine
 62
7
  6
CONTINUOUS
 10
7.9787813488
 20
5.1468814451
 11
7.9787813488
 21
5.2575064451
  0
LINE
  5
366
100
AcDbEntity
  8
0
100
AcDbLine
 62
7
  6
CONTINUOUS
 10
7.9792726717
 20
5.1468814451
 11
7.9792726717
 21
5.2575064451
  0
LINE
  5
367
100
AcDbEntity
  8
0
100
AcDbLine
 62
7
  6
CONTINUOUS
 10
7.9793290093
 20
5.1468814451
 11
7.9793290093
 21
5.2575064451
  0
ARC
  5
368
100
AcDbEntity
  8
0
100
AcDbCircle
 62
7
  6
CONTINUOUS
 10
4.009066382
 20
2.1708135317
 40
0.1875
100
AcDbArc
 50
180.0
 51
360.0
  0
ARC
  5
369
100
AcDbEntity
  8
0
100
AcDbCircle
 62
7
  6
CONTINUOUS
 10
2.509066382
 20
5.5458135317
 40
0.37125
100
AcDbArc
 50
282.9882635054
 51
320.8518120289
  0
ARC
  5
36A
100
AcDbEntity
  8
0
100
AcDbCircle
 62
7
  6
CONTINUOUS
 10
2.509066382
 20
5.5458135317
 40
0.37125
100
AcDbArc
 50
39.1481879711
 51
77.0117364946
  0
ARC
  5
36B
100
AcDbEntity
  8
0
100
AcDbCircle
 62
7
  6
CONTINUOUS
 10
2.509066382
 20
5.5458135317
 40
0.37125
100
AcDbArc
 50
102.9882635054
 51
167.0117224633
  0
ARC
  5
36C
100
AcDbEntity
  8
0
100
AcDbCircle
 62
7
  6
CONTINUOUS
 10
2.509066382
 20
5.5458135317
 40
0.37125
100
AcDbArc
 50
192.9882775367
 51
257.0117364946
  0
ARC
  5
36D
100
AcDbEntity
  8
0
100
AcDbCircle
 62
7
  6
CONTINUOUS
 10
2.509066382
 20
5.5458135317
 40
0.36
100
AcDbArc
 50
103.4015820266
 51
166.5984308423
  0
ARC
  5
36E
100
AcDbEntity
  8
0
100
AcDbCircle
 62
7
  6
CONTINUOUS
 10
2.509066382
 20
5.5458135317
 40
0.36
100
AcDbArc
 50
193.4015691574
 51
256.5984179738
  0
ARC
  5
36F
100
AcDbEntity
  8
0
100
AcDbCircle
 62
7
  6
CONTINUOUS
 10
2.509066382
 20
5.5458135317
 40
0.36
100
AcDbArc
 50
283.4015820266
 51
319.3788884744
  0
ARC
  5
370
100
AcDbEntity
  8
0
100
AcDbCircle
 62
7
  6
CONTINUOUS
 10
2.509066382
 20
5.5458135317
 40
0.36
100
AcDbArc
 50
40.6211115247
 51
76.5984179738
  0
ARC
  5
371
100
AcDbEntity
  8
0
100
AcDbCircle
 62
7
  6
CONTINUOUS
 10
2.509066382
 20
5.5458135317
 40
0.234375
100
AcDbArc
 50
20.855294861
 51
69.1448140445
  0
ARC
  5
372
100
AcDbEntity
  8
0
100
AcDbCircle
 62
7
  6
CONTINUOUS
 10
2.509066382
 20
5.5458135317
 40
0.234375
100
AcDbArc
 50
110.8551859555
 51
159.144705139
  0
ARC
  5
373
100
AcDbEntity
  8
0
100
AcDbCircle
 62
7
  6
CONTINUOUS
 10
2.509066382
 20
5.5458135317
 40
0.234375
100
AcDbArc
 50
200.855294861
 51
249.1448140445
  0
ARC
  5
374
100
AcDbEntity
  8
0
100
AcDbCircle
 62
7
  6
CONTINUOUS
 10
2.509066382
 20
5.5458135317
 40
0.234375
100
AcDbArc
 50
290.8551859555
 51
339.144705139
  0
ARC
  5
375
100
AcDbEntity
  8
0
100
AcDbCircle
 62
7
  6
CONTINUOUS
 10
2.509066382
 20
5.5458135317
 40
0.223125
100
AcDbArc
 50
21.960061815
 51
68.0405587896
  0
ARC
  5
376
100
AcDbEntity
  8
0
100
AcDbCircle
 62
7
  6
CONTINUOUS
 10
2.509066382
 20
5.5458135317
 40
0.223125
100
AcDbArc
 50
111.9594412114
 51
158.0399381851
  0
ARC
  5
377
100
AcDbEntity
  8
0
100
AcDbCircle
 62
7
  6
CONTINUOUS
 10
2.509066382
 20
5.5458135317
 40
0.223125
100
AcDbArc
 50
201.960061815
 51
248.0405587896
  0
ARC
  5
378
100
AcDbEntity
  8
0
100
AcDbCircle
 62
7
  6
CONTINUOUS
 10
2.509066382
 20
5.5458135317
 40
0.223125
100
AcDbArc
 50
291.9594412114
 51
338.0399381851
  0
ARC
  5
379
100
AcDbEntity
  8
0
100
AcDbCircle
 62
7
  6
CONTINUOUS
 10
4.009066382
 20
5.5458135317
 40
0.1875
100
AcDbArc
 50
0.0
 51
180.0
  0
CIRCLE
  5
37A
100
AcDbEntity
  8
0
100
AcDbCircle
 62
7
  6
CONTINUOUS
 10
2.509066382
 20
5.5458135317
 40
0.140625
  0
ARC
  5
37B
100
AcDbEntity
  8
0
100
AcDbCircle
 62
7
  6
CONTINUOUS
 10
5.509066382
 20
5.5458135317
 40
0.37125
100
AcDbArc
 50
282.9882635054
 51
347.0117224633
  0
ARC
  5
37C
100
AcDbEntity
  8
0
100
AcDbCircle
 62
7
  6
CONTINUOUS
 10
5.509066382
 20
5.5458135317
 40
0.37125
100
AcDbArc
 50
12.9882775367
 51
77.0117364946
  0
ARC
  5
37D
100
AcDbEntity
  8
0
100
AcDbCircle
 62
7
  6
CONTINUOUS
 10
5.509066382
 20
5.5458135317
 40
0.37125
100
AcDbArc
 50
102.9882635054
 51
140.8518120289
  0
ARC
  5
37E
100
AcDbEntity
  8
0
100
AcDbCircle
 62
7
  6
CONTINUOUS
 10
5.509066382
 20
5.5458135317
 40
0.37125
100
AcDbArc
 50
219.1481879711
 51
257.0117364946
  0
ARC
  5
37F
100
AcDbEntity
  8
0
100
AcDbCircle
 62
7
  6
CONTINUOUS
 10
5.509066382
 20
5.5458135317
 40
0.36
100
AcDbArc
 50
103.4015820266
 51
139.3788884744
  0
ARC
  5
380
100
AcDbEntity
  8
0
100
AcDbCircle
 62
7
  6
CONTINUOUS
 10
5.509066382
 20
5.5458135317
 40
0.36
100
AcDbArc
 50
220.6211115247
 51
256.5984179738
  0
ARC
  5
381
100
AcDbEntity
  8
0
100
AcDbCircle
 62
7
  6
CONTINUOUS
 10
5.509066382
 20
5.5458135317
 40
0.36
100
AcDbArc
 50
283.4015820266
 51
346.5984308423
  0
ARC
  5
382
100
AcDbEntity
  8
0
100
AcDbCircle
 62
7
  6
CONTINUOUS
 10
5.509066382
 20
5.5458135317
 40
0.36
100
AcDbArc
 50
13.4015691574
 51
76.5984179738
  0
ARC
  5
383
100
AcDbEntity
  8
0
100
AcDbCircle
 62
7
  6
CONTINUOUS
 10
5.509066382
 20
5.5458135317
 40
0.234375
100
AcDbArc
 50
200.855294861
 51
249.1448140445
  0
ARC
  5
384
100
AcDbEntity
  8
0
100
AcDbCircle
 62
7
  6
CONTINUOUS
 10
5.509066382
 20
5.5458135317
 40
0.234375
100
AcDbArc
 50
290.8551859555
 51
339.144705139
  0
ARC
  5
385
100
AcDbEntity
  8
0
100
AcDbCircle
 62
7
  6
CONTINUOUS
 10
5.509066382
 20
5.5458135317
 40
0.234375
100
AcDbArc
 50
20.855294861
 51
69.1448140445
  0
ARC
  5
386
100
AcDbEntity
  8
0
100
AcDbCircle
 62
7
  6
CONTINUOUS
 10
5.509066382
 20
5.5458135317
 40
0.234375
100
AcDbArc
 50
110.8551859555
 51
159.144705139
  0
ARC
  5
387
100
AcDbEntity
  8
0
100
AcDbCircle
 62
7
  6
CONTINUOUS
 10
5.509066382
 20
5.5458135317
 40
0.223125
100
AcDbArc
 50
201.9598177266
 51
248.0402603847
  0
ARC
  5
388
100
AcDbEntity
  8
0
100
AcDbCircle
 62
7
  6
CONTINUOUS
 10
5.509066382
 20
5.5458135317
 40
0.223125
100
AcDbArc
 50
291.959739616
 51
338.0401822741
  0
ARC
  5
389
100
AcDbEntity
  8
0
100
AcDbCircle
 62
7
  6
CONTINUOUS
 10
5.509066382
 20
5.5458135317
 40
0.223125
100
AcDbArc
 50
21.9598177266
 51
68.0402603847
  0
ARC
  5
38A
100
AcDbEntity
  8
0
100
AcDbCircle
 62
7
  6
CONTINUOUS
 10
5.509066382
 20
5.5458135317
 40
0.223125
100
AcDbArc
 50
111.959739616
 51
158.0401822741
  0
CIRCLE
  5
38B
100
AcDbEntity
  8
0
100
AcDbCircle
 62
7
  6
CONTINUOUS
 10
5.509066382
 20
5.5458135317
 40
0.140625
  0
ARC
  5
38C
100
AcDbEntity
  8
0
100
AcDbCircle
 62
7
  6
CONTINUOUS
 10
7.601566382
 20
5.0812564451
 40
0.01125
100
AcDbArc
 50
180.0
 51
270.0
  0
ARC
  5
38D
100
AcDbEntity
  8
0
100
AcDbCircle
 62
7
  6
CONTINUOUS
 10
7.916566382
 20
5.0812564451
 40
0.01125
100
AcDbArc
 50
270.0
 51
360.0
  0
ARC
  5
38E
100
AcDbEntity
  8
0
100
AcDbCircle
 62
7
  6
CONTINUOUS
 10
7.954066382
 20
5.1075064451
 40
0.01125
100
AcDbArc
 50
270.0
 51
360.0
  0
ARC
  5
38F
100
AcDbEntity
  8
0
100
AcDbCircle
 62
7
  6
CONTINUOUS
 10
7.564066382
 20
5.1075064451
 40
0.01125
100
AcDbArc
 50
180.0
 51
270.0
  0
ARC
  5
390
100
AcDbEntity
  8
0
100
AcDbCircle
 62
7
  6
CONTINUOUS
 10
7.9690598751
 20
5.2558700931
 40
0.0091320376
100
AcDbArc
 50
75.05471307
 51
77.1429144378
  0
ARC
  5
391
100
AcDbEntity
  8
0
100
AcDbCircle
 62
7
  6
CONTINUOUS
 10
7.5490696932
 20
5.2558830056
 40
0.0091187378
100
AcDbArc
 50
102.8555635583
 51
104.9477415071
  0
ARC
  5
392
100
AcDbEntity
  8
0
100
AcDbCircle
 62
7
  6
CONTINUOUS
 10
7.546253882
 20
5.2575064451
 40
0.0075
100
AcDbArc
 50
90.0
 51
104.3890229413
  0
ARC
  5
393
100
AcDbEntity
  8
0
100
AcDbCircle
 62
7
  6
CONTINUOUS
 10
7.971878882
 20
5.2575064451
 40
0.0075
100
AcDbArc
 50
75.6109770587
 51
90.0
  0
ARC
  5
394
100
AcDbEntity
  8
0
100
AcDbCircle
 62
7
  6
CONTINUOUS
 10
7.9718942907
 20
5.2575657608
 40
0.0074387158
100
AcDbArc
 50
69.6952144728
 51
75.6124028534
  0
ARC
  5
395
100
AcDbEntity
  8
0
100
AcDbCircle
 62
7
  6
CONTINUOUS
 10
7.5462365096
 20
5.2575720479
 40
0.007432138
100
AcDbArc
 50
104.3849770097
 51
110.3074070662
  0
ARC
  5
396
100
AcDbEntity
  8
0
100
AcDbCircle
 62
7
  6
CONTINUOUS
 10
7.969468202
 20
5.2593294946
 40
0.0056806823
100
AcDbArc
 50
70.7688070528
 51
73.3912754646
  0
ARC
  5
397
100
AcDbEntity
  8
0
100
AcDbCircle
 62
7
  6
CONTINUOUS
 10
7.5486620543
 20
5.2593372495
 40
0.0056725341
100
AcDbArc
 50
106.6068411667
 51
109.2319056485
  0
ARC
  5
398
100
AcDbEntity
  8
0
100
AcDbCircle
 62
7
  6
CONTINUOUS
 10
7.9107051615
 20
5.0714622262
 40
0.00375
100
AcDbArc
 50
287.8240571942
 51
337.1516185425
  0
ARC
  5
399
100
AcDbEntity
  8
0
100
AcDbCircle
 62
7
  6
CONTINUOUS
 10
7.6074276025
 20
5.0714622262
 40
0.00375
100
AcDbArc
 50
202.8483814575
 51
252.1759428057
  0
ARC
  5
39A
100
AcDbEntity
  8
0
100
AcDbCircle
 62
7
  6
CONTINUOUS
 10
7.759066382
 20
5.5430812878
 40
0.4991476773
100
AcDbArc
 50
279.2852732631
 51
282.8518248541
  0
ARC
  5
39B
100
AcDbEntity
  8
0
100
AcDbCircle
 62
7
  6
CONTINUOUS
 10
7.759066382
 20
5.5430812878
 40
0.4991476773
100
AcDbArc
 50
284.6897937343
 51
287.8240571942
  0
ARC
  5
39C
100
AcDbEntity
  8
0
100
AcDbCircle
 62
7
  6
CONTINUOUS
 10
7.759066382
 20
5.5430812878
 40
0.4991476773
100
AcDbArc
 50
262.4196365177
 51
277.5803634823
  0
ARC
  5
39D
100
AcDbEntity
  8
0
100
AcDbCircle
 62
7
  6
CONTINUOUS
 10
7.759066382
 20
5.5430812878
 40
0.4991476773
100
AcDbArc
 50
257.1481751459
 51
260.7147267369
  0
ARC
  5
39E
100
AcDbEntity
  8
0
100
AcDbCircle
 62
7
  6
CONTINUOUS
 10
7.759066382
 20
5.5430812878
 40
0.4991476773
100
AcDbArc
 50
252.1759428058
 51
255.3102062657
  0
ARC
  5
39F
100
AcDbEntity
  8
0
100
AcDbCircle
 62
7
  6
CONTINUOUS
 10
7.759066382
 20
5.5458135317
 40
0.37125
100
AcDbArc
 50
306.3923540991
 51
67.1142146628
  0
ARC
  5
3A0
100
AcDbEntity
  8
0
100
AcDbCircle
 62
7
  6
CONTINUOUS
 10
7.759066382
 20
5.5458135317
 40
0.37125
100
AcDbArc
 50
112.8857853372
 51
233.6076459009
  0
ARC
  5
3A1
100
AcDbEntity
  8
0
100
AcDbCircle
 62
7
  6
CONTINUOUS
 10
7.759066382
 20
5.5458135317
 40
0.36
100
AcDbArc
 50
113.6436923677
 51
232.4062161062
  0
ARC
  5
3A2
100
AcDbEntity
  8
0
100
AcDbCircle
 62
7
  6
CONTINUOUS
 10
7.759066382
 20
5.5458135317
 40
0.36
100
AcDbArc
 50
307.5937635416
 51
66.3563076326
  0
ARC
  5
3A3
100
AcDbEntity
  8
0
100
AcDbCircle
 62
7
  6
CONTINUOUS
 10
7.759066382
 20
5.5458135317
 40
0.234375
100
AcDbArc
 50
144.9256155235
 51
215.0743844765
  0
ARC
  5
3A4
100
AcDbEntity
  8
0
100
AcDbCircle
 62
7
  6
CONTINUOUS
 10
7.759066382
 20
5.5458135317
 40
0.234375
100
AcDbArc
 50
324.9256155235
 51
35.0743844765
  0
ARC
  5
3A5
100
AcDbEntity
  8
0
100
AcDbCircle
 62
7
  6
CONTINUOUS
 10
7.759066382
 20
5.5458135317
 40
0.1939432062
100
AcDbArc
 50
351.5100766428
 51
8.4899233572
  0
ARC
  5
3A6
100
AcDbEntity
  8
0
100
AcDbCircle
 62
7
  6
CONTINUOUS
 10
7.759066382
 20
5.5458135317
 40
0.1939432062
100
AcDbArc
 50
171.5100766428
 51
188.4899233572
  0
ARC
  5
3A7
100
AcDbEntity
  8
0
100
AcDbCircle
 62
7
  6
CONTINUOUS
 10
7.6296705711
 20
5.8362771884
 40
0.0149817638
100
AcDbArc
 50
89.9204252413
 51
179.920238359
  0
ARC
  5
3A8
100
AcDbEntity
  8
0
100
AcDbCircle
 62
7
  6
CONTINUOUS
 10
7.6296705711
 20
5.834417891
 40
0.0149817638
100
AcDbArc
 50
89.9204252413
 51
179.9202383589
  0
ARC
  5
3A9
100
AcDbEntity
  8
0
100
AcDbCircle
 62
7
  6
CONTINUOUS
 10
7.8884621923
 20
5.8344178916
 40
0.0149817638
100
AcDbArc
 50
0.0797594741
 51
90.0795725815
  0
ARC
  5
3AA
100
AcDbEntity
  8
0
100
AcDbCircle
 62
7
  6
CONTINUOUS
 10
7.8884621923
 20
5.836277189
 40
0.0149817638
100
AcDbArc
 50
0.0797594679
 51
90.0795725865
  0
ARC
  5
3AB
100
AcDbEntity
  8
0
100
AcDbCircle
 62
7
  6
CONTINUOUS
 10
7.597253882
 20
5.7790635317
 40
0.01125
100
AcDbArc
 50
90.0
 51
180.0
  0
ARC
  5
3AC
100
AcDbEntity
  8
0
100
AcDbCircle
 62
7
  6
CONTINUOUS
 10
7.920878882
 20
5.7790635317
 40
0.01125
100
AcDbArc
 50
0.0
 51
90.0
  0
ARC
  5
3AD
100
AcDbEntity
  8
0
100
AcDbCircle
 62
7
  6
CONTINUOUS
 10
7.939628882
 20
5.7528135317
 40
0.01125
100
AcDbArc
 50
0.0
 51
90.0
  0
ARC
  5
3AE
100
AcDbEntity
  8
0
100
AcDbCircle
 62
7
  6
CONTINUOUS
 10
7.578503882
 20
5.7528135317
 40
0.01125
100
AcDbArc
 50
90.0
 51
180.0
  0
LINE
  5
3AF
100
AcDbEntity
  8
0
100
AcDbLine
 62
7
  6
CONTINUOUS
 10
7.8034752753
 20
5.0486092906
 11
7.8036718549
 21
5.0488114776
  0
SPLINE
  5
3B0
100
AcDbEntity
  8
0
100
AcDbSpline
 62
7
  6
CONTINUOUS
 70
0
 71
3
 72
24
 73
20
 74
0
 42
0.0000001
 43
0.0000001
 44
0.0000000001
 40
0.0
 40
0.0
 40
0.0
 40
0.0
 40
0.0112228512
 40
0.0225249081
 40
0.0342857447
 40
0.0468440536
 40
0.0604768517
 40
0.075397646
 40
0.1096611173
 40
0.1504604376
 40
0.1981293557
 40
0.2527301039
 40
0.3141415429
 40
0.3821053981
 40
0.4562525633
 40
0.536120047
 40
0.6211634029
 40
0.8042513653
 40
1.0
 40
1.0
 40
1.0
 40
1.0
 10
7.7058295155
 20
5.0590461197
 30
0.0
 10
7.7058280367
 20
5.0590713062
 30
0.0
 10
7.7058298115
 20
5.0591222809
 30
0.0
 10
7.7058474312
 20
5.0591977785
 30
0.0
 10
7.7058798241
 20
5.0592714717
 30
0.0
 10
7.7059267622
 20
5.0593431188
 30
0.0
 10
7.705988021
 20
5.059412674
 30
0.0
 10
7.7060935533
 20
5.0595069213
 30
0.0
 10
7.7062642177
 20
5.0596175411
 30
0.0
 10
7.7065143793
 20
5.0597351119
 30
0.0
 10
7.706817943
 20
5.0598426478
 30
0.0
 10
7.7071732564
 20
5.0599392908
 30
0.0
 10
7.7075782347
 20
5.0600242157
 30
0.0
 10
7.7080301488
 20
5.0600966229
 30
0.0
 10
7.7085257656
 20
5.0601558124
 30
0.0
 10
7.7090613602
 20
5.0602012084
 30
0.0
 10
7.709842631
 20
5.0602437407
 30
0.0
 10
7.7108858397
 20
5.0602576402
 30
0.0
 10
7.7117373523
 20
5.0602306893
 30
0.0
 10
7.712176823
 20
5.060207945
 30
0.0
  0
SPLINE
  5
3B1
100
AcDbEntity
  8
0
100
AcDbSpline
 62
7
  6
CONTINUOUS
 70
0
 71
3
 72
33
 73
29
 74
0
 42
0.0000001
 43
0.0000001
 44
0.0000000001
 40
0.0
 40
0.0
 40
0.0
 40
0.0
 40
0.0031827592
 40
0.0065417662
 40
0.0102711306
 40
0.0145123513
 40
0.0193597808
 40
0.0248741017
 40
0.0380311281
 40
0.0541409018
 40
0.0732252543
 40
0.0952379546
 40
0.1200883525
 40
0.1476524794
 40
0.1777788416
 40
0.2102917432
 40
0.2449944172
 40
0.3200862579
 40
0.4011359842
 40
0.4860126236
 40
0.5724488223
 40
0.6581195572
 40
0.7407284271
 40
0.8180883189
 40
0.8881984816
 40
0.9493093875
 40
0.9760340433
 40
1.0
 40
1.0
 40
1.0
 40
1.0
 10
7.7517212643
 20
5.0493738162
 30
0.0
 10
7.7517203719
 20
5.0493885753
 30
0.0
 10
7.7517228131
 20
5.0494193241
 30
0.0
 10
7.7517392529
 20
5.0494646141
 30
0.0
 10
7.7517679133
 20
5.0495091713
 30
0.0
 10
7.7518084369
 20
5.0495531052
 30
0.0
 10
7.7518607085
 20
5.0495965836
 30
0.0
 10
7.7519515044
 20
5.0496576168
 30
0.0
 10
7.7520960747
 20
5.0497309254
 30
0.0
 10
7.7523055458
 20
5.04981253
 30
0.0
 10
7.7525594353
 20
5.0498916678
 30
0.0
 10
7.7528562967
 20
5.0499677827
 30
0.0
 10
7.7531944473
 20
5.0500402985
 30
0.0
 10
7.7535718118
 20
5.0501086832
 30
0.0
 10
7.7539860317
 20
5.0501724338
 30
0.0
 10
7.7544344641
 20
5.0502310932
 30
0.0
 10
7.7550915969
 20
5.0503038538
 30
0.0
 10
7.7559752819
 20
5.0503777634
 30
0.0
 10
7.7570934416
 20
5.0504387292
 30
0.0
 10
7.7582654832
 20
5.0504721832
 30
0.0
 10
7.7594594499
 20
5.0504771068
 30
0.0
 10
7.7606426579
 20
5.050453344
 30
0.0
 10
7.7617827745
 20
5.0504016265
 30
0.0
 10
7.7628489603
 20
5.0503235872
 30
0.0
 10
7.7638127494
 20
5.0502215786
 30
0.0
 10
7.7645390974
 20
5.0501152309
 30
0.0
 10
7.7650493501
 20
5.0500178445
 30
0.0
 10
7.7652790908
 20
5.0499657911
 30
0.0
 10
7.7653870867
 20
5.0499387162
 30
0.0
  0
SPLINE
  5
3B2
100
AcDbEntity
  8
0
100
AcDbSpline
 62
7
  6
CONTINUOUS
 70
0
 71
3
 72
28
 73
24
 74
0
 42
0.0000001
 43
0.0000001
 44
0.0000000001
 40
0.0
 40
0.0
 40
0.0
 40
0.0
 40
0.0023551957
 40
0.0047789628
 40
0.0074301355
 40
0.0104311496
 40
0.0177812656
 40
0.0272324899
 40
0.0389437457
 40
0.0529771384
 40
0.0693462089
 40
0.088034558
 40
0.1090073117
 40
0.1322128843
 40
0.185058867
 40
0.2459476777
 40
0.314110633
 40
0.3886627326
 40
0.4686237649
 40
0.5529373223
 40
0.6404918998
 40
0.8207127413
 40
1.0
 40
1.0
 40
1.0
 40
1.0
 10
7.6999665395
 20
5.0501494139
 30
0.0
 10
7.6999661065
 20
5.0501566861
 30
0.0
 10
7.6999672305
 20
5.0501716505
 30
0.0
 10
7.6999753014
 20
5.0501934433
 30
0.0
 10
7.6999894631
 20
5.0502142622
 30
0.0
 10
7.7000181615
 20
5.0502427019
 30
0.0
 10
7.7000707671
 20
5.0502752663
 30
0.0
 10
7.7001523897
 20
5.0503090444
 30
0.0
 10
7.7002569198
 20
5.0503400354
 30
0.0
 10
7.700384194
 20
5.0503680929
 30
0.0
 10
7.7005340225
 20
5.0503930927
 30
0.0
 10
7.7007059878
 20
5.050414909
 30
0.0
 10
7.7008995856
 20
5.0504334391
 30
0.0
 10
7.7011989788
 20
5.0504545608
 30
0.0
 10
7.701622345
 20
5.0504709047
 30
0.0
 10
7.7021850163
 20
5.050476062
 30
0.0
 10
7.7028147843
 20
5.050467207
 30
0.0
 10
7.7035032169
 20
5.0504444163
 30
0.0
 10
7.7042410772
 20
5.0504079491
 30
0.0
 10
7.7050184691
 20
5.0503582956
 30
0.0
 10
7.7061043441
 20
5.0502745698
 30
0.0
 10
7.7074810233
 20
5.0501427364
 30
0.0
 10
7.7085853589
 20
5.0500112051
 30
0.0
 10
7.7091351673
 20
5.0499387162
 30
0.0
  0
SPLINE
  5
3B3
100
AcDbEntity
  8
0
100
AcDbSpline
 62
7
  6
CONTINUOUS
 70
0
 71
3
 72
28
 73
24
 74
0
 42
0.0000001
 43
0.0000001
 44
0.0000000001
 40
0.0
 40
0.0
 40
0.0
 40
0.0
 40
0.0093716593
 40
0.0195776535
 40
0.0311819717
 40
0.0445496642
 40
0.0598938966
 40
0.077326941
 40
0.0968964002
 40
0.1186056449
 40
0.1424272538
 40
0.1683110598
 40
0.225965869
 40
0.290851797
 40
0.3620390695
 40
0.4384238314
 40
0.5187466537
 40
0.6016126016
 40
0.6855171628
 40
0.7688844916
 40
0.8501157501
 40
0.9276435831
 40
1.0
 40
1.0
 40
1.0
 40
1.0
 10
7.7967559619
 20
5.0575879551
 30
0.0
 10
7.7967536172
 20
5.0576280047
 30
0.0
 10
7.7967619664
 20
5.0577128403
 30
0.0
 10
7.7968114191
 20
5.0578381935
 30
0.0
 10
7.7968957831
 20
5.0579639874
 30
0.0
 10
7.7970140585
 20
5.0580904171
 30
0.0
 10
7.7971657049
 20
5.0582175684
 30
0.0
 10
7.7973502096
 20
5.0583451736
 30
0.0
 10
7.7975669274
 20
5.0584728075
 30
0.0
 10
7.7978150513
 20
5.0585999691
 30
0.0
 10
7.798093625
 20
5.0587261355
 30
0.0
 10
7.7985197652
 20
5.0588985302
 30
0.0
 10
7.7991211315
 20
5.0591050248
 30
0.0
 10
7.7999189515
 20
5.0593324289
 30
0.0
 10
7.8008039611
 20
5.0595431454
 30
0.0
 10
7.8017610804
 20
5.0597330521
 30
0.0
 10
7.8027734414
 20
5.0598982589
 30
0.0
 10
7.8038224622
 20
5.0600352676
 30
0.0
 10
7.8048881838
 20
5.0601410775
 30
0.0
 10
7.8059496967
 20
5.0602133082
 30
0.0
 10
7.8069857287
 20
5.0602503158
 30
0.0
 10
7.8079752888
 20
5.0602512948
 30
0.0
 10
7.8086166846
 20
5.0602270153
 30
0.0
 10
7.8089258406
 20
5.060207945
 30
0.0
  0
SPLINE
  5
3B4
100
AcDbEntity
  8
0
100
AcDbSpline
 62
7
  6
CONTINUOUS
 70
0
 71
3
 72
36
 73
32
 74
0
 42
0.0000001
 43
0.0000001
 44
0.0000000001
 40
0.0
 40
0.0
 40
0.0
 40
0.0
 40
0.0050365122
 40
0.0087200192
 40
0.0133221552
 40
0.018882986
 40
0.0254166308
 40
0.0329227704
 40
0.041393446
 40
0.0611658451
 40
0.0845789212
 40
0.1114324948
 40
0.1414956907
 40
0.210210836
 40
0.2884742232
 40
0.3738082156
 40
0.4635601349
 40
0.5549316565
 40
0.6450087095
 40
0.7308063824
 40
0.8093486392
 40
0.8450015271
 40
0.8777927561
 40
0.9074148355
 40
0.9335918699
 40
0.9560875052
 40
0.9747146551
 40
0.9825377299
 40
0.9893565171
 40
0.9951724464
 40
1.0
 40
1.0
 40
1.0
 40
1.0
 10
7.8610491393
 20
5.0565785229
 30
0.0
 10
7.8610475634
 20
5.0566053025
 30
0.0
 10
7.861073001
 20
5.0566503727
 30
0.0
 10
7.8611221238
 20
5.0567000612
 30
0.0
 10
7.8611801831
 20
5.0567463869
 30
0.0
 10
7.8612541456
 20
5.0567956407
 30
0.0
 10
7.8613443328
 20
5.0568484047
 30
0.0
 10
7.8614504087
 20
5.0569043222
 30
0.0
 10
7.8616218068
 20
5.0569873395
 30
0.0
 10
7.8618743196
 20
5.0570968553
 30
0.0
 10
7.8622216816
 20
5.0572330169
 30
0.0
 10
7.8626240926
 20
5.0573785004
 30
0.0
 10
7.8632580105
 20
5.0575928825
 30
0.0
 10
7.8641589444
 20
5.0578718108
 30
0.0
 10
7.8653493686
 20
5.0582096773
 30
0.0
 10
7.8666544961
 20
5.0585528419
 30
0.0
 10
7.8680330765
 20
5.0588903404
 30
0.0
 10
7.8694415346
 20
5.0592112468
 30
0.0
 10
7.8708344045
 20
5.0595049521
 30
0.0
 10
7.8721651045
 20
5.0597613126
 30
0.0
 10
7.873215045
 20
5.0599417196
 30
0.0
 10
7.8739891452
 20
5.0600588779
 30
0.0
 10
7.8745067548
 20
5.0601291207
 30
0.0
 10
7.8749754471
 20
5.0601839474
 30
0.0
 10
7.8753907017
 20
5.0602228577
 30
0.0
 10
7.8757484998
 20
5.0602454811
 30
0.0
 10
7.8760092831
 20
5.0602511795
 30
0.0
 10
7.8761864462
 20
5.0602460497
 30
0.0
 10
7.8762951806
 20
5.0602382781
 30
0.0
 10
7.8763874814
 20
5.060226428
 30
0.0
 10
7.8764430866
 20
5.0602148195
 30
0.0
 10
7.8764678635
 20
5.060207945
 30
0.0
  0
SPLINE
  5
3B5
100
AcDbEntity
  8
0
100
AcDbSpline
 62
7
  6
CONTINUOUS
 70
0
 71
3
 72
20
 73
16
 74
0
 42
0.0000001
 43
0.0000001
 44
0.0000000001
 40
0.0
 40
0.0
 40
0.0
 40
0.0
 40
0.0221636873
 40
0.0453754572
 40
0.0721440085
 40
0.1041424633
 40
0.1423235969
 40
0.1871895711
 40
0.2389778228
 40
0.2977548517
 40
0.3634778639
 40
0.4360172579
 40
0.6006974166
 40
0.7896348483
 40
1.0
 40
1.0
 40
1.0
 40
1.0
 10
7.6672868552
 20
5.0596755989
 30
0.0
 10
7.6672852661
 20
5.0597031418
 30
0.0
 10
7.6672921695
 20
5.0597607781
 30
0.0
 10
7.6673361099
 20
5.0598410839
 30
0.0
 10
7.6674101435
 20
5.0599128608
 30
0.0
 10
7.667512814
 20
5.0599773731
 30
0.0
 10
7.6676441576
 20
5.0600353197
 30
0.0
 10
7.6678041476
 20
5.0600867653
 30
0.0
 10
7.6679925209
 20
5.0601315472
 30
0.0
 10
7.6682087622
 20
5.0601694627
 30
0.0
 10
7.6684521591
 20
5.0602003117
 30
0.0
 10
7.6688278954
 20
5.0602331577
 30
0.0
 10
7.6693583057
 20
5.0602530178
 30
0.0
 10
7.6700604714
 20
5.0602466779
 30
0.0
 10
7.6705571008
 20
5.0602238127
 30
0.0
 10
7.6708184763
 20
5.060207945
 30
0.0
  0
SPLINE
  5
3B6
100
AcDbEntity
  8
0
100
AcDbSpline
 62
7
  6
CONTINUOUS
 70
0
 71
3
 72
25
 73
21
 74
0
 42
0.0000001
 43
0.0000001
 44
0.0000000001
 40
0.0
 40
0.0
 40
0.0
 40
0.0
 40
0.0105732466
 40
0.0215141234
 40
0.033269006
 40
0.0461929019
 40
0.0605455035
 40
0.0765042681
 40
0.0941859255
 40
0.1136604324
 40
0.158096587
 40
0.2098541763
 40
0.2686829987
 40
0.3341387255
 40
0.4056193996
 40
0.4823873088
 40
0.5635849847
 40
0.6482525399
 40
0.8237496646
 40
1.0
 40
1.0
 40
1.0
 40
1.0
 10
7.7512930577
 20
5.0583124969
 30
0.0
 10
7.7512910056
 20
5.0583475163
 30
0.0
 10
7.7512949823
 20
5.0584195057
 30
0.0
 10
7.7513255351
 20
5.0585263917
 30
0.0
 10
7.7513800593
 20
5.0586319842
 30
0.0
 10
7.7514579352
 20
5.0587360434
 30
0.0
 10
7.7515587899
 20
5.0588385356
 30
0.0
 10
7.7516823423
 20
5.058939377
 30
0.0
 10
7.7518283375
 20
5.0590384037
 30
0.0
 10
7.7520630194
 20
5.0591737117
 30
0.0
 10
7.7524126526
 20
5.0593338128
 30
0.0
 10
7.7528972848
 20
5.0595072584
 30
0.0
 10
7.7534593567
 20
5.059667335
 30
0.0
 10
7.7540928222
 20
5.0598118708
 30
0.0
 10
7.7547905929
 20
5.0599387945
 30
0.0
 10
7.7555443851
 20
5.0600462312
 30
0.0
 10
7.7563448875
 20
5.0601325602
 30
0.0
 10
7.75747432
 20
5.0602186893
 30
0.0
 10
7.7589223055
 20
5.0602649188
 30
0.0
 10
7.7600897132
 20
5.0602383115
 30
0.0
 10
7.7606736801
 20
5.060207945
 30
0.0
  0
SPLINE
  5
3B7
100
AcDbEntity
  8
0
100
AcDbSpline
 62
7
  6
CONTINUOUS
 70
0
 71
3
 72
32
 73
28
 74
0
 42
0.0000001
 43
0.0000001
 44
0.0000000001
 40
0.0
 40
0.0
 40
0.0
 40
0.0
 40
0.0036619687
 40
0.0075986205
 40
0.0119538953
 40
0.0168313299
 40
0.0283960593
 40
0.0426178919
 40
0.059598327
 40
0.07933721
 40
0.101776678
 40
0.1268217345
 40
0.1543510039
 40
0.1842229517
 40
0.2503435404
 40
0.3237537243
 40
0.40282002
 40
0.4857312923
 40
0.5705182938
 40
0.6550827248
 40
0.7372453273
 40
0.8148146651
 40
0.8856822279
 40
0.9179967101
 40
0.9479404306
 40
0.9753291967
 40
1.0
 40
1.0
 40
1.0
 40
1.0
 10
7.8352970571
 20
5.0569807015
 30
0.0
 10
7.8352959864
 20
5.0569989238
 30
0.0
 10
7.835298423
 20
5.0570371182
 30
0.0
 10
7.8353150071
 20
5.0570947252
 30
0.0
 10
7.8353441311
 20
5.0571538687
 30
0.0
 10
7.8354027959
 20
5.0572396644
 30
0.0
 10
7.8355101601
 20
5.0573498062
 30
0.0
 10
7.8356786836
 20
5.057480896
 30
0.0
 10
7.8358931629
 20
5.0576173865
 30
0.0
 10
7.8361522953
 20
5.057758457
 30
0.0
 10
7.8364546086
 20
5.0579032701
 30
0.0
 10
7.8367982378
 20
5.0580509069
 30
0.0
 10
7.8371810965
 20
5.0582004649
 30
0.0
 10
7.8377607437
 20
5.0584083033
 30
0.0
 10
7.8385658801
 20
5.0586638252
 30
0.0
 10
7.8396162088
 20
5.0589545766
 30
0.0
 10
7.8407565603
 20
5.0592315864
 30
0.0
 10
7.8419597818
 20
5.0594877987
 30
0.0
 10
7.8431964294
 20
5.0597164142
 30
0.0
 10
7.84443509
 20
5.0599111369
 30
0.0
 10
7.8456430732
 20
5.0600664007
 30
0.0
 10
7.846787341
 20
5.0601775903
 30
0.0
 10
7.8476869362
 20
5.0602325282
 30
0.0
 10
7.8483503605
 20
5.0602498563
 30
0.0
 10
7.8487972856
 20
5.0602497748
 30
0.0
 10
7.8492059173
 20
5.0602370795
 30
0.0
 10
7.8494649054
 20
5.0602193627
 30
0.0
 10
7.8495873505
 20
5.060207945
 30
0.0
  0
SPLINE
  5
3B8
100
AcDbEntity
  8
0
100
AcDbSpline
 62
7
  6
CONTINUOUS
 70
0
 71
3
 72
19
 73
15
 74
0
 42
0.0000001
 43
0.0000001
 44
0.0000000001
 40
0.0
 40
0.0
 40
0.0
 40
0.0
 40
0.0190747112
 40
0.0391815766
 40
0.0631223712
 40
0.0926198019
 40
0.1285898656
 40
0.171518884
 40
0.2216545197
 40
0.2791224893
 40
0.4161713465
 40
0.5825019844
 40
0.7774701873
 40
1.0
 40
1.0
 40
1.0
 40
1.0
 10
7.6415332247
 20
5.0600996356
 30
0.0
 10
7.6415327033
 20
5.0601086355
 30
0.0
 10
7.6415353846
 20
5.0601276421
 30
0.0
 10
7.6415521923
 20
5.0601531819
 30
0.0
 10
7.6415798925
 20
5.0601748123
 30
0.0
 10
7.6416180249
 20
5.0601934472
 30
0.0
 10
7.6416668223
 20
5.0602094043
 30
0.0
 10
7.6417263961
 20
5.0602227378
 30
0.0
 10
7.6417967725
 20
5.0602334434
 30
0.0
 10
7.6419118775
 20
5.0602448169
 30
0.0
 10
7.6420824545
 20
5.0602509016
 30
0.0
 10
7.6423180074
 20
5.0602473487
 30
0.0
 10
7.642593612
 20
5.0602330356
 30
0.0
 10
7.6427903255
 20
5.0602173695
 30
0.0
 10
7.6428950732
 20
5.060207945
 30
0.0
  0
SPLINE
  5
3B9
100
AcDbEntity
  8
0
100
AcDbSpline
 62
7
  6
CONTINUOUS
 70
0
 71
3
 72
25
 73
21
 74
0
 42
0.0000001
 43
0.0000001
 44
0.0000000001
 40
0.0
 40
0.0
 40
0.0
 40
0.0
 40
0.2018820221
 40
0.3897961378
 40
0.4769630237
 40
0.5588343733
 40
0.6348813692
 40
0.7046155565
 40
0.7675940455
 40
0.8234254409
 40
0.8717800023
 40
0.9124044878
 40
0.9297700928
 40
0.9451629103
 40
0.9585946348
 40
0.9701036566
 40
0.9797683112
 40
0.9877400944
 40
0.9943094855
 40
1.0
 40
1.0
 40
1.0
 40
1.0
 10
7.7091351673
 20
5.0499387162
 30
0.0
 10
7.7095189759
 20
5.0498881134
 30
0.0
 10
7.7102591971
 20
5.0497838835
 30
0.0
 10
7.7111622516
 20
5.0496383478
 30
0.0
 10
7.711835942
 20
5.0495171202
 30
0.0
 10
7.7122973454
 20
5.0494276754
 30
0.0
 10
7.7127246103
 20
5.0493380336
 30
0.0
 10
7.7131148863
 20
5.0492488115
 30
0.0
 10
7.7134655551
 20
5.0491606326
 30
0.0
 10
7.713774277
 20
5.0490741407
 30
0.0
 10
7.7140389575
 20
5.0489899502
 30
0.0
 10
7.7142303173
 20
5.0489190738
 30
0.0
 10
7.7143594209
 20
5.0488629994
 30
0.0
 10
7.7144390357
 20
5.0488240958
 30
0.0
 10
7.7145065111
 20
5.0487861791
 30
0.0
 10
7.7145617798
 20
5.0487492968
 30
0.0
 10
7.714604852
 20
5.0487134555
 30
0.0
 10
7.7146357588
 20
5.0486784823
 30
0.0
 10
7.7146544886
 20
5.0486439585
 30
0.0
 10
7.7146581582
 20
5.0486200506
 30
0.0
 10
7.7146574813
 20
5.0486091595
 30
0.0
  0
SPLINE
  5
3BA
100
AcDbEntity
  8
0
100
AcDbSpline
 62
7
  6
CONTINUOUS
 70
0
 71
3
 72
17
 73
13
 74
0
 42
0.0000001
 43
0.0000001
 44
0.0000000001
 40
0.0
 40
0.0
 40
0.0
 40
0.0
 40
0.2026717051
 40
0.3820498391
 40
0.537768079
 40
0.669941226
 40
0.7792497573
 40
0.8674184705
 40
0.9047487005
 40
0.9385161217
 40
0.9698108369
 40
1.0
 40
1.0
 40
1.0
 40
1.0
 10
7.7653870867
 20
5.0499387162
 30
0.0
 10
7.7654674585
 20
5.0499185668
 30
0.0
 10
7.7656183409
 20
5.049877993
 30
0.0
 10
7.765827962
 20
5.0498113734
 30
0.0
 10
7.7660064754
 20
5.0497429842
 30
0.0
 10
7.766153346
 20
5.049673111
 30
0.0
 10
7.766268202
 20
5.0496020512
 30
0.0
 10
7.7663411603
 20
5.0495383489
 30
0.0
 10
7.7663805561
 20
5.0494862094
 30
0.0
 10
7.7664000218
 20
5.0494488815
 30
0.0
 10
7.7664108938
 20
5.0494111906
 30
0.0
 10
7.7664122503
 20
5.0493858265
 30
0.0
 10
7.7664114811
 20
5.0493735082
 30
0.0
  0
SPLINE
  5
3BB
100
AcDbEntity
  8
0
100
AcDbSpline
 62
7
  6
CONTINUOUS
 70
0
 71
3
 72
36
 73
32
 74
0
 42
0.0000001
 43
0.0000001
 44
0.0000000001
 40
0.0
 40
0.0
 40
0.0
 40
0.0
 40
0.01371175
 40
0.0311097747
 40
0.0521185924
 40
0.076604801
 40
0.1043921678
 40
0.1352723507
 40
0.2053396312
 40
0.2846410287
 40
0.3706925253
 40
0.4607627538
 40
0.551945203
 40
0.6412460687
 40
0.7256879666
 40
0.7651905048
 40
0.8024298378
 40
0.8370926847
 40
0.8688903561
 40
0.8975630263
 40
0.922884468
 40
0.9446674256
 40
0.9627718652
 40
0.970419171
 40
0.9771259768
 40
0.9828998495
 40
0.9877632525
 40
0.9917619189
 40
0.9949887434
 40
0.9976258199
 40
1.0
 40
1.0
 40
1.0
 40
1.0
 10
7.8036718549
 20
5.0488114776
 30
0.0
 10
7.8037309287
 20
5.0488438502
 30
0.0
 10
7.8038702992
 20
5.0489074037
 30
0.0
 10
7.8041105813
 20
5.0489960951
 30
0.0
 10
7.8044055843
 20
5.0490883527
 30
0.0
 10
7.8047528999
 20
5.0491833285
 30
0.0
 10
7.8051498166
 20
5.0492801598
 30
0.0
 10
7.8057674429
 20
5.0494164303
 30
0.0
 10
7.8066373326
 20
5.0495829518
 30
0.0
 10
7.8077787207
 20
5.0497702658
 30
0.0
 10
7.8090212627
 20
5.0499461105
 30
0.0
 10
7.8103249395
 20
5.050104602
 30
0.0
 10
7.811647231
 20
5.0502403462
 30
0.0
 10
7.8129443026
 20
5.0503486929
 30
0.0
 10
7.8139899501
 20
5.0504145267
 30
0.0
 10
7.8147810416
 20
5.0504497396
 30
0.0
 10
7.8153281013
 20
5.0504666977
 30
0.0
 10
7.8158375129
 20
5.0504746777
 30
0.0
 10
7.8163049075
 20
5.0504736309
 30
0.0
 10
7.8167262991
 20
5.0504636029
 30
0.0
 10
7.8170981594
 20
5.0504447665
 30
0.0
 10
7.817417405
 20
5.0504173399
 30
0.0
 10
7.8176490262
 20
5.0503862824
 30
0.0
 10
7.8178056354
 20
5.0503560225
 30
0.0
 10
7.817901768
 20
5.0503326573
 30
0.0
 10
7.8179832216
 20
5.0503074006
 30
0.0
 10
7.8180499539
 20
5.0502803123
 30
0.0
 10
7.8181020441
 20
5.0502513518
 30
0.0
 10
7.8181397159
 20
5.0502202625
 30
0.0
 10
7.8181628333
 20
5.0501859988
 30
0.0
 10
7.8181669396
 20
5.0501607535
 30
0.0
 10
7.8181662056
 20
5.0501491129
 30
0.0
  0
SPLINE
  5
3BC
100
AcDbEntity
  8
0
100
AcDbSpline
 62
7
  6
CONTINUOUS
 70
0
 71
3
 72
32
 73
28
 74
0
 42
0.0000001
 43
0.0000001
 44
0.0000000001
 40
0.0
 40
0.0
 40
0.0
 40
0.0
 40
0.0539733738
 40
0.1179799562
 40
0.1902502372
 40
0.2688281017
 40
0.3516631355
 40
0.4366791772
 40
0.5218241719
 40
0.6051002689
 40
0.6845838956
 40
0.7584401363
 40
0.8249377844
 40
0.8549206803
 40
0.8824745676
 40
0.9074254599
 40
0.9296138189
 40
0.9488983933
 40
0.9651617436
 40
0.9721336182
 40
0.9783232276
 40
0.9837295127
 40
0.9883596484
 40
0.9922324241
 40
0.9953900643
 40
0.9979201588
 40
1.0
 40
1.0
 40
1.0
 40
1.0
 10
7.6428950732
 20
5.060207945
 30
0.0
 10
7.6431593014
 20
5.0601841712
 30
0.0
 10
7.6437355738
 20
5.0601178355
 30
0.0
 10
7.6446610701
 20
5.0599833768
 30
0.0
 10
7.6457025657
 20
5.0598080157
 30
0.0
 10
7.6468316328
 20
5.0595966794
 30
0.0
 10
7.648018611
 20
5.059355064
 30
0.0
 10
7.6492335146
 20
5.0590894812
 30
0.0
 10
7.6504467323
 20
5.0588065972
 30
0.0
 10
7.6516294749
 20
5.0585132894
 30
0.0
 10
7.6527540758
 20
5.0582165588
 30
0.0
 10
7.6537941789
 20
5.0579234248
 30
0.0
 10
7.6545954659
 20
5.057680364
 30
0.0
 10
7.6551752526
 20
5.0574917791
 30
0.0
 10
7.6555588723
 20
5.0573604663
 30
0.0
 10
7.6559040011
 20
5.0572351859
 30
0.0
 10
7.6562083097
 20
5.0571167799
 30
0.0
 10
7.6564696569
 20
5.0570060552
 30
0.0
 10
7.6566587911
 20
5.0569168891
 30
0.0
 10
7.6567866176
 20
5.0568491655
 30
0.0
 10
7.6568656082
 20
5.0568033939
 30
0.0
 10
7.6569326238
 20
5.0567600762
 30
0.0
 10
7.6569875661
 20
5.0567192819
 30
0.0
 10
7.657030416
 20
5.056681055
 30
0.0
 10
7.6570611851
 20
5.0566452759
 30
0.0
 10
7.6570800434
 20
5.0566116574
 30
0.0
 10
7.6570842281
 20
5.0565886786
 30
0.0
 10
7.657083619
 20
5.0565784737
 30
0.0
  0
SPLINE
  5
3BD
100
AcDbEntity
  8
0
100
AcDbSpline
 62
7
  6
CONTINUOUS
 70
0
 71
3
 72
27
 73
23
 74
0
 42
0.0000001
 43
0.0000001
 44
0.0000000001
 40
0.0
 40
0.0
 40
0.0
 40
0.0
 40
0.0736707702
 40
0.152263022
 40
0.2342732232
 40
0.3181581344
 40
0.4023872379
 40
0.4854755396
 40
0.5660087259
 40
0.6426606697
 40
0.7142033388
 40
0.7795160303
 40
0.8375962746
 40
0.8875806479
 40
0.9093188744
 40
0.9287967679
 40
0.9459745803
 40
0.960845682
 40
0.9734549645
 40
0.9839374915
 40
0.9925915284
 40
1.0
 40
1.0
 40
1.0
 40
1.0
 10
7.6708184763
 20
5.060207945
 30
0.0
 10
7.671129259
 20
5.0601890777
 30
0.0
 10
7.6717709326
 20
5.0601388801
 30
0.0
 10
7.6727555346
 20
5.0600335765
 30
0.0
 10
7.6737799304
 20
5.0598975847
 30
0.0
 10
7.674824354
 20
5.0597337636
 30
0.0
 10
7.6758692693
 20
5.0595454564
 30
0.0
 10
7.6768957745
 20
5.0593363683
 30
0.0
 10
7.6778858956
 20
5.0591104603
 30
0.0
 10
7.6788227789
 20
5.0588718744
 30
0.0
 10
7.6796907932
 20
5.0586248645
 30
0.0
 10
7.6804756553
 20
5.0583737958
 30
0.0
 10
7.6811643642
 20
5.0581230175
 30
0.0
 10
7.6816700321
 20
5.057909262
 30
0.0
 10
7.6820160796
 20
5.0577392782
 30
0.0
 10
7.6822325177
 20
5.0576204855
 30
0.0
 10
7.6824172612
 20
5.0575049071
 30
0.0
 10
7.6825695297
 20
5.0573929984
 30
0.0
 10
7.6826887991
 20
5.0572851212
 30
0.0
 10
7.6827746892
 20
5.0571811873
 30
0.0
 10
7.6828268976
 20
5.0570805494
 30
0.0
 10
7.6828375653
 20
5.0570116515
 30
0.0
 10
7.682835689
 20
5.0569803973
 30
0.0
  0
SPLINE
  5
3BE
100
AcDbEntity
  8
0
100
AcDbSpline
 62
7
  6
CONTINUOUS
 70
0
 71
3
 72
25
 73
21
 74
0
 42
0.0000001
 43
0.0000001
 44
0.0000000001
 40
0.0
 40
0.0
 40
0.0
 40
0.0
 40
0.176709241
 40
0.3518707154
 40
0.4362227092
 40
0.5171150131
 40
0.5936655993
 40
0.6650795624
 40
0.7306576076
 40
0.7898048415
 40
0.8420460448
 40
0.8870548746
 40
0.906807964
 40
0.9247340228
 40
0.9408740401
 40
0.955308124
 40
0.9681710789
 40
0.9796763416
 40
0.99014081
 40
1.0
 40
1.0
 40
1.0
 40
1.0
 10
7.712176823
 20
5.060207945
 30
0.0
 10
7.7127575319
 20
5.0601778909
 30
0.0
 10
7.7139124464
 20
5.0600874776
 30
0.0
 10
7.7153368805
 20
5.0599048411
 30
0.0
 10
7.7164415322
 20
5.0597184031
 30
0.0
 10
7.7172221938
 20
5.0595640511
 30
0.0
 10
7.7179563139
 20
5.0593955369
 30
0.0
 10
7.7186355913
 20
5.0592150438
 30
0.0
 10
7.7192525551
 20
5.0590248561
 30
0.0
 10
7.7198006573
 20
5.0588273285
 30
0.0
 10
7.7202741288
 20
5.0586248199
 30
0.0
 10
7.7206162888
 20
5.0584469684
 30
0.0
 10
7.7208467401
 20
5.058302023
 30
0.0
 10
7.720990406
 20
5.0581982128
 30
0.0
 10
7.7211122069
 20
5.0580947761
 30
0.0
 10
7.7212118373
 20
5.057991893
 30
0.0
 10
7.7212890069
 20
5.0578896696
 30
0.0
 10
7.7213433573
 20
5.0577880888
 30
0.0
 10
7.7213742704
 20
5.0576872319
 30
0.0
 10
7.7213787144
 20
5.0576197299
 30
0.0
 10
7.7213767674
 20
5.0575873454
 30
0.0
  0
SPLINE
  5
3BF
100
AcDbEntity
  8
0
100
AcDbSpline
 62
7
  6
CONTINUOUS
 70
0
 71
3
 72
22
 73
18
 74
0
 42
0.0000001
 43
0.0000001
 44
0.0000000001
 40
0.0
 40
0.0
 40
0.0
 40
0.0
 40
0.1931225694
 40
0.3733516087
 40
0.4570667237
 40
0.535782621
 40
0.6090350043
 40
0.6764339693
 40
0.7376724843
 40
0.7925399293
 40
0.8409450817
 40
0.8829567058
 40
0.9188780005
 40
0.9493813007
 40
0.9757183666
 40
0.9879700143
 40
1.0
 40
1.0
 40
1.0
 40
1.0
 10
7.7606736801
 20
5.060207945
 30
0.0
 10
7.7611068523
 20
5.0601854198
 30
0.0
 10
7.7619434601
 20
5.0601236716
 30
0.0
 10
7.7629629121
 20
5.0599985411
 30
0.0
 10
7.7637220661
 20
5.0598713762
 30
0.0
 10
7.7642411776
 20
5.0597672439
 30
0.0
 10
7.7647205591
 20
5.059652916
 30
0.0
 10
7.7651570041
 20
5.0595293363
 30
0.0
 10
7.7655477201
 20
5.0593975052
 30
0.0
 10
7.7658903451
 20
5.0592584481
 30
0.0
 10
7.7661829643
 20
5.0591131635
 30
0.0
 10
7.7664241543
 20
5.0589625852
 30
0.0
 10
7.7666129309
 20
5.0588072185
 30
0.0
 10
7.7667485966
 20
5.0586471991
 30
0.0
 10
7.7668171971
 20
5.0585052466
 30
0.0
 10
7.7668398316
 20
5.0583933234
 30
0.0
 10
7.7668412845
 20
5.0583384773
 30
0.0
 10
7.7668396464
 20
5.0583115074
 30
0.0
  0
SPLINE
  5
3C0
100
AcDbEntity
  8
0
100
AcDbSpline
 62
7
  6
CONTINUOUS
 70
0
 71
3
 72
20
 73
16
 74
0
 42
0.0000001
 43
0.0000001
 44
0.0000000001
 40
0.0
 40
0.0
 40
0.0
 40
0.0
 40
0.2023468951
 40
0.3841249371
 40
0.5431788282
 40
0.6137161921
 40
0.6781051556
 40
0.7363215906
 40
0.7884341969
 40
0.8346306218
 40
0.8752726048
 40
0.9109645062
 40
0.9426585524
 40
0.971741441
 40
1.0
 40
1.0
 40
1.0
 40
1.0
 10
7.8089258406
 20
5.060207945
 30
0.0
 10
7.809179896
 20
5.0601922735
 30
0.0
 10
7.8096617053
 20
5.0601531079
 30
0.0
 10
7.810339494
 20
5.0600644373
 30
0.0
 10
7.8108480568
 20
5.0599660847
 30
0.0
 10
7.8112060353
 20
5.0598728319
 30
0.0
 10
7.8114379704
 20
5.0598000828
 30
0.0
 10
7.8116435895
 20
5.0597220275
 30
0.0
 10
7.8118223405
 20
5.0596389612
 30
0.0
 10
7.8119738107
 20
5.0595511394
 30
0.0
 10
7.8120977227
 20
5.0594587403
 30
0.0
 10
7.8121938255
 20
5.0593617603
 30
0.0
 10
7.8122616522
 20
5.0592599762
 30
0.0
 10
7.8123001286
 20
5.0591534936
 30
0.0
 10
7.8123053608
 20
5.0590804872
 30
0.0
 10
7.8123031814
 20
5.0590450068
 30
0.0
  0
SPLINE
  5
3C1
100
AcDbEntity
  8
0
100
AcDbSpline
 62
7
  6
CONTINUOUS
 70
0
 71
3
 72
18
 73
14
 74
0
 42
0.0000001
 43
0.0000001
 44
0.0000000001
 40
0.0
 40
0.0
 40
0.0
 40
0.0
 40
0.2035402979
 40
0.3826861718
 40
0.5371502858
 40
0.6672838641
 40
0.7742734722
 40
0.8199344304
 40
0.8610474877
 40
0.8984181386
 40
0.9331198208
 40
0.9664847978
 40
1.0
 40
1.0
 40
1.0
 40
1.0
 10
7.8495873505
 20
5.060207945
 30
0.0
 10
7.8496860539
 20
5.0601987411
 30
0.0
 10
7.8498713317
 20
5.0601777405
 30
0.0
 10
7.8501294915
 20
5.0601345121
 30
0.0
 10
7.8503493966
 20
5.0600818415
 30
0.0
 10
7.8505301631
 20
5.0600200987
 30
0.0
 10
7.8506540999
 20
5.0599582777
 30
0.0
 10
7.8507308868
 20
5.0599030664
 30
0.0
 10
7.8507751824
 20
5.0598616131
 30
0.0
 10
7.8508091985
 20
5.0598178898
 30
0.0
 10
7.8508327468
 20
5.0597718588
 30
0.0
 10
7.8508455622
 20
5.0597236793
 30
0.0
 10
7.8508468569
 20
5.0596908385
 30
0.0
 10
7.8508458464
 20
5.0596745466
 30
0.0
  0
LINE
  5
3C2
100
AcDbEntity
  8
0
100
AcDbLine
 62
7
  6
CONTINUOUS
 10
7.8764678635
 20
5.060207945
 11
7.8765995207
 21
5.0600993093
  0
SPLINE
  5
3C3
100
AcDbEntity
  8
0
100
AcDbSpline
 62
7
  6
CONTINUOUS
 70
0
 71
3
 72
18
 73
14
 74
0
 42
0.0000001
 43
0.0000001
 44
0.0000000001
 40
0.0
 40
0.0
 40
0.0
 40
0.0
 40
0.1105347936
 40
0.2236825779
 40
0.3404805704
 40
0.4006142537
 40
0.4620278009
 40
0.5889182145
 40
0.7215185487
 40
0.7898552592
 40
0.8592561731
 40
0.9294257064
 40
1.0
 40
1.0
 40
1.0
 40
1.0
 10
7.5443900996
 20
5.264771176
 30
0.0
 10
7.5440382064
 20
5.264680897
 30
0.0
 10
7.5433383768
 20
5.2644456738
 30
0.0
 10
7.5423388907
 20
5.2639336171
 30
0.0
 10
7.5415635924
 20
5.2633714324
 30
0.0
 10
7.5409875892
 20
5.2628394548
 30
0.0
 10
7.5404339399
 20
5.2622382079
 30
0.0
 10
7.5398188717
 20
5.261374953
 30
0.0
 10
7.5393499353
 20
5.2603984071
 30
0.0
 10
7.5390730769
 20
5.2595531121
 30
0.0
 10
7.538919045
 20
5.2588863781
 30
0.0
 10
7.5388248696
 20
5.2582012547
 30
0.0
 10
7.5388037547
 20
5.2577383982
 30
0.0
 10
7.5388037547
 20
5.2575064451
 30
0.0
  0
SPLINE
  5
3C4
100
AcDbEntity
  8
0
100
AcDbSpline
 62
7
  6
CONTINUOUS
 70
0
 71
3
 72
18
 73
14
 74
0
 42
0.0000001
 43
0.0000001
 44
0.0000000001
 40
0.0
 40
0.0
 40
0.0
 40
0.0
 40
0.1080118356
 40
0.2191366497
 40
0.3345880244
 40
0.3943510221
 40
0.4556158849
 40
0.5829133965
 40
0.7168487042
 40
0.7861580698
 40
0.8566939709
 40
0.9281143673
 40
1.0
 40
1.0
 40
1.0
 40
1.0
 10
7.5446920987
 20
5.2647731735
 30
0.0
 10
7.5443551395
 20
5.2646830293
 30
0.0
 10
7.543684383
 20
5.2644474374
 30
0.0
 10
7.5427284806
 20
5.2639350505
 30
0.0
 10
7.5419885712
 20
5.2633733572
 30
0.0
 10
7.5414389022
 20
5.2628421986
 30
0.0
 10
7.5409086118
 20
5.2622395755
 30
0.0
 10
7.5403200872
 20
5.2613742205
 30
0.0
 10
7.5398730999
 20
5.2603988843
 30
0.0
 10
7.5396088194
 20
5.2595542383
 30
0.0
 10
7.5394616016
 20
5.2588871371
 30
0.0
 10
7.539371593
 20
5.2582016324
 30
0.0
 10
7.5393514152
 20
5.2577385894
 30
0.0
 10
7.5393514152
 20
5.2575064451
 30
0.0
  0
SPLINE
  5
3C5
100
AcDbEntity
  8
0
100
AcDbSpline
 62
7
  6
CONTINUOUS
 70
0
 71
3
 72
17
 73
13
 74
0
 42
0.0000001
 43
0.0000001
 44
0.0000000001
 40
0.0
 40
0.0
 40
0.0
 40
0.0
 40
0.1052433451
 40
0.2141742196
 40
0.3281945651
 40
0.387577797
 40
0.448706285
 40
0.5764944557
 40
0.7119109337
 40
0.7822824707
 40
0.8540504249
 40
1.0
 40
1.0
 40
1.0
 40
1.0
 10
7.5455738794
 20
5.2647731735
 30
0.0
 10
7.5452530875
 20
5.264682821
 30
0.0
 10
7.5446138845
 20
5.2644461598
 30
0.0
 10
7.5437054597
 20
5.2639328274
 30
0.0
 10
7.543004112
 20
5.2633715461
 30
0.0
 10
7.5424831135
 20
5.2628413199
 30
0.0
 10
7.541978466
 20
5.2622373335
 30
0.0
 10
7.5414191227
 20
5.2613702009
 30
0.0
 10
7.5409960201
 20
5.2603968847
 30
0.0
 10
7.5407454762
 20
5.2595534909
 30
0.0
 10
7.5405581766
 20
5.2586598749
 30
0.0
 10
7.5405011622
 20
5.2579686224
 30
0.0
 10
7.5405011622
 20
5.2575064451
 30
0.0
  0
SPLINE
  5
3C6
100
AcDbEntity
  8
0
100
AcDbSpline
 62
7
  6
CONTINUOUS
 70
0
 71
3
 72
16
 73
12
 74
0
 42
0.0000001
 43
0.0000001
 44
0.0000000001
 40
0.0
 40
0.0
 40
0.0
 40
0.0
 40
0.1024625584
 40
0.2094579372
 40
0.3224612038
 40
0.4427753907
 40
0.5060272091
 40
0.5713920405
 40
0.708201641
 40
0.8520386607
 40
1.0
 40
1.0
 40
1.0
 40
1.0
 10
7.5467935642
 20
5.2646932171
 30
0.0
 10
7.546501786
 20
5.2645914432
 30
0.0
 10
7.5459213113
 20
5.2643342916
 30
0.0
 10
7.5451028205
 20
5.2638018767
 30
0.0
 10
7.5443378734
 20
5.2631113446
 30
0.0
 10
7.543772451
 20
5.2624133774
 30
0.0
 10
7.5433684538
 20
5.2617798722
 30
0.0
 10
7.5429903717
 20
5.2610734981
 30
0.0
 10
7.5426057548
 20
5.2600986735
 30
0.0
 10
7.5423161772
 20
5.2588342232
 30
0.0
 10
7.5422499813
 20
5.2579526841
 30
0.0
 10
7.5422499813
 20
5.2575064451
 30
0.0
  0
SPLINE
  5
3C7
100
AcDbEntity
  8
0
100
AcDbSpline
 62
7
  6
CONTINUOUS
 70
0
 71
3
 72
15
 73
11
 74
0
 42
0.0000001
 43
0.0000001
 44
0.0000000001
 40
0.0
 40
0.0
 40
0.0
 40
0.0
 40
0.0988575115
 40
0.2028026152
 40
0.3136473292
 40
0.4329971001
 40
0.5619766737
 40
0.7007545293
 40
0.8479051852
 40
1.0
 40
1.0
 40
1.0
 40
1.0
 10
7.5490889243
 20
5.2647731735
 30
0.0
 10
7.54880284
 20
5.2646822575
 30
0.0
 10
7.5482315126
 20
5.2644428033
 30
0.0
 10
7.547425599
 20
5.2639272013
 30
0.0
 10
7.5466701821
 20
5.2632429625
 30
0.0
 10
7.5459870052
 20
5.262386986
 30
0.0
 10
7.5454027469
 20
5.2613617119
 30
0.0
 10
7.5449492141
 20
5.2601811974
 30
0.0
 10
7.5446593731
 20
5.2588783954
 30
0.0
 10
7.5445930791
 20
5.2579682846
 30
0.0
 10
7.5445930791
 20
5.2575064451
 30
0.0
  0
SPLINE
  5
3C8
100
AcDbEntity
  8
0
100
AcDbSpline
 62
7
  6
CONTINUOUS
 70
0
 71
3
 72
15
 73
11
 74
0
 42
0.0000001
 43
0.0000001
 44
0.0000000001
 40
0.0
 40
0.0
 40
0.0
 40
0.0
 40
0.0952095801
 40
0.196355622
 40
0.3054638294
 40
0.4242760621
 40
0.5539605452
 40
0.6946100193
 40
0.844567785
 40
1.0
 40
1.0
 40
1.0
 40
1.0
 10
7.5517125541
 20
5.2647731735
 30
0.0
 10
7.551444899
 20
5.2646818732
 30
0.0
 10
7.5509097192
 20
5.2644405746
 30
0.0
 10
7.5501587107
 20
5.2639237372
 30
0.0
 10
7.5494553565
 20
5.2632385953
 30
0.0
 10
7.5488197424
 20
5.2623822727
 30
0.0
 10
7.5482764587
 20
5.2613572984
 30
0.0
 10
7.5478549115
 20
5.2601777575
 30
0.0
 10
7.5475855939
 20
5.2588764703
 30
0.0
 10
7.5475240332
 20
5.2579681212
 30
0.0
 10
7.5475240332
 20
5.2575064451
 30
0.0
  0
SPLINE
  5
3C9
100
AcDbEntity
  8
0
100
AcDbSpline
 62
7
  6
CONTINUOUS
 70
0
 71
3
 72
15
 73
11
 74
0
 42
0.0000001
 43
0.0000001
 44
0.0000000001
 40
0.0
 40
0.0
 40
0.0
 40
0.0
 40
0.0912712826
 40
0.1894526559
 40
0.2967737691
 40
0.4150863883
 40
0.5455699134
 40
0.6882119771
 40
0.8411043689
 40
1.0
 40
1.0
 40
1.0
 40
1.0
 10
7.5548971047
 20
5.264771176
 30
0.0
 10
7.5546487718
 20
5.2646790771
 30
0.0
 10
7.5541516854
 20
5.2644350047
 30
0.0
 10
7.55345874
 20
5.2639163857
 30
0.0
 10
7.5528104364
 20
5.2632302529
 30
0.0
 10
7.5522250384
 20
5.2623738894
 30
0.0
 10
7.5517249338
 20
5.2613498317
 30
0.0
 10
7.5513370386
 20
5.2601721273
 30
0.0
 10
7.5510892889
 20
5.2588734007
 30
0.0
 10
7.5510326921
 20
5.2579675462
 30
0.0
 10
7.5510326921
 20
5.2575064451
 30
0.0
  0
SPLINE
  5
3CA
100
AcDbEntity
  8
0
100
AcDbSpline
 62
7
  6
CONTINUOUS
 70
0
 71
3
 72
15
 73
11
 74
0
 42
0.0000001
 43
0.0000001
 44
0.0000000001
 40
0.0
 40
0.0
 40
0.0
 40
0.0
 40
0.086997677
 40
0.1819990096
 40
0.2874357612
 40
0.4052516747
 40
0.5366171529
 40
0.6813980721
 40
0.8374192897
 40
1.0
 40
1.0
 40
1.0
 40
1.0
 10
7.5586560918
 20
5.2647731735
 30
0.0
 10
7.5584271515
 20
5.2646807805
 30
0.0
 10
7.5579683846
 20
5.2644345476
 30
0.0
 10
7.5573339609
 20
5.263915135
 30
0.0
 10
7.5567409455
 20
5.2632286064
 30
0.0
 10
7.5562057354
 20
5.2623722342
 30
0.0
 10
7.555748565
 20
5.2613484167
 30
0.0
 10
7.5553939788
 20
5.2601711112
 30
0.0
 10
7.5551675018
 20
5.258872841
 30
0.0
 10
7.5551157874
 20
5.2579678143
 30
0.0
 10
7.5551157874
 20
5.2575064451
 30
0.0
  0
SPLINE
  5
3CB
100
AcDbEntity
  8
0
100
AcDbSpline
 62
7
  6
CONTINUOUS
 70
0
 71
3
 72
15
 73
11
 74
0
 42
0.0000001
 43
0.0000001
 44
0.0000000001
 40
0.0
 40
0.0
 40
0.0
 40
0.0
 40
0.0824471007
 40
0.1741472177
 40
0.2776972141
 40
0.3950844269
 40
0.5274277034
 40
0.6744415061
 40
0.8336697262
 40
1.0
 40
1.0
 40
1.0
 40
1.0
 10
7.5629569681
 20
5.2647731735
 30
0.0
 10
7.5627481949
 20
5.2646799939
 30
0.0
 10
7.5623296458
 20
5.2644304829
 30
0.0
 10
7.5617567119
 20
5.2639098919
 30
0.0
 10
7.5612216413
 20
5.263223048
 30
0.0
 10
7.5607388985
 20
5.26236705
 30
0.0
 10
7.5603265412
 20
5.2613440834
 30
0.0
 10
7.5600066996
 20
5.260167994
 30
0.0
 10
7.5598024084
 20
5.2588711782
 30
0.0
 10
7.5597557789
 20
5.2579676742
 30
0.0
 10
7.5597557789
 20
5.2575064451
 30
0.0
  0
SPLINE
  5
3CC
100
AcDbEntity
  8
0
100
AcDbSpline
 62
7
  6
CONTINUOUS
 70
0
 71
3
 72
16
 73
12
 74
0
 42
0.0000001
 43
0.0000001
 44
0.0000000001
 40
0.0
 40
0.0
 40
0.0
 40
0.0
 40
0.0776269603
 40
0.1203044985
 40
0.1660141574
 40
0.2676785542
 40
0.3846931041
 40
0.5180856051
 40
0.6673966128
 40
0.8298813942
 40
1.0
 40
1.0
 40
1.0
 40
1.0
 10
7.5677953667
 20
5.2647731735
 30
0.0
 10
7.5676072303
 20
5.2646789666
 30
0.0
 10
7.5673336825
 20
5.2644950659
 30
0.0
 10
7.5670014885
 20
5.2641910785
 30
0.0
 10
7.5666549192
 20
5.2638089527
 30
0.0
 10
7.5662452271
 20
5.2632171233
 30
0.0
 10
7.5658162132
 20
5.2623619143
 30
0.0
 10
7.5654496026
 20
5.2613399136
 30
0.0
 10
7.5651652012
 20
5.260165077
 30
0.0
 10
7.5649835209
 20
5.2588696416
 30
0.0
 10
7.564942067
 20
5.2579675451
 30
0.0
 10
7.564942067
 20
5.2575064451
 30
0.0
  0
SPLINE
  5
3CD
100
AcDbEntity
  8
0
100
AcDbSpline
 62
7
  6
CONTINUOUS
 70
0
 71
3
 72
19
 73
15
 74
0
 42
0.0000001
 43
0.0000001
 44
0.0000000001
 40
0.0
 40
0.0
 40
0.0
 40
0.0
 40
0.0725982244
 40
0.1133460849
 40
0.1575311919
 40
0.205469898
 40
0.2574275079
 40
0.313618834
 40
0.3741975841
 40
0.5087004823
 40
0.6603385602
 40
0.7417682323
 40
0.8261151304
 40
1.0
 40
1.0
 40
1.0
 40
1.0
 10
7.5731580258
 20
5.2647731735
 30
0.0
 10
7.5729909652
 20
5.264677606
 30
0.0
 10
7.5727504065
 20
5.2644916347
 30
0.0
 10
7.5724617692
 20
5.2641895131
 30
0.0
 10
7.5722425238
 20
5.263913108
 30
0.0
 10
7.5720302914
 20
5.2635951026
 30
0.0
 10
7.571826237
 20
5.2632347207
 30
0.0
 10
7.5716318938
 20
5.2628315035
 30
0.0
 10
7.5713791745
 20
5.2622147875
 30
0.0
 10
7.5711037365
 20
5.2613359608
 30
0.0
 10
7.5709016452
 20
5.260381317
 30
0.0
 10
7.5707800967
 20
5.2595484273
 30
0.0
 10
7.5706879438
 20
5.2586524847
 30
0.0
 10
7.5706604363
 20
5.2579674284
 30
0.0
 10
7.5706604363
 20
5.2575064451
 30
0.0
  0
SPLINE
  5
3CE
100
AcDbEntity
  8
0
100
AcDbSpline
 62
7
  6
CONTINUOUS
 70
0
 71
3
 72
19
 73
15
 74
0
 42
0.0000001
 43
0.0000001
 44
0.0000000001
 40
0.0
 40
0.0
 40
0.0
 40
0.0
 40
0.0674739546
 40
0.1063119035
 40
0.149018786
 40
0.1958971395
 40
0.2471949399
 40
0.3031081734
 40
0.3637709152
 40
0.4994523683
 40
0.6534296357
 40
0.7363755549
 40
0.8224143835
 40
1.0
 40
1.0
 40
1.0
 40
1.0
 10
7.5790302468
 20
5.2647731735
 30
0.0
 10
7.5788847146
 20
5.2646757841
 30
0.0
 10
7.5786782548
 20
5.2644875079
 30
0.0
 10
7.5784337509
 20
5.2641877463
 30
0.0
 10
7.5782465758
 20
5.2639113754
 30
0.0
 10
7.5780653743
 20
5.2635934856
 30
0.0
 10
7.5778911256
 20
5.2632332343
 30
0.0
 10
7.5777251449
 20
5.262830163
 30
0.0
 10
7.5775087193
 20
5.2622120151
 30
0.0
 10
7.5772734137
 20
5.2613324014
 30
0.0
 10
7.5771012126
 20
5.2603798527
 30
0.0
 10
7.5769974548
 20
5.259547968
 30
0.0
 10
7.5769186858
 20
5.258651838
 30
0.0
 10
7.5768952132
 20
5.2579673254
 30
0.0
 10
7.5768952132
 20
5.2575064451
 30
0.0
  0
SPLINE
  5
3CF
100
AcDbEntity
  8
0
100
AcDbSpline
 62
7
  6
CONTINUOUS
 70
0
 71
3
 72
19
 73
15
 74
0
 42
0.0000001
 43
0.0000001
 44
0.0000000001
 40
0.0
 40
0.0
 40
0.0
 40
0.0
 40
0.029502515
 40
0.0625657232
 40
0.099599387
 40
0.140943141
 40
0.1868701767
 40
0.237600345
 40
0.2933035962
 40
0.3540897653
 40
0.4909332386
 40
0.6471056342
 40
0.8190281936
 40
1.0
 40
1.0
 40
1.0
 40
1.0
 10
7.5853896213
 20
5.264771176
 30
0.0
 10
7.5853313688
 20
5.2647238534
 30
0.0
 10
7.585215529
 20
5.2646138711
 30
0.0
 10
7.5850537853
 20
5.2644182582
 30
0.0
 10
7.5848953993
 20
5.2641826564
 30
0.0
 10
7.5847410554
 20
5.2639063246
 30
0.0
 10
7.5845915083
 20
5.2635884394
 30
0.0
 10
7.5844476936
 20
5.2632283027
 30
0.0
 10
7.5843106699
 20
5.2628254014
 30
0.0
 10
7.5841315733
 20
5.2622061313
 30
0.0
 10
7.5839372941
 20
5.2613263048
 30
0.0
 10
7.5837625491
 20
5.2601557284
 30
0.0
 10
7.5836508828
 20
5.2588647751
 30
0.0
 10
7.5836254166
 20
5.2579668215
 30
0.0
 10
7.5836254166
 20
5.2575064451
 30
0.0
  0
SPLINE
  5
3D0
100
AcDbEntity
  8
0
100
AcDbSpline
 62
7
  6
CONTINUOUS
 70
0
 71
3
 72
19
 73
15
 74
0
 42
0.0000001
 43
0.0000001
 44
0.0000000001
 40
0.0
 40
0.0
 40
0.0
 40
0.0
 40
0.0267869853
 40
0.0576612344
 40
0.0929883221
 40
0.1330622948
 40
0.1781165929
 40
0.228337617
 40
0.2838672233
 40
0.3447910188
 40
0.4827638025
 40
0.6410360218
 40
0.8157913145
 40
1.0
 40
1.0
 40
1.0
 40
1.0
 10
7.5922376405
 20
5.2647731735
 30
0.0
 10
7.5921908645
 20
5.2647252099
 30
0.0
 10
7.5920984062
 20
5.2646138658
 30
0.0
 10
7.5919711464
 20
5.2644187913
 30
0.0
 10
7.5918464251
 20
5.2641837263
 30
0.0
 10
7.5917247993
 20
5.2639078725
 30
0.0
 10
7.5916068849
 20
5.2635903741
 30
0.0
 10
7.5914934414
 20
5.2632305242
 30
0.0
 10
7.5913853185
 20
5.2628278071
 30
0.0
 10
7.5912436616
 20
5.262207307
 30
0.0
 10
7.5910902951
 20
5.2613266245
 30
0.0
 10
7.5909524577
 20
5.2601562145
 30
0.0
 10
7.5908643568
 20
5.2588650985
 30
0.0
 10
7.5908442648
 20
5.2579671649
 30
0.0
 10
7.5908442648
 20
5.2575064451
 30
0.0
  0
SPLINE
  5
3D1
100
AcDbEntity
  8
0
100
AcDbSpline
 62
7
  6
CONTINUOUS
 70
0
 71
3
 72
18
 73
14
 74
0
 42
0.0000001
 43
0.0000001
 44
0.0000000001
 40
0.0
 40
0.0
 40
0.0
 40
0.0
 40
0.0705741486
 40
0.140743359
 40
0.2101441657
 40
0.2784808219
 40
0.4110811325
 40
0.5379715086
 40
0.5993851363
 40
0.6595188664
 40
0.7763170873
 40
0.8894651442
 40
1.0
 40
1.0
 40
1.0
 40
1.0
 10
7.9793290093
 20
5.2575064451
 30
0.0
 10
7.9793290093
 20
5.2577383977
 30
0.0
 10
7.9793078945
 20
5.2582012527
 30
0.0
 10
7.9792137196
 20
5.2588863742
 30
0.0
 10
7.9790596886
 20
5.2595531068
 30
0.0
 10
7.978782831
 20
5.2603984014
 30
0.0
 10
7.9783138956
 20
5.2613749474
 30
0.0
 10
7.977698828
 20
5.2622382028
 30
0.0
 10
7.9771451792
 20
5.2628394505
 30
0.0
 10
7.9765691755
 20
5.2633714294
 30
0.0
 10
7.975793876
 20
5.2639336155
 30
0.0
 10
7.9747943884
 20
5.2644456734
 30
0.0
 10
7.9740945578
 20
5.264680897
 30
0.0
 10
7.9737426644
 20
5.264771176
 30
0.0
  0
SPLINE
  5
3D2
100
AcDbEntity
  8
0
100
AcDbSpline
 62
7
  6
CONTINUOUS
 70
0
 71
3
 72
18
 73
14
 74
0
 42
0.0000001
 43
0.0000001
 44
0.0000000001
 40
0.0
 40
0.0
 40
0.0
 40
0.0
 40
0.0718854853
 40
0.1433055531
 40
0.2138413457
 40
0.2831506589
 40
0.4170859427
 40
0.5443834239
 40
0.605648368
 40
0.6654114181
 40
0.7808630203
 40
0.8919881039
 40
1.0
 40
1.0
 40
1.0
 40
1.0
 10
7.9787813488
 20
5.2575064451
 30
0.0
 10
7.9787813488
 20
5.2577385889
 30
0.0
 10
7.9787611711
 20
5.2582016304
 30
0.0
 10
7.9786711629
 20
5.2588871332
 30
0.0
 10
7.978523946
 20
5.259554233
 30
0.0
 10
7.9782596663
 20
5.2603988786
 30
0.0
 10
7.9778126799
 20
5.2613742149
 30
0.0
 10
7.9772241559
 20
5.2622395703
 30
0.0
 10
7.9766938659
 20
5.2628421943
 30
0.0
 10
7.9761441966
 20
5.2633733541
 30
0.0
 10
7.9754042861
 20
5.263935049
 30
0.0
 10
7.9744483821
 20
5.264447437
 30
0.0
 10
7.9737776247
 20
5.2646830292
 30
0.0
 10
7.9734406653
 20
5.2647731735
 30
0.0
  0
SPLINE
  5
3D3
100
AcDbEntity
  8
0
100
AcDbSpline
 62
7
  6
CONTINUOUS
 70
0
 71
3
 72
17
 73
13
 74
0
 42
0.0000001
 43
0.0000001
 44
0.0000000001
 40
0.0
 40
0.0
 40
0.0
 40
0.0
 40
0.1459490913
 40
0.2177169361
 40
0.2880884213
 40
0.4235048791
 40
0.5512930242
 40
0.6124215962
 40
0.6718048827
 40
0.7858254561
 40
0.8947565959
 40
1.0
 40
1.0
 40
1.0
 40
1.0
 10
7.9776316018
 20
5.2575064451
 30
0.0
 10
7.9776316018
 20
5.2579686208
 30
0.0
 10
7.9775745876
 20
5.2586598714
 30
0.0
 10
7.9773872891
 20
5.2595534856
 30
0.0
 10
7.977136746
 20
5.2603968791
 30
0.0
 10
7.9767136443
 20
5.2613701953
 30
0.0
 10
7.9761543015
 20
5.2622373284
 30
0.0
 10
7.9756496544
 20
5.2628413156
 30
0.0
 10
7.9751286556
 20
5.263371543
 30
0.0
 10
7.9744273068
 20
5.2639328258
 30
0.0
 10
7.9735188807
 20
5.2644461594
 30
0.0
 10
7.9728796767
 20
5.2646828209
 30
0.0
 10
7.9725588846
 20
5.2647731735
 30
0.0
  0
SPLINE
  5
3D4
100
AcDbEntity
  8
0
100
AcDbSpline
 62
7
  6
CONTINUOUS
 70
0
 71
3
 72
16
 73
12
 74
0
 42
0.0000001
 43
0.0000001
 44
0.0000000001
 40
0.0
 40
0.0
 40
0.0
 40
0.0
 40
0.1479604152
 40
0.2917969848
 40
0.4286063713
 40
0.4939712985
 40
0.5572230904
 40
0.677537654
 40
0.7905413068
 40
0.8975372169
 40
1.0
 40
1.0
 40
1.0
 40
1.0
 10
7.9758827827
 20
5.2575064451
 30
0.0
 10
7.9758827827
 20
5.2579526757
 30
0.0
 10
7.9758165892
 20
5.2588341992
 30
0.0
 10
7.9755270218
 20
5.2600986298
 30
0.0
 10
7.9751424166
 20
5.2610734427
 30
0.0
 10
7.974764346
 20
5.2617798108
 30
0.0
 10
7.9743603593
 20
5.2624133128
 30
0.0
 10
7.9737949512
 20
5.2631112795
 30
0.0
 10
7.9730300209
 20
5.2638018162
 30
0.0
 10
7.9722115467
 20
5.2643342399
 30
0.0
 10
7.9716310824
 20
5.2645914002
 30
0.0
 10
7.9713393093
 20
5.2646931789
 30
0.0
  0
SPLINE
  5
3D5
100
AcDbEntity
  8
0
100
AcDbSpline
 62
7
  6
CONTINUOUS
 70
0
 71
3
 72
15
 73
11
 74
0
 42
0.0000001
 43
0.0000001
 44
0.0000000001
 40
0.0
 40
0.0
 40
0.0
 40
0.0
 40
0.1520943113
 40
0.2992448059
 40
0.4380226499
 40
0.5670022084
 40
0.6863521291
 40
0.7971970725
 40
0.9011424328
 40
1.0
 40
1.0
 40
1.0
 40
1.0
 10
7.9735396849
 20
5.2575064451
 30
0.0
 10
7.9735396849
 20
5.2579682831
 30
0.0
 10
7.9734733911
 20
5.2588783918
 30
0.0
 10
7.9731835515
 20
5.2601811919
 30
0.0
 10
7.9727300198
 20
5.2613617063
 30
0.0
 10
7.9721457619
 20
5.2623869811
 30
0.0
 10
7.9714625852
 20
5.2632429592
 30
0.0
 10
7.9707071673
 20
5.2639271997
 30
0.0
 10
7.9699012525
 20
5.2644428029
 30
0.0
 10
7.9693299241
 20
5.2646822575
 30
0.0
 10
7.9690438397
 20
5.2647731735
 30
0.0
  0
SPLINE
  5
3D6
100
AcDbEntity
  8
0
100
AcDbSpline
 62
7
  6
CONTINUOUS
 70
0
 71
3
 72
15
 73
11
 74
0
 42
0.0000001
 43
0.0000001
 44
0.0000000001
 40
0.0
 40
0.0
 40
0.0
 40
0.0
 40
0.1554317007
 40
0.3053893047
 40
0.4460387717
 40
0.5757232454
 40
0.6945356345
 40
0.8036440725
 40
0.9047903661
 40
1.0
 40
1.0
 40
1.0
 40
1.0
 10
7.9706087307
 20
5.2575064451
 30
0.0
 10
7.9706087307
 20
5.2579681197
 30
0.0
 10
7.9705471704
 20
5.2588764667
 30
0.0
 10
7.970277854
 20
5.2601777521
 30
0.0
 10
7.9698563077
 20
5.2613572928
 30
0.0
 10
7.9693130246
 20
5.2623822678
 30
0.0
 10
7.9686774106
 20
5.263238592
 30
0.0
 10
7.9679740554
 20
5.2639237356
 30
0.0
 10
7.9672230458
 20
5.2644405741
 30
0.0
 10
7.9666878651
 20
5.2646818731
 30
0.0
 10
7.9664202099
 20
5.2647731735
 30
0.0
  0
SPLINE
  5
3D7
100
AcDbEntity
  8
0
100
AcDbSpline
 62
7
  6
CONTINUOUS
 70
0
 71
3
 72
15
 73
11
 74
0
 42
0.0000001
 43
0.0000001
 44
0.0000000001
 40
0.0
 40
0.0
 40
0.0
 40
0.0
 40
0.1588951072
 40
0.3117873373
 40
0.4544293981
 40
0.5849129194
 40
0.703225702
 40
0.8105470461
 40
0.9087286656
 40
1.0
 40
1.0
 40
1.0
 40
1.0
 10
7.9671000718
 20
5.2575064451
 30
0.0
 10
7.9671000718
 20
5.2579675447
 30
0.0
 10
7.9670434753
 20
5.2588733972
 30
0.0
 10
7.9667957267
 20
5.260172122
 30
0.0
 10
7.9664078324
 20
5.2613498261
 30
0.0
 10
7.9659077283
 20
5.2623738845
 30
0.0
 10
7.9653223305
 20
5.2632302495
 30
0.0
 10
7.9646740259
 20
5.263916384
 30
0.0
 10
7.9639810795
 20
5.2644350043
 30
0.0
 10
7.9634839924
 20
5.2646790771
 30
0.0
 10
7.9632356592
 20
5.264771176
 30
0.0
  0
SPLINE
  5
3D8
100
AcDbEntity
  8
0
100
AcDbSpline
 62
7
  6
CONTINUOUS
 70
0
 71
3
 72
15
 73
11
 74
0
 42
0.0000001
 43
0.0000001
 44
0.0000000001
 40
0.0
 40
0.0
 40
0.0
 40
0.0
 40
0.162580173
 40
0.3186012275
 40
0.4633821489
 40
0.5947476296
 40
0.7125637144
 40
0.8180006993
 40
0.9130022734
 40
1.0
 40
1.0
 40
1.0
 40
1.0
 10
7.9630169766
 20
5.2575064451
 30
0.0
 10
7.9630169766
 20
5.2579678128
 30
0.0
 10
7.9629652624
 20
5.2588728375
 30
0.0
 10
7.9627387864
 20
5.2601711058
 30
0.0
 10
7.9623842011
 20
5.2613484112
 30
0.0
 10
7.961927031
 20
5.2623722293
 30
0.0
 10
7.9613918211
 20
5.263228603
 30
0.0
 10
7.9607988049
 20
5.2639151333
 30
0.0
 10
7.9601643802
 20
5.2644345472
 30
0.0
 10
7.9597056126
 20
5.2646807804
 30
0.0
 10
7.9594766721
 20
5.2647731735
 30
0.0
  0
SPLINE
  5
3D9
100
AcDbEntity
  8
0
100
AcDbSpline
 62
7
  6
CONTINUOUS
 70
0
 71
3
 72
15
 73
11
 74
0
 42
0.0000001
 43
0.0000001
 44
0.0000000001
 40
0.0
 40
0.0
 40
0.0
 40
0.0
 40
0.1663297245
 40
0.3255577807
 40
0.4725715902
 40
0.6049148754
 40
0.7223022672
 40
0.8258524988
 40
0.917552852
 40
1.0
 40
1.0
 40
1.0
 40
1.0
 10
7.958376985
 20
5.2575064451
 30
0.0
 10
7.958376985
 20
5.2579676727
 30
0.0
 10
7.9583303558
 20
5.2588711747
 30
0.0
 10
7.9581260655
 20
5.2601679887
 30
0.0
 10
7.9578062247
 20
5.2613440778
 30
0.0
 10
7.9573938677
 20
5.2623670451
 30
0.0
 10
7.9569111251
 20
5.2632230446
 30
0.0
 10
7.9563760538
 20
5.2639098902
 30
0.0
 10
7.955803119
 20
5.2644304825
 30
0.0
 10
7.9553845692
 20
5.2646799938
 30
0.0
 10
7.9551757959
 20
5.2647731735
 30
0.0
  0
SPLINE
  5
3DA
100
AcDbEntity
  8
0
100
AcDbSpline
 62
7
  6
CONTINUOUS
 70
0
 71
3
 72
16
 73
12
 74
0
 42
0.0000001
 43
0.0000001
 44
0.0000000001
 40
0.0
 40
0.0
 40
0.0
 40
0.0
 40
0.1701180438
 40
0.3326026603
 40
0.4819136792
 40
0.6153061949
 40
0.7323209319
 40
0.8339855661
 40
0.8796953878
 40
0.9223729949
 40
1.0
 40
1.0
 40
1.0
 40
1.0
 10
7.953190697
 20
5.2575064451
 30
0.0
 10
7.953190697
 20
5.2579675436
 30
0.0
 10
7.9531492432
 20
5.2588696381
 30
0.0
 10
7.9529675638
 20
5.2601650717
 30
0.0
 10
7.9526831631
 20
5.2613399081
 30
0.0
 10
7.9523165527
 20
5.2623619095
 30
0.0
 10
7.951887539
 20
5.2632171199
 30
0.0
 10
7.9514778463
 20
5.2638089508
 30
0.0
 10
7.9511312763
 20
5.2641910777
 30
0.0
 10
7.9507990818
 20
5.2644950657
 30
0.0
 10
7.9505255338
 20
5.2646789665
 30
0.0
 10
7.9503373973
 20
5.2647731735
 30
0.0
  0
SPLINE
  5
3DB
100
AcDbEntity
  8
0
100
AcDbSpline
 62
7
  6
CONTINUOUS
 70
0
 71
3
 72
19
 73
15
 74
0
 42
0.0000001
 43
0.0000001
 44
0.0000000001
 40
0.0
 40
0.0
 40
0.0
 40
0.0
 40
0.1738842929
 40
0.2582310715
 40
0.3396606952
 40
0.4912987958
 40
0.6258017106
 40
0.6863805801
 40
0.7425719804
 40
0.7945296833
 40
0.8424685392
 40
0.8866538068
 40
0.9274017332
 40
1.0
 40
1.0
 40
1.0
 40
1.0
 10
7.9474723277
 20
5.2575064451
 30
0.0
 10
7.9474723277
 20
5.2579674269
 30
0.0
 10
7.9474448203
 20
5.2586524813
 30
0.0
 10
7.9473526679
 20
5.259548422
 30
0.0
 10
7.9472311198
 20
5.2603813113
 30
0.0
 10
7.9470290289
 20
5.2613359552
 30
0.0
 10
7.9467535912
 20
5.2622147825
 30
0.0
 10
7.9465008722
 20
5.2628314992
 30
0.0
 10
7.9463065289
 20
5.2632347172
 30
0.0
 10
7.9461024743
 20
5.2635950999
 30
0.0
 10
7.9458902414
 20
5.2639131063
 30
0.0
 10
7.9456709956
 20
5.2641895123
 30
0.0
 10
7.9453823578
 20
5.2644916344
 30
0.0
 10
7.9451417988
 20
5.2646776059
 30
0.0
 10
7.9449747382
 20
5.2647731735
 30
0.0
  0
SPLINE
  5
3DC
100
AcDbEntity
  8
0
100
AcDbSpline
 62
7
  6
CONTINUOUS
 70
0
 71
3
 72
19
 73
15
 74
0
 42
0.0000001
 43
0.0000001
 44
0.0000000001
 40
0.0
 40
0.0
 40
0.0
 40
0.0
 40
0.1775850306
 40
0.2636237376
 40
0.3465696109
 40
0.5005468978
 40
0.6362283773
 40
0.6968912399
 40
0.7528045562
 40
0.8041024511
 40
0.8509809526
 40
0.8936879927
 40
0.9325260056
 40
1.0
 40
1.0
 40
1.0
 40
1.0
 10
7.9412375508
 20
5.2575064451
 30
0.0
 10
7.9412375508
 20
5.2579673239
 30
0.0
 10
7.9412140783
 20
5.2586518346
 30
0.0
 10
7.9411353097
 20
5.2595479627
 30
0.0
 10
7.9410315523
 20
5.2603798471
 30
0.0
 10
7.9408593516
 20
5.2613323959
 30
0.0
 10
7.9406240461
 20
5.26221201
 30
0.0
 10
7.9404076207
 20
5.2628301586
 30
0.0
 10
7.94024164
 20
5.2632332307
 30
0.0
 10
7.9400673911
 20
5.2635934829
 30
0.0
 10
7.9398861893
 20
5.2639113737
 30
0.0
 10
7.9396990137
 20
5.2641877455
 30
0.0
 10
7.9394545095
 20
5.2644875076
 30
0.0
 10
7.9392480494
 20
5.264675784
 30
0.0
 10
7.9391025172
 20
5.2647731735
 30
0.0
  0
SPLINE
  5
3DD
100
AcDbEntity
  8
0
100
AcDbSpline
 62
7
  6
CONTINUOUS
 70
0
 71
3
 72
19
 73
15
 74
0
 42
0.0000001
 43
0.0000001
 44
0.0000000001
 40
0.0
 40
0.0
 40
0.0
 40
0.0
 40
0.1809712112
 40
0.3528936027
 40
0.5090660208
 40
0.6459095253
 40
0.706695819
 40
0.7623991564
 40
0.8131294209
 40
0.8590566049
 40
0.900400514
 40
0.9374342393
 40
0.970497477
 40
1.0
 40
1.0
 40
1.0
 40
1.0
 10
7.9345073474
 20
5.2575064451
 30
0.0
 10
7.9345073474
 20
5.25796682
 30
0.0
 10
7.9344818813
 20
5.2588647717
 30
0.0
 10
7.9343702155
 20
5.2601557231
 30
0.0
 10
7.9341954709
 20
5.2613262993
 30
0.0
 10
7.9340011919
 20
5.2622061262
 30
0.0
 10
7.9338220955
 20
5.2628253971
 30
0.0
 10
7.9336850718
 20
5.2632282992
 30
0.0
 10
7.9335412568
 20
5.2635884367
 30
0.0
 10
7.9333917095
 20
5.2639063229
 30
0.0
 10
7.9332373653
 20
5.2641826556
 30
0.0
 10
7.9330789789
 20
5.2644182579
 30
0.0
 10
7.932917235
 20
5.264613871
 30
0.0
 10
7.9328013952
 20
5.2647238534
 30
0.0
 10
7.9327431427
 20
5.264771176
 30
0.0
  0
SPLINE
  5
3DE
100
AcDbEntity
  8
0
100
AcDbSpline
 62
7
  6
CONTINUOUS
 70
0
 71
3
 72
19
 73
15
 74
0
 42
0.0000001
 43
0.0000001
 44
0.0000000001
 40
0.0
 40
0.0
 40
0.0
 40
0.0
 40
0.1842080779
 40
0.3589632009
 40
0.5172354466
 40
0.6552082665
 40
0.7161321908
 40
0.7716618864
 40
0.8218830091
 40
0.8669374568
 40
0.9070115831
 40
0.9423387305
 40
0.9732130071
 40
1.0
 40
1.0
 40
1.0
 40
1.0
 10
7.9272884991
 20
5.2575064451
 30
0.0
 10
7.9272884991
 20
5.2579671633
 30
0.0
 10
7.9272684073
 20
5.2588650951
 30
0.0
 10
7.9271803068
 20
5.2601562092
 30
0.0
 10
7.9270424697
 20
5.261326619
 30
0.0
 10
7.9268891033
 20
5.2622073019
 30
0.0
 10
7.9267474466
 20
5.2628278027
 30
0.0
 10
7.9266393236
 20
5.2632305206
 30
0.0
 10
7.92652588
 20
5.2635903714
 30
0.0
 10
7.9264079653
 20
5.2639078708
 30
0.0
 10
7.9262863394
 20
5.2641837255
 30
0.0
 10
7.9261616178
 20
5.264418791
 30
0.0
 10
7.9260343579
 20
5.2646138657
 30
0.0
 10
7.9259418995
 20
5.2647252099
 30
0.0
 10
7.9258951235
 20
5.2647731735
 30
0.0
  0
SPLINE
  5
3DF
100
AcDbEntity
  8
0
100
AcDbSpline
 62
7
  6
CONTINUOUS
 70
0
 71
3
 72
19
 73
15
 74
0
 42
0.0000001
 43
0.0000001
 44
0.0000000001
 40
0.0
 40
0.0
 40
0.0
 40
0.0
 40
0.1868516855
 40
0.3639372304
 40
0.5239673854
 40
0.6629308692
 40
0.7240077886
 40
0.7794375516
 40
0.8292821791
 40
0.8736546019
 40
0.9127041517
 40
0.9466156874
 40
0.9756192404
 40
1.0
 40
1.0
 40
1.0
 40
1.0
 10
7.9196124578
 20
5.2575064451
 30
0.0
 10
7.9196124578
 20
5.2579671076
 30
0.0
 10
7.919597819
 20
5.2588644284
 30
0.0
 10
7.919533629
 20
5.2601548695
 30
0.0
 10
7.9194332122
 20
5.2613245504
 30
0.0
 10
7.9193214146
 20
5.2622055437
 30
0.0
 10
7.9192179847
 20
5.2628268974
 30
0.0
 10
7.9191391856
 20
5.2632294419
 30
0.0
 10
7.9190565335
 20
5.2635890797
 30
0.0
 10
7.9189706625
 20
5.2639063155
 30
0.0
 10
7.9188821499
 20
5.264181842
 30
0.0
 10
7.9187914862
 20
5.2644165112
 30
0.0
 10
7.9186991236
 20
5.2646111354
 30
0.0
 10
7.9186309923
 20
5.264724193
 30
0.0
 10
7.9185961513
 20
5.2647731735
 30
0.0
  0
SPLINE
  5
3E0
100
AcDbEntity
  8
0
100
AcDbSpline
 62
7
  6
CONTINUOUS
 70
0
 71
3
 72
18
 73
14
 74
0
 42
0.0000001
 43
0.0000001
 44
0.0000000001
 40
0.0
 40
0.0
 40
0.0
 40
0.0
 40
0.1888164382
 40
0.3676399385
 40
0.5289931699
 40
0.6687225737
 40
0.7853054409
 40
0.8348932828
 40
0.8787802477
 40
0.9170831658
 40
0.9499412694
 40
0.9775179672
 40
1.0
 40
1.0
 40
1.0
 40
1.0
 10
7.9114963708
 20
5.2575064451
 30
0.0
 10
7.9114963708
 20
5.2579670691
 30
0.0
 10
7.9114872129
 20
5.2588639689
 30
0.0
 10
7.9114470336
 20
5.2601539338
 30
0.0
 10
7.9113842359
 20
5.2613231136
 30
0.0
 10
7.911303454
 20
5.2623389304
 30
0.0
 10
7.9112213238
 20
5.263080841
 30
0.0
 10
7.9111483834
 20
5.2635881084
 30
0.0
 10
7.9110946716
 20
5.263905108
 30
0.0
 10
7.9110393517
 20
5.2641803166
 30
0.0
 10
7.9109827641
 20
5.2644145397
 30
0.0
 10
7.9109252296
 20
5.2646085534
 30
0.0
 10
7.9108822366
 20
5.2647230738
 30
0.0
 10
7.9108599192
 20
5.2647731735
 30
0.0
  0
LINE
  5
3E1
100
AcDbEntity
  8
0
100
AcDbLine
 62
7
  6
CONTINUOUS
 10
7.9029624838
 20
5.2575064451
 11
7.9027076315
 21
5.2647731735
  0
LINE
  5
3E2
100
AcDbEntity
  8
0
100
AcDbLine
 62
7
  6
CONTINUOUS
 10
7.6154251325
 20
5.2647731735
 11
7.6151702802
 21
5.2575064451
  0
SPLINE
  5
3E3
100
AcDbEntity
  8
0
100
AcDbSpline
 62
7
  6
CONTINUOUS
 70
0
 71
3
 72
18
 73
14
 74
0
 42
0.0000001
 43
0.0000001
 44
0.0000000001
 40
0.0
 40
0.0
 40
0.0
 40
0.0
 40
0.0224820259
 40
0.0500586988
 40
0.0829167458
 40
0.1212195125
 40
0.1651063263
 40
0.2146940665
 40
0.3312767055
 40
0.4710060668
 40
0.6323592673
 40
0.8111829392
 40
1.0
 40
1.0
 40
1.0
 40
1.0
 10
7.6072728448
 20
5.2647731735
 30
0.0
 10
7.6072505274
 20
5.2647230738
 30
0.0
 10
7.6072075344
 20
5.2646085535
 30
0.0
 10
7.60715
 20
5.26441454
 30
0.0
 10
7.6070934125
 20
5.2641803174
 30
0.0
 10
7.6070380927
 20
5.2639051098
 30
0.0
 10
7.606984381
 20
5.2635881111
 30
0.0
 10
7.6069114407
 20
5.2630808449
 30
0.0
 10
7.6068293104
 20
5.2623389352
 30
0.0
 10
7.6067485284
 20
5.2613231192
 30
0.0
 10
7.6066857306
 20
5.2601539391
 30
0.0
 10
7.6066455511
 20
5.2588639724
 30
0.0
 10
7.6066363932
 20
5.2579670706
 30
0.0
 10
7.6066363932
 20
5.2575064451
 30
0.0
  0
SPLINE
  5
3E4
100
AcDbEntity
  8
0
100
AcDbSpline
 62
7
  6
CONTINUOUS
 70
0
 71
3
 72
19
 73
15
 74
0
 42
0.0000001
 43
0.0000001
 44
0.0000000001
 40
0.0
 40
0.0
 40
0.0
 40
0.0
 40
0.0243807524
 40
0.0533842794
 40
0.0872957572
 40
0.1263451547
 40
0.1707174271
 40
0.2205619542
 40
0.2759916253
 40
0.3370684127
 40
0.4760318567
 40
0.6360619827
 40
0.8131476986
 40
1.0
 40
1.0
 40
1.0
 40
1.0
 10
7.5995366126
 20
5.2647731735
 30
0.0
 10
7.5995017717
 20
5.264724193
 30
0.0
 10
7.5994336404
 20
5.2646111355
 30
0.0
 10
7.599341278
 20
5.2644165115
 30
0.0
 10
7.5992506144
 20
5.2641818428
 30
0.0
 10
7.599162102
 20
5.2639063172
 30
0.0
 10
7.5990762312
 20
5.2635890824
 30
0.0
 10
7.5989935792
 20
5.2632294454
 30
0.0
 10
7.59891478
 20
5.2628269018
 30
0.0
 10
7.59881135
 20
5.2622055488
 30
0.0
 10
7.5986995524
 20
5.261324556
 30
0.0
 10
7.5985991354
 20
5.2601548748
 30
0.0
 10
7.598534945
 20
5.2588644319
 30
0.0
 10
7.5985203062
 20
5.2579671091
 30
0.0
 10
7.5985203062
 20
5.2575064451
 30
0.0
  0
SPLINE
  5
3E5
100
AcDbEntity
  8
0
100
AcDbSpline
 62
7
  6
CONTINUOUS
 70
0
 71
3
 72
77
 73
73
 74
0
 42
0.0000001
 43
0.0000001
 44
0.0000000001
 40
0.0
 40
0.0
 40
0.0
 40
0.0
 40
0.0003726188
 40
0.0007598236
 40
0.0011746278
 40
0.0016276726
 40
0.0021271571
 40
0.0026791824
 40
0.0032882397
 40
0.0039576489
 40
0.0054863676
 40
0.0072792089
 40
0.009343826
 40
0.0116846405
 40
0.0143041631
 40
0.0172035897
 40
0.02038326
 40
0.0238428275
 40
0.0275814575
 40
0.0315978871
 40
0.0404572986
 40
0.0504049868
 40
0.0614207185
 40
0.0734808541
 40
0.0865586782
 40
0.1006246318
 40
0.1156464813
 40
0.1315894617
 40
0.1484163997
 40
0.1845619707
 40
0.2237421379
 40
0.2655844099
 40
0.3096888215
 40
0.3556319629
 40
0.4029712761
 40
0.4512495981
 40
0.499999908
 40
0.5487502187
 40
0.5970285432
 40
0.6443678608
 40
0.6903110085
 40
0.7344154281
 40
0.7762577098
 40
0.8154378882
 40
0.851583472
 40
0.8684104169
 40
0.8843534046
 40
0.8993752616
 40
0.913441223
 40
0.9265190552
 40
0.9385791991
 40
0.9495949393
 40
0.9595426361
 40
0.9684020565
 40
0.9724184906
 40
0.9761571251
 40
0.9796166972
 40
0.9827963721
 40
0.9856958032
 40
0.9883153302
 40
0.9906561492
 40
0.992720771
 40
0.9945136166
 40
0.9960423392
 40
0.9967117502
 40
0.9973208095
 40
0.9978728368
 40
0.9983723236
 40
0.9988253706
 40
0.9992401763
 40
0.9996273816
 40
1.0
 40
1.0
 40
1.0
 40
1.0
 10
7.614691382
 20
5.8158062627
 30
0.0
 10
7.6146913849
 20
5.815770153
 30
0.0
 10
7.6146989548
 20
5.8156963234
 30
0.0
 10
7.6147325826
 20
5.815586922
 30
0.0
 10
7.6147881538
 20
5.8154781379
 30
0.0
 10
7.614865348
 20
5.8153699587
 30
0.0
 10
7.6149640122
 20
5.8152622123
 30
0.0
 10
7.6150840961
 20
5.8151547657
 30
0.0
 10
7.6152255946
 20
5.815047517
 30
0.0
 10
7.6154530959
 20
5.81489806
 30
0.0
 10
7.6157940053
 20
5.814714005
 30
0.0
 10
7.6162714609
 20
5.8145022938
 30
0.0
 10
7.6168340566
 20
5.8142910829
 30
0.0
 10
7.6174816205
 20
5.8140804981
 30
0.0
 10
7.6182139708
 20
5.81387072
 30
0.0
 10
7.6190307617
 20
5.8136619092
 30
0.0
 10
7.619931577
 20
5.8134542301
 30
0.0
 10
7.6209159259
 20
5.8132478344
 30
0.0
 10
7.6219832544
 20
5.8130428602
 30
0.0
 10
7.623568763
 20
5.8127624014
 30
0.0
 10
7.6257540684
 20
5.8124198111
 30
0.0
 10
7.6286176351
 20
5.8120283091
 30
0.0
 10
7.6317949972
 20
5.8116453131
 30
0.0
 10
7.6352786986
 20
5.8112718206
 30
0.0
 10
7.6390605607
 20
5.8109088502
 30
0.0
 10
7.6431316539
 20
5.8105573302
 30
0.0
 10
7.6474823425
 20
5.810218173
 30
0.0
 10
7.6521023014
 20
5.8098922164
 30
0.0
 10
7.6587671978
 20
5.8094661159
 30
0.0
 10
7.6676843371
 20
5.808977225
 30
0.0
 10
7.6790275602
 20
5.8084675494
 30
0.0
 10
7.69114549
 20
5.8080271653
 30
0.0
 10
7.7039215239
 20
5.8076605442
 30
0.0
 10
7.7172323741
 20
5.8073714525
 30
0.0
 10
7.7309492536
 20
5.8071628316
 30
0.0
 10
7.744939184
 20
5.807036805
 30
0.0
 10
7.7590663537
 20
5.8069946532
 30
0.0
 10
7.7731935236
 20
5.8070368046
 30
0.0
 10
7.7871834547
 20
5.8071628309
 30
0.0
 10
7.8009003355
 20
5.8073714515
 30
0.0
 10
7.8142111875
 20
5.8076605428
 30
0.0
 10
7.8269872238
 20
5.8080271636
 30
0.0
 10
7.8391051564
 20
5.8084675475
 30
0.0
 10
7.8504483828
 20
5.8089772228
 30
0.0
 10
7.8593655251
 20
5.8094661135
 30
0.0
 10
7.8660304242
 20
5.8098922138
 30
0.0
 10
7.8706503851
 20
5.8102181703
 30
0.0
 10
7.875001076
 20
5.8105573274
 30
0.0
 10
7.8790721714
 20
5.8109088473
 30
0.0
 10
7.8828540359
 20
5.8112718177
 30
0.0
 10
7.8863377398
 20
5.8116453099
 30
0.0
 10
7.8895151043
 20
5.812028306
 30
0.0
 10
7.8923786736
 20
5.8124198078
 30
0.0
 10
7.8945639812
 20
5.8127623983
 30
0.0
 10
7.8961494915
 20
5.8130428568
 30
0.0
 10
7.8972168214
 20
5.813247831
 30
0.0
 10
7.8982011716
 20
5.8134542267
 30
0.0
 10
7.8991019882
 20
5.8136619059
 30
0.0
 10
7.8999187805
 20
5.8138707165
 30
0.0
 10
7.9006511323
 20
5.8140804946
 30
0.0
 10
7.9012986975
 20
5.8142910795
 30
0.0
 10
7.9018612946
 20
5.8145022904
 30
0.0
 10
7.9023387516
 20
5.8147140014
 30
0.0
 10
7.9026796622
 20
5.8148980564
 30
0.0
 10
7.9029071643
 20
5.8150475135
 30
0.0
 10
7.9030486634
 20
5.8151547623
 30
0.0
 10
7.903168748
 20
5.8152622089
 30
0.0
 10
7.9032674131
 20
5.8153699554
 30
0.0
 10
7.9033446084
 20
5.8154781345
 30
0.0
 10
7.9034001806
 20
5.8155869185
 30
0.0
 10
7.9034338092
 20
5.8156963199
 30
0.0
 10
7.9034413792
 20
5.8157701495
 30
0.0
 10
7.903441382
 20
5.8158062592
 30
0.0
  0
SPLINE
  5
3E6
100
AcDbEntity
  8
0
100
AcDbSpline
 62
7
  6
CONTINUOUS
 70
0
 71
3
 72
23
 73
19
 74
0
 42
0.0000001
 43
0.0000001
 44
0.0000000001
 40
0.0
 40
0.0
 40
0.0
 40
0.0
 40
0.0607468307
 40
0.1215614785
 40
0.1825118919
 40
0.2436571836
 40
0.3050500062
 40
0.3667324606
 40
0.4287351346
 40
0.491075918
 40
0.5537595337
 40
0.6167775626
 40
0.6801089677
 40
0.7437210976
 40
0.8075708849
 40
0.8716071667
 40
0.9357704471
 40
1.0
 40
1.0
 40
1.0
 40
1.0
 10
7.6146913827
 20
6.0364517306
 30
0.0
 10
7.6146915354
 20
6.0369156538
 30
0.0
 10
7.614740114
 20
6.0378447225
 30
0.0
 10
7.614957066
 20
6.0392239803
 30
0.0
 10
7.6153159844
 20
6.0405765649
 30
0.0
 10
7.6158133942
 20
6.0418892297
 30
0.0
 10
7.6164444522
 20
6.0431493654
 30
0.0
 10
7.61720304
 20
6.0443448212
 30
0.0
 10
7.6180818069
 20
6.0454641006
 30
0.0
 10
7.6190722531
 20
6.0464964485
 30
0.0
 10
7.6201648119
 20
6.0474319579
 30
0.0
 10
7.6213489444
 20
6.0482616617
 30
0.0
 10
7.622613241
 20
6.048977615
 30
0.0
 10
7.6239455368
 20
6.0495729656
 30
0.0
 10
7.6253330095
 20
6.0500420249
 30
0.0
 10
7.6267623653
 20
6.0503803
 30
0.0
 10
7.6282197155
 20
6.050584574
 30
0.0
 10
7.6292008612
 20
6.0506301025
 30
0.0
 10
7.629691382
 20
6.0506301025
 30
0.0
  0
SPLINE
  5
3E7
100
AcDbEntity
  8
0
100
AcDbSpline
 62
7
  6
CONTINUOUS
 70
0
 71
3
 72
21
 73
17
 74
0
 42
0.0000001
 43
0.0000001
 44
0.0000000001
 40
0.0
 40
0.0
 40
0.0
 40
0.0
 40
0.1153769191
 40
0.2323660586
 40
0.291631464
 40
0.3514884691
 40
0.412009104
 40
0.4732706391
 40
0.5353544529
 40
0.5983464128
 40
0.6623346553
 40
0.7274075277
 40
0.7936487744
 40
0.8611314988
 40
0.9299084789
 40
1.0
 40
1.0
 40
1.0
 40
1.0
 10
2.5925054159
 20
5.3230761187
 30
0.0
 10
2.6008123426
 20
5.3254538716
 30
0.0
 10
2.6173416054
 20
5.3309773163
 30
0.0
 10
2.6373774764
 20
5.3397511421
 30
0.0
 10
2.6530401791
 20
5.3479699548
 30
0.0
 10
2.6646409992
 20
5.3547938607
 30
0.0
 10
2.6760119515
 20
5.3622702726
 30
0.0
 10
2.6871180391
 20
5.3704208243
 30
0.0
 10
2.697918022
 20
5.3792687153
 30
0.0
 10
2.7083645964
 20
5.3888371826
 30
0.0
 10
2.7184023221
 20
5.3991494924
 30
0.0
 10
2.7279672513
 20
5.4102264866
 30
0.0
 10
2.7369845869
 20
5.4220852691
 30
0.0
 10
2.7453692367
 20
5.4347352622
 30
0.0
 10
2.7530232333
 20
5.4481735365
 30
0.0
 10
2.7575262801
 20
5.4575597116
 30
0.0
 10
2.7596234779
 20
5.4623716832
 30
0.0
  0
SPLINE
  5
3E8
100
AcDbEntity
  8
0
100
AcDbSpline
 62
7
  6
CONTINUOUS
 70
0
 71
3
 72
23
 73
19
 74
0
 42
0.0000001
 43
0.0000001
 44
0.0000000001
 40
0.0
 40
0.0
 40
0.0
 40
0.0
 40
0.0607468332
 40
0.1215614809
 40
0.1825118899
 40
0.2436571747
 40
0.305049989
 40
0.3667324349
 40
0.4287351013
 40
0.4910758788
 40
0.5537594909
 40
0.616777519
 40
0.680108926
 40
0.7437210606
 40
0.8075708549
 40
0.8716071457
 40
0.9357704364
 40
1.0
 40
1.0
 40
1.0
 40
1.0
 10
7.9034413813
 20
6.0364516071
 30
0.0
 10
7.9034412329
 20
6.0369155328
 30
0.0
 10
7.9033926623
 20
6.037844607
 30
0.0
 10
7.9031757206
 20
6.0392238741
 30
0.0
 10
7.9028168107
 20
6.0405764686
 30
0.0
 10
7.9023194076
 20
6.0418891439
 30
0.0
 10
7.9016883544
 20
6.0431492903
 30
0.0
 10
7.9009297696
 20
6.0443447568
 30
0.0
 10
7.900051004
 20
6.0454640467
 30
0.0
 10
7.8990605573
 20
6.0464964047
 30
0.0
 10
7.8979679965
 20
6.0474319236
 30
0.0
 10
7.8967838605
 20
6.0482616359
 30
0.0
 10
7.8955195591
 20
6.0489775967
 30
0.0
 10
7.8941872575
 20
6.0495729538
 30
0.0
 10
7.892799778
 20
6.0500420183
 30
0.0
 10
7.8913704148
 20
6.0503802971
 30
0.0
 10
7.8899130566
 20
6.0505845735
 30
0.0
 10
7.8889319055
 20
6.0506301025
 30
0.0
 10
7.888441382
 20
6.0506301025
 30
0.0
  0
SPLINE
  5
3E9
100
AcDbEntity
  8
0
100
AcDbSpline
 62
7
  6
CONTINUOUS
 70
0
 71
3
 72
95
 73
91
 74
0
 42
0.0000001
 43
0.0000001
 44
0.0000000001
 40
0.0
 40
0.0
 40
0.0
 40
0.0
 40
0.0165153135
 40
0.032996166
 40
0.0494107726
 40
0.0575851822
 40
0.0657329375
 40
0.0819363002
 40
0.098006396
 40
0.1139331701
 40
0.1297125798
 40
0.1453455995
 40
0.1608375947
 40
0.1761976176
 40
0.1914380757
 40
0.2065735606
 40
0.2216199707
 40
0.2291156374
 40
0.2365955395
 40
0.2440622885
 40
0.2515185209
 40
0.2664089485
 40
0.2812883145
 40
0.288730845
 40
0.2961785843
 40
0.3036347727
 40
0.3111027509
 40
0.3260852376
 40
0.3411490937
 40
0.3487195648
 40
0.3563197995
 40
0.3639530348
 40
0.3716225258
 40
0.3793307585
 40
0.3870795113
 40
0.4027054386
 40
0.4185166563
 40
0.4345178593
 40
0.4506981257
 40
0.458848437
 40
0.4670332087
 40
0.4752474003
 40
0.4834846335
 40
0.4917375835
 40
0.4999980476
 40
0.5082585094
 40
0.5165114146
 40
0.5247487146
 40
0.5329630463
 40
0.5411477321
 40
0.5492977973
 40
0.5654777039
 40
0.5814800881
 40
0.5972928071
 40
0.6129180162
 40
0.6206654336
 40
0.628372567
 40
0.6360422047
 40
0.6436766936
 40
0.651278127
 40
0.6588489484
 40
0.6663925052
 40
0.6739122695
 40
0.6814116088
 40
0.6888938201
 40
0.6963621253
 40
0.7038192275
 40
0.7112676696
 40
0.7187101778
 40
0.7335884941
 40
0.7484784376
 40
0.7634010715
 40
0.7783758021
 40
0.7934218489
 40
0.8085572004
 40
0.8237978109
 40
0.8391580644
 40
0.8546501555
 40
0.870283134
 40
0.8860624831
 40
0.9019893231
 40
0.9180594308
 40
0.9342627749
 40
0.9424105203
 40
0.9505849504
 40
0.9587830953
 40
0.9670016333
 40
0.9752367283
 40
0.9834845909
 40
1.0
 40
1.0
 40
1.0
 40
1.0
 10
3.787816382
 20
5.5458135317
 30
0.0
 10
3.7878165894
 20
5.5494029483
 30
0.0
 10
3.7880482221
 20
5.5565763632
 30
0.0
 10
3.7890726698
 20
5.5672728148
 30
0.0
 10
3.7904792716
 20
5.576093891
 30
0.0
 10
3.7919297194
 20
5.5830604621
 30
0.0
 10
3.7935859087
 20
5.5899337836
 30
0.0
 10
3.7960354829
 20
5.598376564
 30
0.0
 10
3.799553933
 20
5.60825017
 30
0.0
 10
3.8036110081
 20
5.6178148583
 30
0.0
 10
3.8081704287
 20
5.6270442465
 30
0.0
 10
3.8131918282
 20
5.6359218248
 30
0.0
 10
3.81863863
 20
5.6444365431
 30
0.0
 10
3.8244774707
 20
5.6525822785
 30
0.0
 10
3.8306812622
 20
5.660354479
 30
0.0
 10
3.8372236449
 20
5.6677526371
 30
0.0
 10
3.8429441955
 20
5.6736167661
 30
0.0
 10
3.8476645886
 20
5.6781222145
 30
0.0
 10
3.8512712291
 20
5.6814066437
 30
0.0
 10
3.8549469628
 20
5.684600491
 30
0.0
 10
3.8599356687
 20
5.6887362433
 30
0.0
 10
3.8663407291
 20
5.6936841789
 30
0.0
 10
3.8729583557
 20
5.6983385001
 30
0.0
 10
3.8783701247
 20
5.7018853723
 30
0.0
 10
3.8824891116
 20
5.7044594303
 30
0.0
 10
3.8866676561
 20
5.7069464667
 30
0.0
 10
3.8923242364
 20
5.7101491375
 30
0.0
 10
3.8995480874
 20
5.7139353483
 30
0.0
 10
3.9069445266
 20
5.7174245031
 30
0.0
 10
3.9129727745
 20
5.7200408655
 30
0.0
 10
3.9175597789
 20
5.7219188522
 30
0.0
 10
3.9222052445
 20
5.7237079226
 30
0.0
 10
3.9269094819
 20
5.7254066086
 30
0.0
 10
3.9316720944
 20
5.7270143449
 30
0.0
 10
3.9381163614
 20
5.7290425619
 30
0.0
 10
3.9463176137
 20
5.7313484764
 30
0.0
 10
3.9563539748
 20
5.7337219634
 30
0.0
 10
3.9665999676
 20
5.7356922195
 30
0.0
 10
3.9752725125
 20
5.7369853617
 30
0.0
 10
3.9822915235
 20
5.7378097704
 30
0.0
 10
3.9876029385
 20
5.7383206048
 30
0.0
 10
3.9929428582
 20
5.738719662
 30
0.0
 10
3.9983050441
 20
5.739002654
 30
0.0
 10
4.0036821208
 20
5.7391698595
 30
0.0
 10
4.0090665425
 20
5.7392251282
 30
0.0
 10
4.0144509434
 20
5.7391691079
 30
0.0
 10
4.0198280173
 20
5.7390017828
 30
0.0
 10
4.0251902478
 20
5.7387190594
 30
0.0
 10
4.0305302568
 20
5.7383208144
 30
0.0
 10
4.0358416124
 20
5.7378097207
 30
0.0
 10
4.0428603396
 20
5.736984135
 30
0.0
 10
4.0515327706
 20
5.735689622
 30
0.0
 10
4.0617797687
 20
5.7337222197
 30
0.0
 10
4.0718174576
 20
5.7313523337
 30
0.0
 10
4.0800183822
 20
5.7290454384
 30
0.0
 10
4.0864610604
 20
5.727014443
 30
0.0
 10
4.0912224706
 20
5.7254047277
 30
0.0
 10
4.0959268
 20
5.7237061667
 30
0.0
 10
4.1005736899
 20
5.7219192392
 30
0.0
 10
4.1051622073
 20
5.7200433609
 30
0.0
 10
4.1096916674
 20
5.7180781936
 30
0.0
 10
4.1141622987
 20
5.716024823
 30
0.0
 10
4.1185745878
 20
5.71388428
 30
0.0
 10
4.1229288981
 20
5.7116572612
 30
0.0
 10
4.1272252981
 20
5.7093439753
 30
0.0
 10
4.1314638859
 20
5.7069449629
 30
0.0
 10
4.1356438953
 20
5.704459603
 30
0.0
 10
4.1397641945
 20
5.7018869613
 30
0.0
 10
4.1451758083
 20
5.6983399829
 30
0.0
 10
4.1517914264
 20
5.6936832277
 30
0.0
 10
4.159479543
 20
5.6877419801
 30
0.0
 10
4.166905657
 20
5.6814434457
 30
0.0
 10
4.17405393
 20
5.6747811549
 30
0.0
 10
4.1809080641
 20
5.6677516817
 30
0.0
 10
4.1874499102
 20
5.6603530761
 30
0.0
 10
4.1936543139
 20
5.6525813534
 30
0.0
 10
4.1994946126
 20
5.6444365281
 30
0.0
 10
4.204942183
 20
5.6359222036
 30
0.0
 10
4.2099630375
 20
5.6270442722
 30
0.0
 10
4.2145208012
 20
5.6178141138
 30
0.0
 10
4.2185795433
 20
5.6082501737
 30
0.0
 10
4.2220988174
 20
5.5983767973
 30
0.0
 10
4.2245471736
 20
5.5899336209
 30
0.0
 10
4.2262026374
 20
5.5830601923
 30
0.0
 10
4.2272895034
 20
5.577842067
 30
0.0
 10
4.2282157104
 20
5.5725774548
 30
0.0
 10
4.2289784908
 20
5.5672733739
 30
0.0
 10
4.2295747212
 20
5.5619370077
 30
0.0
 10
4.2301443404
 20
5.5547870426
 30
0.0
 10
4.2303163381
 20
5.549402969
 30
0.0
 10
4.230316382
 20
5.5458135317
 30
0.0
  0
SPLINE
  5
3EA
100
AcDbEntity
  8
0
100
AcDbSpline
 62
7
  6
CONTINUOUS
 70
0
 71
3
 72
33
 73
29
 74
0
 42
0.0000001
 43
0.0000001
 44
0.0000000001
 40
0.0
 40
0.0
 40
0.0
 40
0.0
 40
0.0032089396
 40
0.0066781233
 40
0.0105737857
 40
0.0150125609
 40
0.0200706059
 40
0.0257969859
 40
0.0393569249
 40
0.0558157711
 40
0.0751814282
 40
0.0974021779
 40
0.1223861479
 40
0.1500104587
 40
0.1801260583
 40
0.2125616854
 40
0.2471262849
 40
0.3217867289
 40
0.4022514499
 40
0.4864645947
 40
0.5722400179
 40
0.6573359317
 40
0.739535111
 40
0.8167207757
 40
0.8869488219
 40
0.9485095475
 40
0.9755905623
 40
1.0
 40
1.0
 40
1.0
 40
1.0
 10
7.7664114811
 20
5.0493735082
 30
0.0
 10
7.7664105585
 20
5.0493587303
 30
0.0
 10
7.7664043017
 20
5.0493281294
 30
0.0
 10
7.7663829167
 20
5.0492838513
 30
0.0
 10
7.7663498418
 20
5.0492402278
 30
0.0
 10
7.7663052894
 20
5.0491971466
 30
0.0
 10
7.7662493355
 20
5.0491544786
 30
0.0
 10
7.7661540667
 20
5.0490947424
 30
0.0
 10
7.7660050931
 20
5.0490229468
 30
0.0
 10
7.7657915515
 20
5.0489429477
 30
0.0
 10
7.7655350138
 20
5.0488654582
 30
0.0
 10
7.765236916
 20
5.0487910065
 30
0.0
 10
7.7648989227
 20
5.0487201366
 30
0.0
 10
7.7645230578
 20
5.0486533491
 30
0.0
 10
7.7641116123
 20
5.0485911145
 30
0.0
 10
7.7636671419
 20
5.048533863
 30
0.0
 10
7.7630173244
 20
5.0484628906
 30
0.0
 10
7.7621448802
 20
5.0483907037
 30
0.0
 10
7.7610420232
 20
5.048330955
 30
0.0
 10
7.7598867401
 20
5.0482978532
 30
0.0
 10
7.758709636
 20
5.0482923574
 30
0.0
 10
7.75754202
 20
5.0483146414
 30
0.0
 10
7.7564149007
 20
5.0483640408
 30
0.0
 10
7.7553579275
 20
5.0484390656
 30
0.0
 10
7.7543985574
 20
5.0485375385
 30
0.0
 10
7.7536724583
 20
5.0486404325
 30
0.0
 10
7.753159353
 20
5.0487347524
 30
0.0
 10
7.752927125
 20
5.0487852273
 30
0.0
 10
7.7528175971
 20
5.0488114776
 30
0.0
  0
SPLINE
  5
3EB
100
AcDbEntity
  8
0
100
AcDbSpline
 62
7
  6
CONTINUOUS
 70
0
 71
3
 72
23
 73
19
 74
0
 42
0.0000001
 43
0.0000001
 44
0.0000000001
 40
0.0
 40
0.0
 40
0.0
 40
0.0
 40
0.0607469954
 40
0.1215617009
 40
0.1825120123
 40
0.2436570972
 40
0.3050496507
 40
0.3667318153
 40
0.4287342167
 40
0.4910747762
 40
0.5537582408
 40
0.6167762074
 40
0.680107646
 40
0.743719904
 40
0.8075699055
 40
0.8716064719
 40
0.9357700863
 40
1.0
 40
1.0
 40
1.0
 40
1.0
 10
7.614691382
 20
5.8761128291
 30
0.0
 10
7.614691382
 20
5.8765768428
 30
0.0
 10
7.6147396745
 20
5.8775061078
 30
0.0
 10
7.6149562582
 20
5.878885697
 30
0.0
 10
7.6153148726
 20
5.8802386394
 30
0.0
 10
7.6158120441
 20
5.8815516792
 30
0.0
 10
7.6164429297
 20
5.8828121986
 30
0.0
 10
7.6172014104
 20
5.8840080381
 30
0.0
 10
7.6180801334
 20
5.8851276931
 30
0.0
 10
7.619070596
 20
5.8861604005
 30
0.0
 10
7.6201632276
 20
5.8870962461
 30
0.0
 10
7.6213474843
 20
5.8879262557
 30
0.0
 10
7.6226119509
 20
5.8886424786
 30
0.0
 10
7.6239444559
 20
5.8892380574
 30
0.0
 10
7.62533217
 20
5.8897072988
 30
0.0
 10
7.6267617918
 20
5.8900457065
 30
0.0
 10
7.6282194245
 20
5.8902500612
 30
0.0
 10
7.6292007642
 20
5.8902956078
 30
0.0
 10
7.629691382
 20
5.8902956078
 30
0.0
  0
SPLINE
  5
3EC
100
AcDbEntity
  8
0
100
AcDbSpline
 62
7
  6
CONTINUOUS
 70
0
 71
3
 72
23
 73
19
 74
0
 42
0.0000001
 43
0.0000001
 44
0.0000000001
 40
0.0
 40
0.0
 40
0.0
 40
0.0
 40
0.0607469954
 40
0.1215617009
 40
0.1825120123
 40
0.2436570972
 40
0.3050496507
 40
0.3667318153
 40
0.4287342167
 40
0.4910747762
 40
0.5537582408
 40
0.6167762074
 40
0.680107646
 40
0.743719904
 40
0.8075699055
 40
0.8716064719
 40
0.9357700863
 40
1.0
 40
1.0
 40
1.0
 40
1.0
 10
7.903441382
 20
5.8761128291
 30
0.0
 10
7.903441382
 20
5.8765768428
 30
0.0
 10
7.9033930895
 20
5.8775061078
 30
0.0
 10
7.9031765058
 20
5.878885697
 30
0.0
 10
7.9028178913
 20
5.8802386394
 30
0.0
 10
7.9023207199
 20
5.8815516792
 30
0.0
 10
7.9016898342
 20
5.8828121986
 30
0.0
 10
7.9009313536
 20
5.8840080381
 30
0.0
 10
7.9000526306
 20
5.8851276931
 30
0.0
 10
7.899062168
 20
5.8861604005
 30
0.0
 10
7.8979695363
 20
5.8870962461
 30
0.0
 10
7.8967852796
 20
5.8879262557
 30
0.0
 10
7.895520813
 20
5.8886424786
 30
0.0
 10
7.8941883081
 20
5.8892380574
 30
0.0
 10
7.892800594
 20
5.8897072988
 30
0.0
 10
7.8913709722
 20
5.8900457065
 30
0.0
 10
7.8899133395
 20
5.8902500612
 30
0.0
 10
7.8889319998
 20
5.8902956078
 30
0.0
 10
7.888441382
 20
5.8902956078
 30
0.0
  0
SPLINE
  5
3ED
100
AcDbEntity
  8
0
100
AcDbSpline
 62
7
  6
CONTINUOUS
 70
0
 71
3
 72
20
 73
16
 74
0
 42
0.0000001
 43
0.0000001
 44
0.0000000001
 40
0.0
 40
0.0
 40
0.0
 40
0.0
 40
0.0221792766
 40
0.0461374999
 40
0.0740019877
 40
0.1071381208
 40
0.1463283418
 40
0.1919873485
 40
0.2443136069
 40
0.3033611023
 40
0.3690868156
 40
0.4413753596
 40
0.6048762015
 40
0.7919291655
 40
1.0
 40
1.0
 40
1.0
 40
1.0
 10
7.682835689
 20
5.0569803973
 30
0.0
 10
7.6828341165
 20
5.0569542022
 30
0.0
 10
7.6828207702
 20
5.056899845
 30
0.0
 10
7.6827712725
 20
5.0568260014
 30
0.0
 10
7.6826948281
 20
5.0567594759
 30
0.0
 10
7.6825921628
 20
5.0566992885
 30
0.0
 10
7.6824632311
 20
5.0566450228
 30
0.0
 10
7.6823081043
 20
5.0565966694
 30
0.0
 10
7.6821270517
 20
5.0565543854
 30
0.0
 10
7.6819205424
 20
5.0565183472
 30
0.0
 10
7.6816892049
 20
5.0564887178
 30
0.0
 10
7.6813338316
 20
5.0564566659
 30
0.0
 10
7.6808336863
 20
5.0564357559
 30
0.0
 10
7.6801725819
 20
5.0564381373
 30
0.0
 10
7.6797053425
 20
5.0564567587
 30
0.0
 10
7.6794595163
 20
5.0564700903
 30
0.0
  0
LINE
  5
3EE
100
AcDbEntity
  8
0
100
AcDbLine
 62
7
  6
CONTINUOUS
 10
7.8765995207
 20
5.0600993093
 11
7.8759876798
 21
5.0596802321
  0
SPLINE
  5
3EF
100
AcDbEntity
  8
0
100
AcDbSpline
 62
7
  6
CONTINUOUS
 70
0
 71
3
 72
24
 73
20
 74
0
 42
0.0000001
 43
0.0000001
 44
0.0000000001
 40
0.0
 40
0.0
 40
0.0
 40
0.0
 40
0.0180334262
 40
0.0386140585
 40
0.0869375904
 40
0.1438906989
 40
0.2082320741
 40
0.2786029688
 40
0.3535517692
 40
0.5109938685
 40
0.6675783925
 40
0.7413055904
 40
0.8097172534
 40
0.8711815817
 40
0.9241963259
 40
0.9471208531
 40
0.9674683064
 40
0.985123926
 40
1.0
 40
1.0
 40
1.0
 40
1.0
 10
7.8759876798
 20
5.0596802321
 30
0.0
 10
7.8759060749
 20
5.0596435209
 30
0.0
 10
7.8757297323
 20
5.0595684747
 30
0.0
 10
7.8753281277
 20
5.0594108681
 30
0.0
 10
7.8747391588
 20
5.0592027082
 30
0.0
 10
7.8739377609
 20
5.0589453197
 30
0.0
 10
7.8730259485
 20
5.058674728
 30
0.0
 10
7.8720233789
 20
5.0583967623
 30
0.0
 10
7.870569543
 20
5.0580180159
 30
0.0
 10
7.8686916398
 20
5.0575711245
 30
0.0
 10
7.8668087993
 20
5.0571738137
 30
0.0
 10
7.8653519267
 20
5.056900294
 30
0.0
 10
7.8643559189
 20
5.0567306871
 30
0.0
 10
7.8634583135
 20
5.0565965572
 30
0.0
 10
7.8627814903
 20
5.0565132304
 30
0.0
 10
7.8623057605
 20
5.0564687037
 30
0.0
 10
7.862004131
 20
5.0564476491
 30
0.0
 10
7.8617419053
 20
5.0564373397
 30
0.0
 10
7.8615803968
 20
5.0564376019
 30
0.0
 10
7.8615066254
 20
5.0564401501
 30
0.0
  0
LINE
  5
3F0
100
AcDbEntity
  8
0
100
AcDbLine
 62
7
  6
CONTINUOUS
 10
7.8615066254
 20
5.0564401501
 11
7.8612173118
 21
5.0564700903
  0
LINE
  5
3F1
100
AcDbEntity
  8
0
100
AcDbLine
 62
7
  6
CONTINUOUS
 10
7.8181662056
 20
5.0501491129
 11
7.817936423
 21
5.0499387162
  0
SPLINE
  5
3F2
100
AcDbEntity
  8
0
100
AcDbSpline
 62
7
  6
CONTINUOUS
 70
0
 71
3
 72
28
 73
24
 74
0
 42
0.0000001
 43
0.0000001
 44
0.0000000001
 40
0.0
 40
0.0
 40
0.0
 40
0.0
 40
0.0095658648
 40
0.0201654068
 40
0.0322603547
 40
0.0461412497
 40
0.0619759477
 40
0.0798503309
 40
0.0997971945
 40
0.1218125365
 40
0.1458652818
 40
0.1719046196
 40
0.2296509245
 40
0.2943579637
 40
0.365138241
 40
0.4409431788
 40
0.5205795008
 40
0.6027281451
 40
0.685968158
 40
0.7688108773
 40
0.8497429417
 40
0.9272743837
 40
1.0
 40
1.0
 40
1.0
 40
1.0
 10
7.8123031814
 20
5.0590450068
 30
0.0
 10
7.8123007106
 20
5.059004783
 30
0.0
 10
7.8122826308
 20
5.0589205051
 30
0.0
 10
7.8122218287
 20
5.058797842
 30
0.0
 10
7.8121281504
 20
5.0586746157
 30
0.0
 10
7.8120022883
 20
5.058550758
 30
0.0
 10
7.8118447088
 20
5.0584263144
 30
0.0
 10
7.8116559295
 20
5.0583016008
 30
0.0
 10
7.8114365954
 20
5.0581770406
 30
0.0
 10
7.8111874936
 20
5.0580531153
 30
0.0
 10
7.8109095468
 20
5.0579303109
 30
0.0
 10
7.8104870923
 20
5.0577629472
 30
0.0
 10
7.8098940445
 20
5.0575625493
 30
0.0
 10
7.8091102014
 20
5.057341821
 30
0.0
 10
7.8082436261
 20
5.0571373036
 30
0.0
 10
7.8073084301
 20
5.0569527722
 30
0.0
 10
7.8063203569
 20
5.0567917821
 30
0.0
 10
7.8052967102
 20
5.0566575303
 30
0.0
 10
7.8042560516
 20
5.0565527688
 30
0.0
 10
7.8032178239
 20
5.0564797009
 30
0.0
 10
7.8022018385
 20
5.0564398817
 30
0.0
 10
7.8012277099
 20
5.0564341305
 30
0.0
 10
7.8005948014
 20
5.0564537647
 30
0.0
 10
7.8002888546
 20
5.0564700903
 30
0.0
  0
SPLINE
  5
3F3
100
AcDbEntity
  8
0
100
AcDbSpline
 62
7
  6
CONTINUOUS
 70
0
 71
3
 72
28
 73
24
 74
0
 42
0.0000001
 43
0.0000001
 44
0.0000000001
 40
0.0
 40
0.0
 40
0.0
 40
0.0
 40
0.0023530407
 40
0.0048443
 40
0.0076138856
 40
0.010764825
 40
0.0184546684
 40
0.0282454534
 40
0.0402686365
 40
0.0545753359
 40
0.0711728846
 40
0.0900441361
 40
0.1111521645
 40
0.1344479203
 40
0.1873421376
 40
0.2481214825
 40
0.3160448859
 40
0.3902610164
 40
0.469828007
 40
0.5537312243
 40
0.6409022056
 40
0.8206100204
 40
1.0
 40
1.0
 40
1.0
 40
1.0
 10
7.7146574813
 20
5.0486091595
 30
0.0
 10
7.7146570369
 20
5.0486020097
 30
0.0
 10
7.7146540605
 20
5.0485873471
 30
0.0
 10
7.7146435901
 20
5.0485664261
 30
0.0
 10
7.7146273481
 20
5.0485464194
 30
0.0
 10
7.714596039
 20
5.0485190534
 30
0.0
 10
7.7145410306
 20
5.0484877085
 30
0.0
 10
7.7144572209
 20
5.0484550514
 30
0.0
 10
7.7143512701
 20
5.0484251038
 30
0.0
 10
7.7142233637
 20
5.0483980017
 30
0.0
 10
7.7140737161
 20
5.0483738582
 30
0.0
 10
7.7139027376
 20
5.0483527975
 30
0.0
 10
7.7137109152
 20
5.0483349019
 30
0.0
 10
7.7134153836
 20
5.0483145219
 30
0.0
 10
7.712998605
 20
5.0482986876
 30
0.0
 10
7.7124457295
 20
5.0482935967
 30
0.0
 10
7.7118279812
 20
5.0483019819
 30
0.0
 10
7.7111533446
 20
5.0483237768
 30
0.0
 10
7.7104305583
 20
5.0483587456
 30
0.0
 10
7.7096689828
 20
5.0484064403
 30
0.0
 10
7.7086040934
 20
5.0484870253
 30
0.0
 10
7.7072513314
 20
5.0486142875
 30
0.0
 10
7.7061654032
 20
5.0487413712
 30
0.0
 10
7.7056237927
 20
5.0488114776
 30
0.0
  0
SPLINE
  5
3F4
100
AcDbEntity
  8
0
100
AcDbSpline
 62
7
  6
CONTINUOUS
 70
0
 71
3
 72
21
 73
17
 74
0
 42
0.0000001
 43
0.0000001
 44
0.0000000001
 40
0.0
 40
0.0
 40
0.0
 40
0.0
 40
0.0700915381
 40
0.1388683213
 40
0.2063511778
 40
0.272592478
 40
0.3376653967
 40
0.4016536134
 40
0.4646456552
 40
0.5267293805
 40
0.5879909451
 40
0.6485116018
 40
0.7083685696
 40
0.7676340028
 40
0.8846231523
 40
1.0
 40
1.0
 40
1.0
 40
1.0
 10
2.7596233425
 20
5.6292548759
 30
0.0
 10
2.7575258802
 20
5.6340667409
 30
0.0
 10
2.7530232086
 20
5.643453061
 30
0.0
 10
2.7453698046
 20
5.6568917245
 30
0.0
 10
2.7369847503
 20
5.6695414781
 30
0.0
 10
2.7279674774
 20
5.6814003443
 30
0.0
 10
2.7184024797
 20
5.6924773136
 30
0.0
 10
2.7083648246
 20
5.7027897291
 30
0.0
 10
2.6979181593
 20
5.7123581207
 30
0.0
 10
2.6871182533
 20
5.7212061339
 30
0.0
 10
2.6760121284
 20
5.7293566647
 30
0.0
 10
2.6646411635
 20
5.7368330882
 30
0.0
 10
2.6530403452
 20
5.743657034
 30
0.0
 10
2.637377616
 20
5.7518758464
 30
0.0
 10
2.6173417274
 20
5.7606496922
 30
0.0
 10
2.6008124545
 20
5.7661731648
 30
0.0
 10
2.5925055226
 20
5.7685509206
 30
0.0
  0
SPLINE
  5
3F5
100
AcDbEntity
  8
0
100
AcDbSpline
 62
7
  6
CONTINUOUS
 70
0
 71
3
 72
25
 73
21
 74
0
 42
0.0000001
 43
0.0000001
 44
0.0000000001
 40
0.0
 40
0.0
 40
0.0
 40
0.0
 40
0.010637269
 40
0.0218503381
 40
0.0340190531
 40
0.0474349357
 40
0.0623068026
 40
0.0787768489
 40
0.0969369946
 40
0.1168420869
 40
0.1619594815
 40
0.2141278128
 40
0.2730922033
 40
0.3384247371
 40
0.4095554661
 40
0.485791373
 40
0.5663306478
 40
0.650278241
 40
0.8244421762
 40
1.0
 40
1.0
 40
1.0
 40
1.0
 10
7.7668396464
 20
5.0583115074
 30
0.0
 10
7.7668375587
 20
5.0582771343
 30
0.0
 10
7.7668253486
 20
5.0582068084
 30
0.0
 10
7.7667844277
 20
5.0581038686
 30
0.0
 10
7.7667212467
 20
5.0580022514
 30
0.0
 10
7.7666362476
 20
5.0579021093
 30
0.0
 10
7.7665297178
 20
5.0578034794
 30
0.0
 10
7.7664018893
 20
5.0577064863
 30
0.0
 10
7.7662530162
 20
5.0576112929
 30
0.0
 10
7.7660168202
 20
5.0574816206
 30
0.0
 10
7.7656691316
 20
5.0573281377
 30
0.0
 10
7.7651910855
 20
5.0571616798
 30
0.0
 10
7.7646405232
 20
5.0570080545
 30
0.0
 10
7.7640230572
 20
5.0568692036
 30
0.0
 10
7.7633452293
 20
5.0567469728
 30
0.0
 10
7.7626146299
 20
5.0566430327
 30
0.0
 10
7.7618397583
 20
5.0565588303
 30
0.0
 10
7.7607466168
 20
5.0564735058
 30
0.0
 10
7.7593428175
 20
5.0564242394
 30
0.0
 10
7.7582102055
 20
5.0564442611
 30
0.0
 10
7.7576424532
 20
5.0564700903
 30
0.0
  0
SPLINE
  5
3F6
100
AcDbEntity
  8
0
100
AcDbSpline
 62
7
  6
CONTINUOUS
 70
0
 71
3
 72
19
 73
15
 74
0
 42
0.0000001
 43
0.0000001
 44
0.0000000001
 40
0.0
 40
0.0
 40
0.0
 40
0.0
 40
0.0193419875
 40
0.0404258252
 40
0.0656121943
 40
0.0963193948
 40
0.1333262141
 40
0.1770545105
 40
0.2277287104
 40
0.2854712892
 40
0.4222774235
 40
0.5873854946
 40
0.7802693109
 40
1.0
 40
1.0
 40
1.0
 40
1.0
 10
7.657083619
 20
5.0565784737
 30
0.0
 10
7.6570831178
 20
5.0565700744
 30
0.0
 10
7.6570784095
 20
5.056552535
 30
0.0
 10
7.6570605373
 20
5.056529583
 30
0.0
 10
7.6570331637
 20
5.0565098024
 30
0.0
 10
7.6569964385
 20
5.0564925729
 30
0.0
 10
7.6569502034
 20
5.0564776947
 30
0.0
 10
7.6568943788
 20
5.0564651293
 30
0.0
 10
7.6568289525
 20
5.056454883
 30
0.0
 10
7.6567228225
 20
5.0564437389
 30
0.0
 10
7.6565663815
 20
5.0564369515
 30
0.0
 10
7.6563510854
 20
5.0564384615
 30
0.0
 10
7.6560999543
 20
5.0564494595
 30
0.0
 10
7.6559208938
 20
5.0564622788
 30
0.0
 10
7.6558256242
 20
5.0564700903
 30
0.0
  0
SPLINE
  5
3F7
100
AcDbEntity
  8
0
100
AcDbSpline
 62
7
  6
CONTINUOUS
 70
0
 71
3
 72
31
 73
27
 74
0
 42
0.0000001
 43
0.0000001
 44
0.0000000001
 40
0.0
 40
0.0
 40
0.0
 40
0.0
 40
0.0078424141
 40
0.0124122614
 40
0.0175243262
 40
0.0232337438
 40
0.0295759728
 40
0.0442325494
 40
0.0615773045
 40
0.0815986756
 40
0.1042352586
 40
0.1293927853
 40
0.1569529475
 40
0.1867788195
 40
0.2526008523
 40
0.3254862714
 40
0.4038695273
 40
0.4860169953
 40
0.570045627
 40
0.6539486881
 40
0.7356411216
 40
0.8130226686
 40
0.8840640489
 40
0.9469089605
 40
0.9747588777
 40
1.0
 40
1.0
 40
1.0
 40
1.0
 10
7.8508458464
 20
5.0596745466
 30
0.0
 10
7.8508434475
 20
5.0596358731
 30
0.0
 10
7.8508246464
 20
5.0595754713
 30
0.0
 10
7.8507810251
 20
5.0595006707
 30
0.0
 10
7.8507348289
 20
5.0594399919
 30
0.0
 10
7.8506769558
 20
5.0593778818
 30
0.0
 10
7.8505795288
 20
5.0592887066
 30
0.0
 10
7.850427381
 20
5.0591751218
 30
0.0
 10
7.8502087063
 20
5.0590396723
 30
0.0
 10
7.8499470248
 20
5.0588999914
 30
0.0
 10
7.8496439324
 20
5.0587569158
 30
0.0
 10
7.8493011859
 20
5.0586113161
 30
0.0
 10
7.8489208044
 20
5.0584640552
 30
0.0
 10
7.8483472471
 20
5.0582598966
 30
0.0
 10
7.847552918
 20
5.0580091425
 30
0.0
 10
7.8465187176
 20
5.0577240015
 30
0.0
 10
7.8453976905
 20
5.057452489
 30
0.0
 10
7.8442156292
 20
5.0572012316
 30
0.0
 10
7.8430004799
 20
5.0569765975
 30
0.0
 10
7.8417820403
 20
5.0567844705
 30
0.0
 10
7.8405913437
 20
5.0566300858
 30
0.0
 10
7.8394597484
 20
5.0565177239
 30
0.0
 10
7.838417858
 20
5.0564505882
 30
0.0
 10
7.8376185642
 20
5.0564328262
 30
0.0
 10
7.837045805
 20
5.0564454368
 30
0.0
 10
7.8367838319
 20
5.0564602597
 30
0.0
 10
7.8366595083
 20
5.0564700903
 30
0.0
  0
SPLINE
  5
3F8
100
AcDbEntity
  8
0
100
AcDbSpline
 62
7
  6
CONTINUOUS
 70
0
 71
3
 72
21
 73
17
 74
0
 42
0.0000001
 43
0.0000001
 44
0.0000000001
 40
0.0
 40
0.0
 40
0.0
 40
0.0
 40
0.070091546
 40
0.1388683268
 40
0.206351181
 40
0.2725924844
 40
0.3376654009
 40
0.4016536181
 40
0.4646456581
 40
0.5267293833
 40
0.5879909504
 40
0.6485116019
 40
0.7083685725
 40
0.7676340064
 40
0.8846231511
 40
1.0
 40
1.0
 40
1.0
 40
1.0
 10
5.2585093959
 20
5.4623721928
 30
0.0
 10
5.2606068629
 20
5.4575603289
 30
0.0
 10
5.2651095688
 20
5.4481740244
 30
0.0
 10
5.2727629507
 20
5.4347353483
 30
0.0
 10
5.2811480035
 20
5.4220855917
 30
0.0
 10
5.290165283
 20
5.4102267298
 30
0.0
 10
5.2997302762
 20
5.3991497554
 30
0.0
 10
5.3097679336
 20
5.3888373411
 30
0.0
 10
5.3202145976
 20
5.3792689471
 30
0.0
 10
5.3310145041
 20
5.370420933
 30
0.0
 10
5.3421206312
 20
5.3622704043
 30
0.0
 10
5.3534915942
 20
5.3547939765
 30
0.0
 10
5.3650924145
 20
5.3479700325
 30
0.0
 10
5.3807551445
 20
5.3397512197
 30
0.0
 10
5.4007910333
 20
5.3309773715
 30
0.0
 10
5.4173203073
 20
5.3254538995
 30
0.0
 10
5.4256272397
 20
5.3230761434
 30
0.0
  0
SPLINE
  5
3F9
100
AcDbEntity
  8
0
100
AcDbSpline
 62
7
  6
CONTINUOUS
 70
0
 71
3
 72
21
 73
17
 74
0
 42
0.0000001
 43
0.0000001
 44
0.0000000001
 40
0.0
 40
0.0
 40
0.0
 40
0.0
 40
0.0111679029
 40
0.0226292939
 40
0.0476543787
 40
0.0772181572
 40
0.1125323041
 40
0.1542203301
 40
0.2025443748
 40
0.2575376149
 40
0.3190749196
 40
0.3869107682
 40
0.460701548
 40
0.6243483661
 40
0.8058058369
 40
1.0
 40
1.0
 40
1.0
 40
1.0
 10
7.7213767674
 20
5.0575873454
 30
0.0
 10
7.7213753131
 20
5.0575631547
 30
0.0
 10
7.7213677498
 20
5.0575142957
 30
0.0
 10
7.7213333589
 20
5.0574162313
 30
0.0
 10
7.7212511324
 20
5.0572959063
 30
0.0
 10
7.7211033353
 20
5.0571666287
 30
0.0
 10
7.7209049341
 20
5.0570462295
 30
0.0
 10
7.7206562908
 20
5.0569348498
 30
0.0
 10
7.7203582571
 20
5.0568328888
 30
0.0
 10
7.7200122623
 20
5.0567410969
 30
0.0
 10
7.7196202793
 20
5.0566602049
 30
0.0
 10
7.7191847648
 20
5.0565908913
 30
0.0
 10
7.7185268976
 20
5.0565120428
 30
0.0
 10
7.7176194356
 20
5.0564497322
 30
0.0
 10
7.7164489606
 20
5.0564293644
 30
0.0
 10
7.7156337946
 20
5.0564508466
 30
0.0
 10
7.715212832
 20
5.0564700903
 30
0.0
  0
SPLINE
  5
3FA
100
AcDbEntity
  8
0
100
AcDbSpline
 62
7
  6
CONTINUOUS
 70
0
 71
3
 72
21
 73
17
 74
0
 42
0.0000001
 43
0.0000001
 44
0.0000000001
 40
0.0
 40
0.0
 40
0.0
 40
0.0
 40
0.1153769179
 40
0.2323660583
 40
0.2916314615
 40
0.351488471
 40
0.4120091049
 40
0.4732706381
 40
0.5353544556
 40
0.5983464119
 40
0.6623346564
 40
0.7274075275
 40
0.7936487747
 40
0.8611314986
 40
0.929908479
 40
1.0
 40
1.0
 40
1.0
 40
1.0
 10
5.4256273471
 20
5.7685509444
 30
0.0
 10
5.4173204206
 20
5.7661731912
 30
0.0
 10
5.4007911581
 20
5.7606497462
 30
0.0
 10
5.3807552867
 20
5.7518759216
 30
0.0
 10
5.3650925849
 20
5.7436571069
 30
0.0
 10
5.3534917634
 20
5.7368332035
 30
0.0
 10
5.3421208113
 20
5.7293567909
 30
0.0
 10
5.3310147254
 20
5.7212062371
 30
0.0
 10
5.320214739
 20
5.7123583504
 30
0.0
 10
5.3097681689
 20
5.7027898784
 30
0.0
 10
5.2997304396
 20
5.6924775726
 30
0.0
 10
5.2901655135
 20
5.6814005755
 30
0.0
 10
5.2811481759
 20
5.6695417948
 30
0.0
 10
5.2727635282
 20
5.6568918003
 30
0.0
 10
5.2651095296
 20
5.6434535273
 30
0.0
 10
5.2606064842
 20
5.6340673514
 30
0.0
 10
5.2585092863
 20
5.62925538
 30
0.0
  0
SPLINE
  5
3FB
100
AcDbEntity
  8
0
100
AcDbSpline
 62
7
  6
CONTINUOUS
 70
0
 71
3
 72
77
 73
73
 74
0
 42
0.0000001
 43
0.0000001
 44
0.0000000001
 40
0.0
 40
0.0
 40
0.0
 40
0.0
 40
0.0003726185
 40
0.0007598237
 40
0.0011746291
 40
0.0016276757
 40
0.0021271621
 40
0.0026791891
 40
0.0032882479
 40
0.0039576586
 40
0.0054863805
 40
0.0072792254
 40
0.0093438463
 40
0.0116846645
 40
0.0143041907
 40
0.017203621
 40
0.0203832951
 40
0.0238428664
 40
0.0275815
 40
0.0315979333
 40
0.0404573521
 40
0.0504050474
 40
0.0614207861
 40
0.0734809286
 40
0.0865587593
 40
0.1006247193
 40
0.115646575
 40
0.1315895615
 40
0.1484165051
 40
0.1845620868
 40
0.2237422633
 40
0.2655845433
 40
0.3096889616
 40
0.3556321083
 40
0.4029714252
 40
0.4512497494
 40
0.50000006
 40
0.5487503702
 40
0.5970286928
 40
0.644368007
 40
0.6903111496
 40
0.7344155627
 40
0.7762578365
 40
0.8154380057
 40
0.851583579
 40
0.8684105182
 40
0.8843534999
 40
0.8993753507
 40
0.9134413056
 40
0.9265191311
 40
0.9385792681
 40
0.9495950012
 40
0.9595426908
 40
0.9684021037
 40
0.9724185342
 40
0.9761571649
 40
0.9796167331
 40
0.9827964041
 40
0.9856958315
 40
0.9883153548
 40
0.99065617
 40
0.9927207879
 40
0.9945136299
 40
0.9960423492
 40
0.9967117587
 40
0.9973208163
 40
0.9978728419
 40
0.9983723268
 40
0.998825372
 40
0.9992401764
 40
0.9996273813
 40
1.0
 40
1.0
 40
1.0
 40
1.0
 10
7.903441382
 20
5.8344388265
 30
0.0
 10
7.9034413792
 20
5.8344027168
 30
0.0
 10
7.9034338092
 20
5.8343288872
 30
0.0
 10
7.9034001808
 20
5.8342194858
 30
0.0
 10
7.9033446087
 20
5.8341107018
 30
0.0
 10
7.9032674136
 20
5.8340025226
 30
0.0
 10
7.9031687487
 20
5.8338947761
 30
0.0
 10
7.9030486642
 20
5.8337873295
 30
0.0
 10
7.9029071653
 20
5.8336800807
 30
0.0
 10
7.9026796633
 20
5.8335306236
 30
0.0
 10
7.9023387529
 20
5.8333465686
 30
0.0
 10
7.9018612961
 20
5.8331348576
 30
0.0
 10
7.9012986993
 20
5.8329236467
 30
0.0
 10
7.9006511343
 20
5.8327130618
 30
0.0
 10
7.8999187828
 20
5.8325032837
 30
0.0
 10
7.8991019908
 20
5.8322944731
 30
0.0
 10
7.8982011744
 20
5.832086794
 30
0.0
 10
7.8972168244
 20
5.8318803982
 30
0.0
 10
7.8961494948
 20
5.831675424
 30
0.0
 10
7.8945639847
 20
5.8313949655
 30
0.0
 10
7.8923786776
 20
5.8310523749
 30
0.0
 10
7.8895151087
 20
5.8306608732
 30
0.0
 10
7.8863377446
 20
5.8302778771
 30
0.0
 10
7.8828540412
 20
5.8299043849
 30
0.0
 10
7.8790721771
 20
5.8295414144
 30
0.0
 10
7.8750010821
 20
5.8291898945
 30
0.0
 10
7.8706503916
 20
5.8288507374
 30
0.0
 10
7.866030431
 20
5.8285247808
 30
0.0
 10
7.8593655324
 20
5.8280986806
 30
0.0
 10
7.8504483906
 20
5.8276097898
 30
0.0
 10
7.8391051648
 20
5.8271001144
 30
0.0
 10
7.8269872326
 20
5.8266597305
 30
0.0
 10
7.8142111968
 20
5.8262931096
 30
0.0
 10
7.800900345
 20
5.8260040182
 30
0.0
 10
7.7871834645
 20
5.8257953976
 30
0.0
 10
7.7731935334
 20
5.8256693713
 30
0.0
 10
7.7590663635
 20
5.8256272198
 30
0.0
 10
7.7449391938
 20
5.8256693715
 30
0.0
 10
7.7309492632
 20
5.8257953981
 30
0.0
 10
7.7172323834
 20
5.826004019
 30
0.0
 10
7.7039215328
 20
5.8262931106
 30
0.0
 10
7.6911454985
 20
5.8266597316
 30
0.0
 10
7.6790275682
 20
5.8271001157
 30
0.0
 10
7.6676843445
 20
5.8276097912
 30
0.0
 10
7.6587672046
 20
5.8280986821
 30
0.0
 10
7.6521023077
 20
5.8285247826
 30
0.0
 10
7.6474823485
 20
5.8288507392
 30
0.0
 10
7.6431316595
 20
5.8291898963
 30
0.0
 10
7.6390605659
 20
5.8295414163
 30
0.0
 10
7.6352787034
 20
5.8299043868
 30
0.0
 10
7.6317950016
 20
5.8302778792
 30
0.0
 10
7.6286176391
 20
5.8306608751
 30
0.0
 10
7.625754072
 20
5.8310523772
 30
0.0
 10
7.6235687662
 20
5.8313949675
 30
0.0
 10
7.6219832573
 20
5.8316754262
 30
0.0
 10
7.6209159286
 20
5.8318804005
 30
0.0
 10
7.6199315795
 20
5.8320867961
 30
0.0
 10
7.619030764
 20
5.8322944752
 30
0.0
 10
7.6182139729
 20
5.832503286
 30
0.0
 10
7.6174816222
 20
5.8327130642
 30
0.0
 10
7.6168340582
 20
5.832923649
 30
0.0
 10
7.6162714623
 20
5.8331348598
 30
0.0
 10
7.6157940064
 20
5.833346571
 30
0.0
 10
7.6154530968
 20
5.833530626
 30
0.0
 10
7.6152255954
 20
5.8336800831
 30
0.0
 10
7.6150840968
 20
5.8337873318
 30
0.0
 10
7.6149640128
 20
5.8338947783
 30
0.0
 10
7.6148653485
 20
5.8340025248
 30
0.0
 10
7.6147881541
 20
5.834110704
 30
0.0
 10
7.6147325827
 20
5.834219488
 30
0.0
 10
7.6146989548
 20
5.8343288895
 30
0.0
 10
7.6146913849
 20
5.8344027191
 30
0.0
 10
7.614691382
 20
5.8344388288
 30
0.0
  0
SPLINE
  5
3FC
100
AcDbEntity
  8
0
100
AcDbSpline
 62
7
  6
CONTINUOUS
 70
0
 71
3
 72
16
 73
12
 74
0
 42
0.0000001
 43
0.0000001
 44
0.0000000001
 40
0.0
 40
0.0
 40
0.0
 40
0.0
 40
0.0760101068
 40
0.11806917
 40
0.1632919949
 40
0.264377062
 40
0.3813107812
 40
0.5150751242
 40
0.6651439895
 40
0.8286762252
 40
1.0
 40
1.0
 40
1.0
 40
1.0
 10
7.6927277624
 20
5.264771176
 30
0.0
 10
7.6929087392
 20
5.2646762299
 30
0.0
 10
7.6931710955
 20
5.2644912789
 30
0.0
 10
7.6934884759
 20
5.2641874974
 30
0.0
 10
7.6938208297
 20
5.263804354
 30
0.0
 10
7.6942131813
 20
5.263211622
 30
0.0
 10
7.6946234987
 20
5.2623568122
 30
0.0
 10
7.6949741422
 20
5.2613356006
 30
0.0
 10
7.6952461592
 20
5.2601619283
 30
0.0
 10
7.6954199221
 20
5.2588679643
 30
0.0
 10
7.6954595643
 20
5.2579670884
 30
0.0
 10
7.6954595643
 20
5.2575064451
 30
0.0
  0
SPLINE
  5
3FD
100
AcDbEntity
  8
0
100
AcDbSpline
 62
7
  6
CONTINUOUS
 70
0
 71
3
 72
15
 73
11
 74
0
 42
0.0000001
 43
0.0000001
 44
0.0000000001
 40
0.0
 40
0.0
 40
0.0
 40
0.0
 40
0.1368581917
 40
0.2714036118
 40
0.4021169641
 40
0.5284936521
 40
0.6507811895
 40
0.7696131323
 40
0.8857591008
 40
1.0
 40
1.0
 40
1.0
 40
1.0
 10
7.6975242636
 20
5.2575065761
 30
0.0
 10
7.6975242636
 20
5.2579693604
 30
0.0
 10
7.6976141879
 20
5.2588896168
 30
0.0
 10
7.6980053521
 20
5.260200035
 30
0.0
 10
7.6986153039
 20
5.2613838354
 30
0.0
 10
7.6993980079
 20
5.2624081844
 30
0.0
 10
7.7003098513
 20
5.2632604219
 30
0.0
 10
7.7013147394
 20
5.2639395291
 30
0.0
 10
7.7023840132
 20
5.2644499568
 30
0.0
 10
7.7031303561
 20
5.2646834295
 30
0.0
 10
7.7035060912
 20
5.2647731735
 30
0.0
  0
SPLINE
  5
3FE
100
AcDbEntity
  8
0
100
AcDbSpline
 62
7
  6
CONTINUOUS
 70
0
 71
3
 72
15
 73
11
 74
0
 42
0.0000001
 43
0.0000001
 44
0.0000000001
 40
0.0
 40
0.0
 40
0.0
 40
0.0
 40
0.0808705697
 40
0.1714459307
 40
0.2743675032
 40
0.3916256604
 40
0.5243134361
 40
0.6720899169
 40
0.8324037995
 40
1.0
 40
1.0
 40
1.0
 40
1.0
 10
7.7035060912
 20
5.2647731735
 30
0.0
 10
7.7037080293
 20
5.2646796851
 30
0.0
 10
7.7041128548
 20
5.2644289459
 30
0.0
 10
7.7046648314
 20
5.2639080349
 30
0.0
 10
7.7051802147
 20
5.2632211989
 30
0.0
 10
7.7056451774
 20
5.2623654349
 30
0.0
 10
7.7060423771
 20
5.2613428404
 30
0.0
 10
7.7063504871
 20
5.2601672215
 30
0.0
 10
7.7065472973
 20
5.258870933
 30
0.0
 10
7.7065922456
 20
5.2579679476
 30
0.0
 10
7.7065922456
 20
5.2575067788
 30
0.0
  0
SPLINE
  5
3FF
100
AcDbEntity
  8
0
100
AcDbSpline
 62
7
  6
CONTINUOUS
 70
0
 71
3
 72
15
 73
11
 74
0
 42
0.0000001
 43
0.0000001
 44
0.0000000001
 40
0.0
 40
0.0
 40
0.0
 40
0.0
 40
0.1390757151
 40
0.2754327075
 40
0.4072693152
 40
0.5339638461
 40
0.6557804469
 40
0.7734503537
 40
0.8878798707
 40
1.0
 40
1.0
 40
1.0
 40
1.0
 10
7.708679876
 20
5.2575066558
 30
0.0
 10
7.708679876
 20
5.2579692734
 30
0.0
 10
7.708766117
 20
5.2588877939
 30
0.0
 10
7.7091415521
 20
5.2601970263
 30
0.0
 10
7.7097274184
 20
5.2613804883
 30
0.0
 10
7.7104797789
 20
5.2624052017
 30
0.0
 10
7.7113567969
 20
5.2632581535
 30
0.0
 10
7.7123237143
 20
5.2639380474
 30
0.0
 10
7.713352833
 20
5.2644491527
 30
0.0
 10
7.7140723324
 20
5.2646833023
 30
0.0
 10
7.7144342956
 20
5.2647731735
 30
0.0
  0
SPLINE
  5
400
100
AcDbEntity
  8
0
100
AcDbSpline
 62
7
  6
CONTINUOUS
 70
0
 71
3
 72
15
 73
11
 74
0
 42
0.0000001
 43
0.0000001
 44
0.0000000001
 40
0.0
 40
0.0
 40
0.0
 40
0.0
 40
0.0855122656
 40
0.17942733
 40
0.2842363324
 40
0.4019028118
 40
0.5335842499
 40
0.6790988014
 40
0.8361789033
 40
1.0
 40
1.0
 40
1.0
 40
1.0
 10
7.7144342956
 20
5.2647731735
 30
0.0
 10
7.7146565683
 20
5.2646805407
 30
0.0
 10
7.7151020786
 20
5.2644332845
 30
0.0
 10
7.7157162327
 20
5.2639134618
 30
0.0
 10
7.7162901212
 20
5.2632267936
 30
0.0
 10
7.7168079918
 20
5.2623705159
 30
0.0
 10
7.71725034
 20
5.2613469656
 30
0.0
 10
7.7175934289
 20
5.2601700632
 30
0.0
 10
7.7178125625
 20
5.2588722864
 30
0.0
 10
7.7178625944
 20
5.2579677807
 30
0.0
 10
7.7178625944
 20
5.25750646
 30
0.0
  0
SPLINE
  5
401
100
AcDbEntity
  8
0
100
AcDbSpline
 62
7
  6
CONTINUOUS
 70
0
 71
3
 72
18
 73
14
 74
0
 42
0.0000001
 43
0.0000001
 44
0.0000000001
 40
0.0
 40
0.0
 40
0.0
 40
0.0
 40
0.0710050777
 40
0.1415848604
 40
0.2113573833
 40
0.2800115153
 40
0.4130438192
 40
0.5400605595
 40
0.6014224519
 40
0.6614325176
 40
0.7777886533
 40
0.8902793383
 40
1.0
 40
1.0
 40
1.0
 40
1.0
 10
7.7199735944
 20
5.2575065699
 30
0.0
 10
7.7199735944
 20
5.2577387252
 30
0.0
 10
7.719994441
 20
5.2582019184
 30
0.0
 10
7.7200873735
 20
5.2588875638
 30
0.0
 10
7.7202393671
 20
5.2595547832
 30
0.0
 10
7.7205124325
 20
5.2604002804
 30
0.0
 10
7.7209747015
 20
5.2613768349
 30
0.0
 10
7.7215817442
 20
5.2622410098
 30
0.0
 10
7.7221283054
 20
5.2628427662
 30
0.0
 10
7.7226962349
 20
5.2633744717
 30
0.0
 10
7.7234606584
 20
5.2639363697
 30
0.0
 10
7.7244467275
 20
5.2644481764
 30
0.0
 10
7.7251375744
 20
5.2646831488
 30
0.0
 10
7.7254848333
 20
5.2647731735
 30
0.0
  0
SPLINE
  5
402
100
AcDbEntity
  8
0
100
AcDbSpline
 62
7
  6
CONTINUOUS
 70
0
 71
3
 72
15
 73
11
 74
0
 42
0.0000001
 43
0.0000001
 44
0.0000000001
 40
0.0
 40
0.0
 40
0.0
 40
0.0
 40
0.0898705718
 40
0.1869954867
 40
0.2936782572
 40
0.4118093839
 40
0.5425730476
 40
0.6859223716
 40
0.8398627553
 40
1.0
 40
1.0
 40
1.0
 40
1.0
 10
7.7254848333
 20
5.2647731735
 30
0.0
 10
7.7257269274
 20
5.2646812063
 30
0.0
 10
7.7262117507
 20
5.2644368403
 30
0.0
 10
7.7268859948
 20
5.2639182966
 30
0.0
 10
7.7275166471
 20
5.263232165
 30
0.0
 10
7.7280860391
 20
5.2623757307
 30
0.0
 10
7.7285724743
 20
5.2613514821
 30
0.0
 10
7.7289497917
 20
5.2601734371
 30
0.0
 10
7.7291908021
 20
5.2588742119
 30
0.0
 10
7.7292458799
 20
5.2579681396
 30
0.0
 10
7.7292458799
 20
5.2575066829
 30
0.0
  0
SPLINE
  5
403
100
AcDbEntity
  8
0
100
AcDbSpline
 62
7
  6
CONTINUOUS
 70
0
 71
3
 72
17
 73
13
 74
0
 42
0.0000001
 43
0.0000001
 44
0.0000000001
 40
0.0
 40
0.0
 40
0.0
 40
0.0
 40
0.1440868257
 40
0.2150292005
 40
0.2846892849
 40
0.4191153326
 40
0.5465802808
 40
0.607804941
 40
0.6674489134
 40
0.7824457555
 40
0.8928712109
 40
1.0
 40
1.0
 40
1.0
 40
1.0
 10
7.7313744633
 20
5.2575066233
 30
0.0
 10
7.7313744633
 20
5.2579689048
 30
0.0
 10
7.7314336409
 20
5.258660722
 30
0.0
 10
7.7316276123
 20
5.2595540807
 30
0.0
 10
7.7318873988
 20
5.2603983549
 30
0.0
 10
7.7323265532
 20
5.2613729783
 30
0.0
 10
7.7329055335
 20
5.2622389082
 30
0.0
 10
7.7334274339
 20
5.2628419582
 30
0.0
 10
7.7339677075
 20
5.2633728069
 30
0.0
 10
7.7346949887
 20
5.263934363
 30
0.0
 10
7.7356353443
 20
5.2644470422
 30
0.0
 10
7.7362957577
 20
5.2646829656
 30
0.0
 10
7.7366274158
 20
5.2647731735
 30
0.0
  0
SPLINE
  5
404
100
AcDbEntity
  8
0
100
AcDbSpline
 62
7
  6
CONTINUOUS
 70
0
 71
3
 72
15
 73
11
 74
0
 42
0.0000001
 43
0.0000001
 44
0.0000000001
 40
0.0
 40
0.0
 40
0.0
 40
0.0
 40
0.0939258239
 40
0.1940965459
 40
0.3026088208
 40
0.4212459452
 40
0.5511850602
 40
0.6924882432
 40
0.8434172729
 40
1.0
 40
1.0
 40
1.0
 40
1.0
 10
7.7366274158
 20
5.2647731735
 30
0.0
 10
7.7368887827
 20
5.2646817249
 30
0.0
 10
7.7374116022
 20
5.2644397299
 30
0.0
 10
7.7381437958
 20
5.2639224667
 30
0.0
 10
7.7388293174
 20
5.263237046
 30
0.0
 10
7.7394486649
 20
5.2623806509
 30
0.0
 10
7.7399779624
 20
5.2613558179
 30
0.0
 10
7.7403886122
 20
5.260176626
 30
0.0
 10
7.7406509478
 20
5.2588758462
 30
0.0
 10
7.7407109014
 20
5.2579680724
 30
0.0
 10
7.7407109014
 20
5.2575064497
 30
0.0
  0
SPLINE
  5
405
100
AcDbEntity
  8
0
100
AcDbSpline
 62
7
  6
CONTINUOUS
 70
0
 71
3
 72
15
 73
11
 74
0
 42
0.0000001
 43
0.0000001
 44
0.0000000001
 40
0.0
 40
0.0
 40
0.0
 40
0.0
 40
0.1469457069
 40
0.2897963144
 40
0.4257590741
 40
0.5537475195
 40
0.6740070491
 40
0.7875467403
 40
0.8957218991
 40
1.0
 40
1.0
 40
1.0
 40
1.0
 10
7.7428512339
 20
5.2575067594
 30
0.0
 10
7.7428512339
 20
5.2579688639
 30
0.0
 10
7.7429251376
 20
5.2588819561
 30
0.0
 10
7.7432476385
 20
5.2601871617
 30
0.0
 10
7.7437518832
 20
5.2613689848
 30
0.0
 10
7.7444008282
 20
5.2623943361
 30
0.0
 10
7.7451588132
 20
5.2632493755
 30
0.0
 10
7.745995932
 20
5.2639319832
 30
0.0
 10
7.7468879989
 20
5.2644457068
 30
0.0
 10
7.7475162903
 20
5.2646827447
 30
0.0
 10
7.7478315019
 20
5.2647731735
 30
0.0
  0
SPLINE
  5
406
100
AcDbEntity
  8
0
100
AcDbSpline
 62
7
  6
CONTINUOUS
 70
0
 71
3
 72
15
 73
11
 74
0
 42
0.0000001
 43
0.0000001
 44
0.0000000001
 40
0.0
 40
0.0
 40
0.0
 40
0.0
 40
0.0976752209
 40
0.2007087907
 40
0.3109837918
 40
0.4301528174
 40
0.5593576853
 40
0.6987443156
 40
0.8468124012
 40
1.0
 40
1.0
 40
1.0
 40
1.0
 10
7.7478315019
 20
5.2647731735
 30
0.0
 10
7.7481115176
 20
5.2646821387
 30
0.0
 10
7.7486709534
 20
5.2644421079
 30
0.0
 10
7.7494588247
 20
5.263926103
 30
0.0
 10
7.750197131
 20
5.2632415551
 30
0.0
 10
7.7508646653
 20
5.2623854445
 30
0.0
 10
7.751435435
 20
5.2613602513
 30
0.0
 10
7.7518784282
 20
5.2601800499
 30
0.0
 10
7.7521615014
 20
5.2588777518
 30
0.0
 10
7.7522262339
 20
5.2579682343
 30
0.0
 10
7.7522262339
 20
5.25750645
 30
0.0
  0
SPLINE
  5
407
100
AcDbEntity
  8
0
100
AcDbSpline
 62
7
  6
CONTINUOUS
 70
0
 71
3
 72
16
 73
12
 74
0
 42
0.0000001
 43
0.0000001
 44
0.0000000001
 40
0.0
 40
0.0
 40
0.0
 40
0.0
 40
0.1499292135
 40
0.2952690814
 40
0.4328555676
 40
0.4983243453
 40
0.5615032656
 40
0.6812171745
 40
0.793175201
 40
0.8988803778
 40
1.0
 40
1.0
 40
1.0
 40
1.0
 10
7.754378882
 20
5.257506455
 30
0.0
 10
7.754378882
 20
5.2579679852
 30
0.0
 10
7.7544481463
 20
5.2588785151
 30
0.0
 10
7.7547506997
 20
5.2601811317
 30
0.0
 10
7.7551517656
 20
5.2611808827
 30
0.0
 10
7.7555450057
 20
5.2619007824
 30
0.0
 10
7.7559631914
 20
5.2625415827
 30
0.0
 10
7.7565467865
 20
5.263242131
 30
0.0
 10
7.757334574
 20
5.263925877
 30
0.0
 10
7.758174747
 20
5.2644412261
 30
0.0
 10
7.7587687061
 20
5.2646801625
 30
0.0
 10
7.759066382
 20
5.264771176
 30
0.0
  0
SPLINE
  5
408
100
AcDbEntity
  8
0
100
AcDbSpline
 62
7
  6
CONTINUOUS
 70
0
 71
3
 72
15
 73
11
 74
0
 42
0.0000001
 43
0.0000001
 44
0.0000000001
 40
0.0
 40
0.0
 40
0.0
 40
0.0
 40
0.1383140484
 40
0.2740480716
 40
0.4054971239
 40
0.5320803496
 40
0.654057233
 40
0.7721263525
 40
0.8871474873
 40
1.0
 40
1.0
 40
1.0
 40
1.0
 10
7.5388600923
 20
5.2575064451
 30
0.0
 10
7.5388600923
 20
5.257969127
 30
0.0
 10
7.5389475496
 20
5.2588882521
 30
0.0
 10
7.5393283296
 20
5.2601979225
 30
0.0
 10
7.5399223994
 20
5.261381541
 30
0.0
 10
7.5406851176
 20
5.2624061684
 30
0.0
 10
7.5415740332
 20
5.2632589048
 30
0.0
 10
7.542553926
 20
5.2639385474
 30
0.0
 10
7.5435967653
 20
5.2644494297
 30
0.0
 10
7.5443254325
 20
5.2646833458
 30
0.0
 10
7.5446920987
 20
5.2647731735
 30
0.0
  0
SPLINE
  5
409
100
AcDbEntity
  8
0
100
AcDbSpline
 62
7
  6
CONTINUOUS
 70
0
 71
3
 72
18
 73
14
 74
0
 42
0.0000001
 43
0.0000001
 44
0.0000000001
 40
0.0
 40
0.0
 40
0.0
 40
0.0
 40
0.0682841488
 40
0.1362716265
 40
0.2036978005
 40
0.2703490941
 40
0.4006597517
 40
0.5268881993
 40
0.5885810332
 40
0.6493746217
 40
0.7685201744
 40
0.8851506839
 40
1.0
 40
1.0
 40
1.0
 40
1.0
 10
7.539519863
 20
5.2575064451
 30
0.0
 10
7.539519863
 20
5.2577386517
 30
0.0
 10
7.5395427936
 20
5.2582023847
 30
0.0
 10
7.5396450331
 20
5.2588885498
 30
0.0
 10
7.5398122317
 20
5.2595562024
 30
0.0
 10
7.5401134078
 20
5.2604045402
 30
0.0
 10
7.5406246665
 20
5.2613848919
 30
0.0
 10
7.5412903528
 20
5.2622452148
 30
0.0
 10
7.5418884882
 20
5.2628443414
 30
0.0
 10
7.5425146035
 20
5.2633776435
 30
0.0
 10
7.5433569361
 20
5.263940029
 30
0.0
 10
7.5444388702
 20
5.2644501744
 30
0.0
 10
7.5451937657
 20
5.2646834663
 30
0.0
 10
7.5455738794
 20
5.2647731735
 30
0.0
  0
SPLINE
  5
40A
100
AcDbEntity
  8
0
100
AcDbSpline
 62
7
  6
CONTINUOUS
 70
0
 71
3
 72
18
 73
14
 74
0
 42
0.0000001
 43
0.0000001
 44
0.0000000001
 40
0.0
 40
0.0
 40
0.0
 40
0.0
 40
0.0671212101
 40
0.1340123133
 40
0.2004650241
 40
0.2663113144
 40
0.3956198406
 40
0.5216833413
 40
0.5835808237
 40
0.6447474325
 40
0.7650686742
 40
0.8832948487
 40
1.0
 40
1.0
 40
1.0
 40
1.0
 10
7.5407813955
 20
5.2575064451
 30
0.0
 10
7.5407813955
 20
5.2577306613
 30
0.0
 10
7.5408035144
 20
5.2581786411
 30
0.0
 10
7.5409021768
 20
5.2588419987
 30
0.0
 10
7.5410637191
 20
5.2594885961
 30
0.0
 10
7.5413556002
 20
5.2603134668
 30
0.0
 10
7.5418529117
 20
5.2612714285
 30
0.0
 10
7.5425009894
 20
5.2621166874
 30
0.0
 10
7.5430850856
 20
5.2627105311
 30
0.0
 10
7.5436994755
 20
5.2632441005
 30
0.0
 10
7.5445280708
 20
5.2638131312
 30
0.0
 10
7.5455948087
 20
5.264341013
 30
0.0
 10
7.5463409683
 20
5.2645926167
 30
0.0
 10
7.5467176248
 20
5.2646931789
 30
0.0
  0
SPLINE
  5
40B
100
AcDbEntity
  8
0
100
AcDbSpline
 62
7
  6
CONTINUOUS
 70
0
 71
3
 72
19
 73
15
 74
0
 42
0.0000001
 43
0.0000001
 44
0.0000000001
 40
0.0
 40
0.0
 40
0.0
 40
0.0
 40
0.066385607
 40
0.1325681796
 40
0.1983678481
 40
0.2636402448
 40
0.392108433
 40
0.5178466086
 40
0.5797904936
 40
0.6411398348
 40
0.7019521139
 40
0.762290427
 40
0.8817204472
 40
1.0
 40
1.0
 40
1.0
 40
1.0
 10
7.542641232
 20
5.2575064451
 30
0.0
 10
7.542641232
 20
5.2577386897
 30
0.0
 10
7.542665691
 20
5.2582028405
 30
0.0
 10
7.5427747125
 20
5.2588893974
 30
0.0
 10
7.5429529791
 20
5.2595573603
 30
0.0
 10
7.5432747189
 20
5.2604077972
 30
0.0
 10
7.5438218283
 20
5.2613907093
 30
0.0
 10
7.544529772
 20
5.2622481127
 30
0.0
 10
7.5451650947
 20
5.2628453984
 30
0.0
 10
7.5456687306
 20
5.2632479942
 30
0.0
 10
7.5461971598
 20
5.2636074148
 30
0.0
 10
7.5469267837
 20
5.2640282718
 30
0.0
 10
7.5478836032
 20
5.2644514303
 30
0.0
 10
7.5486849327
 20
5.2646836524
 30
0.0
 10
7.5490889243
 20
5.2647731735
 30
0.0
  0
SPLINE
  5
40C
100
AcDbEntity
  8
0
100
AcDbSpline
 62
7
  6
CONTINUOUS
 70
0
 71
3
 72
73
 73
69
 74
0
 42
0.0000001
 43
0.0000001
 44
0.0000000001
 40
0.0
 40
0.0
 40
0.0
 40
0.0
 40
0.0004267394
 40
0.0008662359
 40
0.0018260172
 40
0.0023664515
 40
0.0029554345
 40
0.0042964969
 40
0.0058772394
 40
0.0077132957
 40
0.0098139993
 40
0.0121850974
 40
0.0148301402
 40
0.0177510831
 40
0.0209487067
 40
0.024423108
 40
0.0281738658
 40
0.0322001014
 40
0.0410727416
 40
0.0510263035
 40
0.0620417739
 40
0.0740963137
 40
0.087163889
 40
0.1012156667
 40
0.1162196997
 40
0.1321419555
 40
0.1489454075
 40
0.185037579
 40
0.2241576923
 40
0.2659352672
 40
0.3099719274
 40
0.3558454447
 40
0.4031140694
 40
0.4513211545
 40
0.4999999997
 40
0.5486788444
 40
0.596885929
 40
0.6441545539
 40
0.6900280721
 40
0.7340647331
 40
0.7758423068
 40
0.8149624181
 40
0.8510545889
 40
0.8678580455
 40
0.8837802986
 40
0.8987843322
 40
0.9128361123
 40
0.9259036842
 40
0.9379582275
 40
0.948973695
 40
0.9589272575
 40
0.9677998987
 40
0.9718261318
 40
0.9755768909
 40
0.9790512945
 40
0.9822489166
 40
0.9851698559
 40
0.9878148981
 40
0.9901859991
 40
0.9922867056
 40
0.9941227633
 40
0.9957035062
 40
0.9970445682
 40
0.9976335507
 40
0.9981739841
 40
0.999133764
 40
0.9995732605
 40
1.0
 40
1.0
 40
1.0
 40
1.0
 10
7.888441382
 20
5.8494022044
 30
0.0
 10
7.8884413715
 20
5.8493650785
 30
0.0
 10
7.8884346379
 20
5.8492895576
 30
0.0
 10
7.8883935515
 20
5.8491354293
 30
0.0
 10
7.8883110175
 20
5.8489852915
 30
0.0
 10
7.8881977818
 20
5.8488429826
 30
0.0
 10
7.8880477956
 20
5.8486885402
 30
0.0
 10
7.8878078361
 20
5.8484977638
 30
0.0
 10
7.8874558397
 20
5.8482788773
 30
0.0
 10
7.8870278083
 20
5.8480606177
 30
0.0
 10
7.8865237295
 20
5.8478429852
 30
0.0
 10
7.8859435945
 20
5.8476260701
 30
0.0
 10
7.8852875896
 20
5.8474100305
 30
0.0
 10
7.884555996
 20
5.8471950198
 30
0.0
 10
7.8837491909
 20
5.8469811824
 30
0.0
 10
7.8828676047
 20
5.8467686749
 30
0.0
 10
7.8819117108
 20
5.8465576339
 30
0.0
 10
7.8804922042
 20
5.8462689827
 30
0.0
 10
7.8785353423
 20
5.8459162978
 30
0.0
 10
7.8759704743
 20
5.8455131692
 30
0.0
 10
7.8731245139
 20
5.8451188009
 30
0.0
 10
7.8700040904
 20
5.8447342151
 30
0.0
 10
7.8666164769
 20
5.8443604437
 30
0.0
 10
7.8629696391
 20
5.8439984642
 30
0.0
 10
7.8590721568
 20
5.8436491824
 30
0.0
 10
7.8549332599
 20
5.8433134964
 30
0.0
 10
7.8489622265
 20
5.8428746509
 30
0.0
 10
7.8409725623
 20
5.8423710905
 30
0.0
 10
7.8308079294
 20
5.841846055
 30
0.0
 10
7.8199480719
 20
5.8413923582
 30
0.0
 10
7.8084974571
 20
5.8410146216
 30
0.0
 10
7.7965666287
 20
5.8407167436
 30
0.0
 10
7.7842711486
 20
5.8405017699
 30
0.0
 10
7.7717304067
 20
5.8403719009
 30
0.0
 10
7.759066382
 20
5.8403284633
 30
0.0
 10
7.7464023574
 20
5.8403719009
 30
0.0
 10
7.7338616156
 20
5.84050177
 30
0.0
 10
7.7215661354
 20
5.8407167436
 30
0.0
 10
7.7096353069
 20
5.8410146216
 30
0.0
 10
7.698184692
 20
5.8413923581
 30
0.0
 10
7.6873248347
 20
5.841846055
 30
0.0
 10
7.6771602022
 20
5.8423710905
 30
0.0
 10
7.6691705378
 20
5.8428746511
 30
0.0
 10
7.6631995043
 20
5.8433134963
 30
0.0
 10
7.6590606072
 20
5.8436491824
 30
0.0
 10
7.6551631248
 20
5.8439984643
 30
0.0
 10
7.651516287
 20
5.8443604435
 30
0.0
 10
7.6481286734
 20
5.8447342153
 30
0.0
 10
7.64500825
 20
5.8451188007
 30
0.0
 10
7.6421622896
 20
5.8455131693
 30
0.0
 10
7.6395974217
 20
5.8459162979
 30
0.0
 10
7.6376405598
 20
5.8462689825
 30
0.0
 10
7.6362210533
 20
5.846557634
 30
0.0
 10
7.6352651593
 20
5.846768675
 30
0.0
 10
7.6343835729
 20
5.8469811823
 30
0.0
 10
7.633576768
 20
5.8471950197
 30
0.0
 10
7.632845175
 20
5.8474100306
 30
0.0
 10
7.6321891703
 20
5.8476260703
 30
0.0
 10
7.6316090347
 20
5.8478429852
 30
0.0
 10
7.6311049552
 20
5.8480606176
 30
0.0
 10
7.6306769233
 20
5.8482788772
 30
0.0
 10
7.6303249268
 20
5.8484977638
 30
0.0
 10
7.6300849673
 20
5.8486885402
 30
0.0
 10
7.6299349814
 20
5.8488429825
 30
0.0
 10
7.6298217461
 20
5.8489852915
 30
0.0
 10
7.6297392127
 20
5.8491354294
 30
0.0
 10
7.6296981266
 20
5.8492895576
 30
0.0
 10
7.6296913927
 20
5.8493650784
 30
0.0
 10
7.629691382
 20
5.8494022044
 30
0.0
  0
SPLINE
  5
40D
100
AcDbEntity
  8
0
100
AcDbSpline
 62
7
  6
CONTINUOUS
 70
0
 71
3
 72
24
 73
20
 74
0
 42
0.0000001
 43
0.0000001
 44
0.0000000001
 40
0.0
 40
0.0
 40
0.0
 40
0.0
 40
0.1996613519
 40
0.3860859675
 40
0.5543491377
 40
0.6302729127
 40
0.7000534927
 40
0.763242773
 40
0.819442513
 40
0.8683138035
 40
0.9095909054
 40
0.9273281068
 40
0.9431166577
 40
0.9569636263
 40
0.9688976579
 40
0.978980016
 40
0.9873344779
 40
0.9941955672
 40
1.0
 40
1.0
 40
1.0
 40
1.0
 10
7.7056237927
 20
5.0488114776
 30
0.0
 10
7.7052357176
 20
5.0488617103
 30
0.0
 10
7.7044861235
 20
5.0489654409
 30
0.0
 10
7.7034130173
 20
5.0491357045
 30
0.0
 10
7.7025826711
 20
5.049287246
 30
0.0
 10
7.7019800099
 20
5.0494116353
 30
0.0
 10
7.7015805457
 20
5.0495014306
 30
0.0
 10
7.7012205766
 20
5.049590319
 30
0.0
 10
7.7009025289
 20
5.049677655
 30
0.0
 10
7.7006285775
 20
5.0497628104
 30
0.0
 10
7.7004295376
 20
5.0498345358
 30
0.0
 10
7.7002943296
 20
5.0498912923
 30
0.0
 10
7.7002102634
 20
5.04993078
 30
0.0
 10
7.7001384157
 20
5.0499692955
 30
0.0
 10
7.7000788698
 20
5.0500067825
 30
0.0
 10
7.7000316449
 20
5.0500432159
 30
0.0
 10
7.6999967098
 20
5.0500787064
 30
0.0
 10
7.6999739969
 20
5.0501135303
 30
0.0
 10
7.6999672155
 20
5.050138058
 30
0.0
 10
7.6999665395
 20
5.0501494139
 30
0.0
  0
SPLINE
  5
40E
100
AcDbEntity
  8
0
100
AcDbSpline
 62
7
  6
CONTINUOUS
 70
0
 71
3
 72
18
 73
14
 74
0
 42
0.0000001
 43
0.0000001
 44
0.0000000001
 40
0.0
 40
0.0
 40
0.0
 40
0.0
 40
0.0655891602
 40
0.1310158742
 40
0.1961368161
 40
0.2608371026
 40
0.3250385788
 40
0.3886991768
 40
0.5142558693
 40
0.6378087639
 40
0.7596924892
 40
0.8802948344
 40
1.0
 40
1.0
 40
1.0
 40
1.0
 10
7.5450942748
 20
5.2575064451
 30
0.0
 10
7.5450942748
 20
5.2577387069
 30
0.0
 10
7.5451193965
 20
5.2582030447
 30
0.0
 10
7.5452313718
 20
5.2588897858
 30
0.0
 10
7.5454144157
 20
5.2595578501
 30
0.0
 10
7.5456636566
 20
5.2601993673
 30
0.0
 10
7.5459731894
 20
5.2608082255
 30
0.0
 10
7.5464551269
 20
5.2615665697
 30
0.0
 10
7.5471754142
 20
5.2624161984
 30
0.0
 10
7.548184278
 20
5.2632660933
 30
0.0
 10
7.5492951399
 20
5.2639431216
 30
0.0
 10
7.5504766126
 20
5.2644518379
 30
0.0
 10
7.551298204
 20
5.2646837236
 30
0.0
 10
7.5517125541
 20
5.2647731735
 30
0.0
  0
SPLINE
  5
40F
100
AcDbEntity
  8
0
100
AcDbSpline
 62
7
  6
CONTINUOUS
 70
0
 71
3
 72
17
 73
13
 74
0
 42
0.0000001
 43
0.0000001
 44
0.0000000001
 40
0.0
 40
0.0
 40
0.0
 40
0.0
 40
0.2004479721
 40
0.3786494493
 40
0.5341802324
 40
0.6670396784
 40
0.7776943826
 40
0.867459424
 40
0.9054255443
 40
0.9395282449
 40
0.9706608255
 40
1.0
 40
1.0
 40
1.0
 40
1.0
 10
7.7528175971
 20
5.0488114776
 30
0.0
 10
7.7527343945
 20
5.0488314186
 30
0.0
 10
7.7525778104
 20
5.0488716336
 30
0.0
 10
7.7523594795
 20
5.0489376525
 30
0.0
 10
7.7521721298
 20
5.049005554
 30
0.0
 10
7.7520163707
 20
5.0490750291
 30
0.0
 10
7.7518926645
 20
5.0491457712
 30
0.0
 10
7.7518120599
 20
5.0492090401
 30
0.0
 10
7.7517662343
 20
5.0492609897
 30
0.0
 10
7.7517421849
 20
5.0492981358
 30
0.0
 10
7.7517266287
 20
5.0493356575
 30
0.0
 10
7.7517220202
 20
5.049361316
 30
0.0
 10
7.7517212643
 20
5.0493738162
 30
0.0
  0
SPLINE
  5
410
100
AcDbEntity
  8
0
100
AcDbSpline
 62
7
  6
CONTINUOUS
 70
0
 71
3
 72
18
 73
14
 74
0
 42
0.0000001
 43
0.0000001
 44
0.0000000001
 40
0.0
 40
0.0
 40
0.0
 40
0.0
 40
0.0648841208
 40
0.1296422976
 40
0.1941639255
 40
0.2583603041
 40
0.3221714762
 40
0.3855656005
 40
0.5109676922
 40
0.6348385697
 40
0.7574365812
 40
0.8790589557
 40
1.0
 40
1.0
 40
1.0
 40
1.0
 10
7.5481356578
 20
5.2575064451
 30
0.0
 10
7.5481356578
 20
5.2577385098
 30
0.0
 10
7.5481613278
 20
5.2582025949
 30
0.0
 10
7.5482757343
 20
5.2588888828
 30
0.0
 10
7.5484627458
 20
5.2595565048
 30
0.0
 10
7.5487173791
 20
5.2601975965
 30
0.0
 10
7.5490335959
 20
5.2608060601
 30
0.0
 10
7.5495264107
 20
5.2615646819
 30
0.0
 10
7.5502631259
 20
5.2624144821
 30
0.0
 10
7.5512937111
 20
5.2632637568
 30
0.0
 10
7.5524284037
 20
5.2639405334
 30
0.0
 10
7.5536352518
 20
5.264449398
 30
0.0
 10
7.5544739483
 20
5.2646814817
 30
0.0
 10
7.5548971047
 20
5.264771176
 30
0.0
  0
SPLINE
  5
411
100
AcDbEntity
  8
0
100
AcDbSpline
 62
7
  6
CONTINUOUS
 70
0
 71
3
 72
31
 73
27
 74
0
 42
0.0000001
 43
0.0000001
 44
0.0000000001
 40
0.0
 40
0.0
 40
0.0
 40
0.0
 40
0.0147519563
 40
0.0297505237
 40
0.0452257203
 40
0.0613895647
 40
0.0784248203
 40
0.0964820554
 40
0.1156823426
 40
0.1361225872
 40
0.1578765045
 40
0.1809964706
 40
0.2055174736
 40
0.2314637168
 40
0.2588474278
 40
0.2876673016
 40
0.3179089771
 40
0.3495527094
 40
0.4169217662
 40
0.4894460024
 40
0.5666779919
 40
0.648041274
 40
0.7328635816
 40
0.8203722253
 40
0.9097201378
 40
1.0
 40
1.0
 40
1.0
 40
1.0
 10
7.629691382
 20
6.0506301025
 30
0.0
 10
7.6296914627
 20
6.0508780719
 30
0.0
 10
7.6297264343
 20
6.0513787964
 30
0.0
 10
7.6298819179
 20
6.0521251002
 30
0.0
 10
7.6301399999
 20
6.0528675347
 30
0.0
 10
7.6305001689
 20
6.0536041671
 30
0.0
 10
7.6309616549
 20
6.0543335555
 30
0.0
 10
7.6315234048
 20
6.055054436
 30
0.0
 10
7.6321844242
 20
6.0557656121
 30
0.0
 10
7.632943863
 20
6.05646571
 30
0.0
 10
7.6338006898
 20
6.0571533578
 30
0.0
 10
7.6347536351
 20
6.0578271906
 30
0.0
 10
7.6358012628
 20
6.058485866
 30
0.0
 10
7.6369421423
 20
6.0591278117
 30
0.0
 10
7.6381746241
 20
6.0597514549
 30
0.0
 10
7.6394966999
 20
6.0603552562
 30
0.0
 10
7.6409060303
 20
6.0609378572
 30
0.0
 10
7.6429409326
 20
6.0617001952
 30
0.0
 10
7.6456876896
 20
6.0625832256
 30
0.0
 10
7.6492183773
 20
6.0635134444
 30
0.0
 10
7.6530194335
 20
6.0643229464
 30
0.0
 10
7.6570555447
 20
6.0650019852
 30
0.0
 10
7.6612868864
 20
6.0655405515
 30
0.0
 10
7.6656691285
 20
6.0659313924
 30
0.0
 10
7.6701541719
 20
6.0661678183
 30
0.0
 10
7.6731738447
 20
6.0662208274
 30
0.0
 10
7.674691382
 20
6.0662209102
 30
0.0
  0
LINE
  5
412
100
AcDbEntity
  8
0
100
AcDbLine
 62
7
  6
CONTINUOUS
 10
7.817936423
 20
5.0499387162
 11
7.8176979709
 21
5.0498341992
  0
SPLINE
  5
413
100
AcDbEntity
  8
0
100
AcDbSpline
 62
7
  6
CONTINUOUS
 70
0
 71
3
 72
24
 73
20
 74
0
 42
0.0000001
 43
0.0000001
 44
0.0000000001
 40
0.0
 40
0.0
 40
0.0
 40
0.0
 40
0.0160063485
 40
0.0344974379
 40
0.05539711
 40
0.0786098042
 40
0.1315167631
 40
0.1921893119
 40
0.259424117
 40
0.3318748037
 40
0.4864652278
 40
0.6432777826
 40
0.7183801268
 40
0.7891081898
 40
0.8539333229
 40
0.9114608612
 40
0.9604758096
 40
0.9814753415
 40
1.0
 40
1.0
 40
1.0
 40
1.0
 10
7.8176979709
 20
5.0498341992
 30
0.0
 10
7.8176301128
 20
5.0498081066
 30
0.0
 10
7.8174822652
 20
5.0497560162
 30
0.0
 10
7.8172418982
 20
5.0496814922
 30
0.0
 10
7.8169679099
 20
5.0496053055
 30
0.0
 10
7.8165406475
 20
5.0494973153
 30
0.0
 10
7.8159338612
 20
5.0493631129
 30
0.0
 10
7.8151273019
 20
5.0492079985
 30
0.0
 10
7.8142299788
 20
5.0490560057
 30
0.0
 10
7.8129081142
 20
5.048857547
 30
0.0
 10
7.8111776926
 20
5.0486420767
 30
0.0
 10
7.809429767
 20
5.0484758582
 30
0.0
 10
7.8080585333
 20
5.0483785792
 30
0.0
 10
7.8071030219
 20
5.0483277036
 30
0.0
 10
7.8062264352
 20
5.0482988344
 30
0.0
 10
7.8054480182
 20
5.0482925484
 30
0.0
 10
7.8048687002
 20
5.0483063996
 30
0.0
 10
7.8044672521
 20
5.0483308141
 30
0.0
 10
7.8042884263
 20
5.0483470948
 30
0.0
 10
7.8042048111
 20
5.0483564778
 30
0.0
  0
LINE
  5
414
100
AcDbEntity
  8
0
100
AcDbLine
 62
7
  6
CONTINUOUS
 10
7.8042048111
 20
5.0483564778
 11
7.8034752753
 21
5.0486092906
  0
SPLINE
  5
415
100
AcDbEntity
  8
0
100
AcDbSpline
 62
7
  6
CONTINUOUS
 70
0
 71
3
 72
18
 73
14
 74
0
 42
0.0000001
 43
0.0000001
 44
0.0000000001
 40
0.0
 40
0.0
 40
0.0
 40
0.0
 40
0.0642772818
 40
0.1284602422
 40
0.1924666066
 40
0.2562302466
 40
0.3197068057
 40
0.3828730894
 40
0.5081447254
 40
0.632290453
 40
0.7555021775
 40
0.8779993779
 40
1.0
 40
1.0
 40
1.0
 40
1.0
 10
7.5517514772
 20
5.2575064451
 30
0.0
 10
7.5517514772
 20
5.2577387368
 30
0.0
 10
7.5517777171
 20
5.2582034026
 30
0.0
 10
7.5518946486
 20
5.2588904442
 30
0.0
 10
7.5520857685
 20
5.2595587353
 30
0.0
 10
7.5523459641
 20
5.2602003828
 30
0.0
 10
7.5526690434
 20
5.2608092806
 30
0.0
 10
7.5531729146
 20
5.2615689612
 30
0.0
 10
7.5539261765
 20
5.2624195191
 30
0.0
 10
7.5549785532
 20
5.2632683803
 30
0.0
 10
7.5561369533
 20
5.2639445034
 30
0.0
 10
7.5573688404
 20
5.2644525416
 30
0.0
 10
7.5582243404
 20
5.2646838323
 30
0.0
 10
7.5586560918
 20
5.2647731735
 30
0.0
  0
SPLINE
  5
416
100
AcDbEntity
  8
0
100
AcDbSpline
 62
7
  6
CONTINUOUS
 70
0
 71
3
 72
29
 73
25
 74
0
 42
0.0000001
 43
0.0000001
 44
0.0000000001
 40
0.0
 40
0.0
 40
0.0
 40
0.0
 40
0.0522905824
 40
0.1148817391
 40
0.1860253604
 40
0.2637692244
 40
0.3460534937
 40
0.4307834414
 40
0.5158831135
 40
0.5993290303
 40
0.679173057
 40
0.753556858
 40
0.8207255624
 40
0.8790512836
 40
0.9044337539
 40
0.9270728493
 40
0.9468229907
 40
0.9635613475
 40
0.9771975252
 40
0.9828398146
 40
0.9877009236
 40
0.9917960299
 40
0.9951589482
 40
1.0
 40
1.0
 40
1.0
 40
1.0
 10
7.6558256242
 20
5.0564700903
 30
0.0
 10
7.6555677752
 20
5.0564912323
 30
0.0
 10
7.6550025411
 20
5.0565528311
 30
0.0
 10
7.6540910367
 20
5.0566809276
 30
0.0
 10
7.6530585063
 20
5.0568507455
 30
0.0
 10
7.651933549
 20
5.0570575355
 30
0.0
 10
7.6507461866
 20
5.0572957385
 30
0.0
 10
7.6495268994
 20
5.0575591131
 30
0.0
 10
7.6483058641
 20
5.057841017
 30
0.0
 10
7.6471124479
 20
5.0581345434
 30
0.0
 10
7.6459748894
 20
5.0584326441
 30
0.0
 10
7.6449200487
 20
5.0587281533
 30
0.0
 10
7.643973247
 20
5.0590139327
 30
0.0
 10
7.643264108
 20
5.0592475068
 30
0.0
 10
7.6427690919
 20
5.0594259639
 30
0.0
 10
7.6424562569
 20
5.0595467473
 30
0.0
 10
7.6421864181
 20
5.0596598906
 30
0.0
 10
7.6419615387
 20
5.0597646068
 30
0.0
 10
7.6418041723
 20
5.0598485629
 30
0.0
 10
7.6417029414
 20
5.0599120971
 30
0.0
 10
7.6416441786
 20
5.059954067
 30
0.0
 10
7.6415974477
 20
5.059993681
 30
0.0
 10
7.6415562571
 20
5.0600377179
 30
0.0
 10
7.64153461
 20
5.060075724
 30
0.0
 10
7.6415332247
 20
5.0600996356
 30
0.0
  0
SPLINE
  5
417
100
AcDbEntity
  8
0
100
AcDbSpline
 62
7
  6
CONTINUOUS
 70
0
 71
3
 72
18
 73
14
 74
0
 42
0.0000001
 43
0.0000001
 44
0.0000000001
 40
0.0
 40
0.0
 40
0.0
 40
0.0
 40
0.0637608868
 40
0.1274547865
 40
0.1910238158
 40
0.2544211439
 40
0.3176155619
 40
0.3805909496
 40
0.505757434
 40
0.6301402009
 40
0.7538729161
 40
0.8771084026
 40
1.0
 40
1.0
 40
1.0
 40
1.0
 10
7.5559373899
 20
5.2575064451
 30
0.0
 10
7.5559373899
 20
5.2577387491
 30
0.0
 10
7.55596408
 20
5.2582035505
 30
0.0
 10
7.5560830049
 20
5.258890715
 30
0.0
 10
7.5562773719
 20
5.259559097
 30
0.0
 10
7.5565419693
 20
5.2602007942
 30
0.0
 10
7.5568704893
 20
5.2608097038
 30
0.0
 10
7.5573831848
 20
5.2615699099
 30
0.0
 10
7.5581496921
 20
5.2624208086
 30
0.0
 10
7.5592195121
 20
5.2632692519
 30
0.0
 10
7.5603969802
 20
5.2639450223
 30
0.0
 10
7.561649101
 20
5.264452803
 30
0.0
 10
7.5625182253
 20
5.2646838725
 30
0.0
 10
7.5629569681
 20
5.2647731735
 30
0.0
  0
SPLINE
  5
418
100
AcDbEntity
  8
0
100
AcDbSpline
 62
7
  6
CONTINUOUS
 70
0
 71
3
 72
27
 73
23
 74
0
 42
0.0000001
 43
0.0000001
 44
0.0000000001
 40
0.0
 40
0.0
 40
0.0
 40
0.0
 40
0.0720364366
 40
0.1492114406
 40
0.2300416406
 40
0.3129948185
 40
0.396544004
 40
0.4792019747
 40
0.5595484311
 40
0.6362489176
 40
0.7080660765
 40
0.7738690561
 40
0.832643531
 40
0.8835101755
 40
0.9057526154
 40
0.9257708687
 40
0.9435185302
 40
0.9589776351
 40
0.9721750876
 40
0.9832131841
 40
0.9923284521
 40
1.0
 40
1.0
 40
1.0
 40
1.0
 10
7.6794595163
 20
5.0564700903
 30
0.0
 10
7.6791524082
 20
5.0564867454
 30
0.0
 10
7.6785168776
 20
5.0565326619
 30
0.0
 10
7.6775396255
 20
5.0566318435
 30
0.0
 10
7.6765190231
 20
5.056762082
 30
0.0
 10
7.6754749186
 20
5.0569206712
 30
0.0
 10
7.6744270226
 20
5.0571043999
 30
0.0
 10
7.6733944765
 20
5.05730967
 30
0.0
 10
7.6723955326
 20
5.0575326022
 30
0.0
 10
7.6714473383
 20
5.0577691141
 30
0.0
 10
7.6705658162
 20
5.0580149877
 30
0.0
 10
7.6697655369
 20
5.0582658783
 30
0.0
 10
7.6690597725
 20
5.0585174306
 30
0.0
 10
7.6685389216
 20
5.0587323671
 30
0.0
 10
7.6681799862
 20
5.0589036315
 30
0.0
 10
7.667953597
 20
5.0590237911
 30
0.0
 10
7.6677587136
 20
5.0591409311
 30
0.0
 10
7.6675961768
 20
5.0592545784
 30
0.0
 10
7.6674665916
 20
5.0593642978
 30
0.0
 10
7.6673703787
 20
5.059470047
 30
0.0
 10
7.6673077547
 20
5.0595720918
 30
0.0
 10
7.6672887419
 20
5.0596428996
 30
0.0
 10
7.6672868552
 20
5.0596755989
 30
0.0
  0
SPLINE
  5
419
100
AcDbEntity
  8
0
100
AcDbSpline
 62
7
  6
CONTINUOUS
 70
0
 71
3
 72
31
 73
27
 74
0
 42
0.0000001
 43
0.0000001
 44
0.0000000001
 40
0.0
 40
0.0
 40
0.0
 40
0.0
 40
0.0902798948
 40
0.1796277639
 40
0.2671364419
 40
0.3519586709
 40
0.4333220925
 40
0.5105539792
 40
0.5830783007
 40
0.6504472817
 40
0.682090984
 40
0.7123327566
 40
0.7411526627
 40
0.7685362728
 40
0.7944824546
 40
0.819003554
 40
0.8421236064
 40
0.8638774969
 40
0.8843176747
 40
0.9035179751
 40
0.9215752194
 40
0.9386104196
 40
0.9547742075
 40
0.9702494553
 40
0.9852480476
 40
1.0
 40
1.0
 40
1.0
 40
1.0
 10
7.843441382
 20
6.0662209102
 30
0.0
 10
7.8449589198
 20
6.0662208253
 30
0.0
 10
7.8479785926
 20
6.0661678261
 30
0.0
 10
7.8524636357
 20
6.0659313883
 30
0.0
 10
7.856845877
 20
6.0655405564
 30
0.0
 10
7.8610772185
 20
6.0650019774
 30
0.0
 10
7.8651133314
 20
6.0643229536
 30
0.0
 10
7.8689143872
 20
6.0635134395
 30
0.0
 10
7.8724450752
 20
6.0625832291
 30
0.0
 10
7.8751918309
 20
6.0617001953
 30
0.0
 10
7.8772267316
 20
6.0609378539
 30
0.0
 10
7.8786360657
 20
6.0603552576
 30
0.0
 10
7.8799581428
 20
6.0597514578
 30
0.0
 10
7.8811906204
 20
6.0591278109
 30
0.0
 10
7.8823314965
 20
6.0584858619
 30
0.0
 10
7.8833791291
 20
6.0578271907
 30
0.0
 10
7.8843320796
 20
6.0571533607
 30
0.0
 10
7.8851889055
 20
6.0564657117
 30
0.0
 10
7.885948339
 20
6.0557656102
 30
0.0
 10
7.8866093594
 20
6.0550544363
 30
0.0
 10
7.8871711105
 20
6.0543335573
 30
0.0
 10
7.8876325918
 20
6.0536041674
 30
0.0
 10
7.8879927489
 20
6.0528675309
 30
0.0
 10
7.8882508426
 20
6.052125101
 30
0.0
 10
7.8884063367
 20
6.0513787973
 30
0.0
 10
7.8884413028
 20
6.0508780718
 30
0.0
 10
7.888441382
 20
6.0506301025
 30
0.0
  0
SPLINE
  5
41A
100
AcDbEntity
  8
0
100
AcDbSpline
 62
7
  6
CONTINUOUS
 70
0
 71
3
 72
25
 73
21
 74
0
 42
0.0000001
 43
0.0000001
 44
0.0000000001
 40
0.0
 40
0.0
 40
0.0
 40
0.0
 40
0.1736071171
 40
0.3466286967
 40
0.4302984928
 40
0.5107718257
 40
0.5871650087
 40
0.6586780546
 40
0.7246032978
 40
0.7843335942
 40
0.837375426
 40
0.8833734373
 40
0.9036764274
 40
0.9221768519
 40
0.9389022109
 40
0.9539112288
 40
0.9673091588
 40
0.9792652397
 40
0.9900388466
 40
1.0
 40
1.0
 40
1.0
 40
1.0
 10
7.715212832
 20
5.0564700903
 30
0.0
 10
7.7146342982
 20
5.0564965372
 30
0.0
 10
7.7134804222
 20
5.0565799772
 30
0.0
 10
7.7120548956
 20
5.0567536326
 30
0.0
 10
7.7109444403
 20
5.0569331356
 30
0.0
 10
7.7101560213
 20
5.057082911
 30
0.0
 10
7.7094119892
 20
5.0572473027
 30
0.0
 10
7.7087207949
 20
5.0574242006
 30
0.0
 10
7.7080900679
 20
5.057611383
 30
0.0
 10
7.7075265316
 20
5.0578065484
 30
0.0
 10
7.7070361237
 20
5.0580073756
 30
0.0
 10
7.7066787716
 20
5.0581840904
 30
0.0
 10
7.7064352905
 20
5.0583283724
 30
0.0
 10
7.7062816548
 20
5.0584320888
 30
0.0
 10
7.7061496331
 20
5.0585355793
 30
0.0
 10
7.7060395614
 20
5.05863865
 30
0.0
 10
7.7059517148
 20
5.0587411324
 30
0.0
 10
7.7058864132
 20
5.0588430114
 30
0.0
 10
7.705844107
 20
5.0589442147
 30
0.0
 10
7.7058314631
 20
5.0590129473
 30
0.0
 10
7.7058295155
 20
5.0590461197
 30
0.0
  0
SPLINE
  5
41B
100
AcDbEntity
  8
0
100
AcDbSpline
 62
7
  6
CONTINUOUS
 70
0
 71
3
 72
18
 73
14
 74
0
 42
0.0000001
 43
0.0000001
 44
0.0000000001
 40
0.0
 40
0.0
 40
0.0
 40
0.0
 40
0.0633354137
 40
0.1266265878
 40
0.189835891
 40
0.2529324334
 40
0.3158957652
 40
0.3787154369
 40
0.5037982487
 40
0.6283778135
 40
0.7525389909
 40
0.8763795594
 40
1.0
 40
1.0
 40
1.0
 40
1.0
 10
7.5606800651
 20
5.2575064451
 30
0.0
 10
7.5606800651
 20
5.2577387596
 30
0.0
 10
7.5607071304
 20
5.2582036754
 30
0.0
 10
7.5608277169
 20
5.2588909433
 30
0.0
 10
7.5610247895
 20
5.2595594007
 30
0.0
 10
7.5612930536
 20
5.260201138
 30
0.0
 10
7.5616261042
 20
5.2608100558
 30
0.0
 10
7.5621461546
 20
5.2615706943
 30
0.0
 10
7.5629236925
 20
5.2624218633
 30
0.0
 10
7.564008025
 20
5.2632699582
 30
0.0
 10
7.5652013625
 20
5.2639454396
 30
0.0
 10
7.5664703278
 20
5.264453012
 30
0.0
 10
7.5673508005
 20
5.2646839045
 30
0.0
 10
7.5677953667
 20
5.2647731735
 30
0.0
  0
SPLINE
  5
41C
100
AcDbEntity
  8
0
100
AcDbSpline
 62
7
  6
CONTINUOUS
 70
0
 71
3
 72
21
 73
17
 74
0
 42
0.0000001
 43
0.0000001
 44
0.0000000001
 40
0.0
 40
0.0
 40
0.0
 40
0.0
 40
0.1900811087
 40
0.3683552112
 40
0.5299296996
 40
0.603174813
 40
0.6708277359
 40
0.73256471
 40
0.7881504488
 40
0.8374570041
 40
0.880496362
 40
0.9174797952
 40
0.9489251122
 40
0.9758363616
 40
0.9881323029
 40
1.0
 40
1.0
 40
1.0
 40
1.0
 10
7.7576424532
 20
5.0564700903
 30
0.0
 10
7.7572080066
 20
5.056489855
 30
0.0
 10
7.7563667594
 20
5.0565461033
 30
0.0
 10
7.7551617398
 20
5.0566841384
 30
0.0
 10
7.7542293121
 20
5.0568427375
 30
0.0
 10
7.7535540078
 20
5.0569946855
 30
0.0
 10
7.7531059604
 20
5.0571143872
 30
0.0
 10
7.7527024411
 20
5.0572425921
 30
0.0
 10
7.752345922
 20
5.0573783231
 30
0.0
 10
7.7520384379
 20
5.0575205952
 30
0.0
 10
7.7517815599
 20
5.0576684538
 30
0.0
 10
7.7515763752
 20
5.0578212749
 30
0.0
 10
7.7514236386
 20
5.0579786411
 30
0.0
 10
7.7513387467
 20
5.0581187311
 30
0.0
 10
7.751302736
 20
5.058230379
 30
0.0
 10
7.7512946462
 20
5.0582853907
 30
0.0
 10
7.7512930577
 20
5.0583124969
 30
0.0
  0
SPLINE
  5
41D
100
AcDbEntity
  8
0
100
AcDbSpline
 62
7
  6
CONTINUOUS
 70
0
 71
3
 72
18
 73
14
 74
0
 42
0.0000001
 43
0.0000001
 44
0.0000000001
 40
0.0
 40
0.0
 40
0.0
 40
0.0
 40
0.0629995416
 40
0.1259729463
 40
0.1888986701
 40
0.2517584314
 40
0.3145402263
 40
0.3772379783
 40
0.5022566192
 40
0.6269924672
 40
0.7514913493
 40
0.8758075264
 40
1.0
 40
1.0
 40
1.0
 40
1.0
 10
7.5659665034
 20
5.2575064451
 30
0.0
 10
7.5659665034
 20
5.257738768
 30
0.0
 10
7.5659938678
 20
5.2582037761
 30
0.0
 10
7.5661157785
 20
5.2588911269
 30
0.0
 10
7.5663150066
 20
5.2595596442
 30
0.0
 10
7.5665861913
 20
5.2602014127
 30
0.0
 10
7.5669228498
 20
5.2608103357
 30
0.0
 10
7.5674487615
 20
5.2615713152
 30
0.0
 10
7.5682350835
 20
5.2624226909
 30
0.0
 10
7.5693309644
 20
5.2632705081
 30
0.0
 10
7.5705369336
 20
5.2639457627
 30
0.0
 10
7.5718193098
 20
5.2644531732
 30
0.0
 10
7.5727088215
 20
5.2646839292
 30
0.0
 10
7.5731580258
 20
5.2647731735
 30
0.0
  0
SPLINE
  5
41E
100
AcDbEntity
  8
0
100
AcDbSpline
 62
7
  6
CONTINUOUS
 70
0
 71
3
 72
20
 73
16
 74
0
 42
0.0000001
 43
0.0000001
 44
0.0000000001
 40
0.0
 40
0.0
 40
0.0
 40
0.0
 40
0.1996699923
 40
0.3799621111
 40
0.5386763107
 40
0.6094405505
 40
0.6742937329
 40
0.7331821316
 40
0.7861298629
 40
0.8332627922
 40
0.8748505617
 40
0.9113608242
 40
0.9435538456
 40
0.9725760112
 40
1.0
 40
1.0
 40
1.0
 40
1.0
 10
7.8002888546
 20
5.0564700903
 30
0.0
 10
7.8000310383
 20
5.0564838477
 30
0.0
 10
7.7995408231
 20
5.0565192372
 30
0.0
 10
7.7988489274
 20
5.0566017318
 30
0.0
 10
7.7983268229
 20
5.0566946697
 30
0.0
 10
7.7979566393
 20
5.0567834894
 30
0.0
 10
7.7977148908
 20
5.0568532332
 30
0.0
 10
7.7974989864
 20
5.0569283566
 30
0.0
 10
7.7973095338
 20
5.0570085741
 30
0.0
 10
7.797147002
 20
5.0570936153
 30
0.0
 10
7.7970117131
 20
5.0571832607
 30
0.0
 10
7.7969039161
 20
5.0572774395
 30
0.0
 10
7.7968239165
 20
5.0573762996
 30
0.0
 10
7.796772503
 20
5.0574799378
 30
0.0
 10
7.7967580343
 20
5.0575525551
 30
0.0
 10
7.7967559619
 20
5.0575879551
 30
0.0
  0
SPLINE
  5
41F
100
AcDbEntity
  8
0
100
AcDbSpline
 62
7
  6
CONTINUOUS
 70
0
 71
3
 72
18
 73
14
 74
0
 42
0.0000001
 43
0.0000001
 44
0.0000000001
 40
0.0
 40
0.0
 40
0.0
 40
0.0
 40
0.0627521924
 40
0.1254916651
 40
0.1882087763
 40
0.2508945442
 40
0.3135431517
 40
0.3761516836
 40
0.501124123
 40
0.6259755766
 40
0.75072285
 40
0.8753881291
 40
1.0
 40
1.0
 40
1.0
 40
1.0
 10
7.571782215
 20
5.2575064451
 30
0.0
 10
7.571782215
 20
5.2577387743
 30
0.0
 10
7.5718098014
 20
5.2582038514
 30
0.0
 10
7.5719326944
 20
5.258891264
 30
0.0
 10
7.5721335213
 20
5.2595598257
 30
0.0
 10
7.5724068719
 20
5.2602016168
 30
0.0
 10
7.5727462055
 20
5.2608105431
 30
0.0
 10
7.5732764652
 20
5.2615717734
 30
0.0
 10
7.5740693002
 20
5.2624232975
 30
0.0
 10
7.5751737388
 20
5.263270909
 30
0.0
 10
7.5763890704
 20
5.2639459972
 30
0.0
 10
7.5776813885
 20
5.2644532897
 30
0.0
 10
7.5785776032
 20
5.264683947
 30
0.0
 10
7.5790302468
 20
5.2647731735
 30
0.0
  0
SPLINE
  5
420
100
AcDbEntity
  8
0
100
AcDbSpline
 62
7
  6
CONTINUOUS
 70
0
 71
3
 72
17
 73
13
 74
0
 42
0.0000001
 43
0.0000001
 44
0.0000000001
 40
0.0
 40
0.0
 40
0.0
 40
0.0
 40
0.2020608434
 40
0.3808306686
 40
0.5358863087
 40
0.667367892
 40
0.7760976559
 40
0.8225686202
 40
0.8642975104
 40
0.9360589809
 40
0.9683807314
 40
1.0
 40
1.0
 40
1.0
 40
1.0
 10
7.8366595083
 20
5.0564700903
 30
0.0
 10
7.8365564417
 20
5.0564782401
 30
0.0
 10
7.8363624344
 20
5.0564972109
 30
0.0
 10
7.836091047
 20
5.0565372432
 30
0.0
 10
7.8358579557
 20
5.0565868376
 30
0.0
 10
7.835664167
 20
5.0566456603
 30
0.0
 10
7.8355292828
 20
5.056704851
 30
0.0
 10
7.835443484
 20
5.056758122
 30
0.0
 10
7.8353792422
 20
5.0568088782
 30
0.0
 10
7.835329971
 20
5.0568672539
 30
0.0
 10
7.8353035053
 20
5.0569319806
 30
0.0
 10
7.8352980061
 20
5.0569645508
 30
0.0
 10
7.8352970571
 20
5.0569807015
 30
0.0
  0
SPLINE
  5
421
100
AcDbEntity
  8
0
100
AcDbSpline
 62
7
  6
CONTINUOUS
 70
0
 71
3
 72
18
 73
14
 74
0
 42
0.0000001
 43
0.0000001
 44
0.0000000001
 40
0.0
 40
0.0
 40
0.0
 40
0.0
 40
0.0625924953
 40
0.1251809766
 40
0.187763505
 40
0.2503371128
 40
0.3128999625
 40
0.3754511514
 40
0.5003943631
 40
0.6253207347
 40
0.7502282255
 40
0.8751183098
 40
1.0
 40
1.0
 40
1.0
 40
1.0
 10
7.5781149299
 20
5.2575064451
 30
0.0
 10
7.5781149299
 20
5.2577385654
 30
0.0
 10
7.5781426099
 20
5.2582032602
 30
0.0
 10
7.578265918
 20
5.2588900996
 30
0.0
 10
7.5784674257
 20
5.2595581263
 30
0.0
 10
7.5787417087
 20
5.2601994356
 30
0.0
 10
7.5790822088
 20
5.2608079468
 30
0.0
 10
7.5796144324
 20
5.2615688977
 30
0.0
 10
7.580410276
 20
5.2624201803
 30
0.0
 10
7.5815186987
 20
5.2632675916
 30
0.0
 10
7.5827385047
 20
5.2639428099
 30
0.0
 10
7.5840356927
 20
5.2644505435
 30
0.0
 10
7.5849352394
 20
5.2646816581
 30
0.0
 10
7.5853896213
 20
5.264771176
 30
0.0
  0
LINE
  5
422
100
AcDbEntity
  8
0
100
AcDbLine
 62
7
  6
CONTINUOUS
 10
7.8612173118
 20
5.0564700903
 11
7.8610491393
 21
5.0565785229
  0
SPLINE
  5
423
100
AcDbEntity
  8
0
100
AcDbSpline
 62
7
  6
CONTINUOUS
 70
0
 71
3
 72
18
 73
14
 74
0
 42
0.0000001
 43
0.0000001
 44
0.0000000001
 40
0.0
 40
0.0
 40
0.0
 40
0.0
 40
0.0625201032
 40
0.1250401403
 40
0.1875616822
 40
0.2500844825
 40
0.3126085079
 40
0.3751337625
 40
0.5000636625
 40
0.6250239789
 40
0.7500040789
 40
0.8749960325
 40
1.0
 40
1.0
 40
1.0
 40
1.0
 10
7.5849362895
 20
5.2575064451
 30
0.0
 10
7.5849362895
 20
5.2577387803
 30
0.0
 10
7.5849640855
 20
5.258203923
 30
0.0
 10
7.5850879058
 20
5.2588913941
 30
0.0
 10
7.5852902418
 20
5.2595599977
 30
0.0
 10
7.5855656365
 20
5.2602018097
 30
0.0
 10
7.5859074942
 20
5.2608107386
 30
0.0
 10
7.5864418586
 20
5.261572204
 30
0.0
 10
7.587240839
 20
5.2624238644
 30
0.0
 10
7.5883533491
 20
5.2632712819
 30
0.0
 10
7.5895775127
 20
5.2639462145
 30
0.0
 10
7.5908792107
 20
5.2644533975
 30
0.0
 10
7.5917817512
 20
5.2646839635
 30
0.0
 10
7.5922376405
 20
5.2647731735
 30
0.0
  0
SPLINE
  5
424
100
AcDbEntity
  8
0
100
AcDbSpline
 62
7
  6
CONTINUOUS
 70
0
 71
3
 72
15
 73
11
 74
0
 42
0.0000001
 43
0.0000001
 44
0.0000000001
 40
0.0
 40
0.0
 40
0.0
 40
0.0
 40
0.1128524498
 40
0.2278733081
 40
0.3459422006
 40
0.4679189599
 40
0.5945022247
 40
0.7259513083
 40
0.8616854922
 40
1.0
 40
1.0
 40
1.0
 40
1.0
 10
7.9734406653
 20
5.2647731735
 30
0.0
 10
7.9738073313
 20
5.2646833458
 30
0.0
 10
7.9745359974
 20
5.2644494301
 30
0.0
 10
7.9755788351
 20
5.263938549
 30
0.0
 10
7.9765587265
 20
5.2632589081
 30
0.0
 10
7.9774476422
 20
5.2624061733
 30
0.0
 10
7.9782103611
 20
5.2613815466
 30
0.0
 10
7.9788044323
 20
5.260197928
 30
0.0
 10
7.9791852139
 20
5.2588882557
 30
0.0
 10
7.9792726717
 20
5.2579691285
 30
0.0
 10
7.9792726717
 20
5.2575064451
 30
0.0
  0
SPLINE
  5
425
100
AcDbEntity
  8
0
100
AcDbSpline
 62
7
  6
CONTINUOUS
 70
0
 71
3
 72
19
 73
15
 74
0
 42
0.0000001
 43
0.0000001
 44
0.0000000001
 40
0.0
 40
0.0
 40
0.0
 40
0.0
 40
0.1285685229
 40
0.1927226265
 40
0.2567099226
 40
0.3204806439
 40
0.3839919885
 40
0.447207246
 40
0.5100964132
 40
0.634788062
 40
0.6965884851
 40
0.7580115035
 40
0.8797174117
 40
1.0
 40
1.0
 40
1.0
 40
1.0
 10
4.230316382
 20
5.5458135317
 30
0.0
 10
4.2303161111
 20
5.5411067928
 30
0.0
 10
4.2300174462
 20
5.5340469159
 30
0.0
 10
4.2290393375
 20
5.5246983798
 30
0.0
 10
4.2280213
 20
5.5177446722
 30
0.0
 10
4.2267225675
 20
5.5108620504
 30
0.0
 10
4.2251483158
 20
5.5040662096
 30
0.0
 10
4.2233098706
 20
5.4973704498
 30
0.0
 10
4.220529189
 20
5.4886184197
 30
0.0
 10
4.2172566515
 20
5.4800838888
 30
0.0
 10
4.2135249542
 20
5.4718088514
 30
0.0
 10
4.2095336817
 20
5.463777441
 30
0.0
 10
4.2040455437
 20
5.4541088462
 30
0.0
 10
4.1991331841
 20
5.4467268254
 30
0.0
 10
4.196568992
 20
5.4431470409
 30
0.0
  0
SPLINE
  5
426
100
AcDbEntity
  8
0
100
AcDbSpline
 62
7
  6
CONTINUOUS
 70
0
 71
3
 72
21
 73
17
 74
0
 42
0.0000001
 43
0.0000001
 44
0.0000000001
 40
0.0
 40
0.0
 40
0.0
 40
0.0
 40
0.1202775335
 40
0.2419767931
 40
0.3033962923
 40
0.3651936454
 40
0.4273653795
 40
0.4899022351
 40
0.5527880152
 40
0.6159997985
 40
0.6795077043
 40
0.7432750991
 40
0.8072591693
 40
0.8714098563
 40
0.935677028
 40
1.0
 40
1.0
 40
1.0
 40
1.0
 10
3.8215613292
 20
5.443151339
 30
0.0
 10
3.8189967723
 20
5.446730694
 30
0.0
 10
3.8140836652
 20
5.4541118335
 30
0.0
 10
3.8085965898
 20
5.4637806755
 30
0.0
 10
3.8046068899
 20
5.4718122696
 30
0.0
 10
3.8018162179
 20
5.478000739
 30
0.0
 10
3.799247562
 20
5.4843287754
 30
0.0
 10
3.7969125195
 20
5.4907891639
 30
0.0
 10
3.7948212929
 20
5.4973725536
 30
0.0
 10
3.7929839722
 20
5.5040681989
 30
0.0
 10
3.7914104156
 20
5.5108638916
 30
0.0
 10
3.7901102732
 20
5.5177459684
 30
0.0
 10
3.7890899903
 20
5.5246988733
 30
0.0
 10
3.7883567274
 20
5.5317063547
 30
0.0
 10
3.7879151734
 20
5.538750554
 30
0.0
 10
3.7878164111
 20
5.5434587193
 30
0.0
 10
3.787816382
 20
5.5458135317
 30
0.0
  0
SPLINE
  5
427
100
AcDbEntity
  8
0
100
AcDbSpline
 62
7
  6
CONTINUOUS
 70
0
 71
3
 72
18
 73
14
 74
0
 42
0.0000001
 43
0.0000001
 44
0.0000000001
 40
0.0
 40
0.0
 40
0.0
 40
0.0
 40
0.114849252
 40
0.2314794819
 40
0.3506248079
 40
0.4114183492
 40
0.4731111091
 40
0.5993395995
 40
0.7296502913
 40
0.7963016396
 40
0.8637279201
 40
0.9317157111
 40
1.0
 40
1.0
 40
1.0
 40
1.0
 10
7.9725588846
 20
5.2647731735
 30
0.0
 10
7.9729389981
 20
5.2646834663
 30
0.0
 10
7.9736938924
 20
5.2644501748
 30
0.0
 10
7.9747758249
 20
5.2639400305
 30
0.0
 10
7.9756181563
 20
5.2633776466
 30
0.0
 10
7.976244271
 20
5.2628443457
 30
0.0
 10
7.9768424069
 20
5.26224522
 30
0.0
 10
7.9775080939
 20
5.2613848975
 30
0.0
 10
7.9780193536
 20
5.2604045459
 30
0.0
 10
7.9783205308
 20
5.2595562077
 30
0.0
 10
7.9784877303
 20
5.2588885537
 30
0.0
 10
7.9785899702
 20
5.2582023867
 30
0.0
 10
7.9786129009
 20
5.2577386521
 30
0.0
 10
7.9786129009
 20
5.2575064451
 30
0.0
  0
SPLINE
  5
428
100
AcDbEntity
  8
0
100
AcDbSpline
 62
7
  6
CONTINUOUS
 70
0
 71
3
 72
18
 73
14
 74
0
 42
0.0000001
 43
0.0000001
 44
0.0000000001
 40
0.0
 40
0.0
 40
0.0
 40
0.0
 40
0.1167050302
 40
0.234930811
 40
0.3552518405
 40
0.4164183431
 40
0.4783157011
 40
0.6043791917
 40
0.733687856
 40
0.7995342212
 40
0.8659870978
 40
0.9328785842
 40
1.0
 40
1.0
 40
1.0
 40
1.0
 10
7.9714149961
 20
5.2646932171
 30
0.0
 10
7.9717916594
 20
5.2645926597
 30
0.0
 10
7.9725378323
 20
5.2643410644
 30
0.0
 10
7.9736045915
 20
5.2638131915
 30
0.0
 10
7.9744332049
 20
5.2632441649
 30
0.0
 10
7.9750476093
 20
5.2627105962
 30
0.0
 10
7.9756317207
 20
5.2621167513
 30
0.0
 10
7.9762798168
 20
5.2612714866
 30
0.0
 10
7.9767771436
 20
5.2603135139
 30
0.0
 10
7.9770690344
 20
5.2594886315
 30
0.0
 10
7.9772305827
 20
5.2588420233
 30
0.0
 10
7.9773292487
 20
5.2581786537
 30
0.0
 10
7.9773513684
 20
5.2577306653
 30
0.0
 10
7.9773513684
 20
5.2575064451
 30
0.0
  0
SPLINE
  5
429
100
AcDbEntity
  8
0
100
AcDbSpline
 62
7
  6
CONTINUOUS
 70
0
 71
3
 72
19
 73
15
 74
0
 42
0.0000001
 43
0.0000001
 44
0.0000000001
 40
0.0
 40
0.0
 40
0.0
 40
0.0
 40
0.118279487
 40
0.2377092223
 40
0.2980473841
 40
0.3588595877
 40
0.4202088844
 40
0.4821526991
 40
0.607890924
 40
0.7363591521
 40
0.8016316046
 40
0.8674313787
 40
0.9336142568
 40
1.0
 40
1.0
 40
1.0
 40
1.0
 10
7.9690438397
 20
5.2647731735
 30
0.0
 10
7.9694478311
 20
5.2646836524
 30
0.0
 10
7.9702491594
 20
5.2644514307
 30
0.0
 10
7.9712059773
 20
5.2640282731
 30
0.0
 10
7.9719355999
 20
5.2636074174
 30
0.0
 10
7.9724640285
 20
5.2632479977
 30
0.0
 10
7.9729676642
 20
5.2628454027
 30
0.0
 10
7.9736029874
 20
5.2622481179
 30
0.0
 10
7.9743109318
 20
5.2613907149
 30
0.0
 10
7.9748580424
 20
5.2604078029
 30
0.0
 10
7.9751797832
 20
5.2595573656
 30
0.0
 10
7.9753580508
 20
5.2588894013
 30
0.0
 10
7.9754670728
 20
5.2582028425
 30
0.0
 10
7.975491532
 20
5.2577386902
 30
0.0
 10
7.975491532
 20
5.2575064451
 30
0.0
  0
SPLINE
  5
42A
100
AcDbEntity
  8
0
100
AcDbSpline
 62
7
  6
CONTINUOUS
 70
0
 71
3
 72
18
 73
14
 74
0
 42
0.0000001
 43
0.0000001
 44
0.0000000001
 40
0.0
 40
0.0
 40
0.0
 40
0.0
 40
0.119705099
 40
0.2403071571
 40
0.3621906558
 40
0.4857434389
 40
0.6113001832
 40
0.6749606187
 40
0.7391622988
 40
0.8038626417
 40
0.8689836889
 40
0.9344107052
 40
1.0
 40
1.0
 40
1.0
 40
1.0
 10
7.9664202099
 20
5.2647731735
 30
0.0
 10
7.9668345598
 20
5.2646837237
 30
0.0
 10
7.9676561499
 20
5.2644518383
 30
0.0
 10
7.9688376209
 20
5.2639431231
 30
0.0
 10
7.9699484812
 20
5.2632660965
 30
0.0
 10
7.970957345
 20
5.2624162033
 30
0.0
 10
7.9716776326
 20
5.2615665758
 30
0.0
 10
7.9721595708
 20
5.2608082318
 30
0.0
 10
7.9724691047
 20
5.2601993736
 30
0.0
 10
7.9727183466
 20
5.2595578554
 30
0.0
 10
7.9729013915
 20
5.2588897897
 30
0.0
 10
7.9730133673
 20
5.2582030467
 30
0.0
 10
7.9730384892
 20
5.2577387074
 30
0.0
 10
7.9730384892
 20
5.2575064451
 30
0.0
  0
SPLINE
  5
42B
100
AcDbEntity
  8
0
100
AcDbSpline
 62
7
  6
CONTINUOUS
 70
0
 71
3
 72
18
 73
14
 74
0
 42
0.0000001
 43
0.0000001
 44
0.0000000001
 40
0.0
 40
0.0
 40
0.0
 40
0.0
 40
0.1209409769
 40
0.2425630633
 40
0.365160849
 40
0.4890316173
 40
0.6144337632
 40
0.6778277277
 40
0.7416391036
 40
0.8058355388
 40
0.8703572712
 40
0.9351157465
 40
1.0
 40
1.0
 40
1.0
 40
1.0
 10
7.9632356592
 20
5.264771176
 30
0.0
 10
7.9636588154
 20
5.2646814818
 30
0.0
 10
7.9644975107
 20
5.2644493984
 30
0.0
 10
7.965704357
 20
5.2639405349
 30
0.0
 10
7.9668390479
 20
5.26326376
 30
0.0
 10
7.9678696332
 20
5.262414487
 30
0.0
 10
7.9686063486
 20
5.261564688
 30
0.0
 10
7.9690991643
 20
5.2608060663
 30
0.0
 10
7.9694153821
 20
5.2601976028
 30
0.0
 10
7.9696700164
 20
5.2595565101
 30
0.0
 10
7.969857029
 20
5.2588888867
 30
0.0
 10
7.969971436
 20
5.2582025969
 30
0.0
 10
7.9699971062
 20
5.2577385102
 30
0.0
 10
7.9699971062
 20
5.2575064451
 30
0.0
  0
SPLINE
  5
42C
100
AcDbEntity
  8
0
100
AcDbSpline
 62
7
  6
CONTINUOUS
 70
0
 71
3
 72
18
 73
14
 74
0
 42
0.0000001
 43
0.0000001
 44
0.0000000001
 40
0.0
 40
0.0
 40
0.0
 40
0.0
 40
0.1220005542
 40
0.2444974641
 40
0.3677089619
 40
0.4918545822
 40
0.6171262745
 40
0.6802923993
 40
0.7437691627
 40
0.8075328601
 40
0.871539329
 40
0.9357225863
 40
1.0
 40
1.0
 40
1.0
 40
1.0
 10
7.9594766721
 20
5.2647731735
 30
0.0
 10
7.9599084234
 20
5.2646838323
 30
0.0
 10
7.9607639221
 20
5.264452542
 30
0.0
 10
7.9619958073
 20
5.263944505
 30
0.0
 10
7.9631542058
 20
5.2632683835
 30
0.0
 10
7.9642065825
 20
5.2624195239
 30
0.0
 10
7.9649598447
 20
5.2615689673
 30
0.0
 10
7.9654637167
 20
5.2608092868
 30
0.0
 10
7.965786797
 20
5.2602003892
 30
0.0
 10
7.9660469936
 20
5.2595587406
 30
0.0
 10
7.9662381147
 20
5.2588904481
 30
0.0
 10
7.9663550466
 20
5.2582034047
 30
0.0
 10
7.9663812868
 20
5.2577387373
 30
0.0
 10
7.9663812868
 20
5.2575064451
 30
0.0
  0
SPLINE
  5
42D
100
AcDbEntity
  8
0
100
AcDbSpline
 62
7
  6
CONTINUOUS
 70
0
 71
3
 72
18
 73
14
 74
0
 42
0.0000001
 43
0.0000001
 44
0.0000000001
 40
0.0
 40
0.0
 40
0.0
 40
0.0
 40
0.1228915291
 40
0.2461267236
 40
0.3698592121
 40
0.4942418733
 40
0.6194084157
 40
0.6823836459
 40
0.7455782684
 40
0.8089756543
 40
0.872544788
 40
0.9362389823
 40
1.0
 40
1.0
 40
1.0
 40
1.0
 10
7.9551757959
 20
5.2647731735
 30
0.0
 10
7.9556145385
 20
5.2646838725
 30
0.0
 10
7.9564836615
 20
5.2644528034
 30
0.0
 10
7.9577357804
 20
5.2639450238
 30
0.0
 10
7.9589132468
 20
5.2632692551
 30
0.0
 10
7.9599830668
 20
5.2624208135
 30
0.0
 10
7.9607495744
 20
5.261569916
 30
0.0
 10
7.9612622708
 20
5.26080971
 30
0.0
 10
7.9615907917
 20
5.2602008005
 30
0.0
 10
7.9618553902
 20
5.2595591023
 30
0.0
 10
7.9620497583
 20
5.258890719
 30
0.0
 10
7.9621686838
 20
5.2582035525
 30
0.0
 10
7.962195374
 20
5.2577387496
 30
0.0
 10
7.962195374
 20
5.2575064451
 30
0.0
  0
SPLINE
  5
42E
100
AcDbEntity
  8
0
100
AcDbSpline
 62
7
  6
CONTINUOUS
 70
0
 71
3
 72
18
 73
14
 74
0
 42
0.0000001
 43
0.0000001
 44
0.0000000001
 40
0.0
 40
0.0
 40
0.0
 40
0.0
 40
0.1236203719
 40
0.2474606472
 40
0.371621598
 40
0.4962010583
 40
0.6212839295
 40
0.6841034448
 40
0.7470669812
 40
0.8101635816
 40
0.873372989
 40
0.9366644561
 40
1.0
 40
1.0
 40
1.0
 40
1.0
 10
7.9503373973
 20
5.2647731735
 30
0.0
 10
7.9507819632
 20
5.2646839046
 30
0.0
 10
7.9516624346
 20
5.2644530124
 30
0.0
 10
7.952931398
 20
5.2639454412
 30
0.0
 10
7.9541247338
 20
5.2632699614
 30
0.0
 10
7.9552090663
 20
5.2624218682
 30
0.0
 10
7.9559866045
 20
5.2615707004
 30
0.0
 10
7.9565066558
 20
5.260810062
 30
0.0
 10
7.9568397074
 20
5.2602011444
 30
0.0
 10
7.9571079726
 20
5.2595594061
 30
0.0
 10
7.9573050463
 20
5.2588909472
 30
0.0
 10
7.9574256334
 20
5.2582036775
 30
0.0
 10
7.9574526988
 20
5.2577387601
 30
0.0
 10
7.9574526988
 20
5.2575064451
 30
0.0
  0
SPLINE
  5
42F
100
AcDbEntity
  8
0
100
AcDbSpline
 62
7
  6
CONTINUOUS
 70
0
 71
3
 72
18
 73
14
 74
0
 42
0.0000001
 43
0.0000001
 44
0.0000000001
 40
0.0
 40
0.0
 40
0.0
 40
0.0
 40
0.124192404
 40
0.2485082869
 40
0.3730069411
 40
0.4977426867
 40
0.6227613897
 40
0.6854589855
 40
0.7482409836
 40
0.8111008041
 40
0.874026632
 40
0.9370003287
 40
1.0
 40
1.0
 40
1.0
 40
1.0
 10
7.9449747382
 20
5.2647731735
 30
0.0
 10
7.9454239422
 20
5.2646839292
 30
0.0
 10
7.9463134526
 20
5.2644531736
 30
0.0
 10
7.9475958269
 20
5.2639457643
 30
0.0
 10
7.9488017944
 20
5.2632705113
 30
0.0
 10
7.9498976753
 20
5.2624226958
 30
0.0
 10
7.9506839976
 20
5.2615713213
 30
0.0
 10
7.9512099101
 20
5.2608103419
 30
0.0
 10
7.9515465697
 20
5.260201419
 30
0.0
 10
7.9518177555
 20
5.2595596496
 30
0.0
 10
7.9520169848
 20
5.2588911308
 30
0.0
 10
7.9521388959
 20
5.2582037781
 30
0.0
 10
7.9521662606
 20
5.2577387685
 30
0.0
 10
7.9521662606
 20
5.2575064451
 30
0.0
  0
SPLINE
  5
430
100
AcDbEntity
  8
0
100
AcDbSpline
 62
7
  6
CONTINUOUS
 70
0
 71
3
 72
18
 73
14
 74
0
 42
0.0000001
 43
0.0000001
 44
0.0000000001
 40
0.0
 40
0.0
 40
0.0
 40
0.0
 40
0.1246118016
 40
0.249276786
 40
0.3740238327
 40
0.4988751836
 40
0.6238476844
 40
0.6864560615
 40
0.7491048738
 40
0.8117907002
 40
0.8745079154
 40
0.9372476786
 40
1.0
 40
1.0
 40
1.0
 40
1.0
 10
7.9391025172
 20
5.2647731735
 30
0.0
 10
7.9395551605
 20
5.2646839471
 30
0.0
 10
7.9404513739
 20
5.2644532901
 30
0.0
 10
7.9417436901
 20
5.2639459987
 30
0.0
 10
7.9429590199
 20
5.2632709122
 30
0.0
 10
7.9440634586
 20
5.2624233024
 30
0.0
 10
7.9448562938
 20
5.2615717795
 30
0.0
 10
7.9453865544
 20
5.2608105493
 30
0.0
 10
7.945725889
 20
5.2602016231
 30
0.0
 10
7.9459992408
 20
5.2595598311
 30
0.0
 10
7.9462000688
 20
5.2588912679
 30
0.0
 10
7.9463229623
 20
5.2582038534
 30
0.0
 10
7.9463505489
 20
5.2577387748
 30
0.0
 10
7.9463505489
 20
5.2575064451
 30
0.0
  0
SPLINE
  5
431
100
AcDbEntity
  8
0
100
AcDbSpline
 62
7
  6
CONTINUOUS
 70
0
 71
3
 72
18
 73
14
 74
0
 42
0.0000001
 43
0.0000001
 44
0.0000000001
 40
0.0
 40
0.0
 40
0.0
 40
0.0
 40
0.1248816208
 40
0.2497714107
 40
0.3746786756
 40
0.499604945
 40
0.6245482187
 40
0.6870992539
 40
0.7496623081
 40
0.8122359743
 40
0.8748186062
 40
0.9374073766
 40
1.0
 40
1.0
 40
1.0
 40
1.0
 10
7.9327431427
 20
5.264771176
 30
0.0
 10
7.9331975243
 20
5.2646816582
 30
0.0
 10
7.9340970697
 20
5.2644505439
 30
0.0
 10
7.9353942558
 20
5.2639428114
 30
0.0
 10
7.93661406
 20
5.2632675948
 30
0.0
 10
7.9377224828
 20
5.2624201852
 30
0.0
 10
7.9385183266
 20
5.2615689037
 30
0.0
 10
7.9390505511
 20
5.260807953
 30
0.0
 10
7.9393910523
 20
5.2601994419
 30
0.0
 10
7.9396653363
 20
5.2595581316
 30
0.0
 10
7.9398668452
 20
5.2588901035
 30
0.0
 10
7.9399901538
 20
5.2582032622
 30
0.0
 10
7.9400178341
 20
5.2577385659
 30
0.0
 10
7.9400178341
 20
5.2575064451
 30
0.0
  0
SPLINE
  5
432
100
AcDbEntity
  8
0
100
AcDbSpline
 62
7
  6
CONTINUOUS
 70
0
 71
3
 72
18
 73
14
 74
0
 42
0.0000001
 43
0.0000001
 44
0.0000000001
 40
0.0
 40
0.0
 40
0.0
 40
0.0
 40
0.1250038981
 40
0.2499955564
 40
0.3749754295
 40
0.499935644
 40
0.6248656062
 40
0.6873907066
 40
0.749914937
 40
0.812437796
 40
0.8749594418
 40
0.9374797684
 40
1.0
 40
1.0
 40
1.0
 40
1.0
 10
7.9258951235
 20
5.2647731735
 30
0.0
 10
7.9263510125
 20
5.2646839635
 30
0.0
 10
7.9272535517
 20
5.2644533979
 30
0.0
 10
7.9285552477
 20
5.263946216
 30
0.0
 10
7.9297794096
 20
5.2632712851
 30
0.0
 10
7.9308919197
 20
5.2624238693
 30
0.0
 10
7.9316909004
 20
5.2615722101
 30
0.0
 10
7.9322252656
 20
5.2608107448
 30
0.0
 10
7.9325671245
 20
5.260201816
 30
0.0
 10
7.9328425203
 20
5.259560003
 30
0.0
 10
7.9330448575
 20
5.2588913981
 30
0.0
 10
7.9331686783
 20
5.258203925
 30
0.0
 10
7.9331964745
 20
5.2577387808
 30
0.0
 10
7.9331964745
 20
5.2575064451
 30
0.0
  0
SPLINE
  5
433
100
AcDbEntity
  8
0
100
AcDbSpline
 62
7
  6
CONTINUOUS
 70
0
 71
3
 72
18
 73
14
 74
0
 42
0.0000001
 43
0.0000001
 44
0.0000000001
 40
0.0
 40
0.0
 40
0.0
 40
0.0
 40
0.1249794667
 40
0.2499507616
 40
0.3749161103
 40
0.4998695194
 40
0.6248021136
 40
0.6873323992
 40
0.7498643939
 40
0.8123974159
 40
0.8749312627
 40
0.9374652831
 40
1.0
 40
1.0
 40
1.0
 40
1.0
 10
7.9185961513
 20
5.2647731735
 30
0.0
 10
7.9190518373
 20
5.2646839625
 30
0.0
 10
7.9199539806
 20
5.2644533912
 30
0.0
 10
7.9212550898
 20
5.2639462025
 30
0.0
 10
7.922478699
 20
5.2632712619
 30
0.0
 10
7.9235907042
 20
5.262423834
 30
0.0
 10
7.9243893004
 20
5.2615721832
 30
0.0
 10
7.9249234087
 20
5.2608107326
 30
0.0
 10
7.9252651096
 20
5.2602018039
 30
0.0
 10
7.9255403774
 20
5.2595599922
 30
0.0
 10
7.9257426202
 20
5.2588913899
 30
0.0
 10
7.925866383
 20
5.2582039205
 30
0.0
 10
7.9258941661
 20
5.2577387804
 30
0.0
 10
7.9258941661
 20
5.2575064451
 30
0.0
  0
SPLINE
  5
434
100
AcDbEntity
  8
0
100
AcDbSpline
 62
7
  6
CONTINUOUS
 70
0
 71
3
 72
18
 73
14
 74
0
 42
0.0000001
 43
0.0000001
 44
0.0000000001
 40
0.0
 40
0.0
 40
0.0
 40
0.0
 40
0.1248081684
 40
0.249636719
 40
0.374500295
 40
0.4994060714
 40
0.624357189
 40
0.6869238438
 40
0.7495102716
 40
0.812114518
 40
0.8747338545
 40
0.9373638099
 40
1.0
 40
1.0
 40
1.0
 40
1.0
 10
7.9108599192
 20
5.2647731735
 30
0.0
 10
7.9113141843
 20
5.2646839553
 30
0.0
 10
7.9122135585
 20
5.2644533442
 30
0.0
 10
7.9135105619
 20
5.2639461078
 30
0.0
 10
7.9147303052
 20
5.2632710992
 30
0.0
 10
7.9158387776
 20
5.2624235863
 30
0.0
 10
7.9166346836
 20
5.2615719949
 30
0.0
 10
7.917166995
 20
5.260810647
 30
0.0
 10
7.917507591
 20
5.2602017195
 30
0.0
 10
7.9177819641
 20
5.2595599169
 30
0.0
 10
7.9179835462
 20
5.2588913328
 30
0.0
 10
7.918106903
 20
5.2582038891
 30
0.0
 10
7.9181345943
 20
5.2577387778
 30
0.0
 10
7.9181345943
 20
5.2575064451
 30
0.0
  0
SPLINE
  5
435
100
AcDbEntity
  8
0
100
AcDbSpline
 62
7
  6
CONTINUOUS
 70
0
 71
3
 72
18
 73
14
 74
0
 42
0.0000001
 43
0.0000001
 44
0.0000000001
 40
0.0
 40
0.0
 40
0.0
 40
0.0
 40
0.1244887484
 40
0.2490512711
 40
0.3737253695
 40
0.4985427113
 40
0.6235286929
 40
0.6861632319
 40
0.7488511295
 40
0.8115880411
 40
0.8743665255
 40
0.9371750093
 40
1.0
 40
1.0
 40
1.0
 40
1.0
 10
7.9027076315
 20
5.2647731735
 30
0.0
 10
7.9031592623
 20
5.2646839419
 30
0.0
 10
7.9040535023
 20
5.2644532561
 30
0.0
 10
7.9053428918
 20
5.2639459301
 30
0.0
 10
7.9065554656
 20
5.2632707948
 30
0.0
 10
7.9076573854
 20
5.2624231244
 30
0.0
 10
7.9084483032
 20
5.2615716448
 30
0.0
 10
7.9089772836
 20
5.2608104883
 30
0.0
 10
7.9093158307
 20
5.260201563
 30
0.0
 10
7.9095885448
 20
5.2595597776
 30
0.0
 10
7.9097889021
 20
5.2588912274
 30
0.0
 10
7.9099115064
 20
5.2582038312
 30
0.0
 10
7.9099390276
 20
5.2577387729
 30
0.0
 10
7.9099390276
 20
5.2575064451
 30
0.0
  0
SPLINE
  5
436
100
AcDbEntity
  8
0
100
AcDbSpline
 62
7
  6
CONTINUOUS
 70
0
 71
3
 72
18
 73
14
 74
0
 42
0.0000001
 43
0.0000001
 44
0.0000000001
 40
0.0
 40
0.0
 40
0.0
 40
0.0
 40
0.1240188675
 40
0.2481904021
 40
0.372586477
 40
0.4972746402
 40
0.6223126682
 40
0.6850472224
 40
0.7478843095
 40
0.8108160271
 40
0.8738280001
 40
0.9368982555
 40
1.0
 40
1.0
 40
1.0
 40
1.0
 10
7.8941616331
 20
5.2647731735
 30
0.0
 10
7.8946094237
 20
5.2646839218
 30
0.0
 10
7.8954961795
 20
5.2644531249
 30
0.0
 10
7.8967744674
 20
5.2639456667
 30
0.0
 10
7.8979765862
 20
5.2632703449
 30
0.0
 10
7.8990689487
 20
5.2624224448
 30
0.0
 10
7.8998525942
 20
5.2615711324
 30
0.0
 10
7.9003767203
 20
5.2608102567
 30
0.0
 10
7.9007122804
 20
5.2602013353
 30
0.0
 10
7.9009825762
 20
5.2595595752
 30
0.0
 10
7.9011811485
 20
5.2588910747
 30
0.0
 10
7.9013026561
 20
5.2582037473
 30
0.0
 10
7.9013299295
 20
5.2577387659
 30
0.0
 10
7.9013299295
 20
5.2575064451
 30
0.0
  0
LINE
  5
437
100
AcDbEntity
  8
0
100
AcDbLine
 62
7
  6
CONTINUOUS
 10
7.8940341876
 20
5.2575064451
 11
7.8941616331
 21
5.2647731735
  0
SPLINE
  5
438
100
AcDbEntity
  8
0
100
AcDbSpline
 62
7
  6
CONTINUOUS
 70
0
 71
3
 72
18
 73
14
 74
0
 42
0.0000001
 43
0.0000001
 44
0.0000000001
 40
0.0
 40
0.0
 40
0.0
 40
0.0
 40
0.1233950293
 40
0.2470485679
 40
0.3710775659
 40
0.4955967121
 40
0.6207058266
 40
0.6835734699
 40
0.74660832
 40
0.8097976601
 40
0.8731179119
 40
0.9365334291
 40
1.0
 40
1.0
 40
1.0
 40
1.0
 10
7.8852499348
 20
5.264771176
 30
0.0
 10
7.8856922122
 20
5.2646815941
 30
0.0
 10
7.8865681686
 20
5.2644501263
 30
0.0
 10
7.8878303619
 20
5.2639419746
 30
0.0
 10
7.8890172122
 20
5.2632661691
 30
0.0
 10
7.8900955127
 20
5.2624180362
 30
0.0
 10
7.8908684422
 20
5.2615672874
 30
0.0
 10
7.8913853751
 20
5.2608072233
 30
0.0
 10
7.891716466
 20
5.2601987251
 30
0.0
 10
7.8919831322
 20
5.2595574953
 30
0.0
 10
7.8921790186
 20
5.2588896235
 30
0.0
 10
7.8922988732
 20
5.2582029988
 30
0.0
 10
7.8923257731
 20
5.2577385438
 30
0.0
 10
7.8923257731
 20
5.2575064451
 30
0.0
  0
SPLINE
  5
439
100
AcDbEntity
  8
0
100
AcDbSpline
 62
7
  6
CONTINUOUS
 70
0
 71
3
 72
18
 73
14
 74
0
 42
0.0000001
 43
0.0000001
 44
0.0000000001
 40
0.0
 40
0.0
 40
0.0
 40
0.0
 40
0.1891744315
 40
0.3683250305
 40
0.5299434933
 40
0.6698458315
 40
0.7864779138
 40
0.8360312161
 40
0.879836386
 40
0.9180012916
 40
0.9506523471
 40
0.9779334454
 40
1.0
 40
1.0
 40
1.0
 40
1.0
 10
7.8847412388
 20
5.2575064451
 30
0.0
 10
7.8847412388
 20
5.2579666449
 30
0.0
 10
7.8847485545
 20
5.258862679
 30
0.0
 10
7.8847806533
 20
5.2601515195
 30
0.0
 10
7.8848308237
 20
5.2613198355
 30
0.0
 10
7.8848953658
 20
5.2623350893
 30
0.0
 10
7.8849609949
 20
5.2630769253
 30
0.0
 10
7.8850193088
 20
5.2635844519
 30
0.0
 10
7.8850622298
 20
5.2639015409
 30
0.0
 10
7.8851064306
 20
5.2641768837
 30
0.0
 10
7.8851516272
 20
5.2644112622
 30
0.0
 10
7.885197557
 20
5.2646054351
 30
0.0
 10
7.8852319789
 20
5.2647205874
 30
0.0
 10
7.8852499348
 20
5.264771176
 30
0.0
  0
SPLINE
  5
43A
100
AcDbEntity
  8
0
100
AcDbSpline
 62
7
  6
CONTINUOUS
 70
0
 71
3
 72
18
 73
14
 74
0
 42
0.0000001
 43
0.0000001
 44
0.0000000001
 40
0.0
 40
0.0
 40
0.0
 40
0.0
 40
0.122612848
 40
0.2456169543
 40
0.3691861562
 40
0.4934942574
 40
0.6186933523
 40
0.6817282284
 40
0.7450111423
 40
0.808523268
 40
0.8722294772
 40
0.9360770245
 40
1.0
 40
1.0
 40
1.0
 40
1.0
 10
7.8759832152
 20
5.2647731735
 30
0.0
 10
7.8764197562
 20
5.2646838601
 30
0.0
 10
7.8772845888
 20
5.2644527223
 30
0.0
 10
7.8785303373
 20
5.2639448626
 30
0.0
 10
7.879701801
 20
5.2632689834
 30
0.0
 10
7.8807661304
 20
5.2624204101
 30
0.0
 10
7.8815284672
 20
5.261569618
 30
0.0
 10
7.882038384
 20
5.2608095768
 30
0.0
 10
7.8823651918
 20
5.2602006708
 30
0.0
 10
7.8826284041
 20
5.2595589881
 30
0.0
 10
7.8828217496
 20
5.2588906333
 30
0.0
 10
7.8829400471
 20
5.2582035057
 30
0.0
 10
7.8829665955
 20
5.2577387457
 30
0.0
 10
7.8829665955
 20
5.2575064451
 30
0.0
  0
SPLINE
  5
43B
100
AcDbEntity
  8
0
100
AcDbSpline
 62
7
  6
CONTINUOUS
 70
0
 71
3
 72
18
 73
14
 74
0
 42
0.0000001
 43
0.0000001
 44
0.0000000001
 40
0.0
 40
0.0
 40
0.0
 40
0.0
 40
0.187592243
 40
0.365332346
 40
0.5258597707
 40
0.6651094126
 40
0.7816339112
 40
0.8313798808
 40
0.8755676941
 40
0.9143349628
 40
0.9478504013
 40
0.9763211187
 40
1.0
 40
1.0
 40
1.0
 40
1.0
 10
7.8750932688
 20
5.2575064451
 30
0.0
 10
7.8750932688
 20
5.2579670928
 30
0.0
 10
7.8751060805
 20
5.2588642541
 30
0.0
 10
7.8751622873
 20
5.2601545049
 30
0.0
 10
7.8752501476
 20
5.2613240204
 30
0.0
 10
7.8753631845
 20
5.2623402393
 30
0.0
 10
7.8754780774
 20
5.2630819852
 30
0.0
 10
7.8755799885
 20
5.263588716
 30
0.0
 10
7.8756551551
 20
5.263905866
 30
0.0
 10
7.8757326059
 20
5.2641812809
 30
0.0
 10
7.8758119055
 20
5.2644157999
 30
0.0
 10
7.8758926378
 20
5.2646102277
 30
0.0
 10
7.8759524734
 20
5.2647238194
 30
0.0
 10
7.8759832152
 20
5.2647731735
 30
0.0
  0
SPLINE
  5
43C
100
AcDbEntity
  8
0
100
AcDbSpline
 62
7
  6
CONTINUOUS
 70
0
 71
3
 72
18
 73
14
 74
0
 42
0.0000001
 43
0.0000001
 44
0.0000000001
 40
0.0
 40
0.0
 40
0.0
 40
0.0
 40
0.1216664479
 40
0.2438869078
 40
0.3669038321
 40
0.4909615659
 40
0.6162734912
 40
0.6795113463
 40
0.7430938041
 40
0.8069944696
 40
0.8711642529
 40
0.9355299889
 40
1.0
 40
1.0
 40
1.0
 40
1.0
 10
7.8664006215
 20
5.2647731735
 30
0.0
 10
7.8668297861
 20
5.264683817
 30
0.0
 10
7.8676802444
 20
5.2644524424
 30
0.0
 10
7.8689046409
 20
5.2639443079
 30
0.0
 10
7.8700559804
 20
5.2632680543
 30
0.0
 10
7.8711018981
 20
5.2624190404
 30
0.0
 10
7.8718502594
 20
5.2615686145
 30
0.0
 10
7.8723508683
 20
5.2608091301
 30
0.0
 10
7.8726719356
 20
5.2602002375
 30
0.0
 10
7.8729305037
 20
5.2595586077
 30
0.0
 10
7.8731204238
 20
5.2588903489
 30
0.0
 10
7.8732366186
 20
5.2582033505
 30
0.0
 10
7.8732626923
 20
5.2577387327
 30
0.0
 10
7.8732626923
 20
5.2575064451
 30
0.0
  0
SPLINE
  5
43D
100
AcDbEntity
  8
0
100
AcDbSpline
 62
7
  6
CONTINUOUS
 70
0
 71
3
 72
19
 73
15
 74
0
 42
0.0000001
 43
0.0000001
 44
0.0000000001
 40
0.0
 40
0.0
 40
0.0
 40
0.0
 40
0.1851538628
 40
0.360741688
 40
0.5196400063
 40
0.6579622099
 40
0.718937584
 40
0.7744278788
 40
0.8245105635
 40
0.8693176497
 40
0.9090231166
 40
0.9438445566
 40
0.9740561019
 40
1.0
 40
1.0
 40
1.0
 40
1.0
 10
7.865132562
 20
5.2575064451
 30
0.0
 10
7.865132562
 20
5.2579671429
 30
0.0
 10
7.8651508396
 20
5.2588648504
 30
0.0
 10
7.8652309851
 20
5.2601557186
 30
0.0
 10
7.865356371
 20
5.2613258637
 30
0.0
 10
7.8654959152
 20
5.2622066643
 30
0.0
 10
7.8656248808
 20
5.2628274761
 30
0.0
 10
7.8657232513
 20
5.2632301338
 30
0.0
 10
7.8658264521
 20
5.263589912
 30
0.0
 10
7.8659337046
 20
5.2639073239
 30
0.0
 10
7.8660443085
 20
5.2641830736
 30
0.0
 10
7.8661576902
 20
5.26441802
 30
0.0
 10
7.866273328
 20
5.2646129723
 30
0.0
 10
7.8663577713
 20
5.2647248931
 30
0.0
 10
7.8664006215
 20
5.2647731735
 30
0.0
  0
SPLINE
  5
43E
100
AcDbEntity
  8
0
100
AcDbSpline
 62
7
  6
CONTINUOUS
 70
0
 71
3
 72
18
 73
14
 74
0
 42
0.0000001
 43
0.0000001
 44
0.0000000001
 40
0.0
 40
0.0
 40
0.0
 40
0.0
 40
0.1205490104
 40
0.2418464765
 40
0.3642158055
 40
0.4879835568
 40
0.6134331708
 40
0.6769114804
 40
0.7408469989
 40
0.805204186
 40
0.869917491
 40
0.9348899411
 40
1.0
 40
1.0
 40
1.0
 40
1.0
 10
7.856523832
 20
5.2647731735
 30
0.0
 10
7.8569444804
 20
5.2646837645
 30
0.0
 10
7.8577783437
 20
5.2644521022
 30
0.0
 10
7.8589780716
 20
5.2639436388
 30
0.0
 10
7.8601061521
 20
5.2632669442
 30
0.0
 10
7.861130782
 20
5.2624174236
 30
0.0
 10
7.8618630057
 20
5.2615674462
 30
0.0
 10
7.8623528779
 20
5.2608086138
 30
0.0
 10
7.8626673158
 20
5.2601997398
 30
0.0
 10
7.8629205225
 20
5.2595581733
 30
0.0
 10
7.8631064898
 20
5.2588900254
 30
0.0
 10
7.8632202586
 20
5.2582031746
 30
0.0
 10
7.8632457849
 20
5.257738718
 30
0.0
 10
7.8632457849
 20
5.2575064451
 30
0.0
  0
SPLINE
  5
43F
100
AcDbEntity
  8
0
100
AcDbSpline
 62
7
  6
CONTINUOUS
 70
0
 71
3
 72
19
 73
15
 74
0
 42
0.0000001
 43
0.0000001
 44
0.0000000001
 40
0.0
 40
0.0
 40
0.0
 40
0.0
 40
0.1821549755
 40
0.3551063345
 40
0.5120301714
 40
0.6492632252
 40
0.7100874859
 40
0.7657158383
 40
0.8162506603
 40
0.8618534366
 40
0.9027341501
 40
0.9391547696
 40
0.9714432323
 40
1.0
 40
1.0
 40
1.0
 40
1.0
 10
7.8548811352
 20
5.2575064451
 30
0.0
 10
7.8548811352
 20
5.2579672098
 30
0.0
 10
7.8549048437
 20
5.2588656501
 30
0.0
 10
7.8550088005
 20
5.2601573177
 30
0.0
 10
7.8551714595
 20
5.2613283158
 30
0.0
 10
7.8553523476
 20
5.2622087165
 30
0.0
 10
7.8555192083
 20
5.2628285206
 30
0.0
 10
7.8556467552
 20
5.2632313616
 30
0.0
 10
7.8557806048
 20
5.2635913554
 30
0.0
 10
7.8559197669
 20
5.2639090198
 30
0.0
 10
7.8560633641
 20
5.2641850597
 30
0.0
 10
7.8562106905
 20
5.2644203133
 30
0.0
 10
7.8563611083
 20
5.264615544
 30
0.0
 10
7.8564693285
 20
5.2647257684
 30
0.0
 10
7.856523832
 20
5.2647731735
 30
0.0
  0
SPLINE
  5
440
100
AcDbEntity
  8
0
100
AcDbSpline
 62
7
  6
CONTINUOUS
 70
0
 71
3
 72
20
 73
16
 74
0
 42
0.0000001
 43
0.0000001
 44
0.0000000001
 40
0.0
 40
0.0
 40
0.0
 40
0.0
 40
0.1192297322
 40
0.179218861
 40
0.2395067256
 40
0.3611076188
 40
0.4845229934
 40
0.5470866932
 40
0.6102347797
 40
0.6739809162
 40
0.738312903
 40
0.8031843458
 40
0.8685106578
 40
0.9341676777
 40
1.0
 40
1.0
 40
1.0
 40
1.0
 10
7.8463799185
 20
5.2647731735
 30
0.0
 10
7.8467909359
 20
5.2646837013
 30
0.0
 10
7.8474012781
 20
5.2645099553
 30
0.0
 10
7.8481875439
 20
5.2641991572
 30
0.0
 10
7.8489584404
 20
5.2638318121
 30
0.0
 10
7.8498795391
 20
5.2632657445
 30
0.0
 10
7.8507102319
 20
5.2625597218
 30
0.0
 10
7.8513044283
 20
5.261910825
 30
0.0
 10
7.8517115877
 20
5.2613795769
 30
0.0
 10
7.8520718335
 20
5.2608080096
 30
0.0
 10
7.8523787439
 20
5.2601991861
 30
0.0
 10
7.8526258958
 20
5.2595576869
 30
0.0
 10
7.8528073929
 20
5.2588896666
 30
0.0
 10
7.8529184211
 20
5.2582029797
 30
0.0
 10
7.852943329
 20
5.2577387018
 30
0.0
 10
7.852943329
 20
5.2575064451
 30
0.0
  0
SPLINE
  5
441
100
AcDbEntity
  8
0
100
AcDbSpline
 62
7
  6
CONTINUOUS
 70
0
 71
3
 72
19
 73
15
 74
0
 42
0.0000001
 43
0.0000001
 44
0.0000000001
 40
0.0
 40
0.0
 40
0.0
 40
0.0
 40
0.1787785224
 40
0.2653640697
 40
0.3488013772
 40
0.5035425082
 40
0.6396197759
 40
0.7003191675
 40
0.7561524247
 40
0.8072461905
 40
0.8537887269
 40
0.8960199612
 40
0.9342345756
 40
1.0
 40
1.0
 40
1.0
 40
1.0
 10
7.8443670869
 20
5.2575064451
 30
0.0
 10
7.8443670869
 20
5.2579672928
 30
0.0
 10
7.8443892039
 20
5.2586516391
 30
0.0
 10
7.8444634621
 20
5.2595478234
 30
0.0
 10
7.8445612387
 20
5.260379401
 30
0.0
 10
7.8447234226
 20
5.2613312997
 30
0.0
 10
7.8449452101
 20
5.2622111365
 30
0.0
 10
7.8451493617
 20
5.2628297293
 30
0.0
 10
7.8453057931
 20
5.2632327459
 30
0.0
 10
7.8454700058
 20
5.2635929434
 30
0.0
 10
7.8456407575
 20
5.2639107786
 30
0.0
 10
7.845817124
 20
5.2641871182
 30
0.0
 10
7.8460468437
 20
5.2644859735
 30
0.0
 10
7.8462416772
 20
5.2646750467
 30
0.0
 10
7.8463799185
 20
5.2647731735
 30
0.0
  0
SPLINE
  5
442
100
AcDbEntity
  8
0
100
AcDbSpline
 62
7
  6
CONTINUOUS
 70
0
 71
3
 72
19
 73
15
 74
0
 42
0.0000001
 43
0.0000001
 44
0.0000000001
 40
0.0
 40
0.0
 40
0.0
 40
0.0
 40
0.1177627752
 40
0.2367689109
 40
0.2969420777
 40
0.3576265072
 40
0.4188897312
 40
0.480793251
 40
0.6066008146
 40
0.7353442445
 40
0.8008244557
 40
0.866870104
 40
0.9333263849
 40
1.0
 40
1.0
 40
1.0
 40
1.0
 10
7.8359966846
 20
5.2647731735
 30
0.0
 10
7.8363969849
 20
5.2646836257
 30
0.0
 10
7.8371911214
 20
5.2644512597
 30
0.0
 10
7.8381387781
 20
5.2640280839
 30
0.0
 10
7.8388613396
 20
5.2636073104
 30
0.0
 10
7.8393847941
 20
5.2632478645
 30
0.0
 10
7.8398836827
 20
5.2628452431
 30
0.0
 10
7.8405132656
 20
5.262247682
 30
0.0
 10
7.8412147009
 20
5.2613898216
 30
0.0
 10
7.8417562566
 20
5.2604072946
 30
0.0
 10
7.8420748115
 20
5.2595571837
 30
0.0
 10
7.8422513675
 20
5.2588892674
 30
0.0
 10
7.8423593403
 20
5.2582027703
 30
0.0
 10
7.8423835629
 20
5.2577386841
 30
0.0
 10
7.8423835629
 20
5.2575064451
 30
0.0
  0
SPLINE
  5
443
100
AcDbEntity
  8
0
100
AcDbSpline
 62
7
  6
CONTINUOUS
 70
0
 71
3
 72
19
 73
15
 74
0
 42
0.0000001
 43
0.0000001
 44
0.0000000001
 40
0.0
 40
0.0
 40
0.0
 40
0.0
 40
0.1751336489
 40
0.2600509917
 40
0.3419912181
 40
0.494414084
 40
0.629306759
 40
0.6899091574
 40
0.7460018175
 40
0.7977324802
 40
0.8453105135
 40
0.8889965319
 40
0.929103702
 40
1.0
 40
1.0
 40
1.0
 40
1.0
 10
7.8336192352
 20
5.2575064451
 30
0.0
 10
7.8336192352
 20
5.257967391
 30
0.0
 10
7.8336454031
 20
5.258652256
 30
0.0
 10
7.8337331202
 20
5.2595482623
 30
0.0
 10
7.833848765
 20
5.2603808032
 30
0.0
 10
7.8340409217
 20
5.2613347267
 30
0.0
 10
7.8343030571
 20
5.2622138364
 30
0.0
 10
7.8345437703
 20
5.2628310454
 30
0.0
 10
7.8347287103
 20
5.2632342186
 30
0.0
 10
7.8349228841
 20
5.2635945637
 30
0.0
 10
7.8351248309
 20
5.2639125401
 30
0.0
 10
7.8353334505
 20
5.2641889444
 30
0.0
 10
7.8356074275
 20
5.2644903386
 30
0.0
 10
7.8358367471
 20
5.2646770573
 30
0.0
 10
7.8359966846
 20
5.2647731735
 30
0.0
  0
SPLINE
  5
444
100
AcDbEntity
  8
0
100
AcDbSpline
 62
7
  6
CONTINUOUS
 70
0
 71
3
 72
19
 73
15
 74
0
 42
0.0000001
 43
0.0000001
 44
0.0000000001
 40
0.0
 40
0.0
 40
0.0
 40
0.0
 40
0.1160790628
 40
0.2337113405
 40
0.2933520847
 40
0.3536263133
 40
0.4146156611
 40
0.476394275
 40
0.6024371623
 40
0.7320765706
 40
0.798228128
 40
0.8650659654
 40
0.9324014817
 40
1.0
 40
1.0
 40
1.0
 40
1.0
 10
7.8254050015
 20
5.264771176
 30
0.0
 10
7.8257931153
 20
5.2646812328
 30
0.0
 10
7.8265634529
 20
5.2644478552
 30
0.0
 10
7.8274807409
 20
5.2640241986
 30
0.0
 10
7.828179868
 20
5.2636034993
 30
0.0
 10
7.828686772
 20
5.2632438897
 30
0.0
 10
7.8291698417
 20
5.2628411814
 30
0.0
 10
7.8297802066
 20
5.2622428303
 30
0.0
 10
7.8304597899
 20
5.2613838738
 30
0.0
 10
7.8309828025
 20
5.2604032269
 30
0.0
 10
7.8312906888
 20
5.2595548009
 30
0.0
 10
7.8314614867
 20
5.2588876
 30
0.0
 10
7.831565928
 20
5.2582019075
 30
0.0
 10
7.8315893545
 20
5.2577384525
 30
0.0
 10
7.8315893545
 20
5.2575064451
 30
0.0
  0
SPLINE
  5
445
100
AcDbEntity
  8
0
100
AcDbSpline
 62
7
  6
CONTINUOUS
 70
0
 71
3
 72
16
 73
12
 74
0
 42
0.0000001
 43
0.0000001
 44
0.0000000001
 40
0.0
 40
0.0
 40
0.0
 40
0.0
 40
0.1713232108
 40
0.3348552818
 40
0.4849241591
 40
0.6186885185
 40
0.7356224272
 40
0.8367077316
 40
0.8819307181
 40
0.9239898492
 40
1.0
 40
1.0
 40
1.0
 40
1.0
 10
7.8226731996
 20
5.2575064451
 30
0.0
 10
7.8226731996
 20
5.2579670868
 30
0.0
 10
7.8227128417
 20
5.2588679609
 30
0.0
 10
7.8228866039
 20
5.260161923
 30
0.0
 10
7.8231586202
 20
5.2613355951
 30
0.0
 10
7.8235092634
 20
5.2623568074
 30
0.0
 10
7.8239195806
 20
5.2632116185
 30
0.0
 10
7.8243119328
 20
5.2638043521
 30
0.0
 10
7.8246442872
 20
5.2641874966
 30
0.0
 10
7.8249616681
 20
5.2644912786
 30
0.0
 10
7.8252240247
 20
5.2646762298
 30
0.0
 10
7.8254050015
 20
5.264771176
 30
0.0
  0
SPLINE
  5
446
100
AcDbEntity
  8
0
100
AcDbSpline
 62
7
  6
CONTINUOUS
 70
0
 71
3
 72
15
 73
11
 74
0
 42
0.0000001
 43
0.0000001
 44
0.0000000001
 40
0.0
 40
0.0
 40
0.0
 40
0.0
 40
0.1142407157
 40
0.2303863131
 40
0.3492179851
 40
0.471505419
 40
0.5978822326
 40
0.7285957427
 40
0.8631414013
 40
1.0
 40
1.0
 40
1.0
 40
1.0
 10
7.8146266727
 20
5.2647731735
 30
0.0
 10
7.8150024121
 20
5.2646834285
 30
0.0
 10
7.8157487626
 20
5.2644499527
 30
0.0
 10
7.8168180467
 20
5.2639395172
 30
0.0
 10
7.8178229429
 20
5.2632603986
 30
0.0
 10
7.8187347927
 20
5.2624081455
 30
0.0
 10
7.8195174991
 20
5.2613837761
 30
0.0
 10
7.8201274455
 20
5.2601999522
 30
0.0
 10
7.8205186026
 20
5.2588895089
 30
0.0
 10
7.8206085004
 20
5.2579692366
 30
0.0
 10
7.8206085004
 20
5.2575064451
 30
0.0
  0
SPLINE
  5
447
100
AcDbEntity
  8
0
100
AcDbSpline
 62
7
  6
CONTINUOUS
 70
0
 71
3
 72
15
 73
11
 74
0
 42
0.0000001
 43
0.0000001
 44
0.0000000001
 40
0.0
 40
0.0
 40
0.0
 40
0.0
 40
0.1675947373
 40
0.3279087633
 40
0.4756860282
 40
0.6083745288
 40
0.7256332233
 40
0.8285549594
 40
0.9191301053
 40
1.0
 40
1.0
 40
1.0
 40
1.0
 10
7.8115405184
 20
5.2575064451
 30
0.0
 10
7.8115405184
 20
5.2579676284
 30
0.0
 10
7.811585432
 20
5.2588706477
 30
0.0
 10
7.8117822293
 20
5.2601669913
 30
0.0
 10
7.8120903295
 20
5.2613426679
 30
0.0
 10
7.8124875302
 20
5.2623653156
 30
0.0
 10
7.8129525003
 20
5.263221125
 30
0.0
 10
7.8134678966
 20
5.2639079965
 30
0.0
 10
7.8140198892
 20
5.2644289324
 30
0.0
 10
7.8144247282
 20
5.2646796821
 30
0.0
 10
7.8146266727
 20
5.2647731735
 30
0.0
  0
SPLINE
  5
448
100
AcDbEntity
  8
0
100
AcDbSpline
 62
7
  6
CONTINUOUS
 70
0
 71
3
 72
15
 73
11
 74
0
 42
0.0000001
 43
0.0000001
 44
0.0000000001
 40
0.0
 40
0.0
 40
0.0
 40
0.0
 40
0.1121198413
 40
0.2265489114
 40
0.3442185106
 40
0.4660350225
 40
0.5927297499
 40
0.7245666192
 40
0.8609239241
 40
1.0
 40
1.0
 40
1.0
 40
1.0
 10
7.8036984684
 20
5.2647731735
 30
0.0
 10
7.8040604383
 20
5.2646833007
 30
0.0
 10
7.8047799502
 20
5.2644491459
 30
0.0
 10
7.8058090857
 20
5.2639380273
 30
0.0
 10
7.8067760166
 20
5.263258114
 30
0.0
 10
7.8076530443
 20
5.262405136
 30
0.0
 10
7.8084054079
 20
5.2613803895
 30
0.0
 10
7.8089912652
 20
5.2601968896
 30
0.0
 10
7.8093666881
 20
5.2588876182
 30
0.0
 10
7.809452888
 20
5.2579690736
 30
0.0
 10
7.809452888
 20
5.2575064451
 30
0.0
  0
SPLINE
  5
449
100
AcDbEntity
  8
0
100
AcDbSpline
 62
7
  6
CONTINUOUS
 70
0
 71
3
 72
15
 73
11
 74
0
 42
0.0000001
 43
0.0000001
 44
0.0000000001
 40
0.0
 40
0.0
 40
0.0
 40
0.0
 40
0.1638205185
 40
0.3209004645
 40
0.4664150414
 40
0.5980965257
 40
0.7157631995
 40
0.8205724302
 40
0.9144877139
 40
1.0
 40
1.0
 40
1.0
 40
1.0
 10
7.8002701696
 20
5.2575064451
 30
0.0
 10
7.8002701696
 20
5.257967765
 30
0.0
 10
7.8003201996
 20
5.2588722702
 30
0.0
 10
7.8005393316
 20
5.2601700476
 30
0.0
 10
7.8008824191
 20
5.2613469524
 30
0.0
 10
7.801324767
 20
5.2623705059
 30
0.0
 10
7.8018426379
 20
5.263226787
 30
0.0
 10
7.8024165278
 20
5.2639134585
 30
0.0
 10
7.8030306836
 20
5.2644332835
 30
0.0
 10
7.8034761953
 20
5.2646805405
 30
0.0
 10
7.8036984684
 20
5.2647731735
 30
0.0
  0
SPLINE
  5
44A
100
AcDbEntity
  8
0
100
AcDbSpline
 62
7
  6
CONTINUOUS
 70
0
 71
3
 72
18
 73
14
 74
0
 42
0.0000001
 43
0.0000001
 44
0.0000000001
 40
0.0
 40
0.0
 40
0.0
 40
0.0
 40
0.1097204468
 40
0.2222107433
 40
0.3385665988
 40
0.3985766164
 40
0.4599384558
 40
0.5869553389
 40
0.7199878258
 40
0.7886420733
 40
0.8584147402
 40
0.9289948402
 40
1.0
 40
1.0
 40
1.0
 40
1.0
 10
7.7926479307
 20
5.2647731735
 30
0.0
 10
7.7929951933
 20
5.2646831479
 30
0.0
 10
7.793686047
 20
5.2644481725
 30
0.0
 10
7.7946721249
 20
5.2639363584
 30
0.0
 10
7.7954365541
 20
5.2633744516
 30
0.0
 10
7.7960044872
 20
5.2628427374
 30
0.0
 10
7.796551052
 20
5.26224097
 30
0.0
 10
7.7971580963
 20
5.2613767785
 30
0.0
 10
7.7976203622
 20
5.2604002057
 30
0.0
 10
7.797893422
 20
5.2595546932
 30
0.0
 10
7.7980454088
 20
5.2588874615
 30
0.0
 10
7.7981383354
 20
5.2582018043
 30
0.0
 10
7.7981591696
 20
5.2577386037
 30
0.0
 10
7.7981591696
 20
5.2575064451
 30
0.0
  0
SPLINE
  5
44B
100
AcDbEntity
  8
0
100
AcDbSpline
 62
7
  6
CONTINUOUS
 70
0
 71
3
 72
15
 73
11
 74
0
 42
0.0000001
 43
0.0000001
 44
0.0000000001
 40
0.0
 40
0.0
 40
0.0
 40
0.0
 40
0.1601362421
 40
0.3140767128
 40
0.4574265393
 40
0.5881906408
 40
0.7063221222
 40
0.8130050312
 40
0.9101298633
 40
1.0
 40
1.0
 40
1.0
 40
1.0
 10
7.7888868841
 20
5.2575064451
 30
0.0
 10
7.7888868841
 20
5.2579679116
 30
0.0
 10
7.7889419316
 20
5.2588740072
 30
0.0
 10
7.7891829305
 20
5.2601732714
 30
0.0
 10
7.7895602391
 20
5.2613513576
 30
0.0
 10
7.7900466751
 20
5.2623756447
 30
0.0
 10
7.7906160737
 20
5.2632321119
 30
0.0
 10
7.7912467377
 20
5.2639182693
 30
0.0
 10
7.7919209963
 20
5.264436831
 30
0.0
 10
7.7924058311
 20
5.2646812042
 30
0.0
 10
7.7926479307
 20
5.2647731735
 30
0.0
  0
SPLINE
  5
44C
100
AcDbEntity
  8
0
100
AcDbSpline
 62
7
  6
CONTINUOUS
 70
0
 71
3
 72
17
 73
13
 74
0
 42
0.0000001
 43
0.0000001
 44
0.0000000001
 40
0.0
 40
0.0
 40
0.0
 40
0.0
 40
0.1071284821
 40
0.2175534852
 40
0.3325500188
 40
0.3921939462
 40
0.453418569
 40
0.5808837272
 40
0.7153100506
 40
0.7849702907
 40
0.8559128315
 40
1.0
 40
1.0
 40
1.0
 40
1.0
 10
7.7815053482
 20
5.2647731735
 30
0.0
 10
7.7818370114
 20
5.2646829642
 30
0.0
 10
7.7824974346
 20
5.2644470364
 30
0.0
 10
7.7834378028
 20
5.263934346
 30
0.0
 10
7.7841650922
 20
5.2633727768
 30
0.0
 10
7.7847053708
 20
5.262841915
 30
0.0
 10
7.785227276
 20
5.2622388491
 30
0.0
 10
7.7858062581
 20
5.2613728953
 30
0.0
 10
7.7862454083
 20
5.2603982457
 30
0.0
 10
7.786505186
 20
5.2595539499
 30
0.0
 10
7.7866991481
 20
5.2586605691
 30
0.0
 10
7.7867583006
 20
5.2579687362
 30
0.0
 10
7.7867583006
 20
5.2575064451
 30
0.0
  0
SPLINE
  5
44D
100
AcDbEntity
  8
0
100
AcDbSpline
 62
7
  6
CONTINUOUS
 70
0
 71
3
 72
15
 73
11
 74
0
 42
0.0000001
 43
0.0000001
 44
0.0000000001
 40
0.0
 40
0.0
 40
0.0
 40
0.0
 40
0.1565821996
 40
0.3075110645
 40
0.4488142393
 40
0.5787533662
 40
0.6973906595
 40
0.8059031622
 40
0.9060741282
 40
1.0
 40
1.0
 40
1.0
 40
1.0
 10
7.7774218626
 20
5.2575064451
 30
0.0
 10
7.7774218626
 20
5.2579680665
 30
0.0
 10
7.7774818153
 20
5.2588758388
 30
0.0
 10
7.7777441495
 20
5.2601766174
 30
0.0
 10
7.7781547981
 20
5.2613558099
 30
0.0
 10
7.7786840952
 20
5.2623806443
 30
0.0
 10
7.7793034426
 20
5.2632370417
 30
0.0
 10
7.7799889655
 20
5.2639224645
 30
0.0
 10
7.7807211605
 20
5.2644397293
 30
0.0
 10
7.781243981
 20
5.2646817248
 30
0.0
 10
7.7815053482
 20
5.2647731735
 30
0.0
  0
SPLINE
  5
44E
100
AcDbEntity
  8
0
100
AcDbSpline
 62
7
  6
CONTINUOUS
 70
0
 71
3
 72
17
 73
13
 74
0
 42
0.0000001
 43
0.0000001
 44
0.0000000001
 40
0.0
 40
0.0
 40
0.0
 40
0.0
 40
0.1042551642
 40
0.2124064736
 40
0.3259214055
 40
0.3851713832
 40
0.4462525835
 40
0.5742139328
 40
0.7101480108
 40
0.7808894015
 40
0.8530856579
 40
1.0
 40
1.0
 40
1.0
 40
1.0
 10
7.7703012621
 20
5.2647731735
 30
0.0
 10
7.7706164825
 20
5.2646827421
 30
0.0
 10
7.771244805
 20
5.2644456806
 30
0.0
 10
7.772136828
 20
5.2639320095
 30
0.0
 10
7.7728248617
 20
5.2633708948
 30
0.0
 10
7.7733359773
 20
5.2628410079
 30
0.0
 10
7.7738317561
 20
5.2622365459
 30
0.0
 10
7.7743810086
 20
5.261368823
 30
0.0
 10
7.774795907
 20
5.2603961974
 30
0.0
 10
7.7750417259
 20
5.2595532602
 30
0.0
 10
7.7752256079
 20
5.2586595274
 30
0.0
 10
7.77528153
 20
5.2579685655
 30
0.0
 10
7.77528153
 20
5.2575064451
 30
0.0
  0
SPLINE
  5
44F
100
AcDbEntity
  8
0
100
AcDbSpline
 62
7
  6
CONTINUOUS
 70
0
 71
3
 72
15
 73
11
 74
0
 42
0.0000001
 43
0.0000001
 44
0.0000000001
 40
0.0
 40
0.0
 40
0.0
 40
0.0
 40
0.1531870829
 40
0.3012550047
 40
0.4406416224
 40
0.569846496
 40
0.6890156833
 40
0.7992909107
 40
0.9023247293
 40
1.0
 40
1.0
 40
1.0
 40
1.0
 10
7.76590653
 20
5.2575064451
 30
0.0
 10
7.76590653
 20
5.257968228
 30
0.0
 10
7.7659712615
 20
5.258877744
 30
0.0
 10
7.7662543332
 20
5.260180041
 30
0.0
 10
7.7666973252
 20
5.2613602431
 30
0.0
 10
7.7672680943
 20
5.2623854379
 30
0.0
 10
7.7679356287
 20
5.2632415507
 30
0.0
 10
7.7686739363
 20
5.2639261008
 30
0.0
 10
7.7694618092
 20
5.2644421073
 30
0.0
 10
7.7700212461
 20
5.2646821386
 30
0.0
 10
7.7703012621
 20
5.2647731735
 30
0.0
  0
SPLINE
  5
450
100
AcDbEntity
  8
0
100
AcDbSpline
 62
7
  6
CONTINUOUS
 70
0
 71
3
 72
16
 73
12
 74
0
 42
0.0000001
 43
0.0000001
 44
0.0000000001
 40
0.0
 40
0.0
 40
0.0
 40
0.0
 40
0.101119571
 40
0.2068244946
 40
0.3187822982
 40
0.4384960539
 40
0.5016749976
 40
0.567143754
 40
0.704730261
 40
0.8500702799
 40
1.0
 40
1.0
 40
1.0
 40
1.0
 10
7.759066382
 20
5.264771176
 30
0.0
 10
7.7593640575
 20
5.2646801626
 30
0.0
 10
7.7599580155
 20
5.2644412267
 30
0.0
 10
7.7607981869
 20
5.2639258791
 30
0.0
 10
7.7615859729
 20
5.2632421353
 30
0.0
 10
7.762169568
 20
5.2625415891
 30
0.0
 10
7.7625877536
 20
5.2619007899
 30
0.0
 10
7.7629809946
 20
5.261180891
 30
0.0
 10
7.7633820615
 20
5.2601811405
 30
0.0
 10
7.7636846165
 20
5.2588785229
 30
0.0
 10
7.763753882
 20
5.2579679915
 30
0.0
 10
7.763753882
 20
5.25750646
 30
0.0
  0
SPLINE
  5
451
100
AcDbEntity
  8
0
100
AcDbSpline
 62
7
  6
CONTINUOUS
 70
0
 71
3
 72
19
 73
15
 74
0
 42
0.0000001
 43
0.0000001
 44
0.0000000001
 40
0.0
 40
0.0
 40
0.0
 40
0.0
 40
0.0675983801
 40
0.1349335866
 40
0.2017713183
 40
0.2679228209
 40
0.3975621925
 40
0.5236050348
 40
0.5853837212
 40
0.6463731153
 40
0.7066474197
 40
0.7662883141
 40
0.8839208724
 40
1.0
 40
1.0
 40
1.0
 40
1.0
 10
7.6865434095
 20
5.2575064451
 30
0.0
 10
7.6865434095
 20
5.2577384521
 30
0.0
 10
7.6865668358
 20
5.2582019055
 30
0.0
 10
7.6866712767
 20
5.2588875962
 30
0.0
 10
7.6868420736
 20
5.2595547956
 30
0.0
 10
7.6871499589
 20
5.2604032212
 30
0.0
 10
7.6876729703
 20
5.2613838683
 30
0.0
 10
7.688352553
 20
5.2622428252
 30
0.0
 10
7.6889629174
 20
5.2628411771
 30
0.0
 10
7.6894459873
 20
5.2632438863
 30
0.0
 10
7.6899528919
 20
5.2636034966
 30
0.0
 10
7.6906520202
 20
5.2640241973
 30
0.0
 10
7.6915693097
 20
5.2644478548
 30
0.0
 10
7.6923396484
 20
5.2646812328
 30
0.0
 10
7.6927277624
 20
5.264771176
 30
0.0
  0
SPLINE
  5
452
100
AcDbEntity
  8
0
100
AcDbSpline
 62
7
  6
CONTINUOUS
 70
0
 71
3
 72
19
 73
15
 74
0
 42
0.0000001
 43
0.0000001
 44
0.0000000001
 40
0.0
 40
0.0
 40
0.0
 40
0.0
 40
0.0708962566
 40
0.1110033611
 40
0.1546892203
 40
0.2022671059
 40
0.2539976755
 40
0.3100902553
 40
0.3706925358
 40
0.5055851882
 40
0.6580080373
 40
0.7399483099
 40
0.8248657731
 40
1.0
 40
1.0
 40
1.0
 40
1.0
 10
7.6821360793
 20
5.2647731735
 30
0.0
 10
7.6822960168
 20
5.2646770574
 30
0.0
 10
7.6825253362
 20
5.2644903388
 30
0.0
 10
7.6827993127
 20
5.2641889452
 30
0.0
 10
7.6830079319
 20
5.2639125418
 30
0.0
 10
7.6832098783
 20
5.2635945664
 30
0.0
 10
7.6834040518
 20
5.2632342222
 30
0.0
 10
7.6835889918
 20
5.2628310498
 30
0.0
 10
7.6838297052
 20
5.2622138414
 30
0.0
 10
7.6840918409
 20
5.2613347322
 30
0.0
 10
7.684283998
 20
5.2603808088
 30
0.0
 10
7.6843996432
 20
5.2595482676
 30
0.0
 10
7.6844873607
 20
5.2586522594
 30
0.0
 10
7.6845135288
 20
5.2579673925
 30
0.0
 10
7.6845135288
 20
5.2575064451
 30
0.0
  0
SPLINE
  5
453
100
AcDbEntity
  8
0
100
AcDbSpline
 62
7
  6
CONTINUOUS
 70
0
 71
3
 72
19
 73
15
 74
0
 42
0.0000001
 43
0.0000001
 44
0.0000000001
 40
0.0
 40
0.0
 40
0.0
 40
0.0
 40
0.0666734783
 40
0.1331294524
 40
0.199174995
 40
0.2646551505
 40
0.3933985413
 40
0.5192060569
 40
0.5811096474
 40
0.6423729164
 40
0.7030574216
 40
0.7632307396
 40
0.8822371591
 40
1.0
 40
1.0
 40
1.0
 40
1.0
 10
7.6757492011
 20
5.2575064451
 30
0.0
 10
7.6757492011
 20
5.2577386837
 30
0.0
 10
7.6757734235
 20
5.2582027683
 30
0.0
 10
7.6758813958
 20
5.2588892635
 30
0.0
 10
7.6760579508
 20
5.2595571783
 30
0.0
 10
7.6763765048
 20
5.2604072889
 30
0.0
 10
7.6769180592
 20
5.261389816
 30
0.0
 10
7.6776194939
 20
5.2622476768
 30
0.0
 10
7.6782490762
 20
5.2628452388
 30
0.0
 10
7.6787479651
 20
5.2632478611
 30
0.0
 10
7.6792714202
 20
5.2636073077
 30
0.0
 10
7.6799939829
 20
5.2640280826
 30
0.0
 10
7.6809416412
 20
5.2644512593
 30
0.0
 10
7.6817357789
 20
5.2646836257
 30
0.0
 10
7.6821360793
 20
5.2647731735
 30
0.0
  0
SPLINE
  5
454
100
AcDbEntity
  8
0
100
AcDbSpline
 62
7
  6
CONTINUOUS
 70
0
 71
3
 72
19
 73
15
 74
0
 42
0.0000001
 43
0.0000001
 44
0.0000000001
 40
0.0
 40
0.0
 40
0.0
 40
0.0
 40
0.0657653854
 40
0.1039799366
 40
0.1462110141
 40
0.1927534023
 40
0.2438470728
 40
0.2996802461
 40
0.3603795155
 40
0.496456755
 40
0.6511978652
 40
0.7346352185
 40
0.8212208879
 40
1.0
 40
1.0
 40
1.0
 40
1.0
 10
7.6717528455
 20
5.2647731735
 30
0.0
 10
7.6718910867
 20
5.2646750467
 30
0.0
 10
7.67208592
 20
5.2644859738
 30
0.0
 10
7.6723156393
 20
5.264187119
 30
0.0
 10
7.6724920055
 20
5.2639107803
 30
0.0
 10
7.6726627569
 20
5.2635929462
 30
0.0
 10
7.6728269694
 20
5.2632327495
 30
0.0
 10
7.6729834007
 20
5.2628297337
 30
0.0
 10
7.6731875525
 20
5.2622111416
 30
0.0
 10
7.6734093402
 20
5.2613313052
 30
0.0
 10
7.6735715245
 20
5.2603794066
 30
0.0
 10
7.6736693014
 20
5.2595478287
 30
0.0
 10
7.67374356
 20
5.2586516424
 30
0.0
 10
7.6737656771
 20
5.2579672943
 30
0.0
 10
7.6737656771
 20
5.2575064451
 30
0.0
  0
SPLINE
  5
455
100
AcDbEntity
  8
0
100
AcDbSpline
 62
7
  6
CONTINUOUS
 70
0
 71
3
 72
20
 73
16
 74
0
 42
0.0000001
 43
0.0000001
 44
0.0000000001
 40
0.0
 40
0.0
 40
0.0
 40
0.0
 40
0.0658321871
 40
0.1314889037
 40
0.1968151103
 40
0.2616864967
 40
0.3260182795
 40
0.389764579
 40
0.452912656
 40
0.5154763152
 40
0.6388918019
 40
0.7604929215
 40
0.8207809804
 40
0.8807702017
 40
1.0
 40
1.0
 40
1.0
 40
1.0
 10
7.665189435
 20
5.2575064451
 30
0.0
 10
7.665189435
 20
5.2577387013
 30
0.0
 10
7.6652143427
 20
5.2582029776
 30
0.0
 10
7.6653253704
 20
5.2588896627
 30
0.0
 10
7.6655068664
 20
5.2595576816
 30
0.0
 10
7.6657540173
 20
5.2601991797
 30
0.0
 10
7.6660609268
 20
5.2608080034
 30
0.0
 10
7.6664211721
 20
5.2613795708
 30
0.0
 10
7.6668283311
 20
5.2619108197
 30
0.0
 10
7.6674225273
 20
5.2625597169
 30
0.0
 10
7.66825322
 20
5.2632657413
 30
0.0
 10
7.6691743201
 20
5.2638318102
 30
0.0
 10
7.6699452182
 20
5.2641991565
 30
0.0
 10
7.6707314851
 20
5.264509955
 30
0.0
 10
7.6713418279
 20
5.2646837013
 30
0.0
 10
7.6717528455
 20
5.2647731735
 30
0.0
  0
SPLINE
  5
456
100
AcDbEntity
  8
0
100
AcDbSpline
 62
7
  6
CONTINUOUS
 70
0
 71
3
 72
19
 73
15
 74
0
 42
0.0000001
 43
0.0000001
 44
0.0000000001
 40
0.0
 40
0.0
 40
0.0
 40
0.0
 40
0.0285567599
 40
0.0608451938
 40
0.0972657523
 40
0.1381463111
 40
0.1837489383
 40
0.234283663
 40
0.2899119281
 40
0.3507360626
 40
0.4879690831
 40
0.6448928956
 40
0.8178444235
 40
1.0
 40
1.0
 40
1.0
 40
1.0
 10
7.6616089319
 20
5.2647731735
 30
0.0
 10
7.6616634355
 20
5.2647257684
 30
0.0
 10
7.6617716556
 20
5.2646155441
 30
0.0
 10
7.6619220733
 20
5.2644203136
 30
0.0
 10
7.6620693994
 20
5.2641850605
 30
0.0
 10
7.6622129963
 20
5.2639090215
 30
0.0
 10
7.6623521581
 20
5.2635913581
 30
0.0
 10
7.6624860075
 20
5.2632313651
 30
0.0
 10
7.6626135544
 20
5.262828525
 30
0.0
 10
7.6627804153
 20
5.2622087215
 30
0.0
 10
7.6629613035
 20
5.2613283213
 30
0.0
 10
7.6631239629
 20
5.2601573231
 30
0.0
 10
7.6632279202
 20
5.2588656536
 30
0.0
 10
7.6632516287
 20
5.2579672113
 30
0.0
 10
7.6632516287
 20
5.2575064451
 30
0.0
  0
SPLINE
  5
457
100
AcDbEntity
  8
0
100
AcDbSpline
 62
7
  6
CONTINUOUS
 70
0
 71
3
 72
18
 73
14
 74
0
 42
0.0000001
 43
0.0000001
 44
0.0000000001
 40
0.0
 40
0.0
 40
0.0
 40
0.0
 40
0.0651099251
 40
0.130082075
 40
0.194795275
 40
0.2591524054
 40
0.3230877198
 40
0.3865661906
 40
0.5120157511
 40
0.6357836125
 40
0.7581531681
 40
0.8794509225
 40
1.0
 40
1.0
 40
1.0
 40
1.0
 10
7.6548869791
 20
5.2575064451
 30
0.0
 10
7.6548869791
 20
5.2577387176
 30
0.0
 10
7.6549125052
 20
5.2582031726
 30
0.0
 10
7.6550262735
 20
5.2588900215
 30
0.0
 10
7.6552122397
 20
5.259558168
 30
0.0
 10
7.6554654454
 20
5.2601997334
 30
0.0
 10
7.6557798823
 20
5.2608086076
 30
0.0
 10
7.6562697537
 20
5.2615674402
 30
0.0
 10
7.6570019771
 20
5.2624174187
 30
0.0
 10
7.658026607
 20
5.2632669409
 30
0.0
 10
7.6591546891
 20
5.2639436372
 30
0.0
 10
7.6603544188
 20
5.2644521018
 30
0.0
 10
7.6611882834
 20
5.2646837645
 30
0.0
 10
7.6616089319
 20
5.2647731735
 30
0.0
  0
SPLINE
  5
458
100
AcDbEntity
  8
0
100
AcDbSpline
 62
7
  6
CONTINUOUS
 70
0
 71
3
 72
19
 73
15
 74
0
 42
0.0000001
 43
0.0000001
 44
0.0000000001
 40
0.0
 40
0.0
 40
0.0
 40
0.0
 40
0.0259438906
 40
0.056155409
 40
0.0909767904
 40
0.1306821038
 40
0.1754890374
 40
0.2255716215
 40
0.2810618325
 40
0.3420370726
 40
0.4803592444
 40
0.6392575253
 40
0.8148455226
 40
1.0
 40
1.0
 40
1.0
 40
1.0
 10
7.6517321425
 20
5.2647731735
 30
0.0
 10
7.6517749927
 20
5.2647248931
 30
0.0
 10
7.651859436
 20
5.2646129724
 30
0.0
 10
7.6519750736
 20
5.2644180203
 30
0.0
 10
7.6520884551
 20
5.2641830744
 30
0.0
 10
7.6521990587
 20
5.2639073256
 30
0.0
 10
7.652306311
 20
5.2635899147
 30
0.0
 10
7.6524095117
 20
5.2632301374
 30
0.0
 10
7.6525078821
 20
5.2628274805
 30
0.0
 10
7.652636848
 20
5.2622066693
 30
0.0
 10
7.6527763922
 20
5.2613258692
 30
0.0
 10
7.6529017785
 20
5.2601557239
 30
0.0
 10
7.6529819243
 20
5.2588648539
 30
0.0
 10
7.6530002019
 20
5.2579671444
 30
0.0
 10
7.6530002019
 20
5.2575064451
 30
0.0
  0
SPLINE
  5
459
100
AcDbEntity
  8
0
100
AcDbSpline
 62
7
  6
CONTINUOUS
 70
0
 71
3
 72
18
 73
14
 74
0
 42
0.0000001
 43
0.0000001
 44
0.0000000001
 40
0.0
 40
0.0
 40
0.0
 40
0.0
 40
0.0644698785
 40
0.1288353169
 40
0.1930049959
 40
0.2569056044
 40
0.3204878587
 40
0.3837258732
 40
0.5090377423
 40
0.6330955837
 40
0.756112735
 40
0.8783334853
 40
1.0
 40
1.0
 40
1.0
 40
1.0
 10
7.6448700717
 20
5.2575064451
 30
0.0
 10
7.6448700717
 20
5.2577387323
 30
0.0
 10
7.6448961452
 20
5.2582033485
 30
0.0
 10
7.6450123394
 20
5.2588903449
 30
0.0
 10
7.6452022585
 20
5.2595586024
 30
0.0
 10
7.6454608255
 20
5.2602002311
 30
0.0
 10
7.6457818918
 20
5.2608091239
 30
0.0
 10
7.6462824999
 20
5.2615686085
 30
0.0
 10
7.6470308609
 20
5.2624190355
 30
0.0
 10
7.6480767786
 20
5.2632680511
 30
0.0
 10
7.6492281198
 20
5.2639443064
 30
0.0
 10
7.6504525181
 20
5.264452442
 30
0.0
 10
7.6513029776
 20
5.2646838169
 30
0.0
 10
7.6517321425
 20
5.2647731735
 30
0.0
  0
SPLINE
  5
45A
100
AcDbEntity
  8
0
100
AcDbSpline
 62
7
  6
CONTINUOUS
 70
0
 71
3
 72
18
 73
14
 74
0
 42
0.0000001
 43
0.0000001
 44
0.0000000001
 40
0.0
 40
0.0
 40
0.0
 40
0.0
 40
0.0236788742
 40
0.0521495661
 40
0.0856649471
 40
0.1244320639
 40
0.1686197266
 40
0.2183655952
 40
0.3348898683
 40
0.4741394693
 40
0.6346668643
 40
0.8124071385
 40
1.0
 40
1.0
 40
1.0
 40
1.0
 10
7.6421495488
 20
5.2647731735
 30
0.0
 10
7.6421802906
 20
5.2647238194
 30
0.0
 10
7.6422401262
 20
5.2646102278
 30
0.0
 10
7.6423208583
 20
5.2644158002
 30
0.0
 10
7.6424001578
 20
5.2641812818
 30
0.0
 10
7.6424776084
 20
5.2639058678
 30
0.0
 10
7.6425527749
 20
5.2635887187
 30
0.0
 10
7.6426546858
 20
5.2630819891
 30
0.0
 10
7.6427695789
 20
5.2623402441
 30
0.0
 10
7.6428826158
 20
5.261324026
 30
0.0
 10
7.6429704764
 20
5.2601545102
 30
0.0
 10
7.6430266834
 20
5.2588642575
 30
0.0
 10
7.6430394951
 20
5.2579670943
 30
0.0
 10
7.6430394951
 20
5.2575064451
 30
0.0
  0
SPLINE
  5
45B
100
AcDbEntity
  8
0
100
AcDbSpline
 62
7
  6
CONTINUOUS
 70
0
 71
3
 72
18
 73
14
 74
0
 42
0.0000001
 43
0.0000001
 44
0.0000000001
 40
0.0
 40
0.0
 40
0.0
 40
0.0
 40
0.0639228442
 40
0.1277700963
 40
0.191476201
 40
0.2549882691
 40
0.3182709785
 40
0.3813060125
 40
0.5065050499
 40
0.6308132574
 40
0.7543826861
 40
0.8773870838
 40
1.0
 40
1.0
 40
1.0
 40
1.0
 10
7.6351661685
 20
5.2575064451
 30
0.0
 10
7.6351661685
 20
5.2577387452
 30
0.0
 10
7.6351927167
 20
5.2582035037
 30
0.0
 10
7.6353110137
 20
5.2588906294
 30
0.0
 10
7.6355043581
 20
5.2595589827
 30
0.0
 10
7.6357675693
 20
5.2602006645
 30
0.0
 10
7.6360943761
 20
5.2608095706
 30
0.0
 10
7.636604292
 20
5.2615696119
 30
0.0
 10
7.6373666286
 20
5.2624204053
 30
0.0
 10
7.6384309579
 20
5.2632689802
 30
0.0
 10
7.6396024233
 20
5.263944861
 30
0.0
 10
7.6408481736
 20
5.2644527219
 30
0.0
 10
7.6417130075
 20
5.26468386
 30
0.0
 10
7.6421495488
 20
5.2647731735
 30
0.0
  0
SPLINE
  5
45C
100
AcDbEntity
  8
0
100
AcDbSpline
 62
7
  6
CONTINUOUS
 70
0
 71
3
 72
18
 73
14
 74
0
 42
0.0000001
 43
0.0000001
 44
0.0000000001
 40
0.0
 40
0.0
 40
0.0
 40
0.0
 40
0.0220665477
 40
0.0493476214
 40
0.0819986205
 40
0.1201633753
 40
0.1639683944
 40
0.2135215951
 40
0.3301534488
 40
0.4700557443
 40
0.6316741766
 40
0.8108249468
 40
1.0
 40
1.0
 40
1.0
 40
1.0
 10
7.6328828292
 20
5.264771176
 30
0.0
 10
7.6329007851
 20
5.2647205874
 30
0.0
 10
7.632935207
 20
5.2646054352
 30
0.0
 10
7.6329811367
 20
5.2644112625
 30
0.0
 10
7.6330263332
 20
5.2641768845
 30
0.0
 10
7.633070534
 20
5.2639015426
 30
0.0
 10
7.6331134548
 20
5.2635844546
 30
0.0
 10
7.6331717686
 20
5.2630769292
 30
0.0
 10
7.6332373978
 20
5.2623350941
 30
0.0
 10
7.63330194
 20
5.261319841
 30
0.0
 10
7.6333521105
 20
5.2601515248
 30
0.0
 10
7.6333842095
 20
5.2588626825
 30
0.0
 10
7.6333915252
 20
5.2579666464
 30
0.0
 10
7.6333915252
 20
5.2575064451
 30
0.0
  0
SPLINE
  5
45D
100
AcDbEntity
  8
0
100
AcDbSpline
 62
7
  6
CONTINUOUS
 70
0
 71
3
 72
18
 73
14
 74
0
 42
0.0000001
 43
0.0000001
 44
0.0000000001
 40
0.0
 40
0.0
 40
0.0
 40
0.0
 40
0.063466441
 40
0.1268816656
 40
0.1902018135
 40
0.2533910959
 40
0.3164257417
 40
0.3792935411
 40
0.5044025966
 40
0.6289218476
 40
0.7529510715
 40
0.876604902
 40
1.0
 40
1.0
 40
1.0
 40
1.0
 10
7.6258069908
 20
5.2575064451
 30
0.0
 10
7.6258069908
 20
5.2577385433
 30
0.0
 10
7.6258338905
 20
5.2582029968
 30
0.0
 10
7.6259537447
 20
5.2588896196
 30
0.0
 10
7.6261496299
 20
5.25955749
 30
0.0
 10
7.6264162951
 20
5.2601987188
 30
0.0
 10
7.626747385
 20
5.2608072171
 30
0.0
 10
7.627264317
 20
5.2615672813
 30
0.0
 10
7.6280372461
 20
5.2624180313
 30
0.0
 10
7.6291155466
 20
5.2632661659
 30
0.0
 10
7.6303023987
 20
5.263941973
 30
0.0
 10
7.6315645939
 20
5.2644501259
 30
0.0
 10
7.6324405515
 20
5.264681594
 30
0.0
 10
7.6328828292
 20
5.264771176
 30
0.0
  0
LINE
  5
45E
100
AcDbEntity
  8
0
100
AcDbLine
 62
7
  6
CONTINUOUS
 10
7.6239711309
 20
5.2647731735
 11
7.6240985764
 21
5.2575064451
  0
SPLINE
  5
45F
100
AcDbEntity
  8
0
100
AcDbSpline
 62
7
  6
CONTINUOUS
 70
0
 71
3
 72
18
 73
14
 74
0
 42
0.0000001
 43
0.0000001
 44
0.0000000001
 40
0.0
 40
0.0
 40
0.0
 40
0.0
 40
0.0631016148
 40
0.1261715782
 40
0.1891834471
 40
0.2521151065
 40
0.3149519889
 40
0.3776866988
 40
0.5027246666
 40
0.6274129336
 40
0.7518092352
 40
0.8759810636
 40
1.0
 40
1.0
 40
1.0
 40
1.0
 10
7.6168028345
 20
5.2575064451
 30
0.0
 10
7.6168028345
 20
5.2577387654
 30
0.0
 10
7.6168301077
 20
5.2582037453
 30
0.0
 10
7.6169516148
 20
5.2588910708
 30
0.0
 10
7.6171501859
 20
5.2595595699
 30
0.0
 10
7.6174204806
 20
5.2602013289
 30
0.0
 10
7.6177560396
 20
5.2608102505
 30
0.0
 10
7.6182801649
 20
5.2615711263
 30
0.0
 10
7.6190638101
 20
5.2624224399
 30
0.0
 10
7.6201561726
 20
5.2632703417
 30
0.0
 10
7.6213582931
 20
5.2639456651
 30
0.0
 10
7.6226365829
 20
5.2644531246
 30
0.0
 10
7.62352334
 20
5.2646839218
 30
0.0
 10
7.6239711309
 20
5.2647731735
 30
0.0
  0
SPLINE
  5
460
100
AcDbEntity
  8
0
100
AcDbSpline
 62
7
  6
CONTINUOUS
 70
0
 71
3
 72
18
 73
14
 74
0
 42
0.0000001
 43
0.0000001
 44
0.0000000001
 40
0.0
 40
0.0
 40
0.0
 40
0.0
 40
0.0628248617
 40
0.1256330546
 40
0.1884114351
 40
0.2511482882
 40
0.313835981
 40
0.376470675
 40
0.5014565954
 40
0.6262740401
 40
0.7509483652
 40
0.8755111824
 40
1.0
 40
1.0
 40
1.0
 40
1.0
 10
7.6081937363
 20
5.2575064451
 30
0.0
 10
7.6081937363
 20
5.2577387724
 30
0.0
 10
7.6082212574
 20
5.2582038292
 30
0.0
 10
7.6083438611
 20
5.2588912235
 30
0.0
 10
7.6085442173
 20
5.2595597722
 30
0.0
 10
7.6088169303
 20
5.2602015567
 30
0.0
 10
7.6091554763
 20
5.2608104821
 30
0.0
 10
7.6096844558
 20
5.2615716387
 30
0.0
 10
7.6104753734
 20
5.2624231195
 30
0.0
 10
7.6115772931
 20
5.2632707916
 30
0.0
 10
7.6127898687
 20
5.2639459286
 30
0.0
 10
7.6140792601
 20
5.2644532557
 30
0.0
 10
7.6149735014
 20
5.2646839418
 30
0.0
 10
7.6154251325
 20
5.2647731735
 30
0.0
  0
SPLINE
  5
461
100
AcDbEntity
  8
0
100
AcDbSpline
 62
7
  6
CONTINUOUS
 70
0
 71
3
 72
18
 73
14
 74
0
 42
0.0000001
 43
0.0000001
 44
0.0000000001
 40
0.0
 40
0.0
 40
0.0
 40
0.0
 40
0.0626360614
 40
0.1252657267
 40
0.1878849593
 40
0.2504891472
 40
0.31307537
 40
0.3756421792
 40
0.5005932351
 40
0.6254991138
 40
0.7503629167
 40
0.8751917623
 40
1.0
 40
1.0
 40
1.0
 40
1.0
 10
7.5999981697
 20
5.2575064451
 30
0.0
 10
7.5999981697
 20
5.2577387773
 30
0.0
 10
7.6000258608
 20
5.2582038871
 30
0.0
 10
7.6001492171
 20
5.2588913289
 30
0.0
 10
7.600350798
 20
5.2595599116
 30
0.0
 10
7.60062517
 20
5.2602017131
 30
0.0
 10
7.6009657648
 20
5.2608106408
 30
0.0
 10
7.6014980754
 20
5.2615719888
 30
0.0
 10
7.6022939812
 20
5.2624235814
 30
0.0
 10
7.6034024535
 20
5.263271096
 30
0.0
 10
7.6046221986
 20
5.2639461062
 30
0.0
 10
7.6059192039
 20
5.2644533438
 30
0.0
 10
7.6068185794
 20
5.2646839553
 30
0.0
 10
7.6072728448
 20
5.2647731735
 30
0.0
  0
SPLINE
  5
462
100
AcDbEntity
  8
0
100
AcDbSpline
 62
7
  6
CONTINUOUS
 70
0
 71
3
 72
18
 73
14
 74
0
 42
0.0000001
 43
0.0000001
 44
0.0000000001
 40
0.0
 40
0.0
 40
0.0
 40
0.0
 40
0.0625345885
 40
0.1250683193
 40
0.1876020623
 40
0.2501350255
 40
0.3126668153
 40
0.375197255
 40
0.5001297871
 40
0.6250832982
 40
0.7500488737
 40
0.8750204639
 40
1.0
 40
1.0
 40
1.0
 40
1.0
 10
7.5922385979
 20
5.2575064451
 30
0.0
 10
7.5922385979
 20
5.2577387799
 30
0.0
 10
7.5922663807
 20
5.2582039185
 30
0.0
 10
7.592390143
 20
5.258891386
 30
0.0
 10
7.5925923846
 20
5.2595599869
 30
0.0
 10
7.5928676514
 20
5.2602017976
 30
0.0
 10
7.5932093512
 20
5.2608107263
 30
0.0
 10
7.5937434586
 20
5.2615721771
 30
0.0
 10
7.5945420545
 20
5.2624238291
 30
0.0
 10
7.5956540597
 20
5.2632712587
 30
0.0
 10
7.5968776707
 20
5.263946201
 30
0.0
 10
7.5981787818
 20
5.2644533908
 30
0.0
 10
7.5990809264
 20
5.2646839625
 30
0.0
 10
7.5995366126
 20
5.2647731735
 30
0.0
  0
ENDSEC
  0
SECTION
  2
OBJECTS
  0
DICTIONARY
  5
C
100
AcDbDictionary
280
0
281
1
  3
ACAD_GROUP
350
D
  3
ACAD_MLINESTYLE
350
17
  3
ACAD_LAYOUT
350
1A
  3
ACAD_PLOTSETTINGS
350
19
  3
ACAD_PLOTSTYLENAME
350
E
  0
DICTIONARY
  5
D
102
{ACAD_REACTORS
330
C
102
}
100
AcDbDictionary
280
0
281
1
  0
ACDBDICTIONARYWDFLT
  5
E
102
{ACAD_REACTORS
330
C
102
}
100
AcDbDictionary
281
1
  3
Normal
350
F
100
AcDbDictionaryWithDefault
340
F
  0
DICTIONARY
  5
17
102
{ACAD_REACTORS
330
C
102
}
100
AcDbDictionary
280
0
281
1
  3
Standard
350
18
  0
DICTIONARY
  5
19
102
{ACAD_REACTORS
330
C
102
}
100
AcDbDictionary
281
1
  0
DICTIONARY
  5
1A
102
{ACAD_REACTORS
330
C
102
}
100
AcDbDictionary
281
1
  3
Model
350
463
  3
Layout1
350
464
  0
ACDBPLACEHOLDER
  5
F
102
{ACAD_REACTORS
330
E
102
}
  0
MLINESTYLE
  5
18
102
{ACAD_REACTORS
330
17
102
}
100
AcDbMlineStyle
  2
STANDARD
 70
0
  3

 62
256
 51
90.0
 52
90.0
 71
2
 49
0.5
 62
256
  6
BYLAYER
 49
-0.5
 62
256
  6
BYLAYER
  0
LAYOUT
  5
463
102
{ACAD_REACTORS
330
1A
102
}
100
AcDbPlotSettings
  1

  2
none_device
  4
ANSI_A_(11.00_x_8.50_Inches)
  6

 40
0.0
 41
0.0
 42
0.0
 43
0.0
 44
279.4
 45
215.9
 46
0.0
 47
0.0
 48
0.0
 49
0.0
140
0.0
141
0.0
142
1.0
143
1.0
 70
1024
 72
0
 73
0
 74
0
  7

 75
0
147
1.0
148
0.0
149
0.0
100
AcDbLayout
  1
Model
 70
0
 71
0
 10
0.0
 20
0.0
 11
11.0
 21
8.5
 12
0.0
 22
0.0
 32
0.0
 14
0.0
 24
0.0
 34
0.0
 15
0.0
 25
0.0
 35
0.0
146
0.0
 13
0.0
 23
0.0
 33
0.0
 16
1.0
 26
0.0
 36
0.0
 17
0.0
 27
1.0
 37
0.0
 76
0
330
202
345
0
346
0
  0
LAYOUT
  5
464
102
{ACAD_REACTORS
330
1A
102
}
100
AcDbPlotSettings
  1

  2
none_device
  4
ANSI_A_(11.00_x_8.50_Inches)
  6

 40
0.0
 41
0.0
 42
0.0
 43
0.0
 44
279.4
 45
215.9
 46
0.0
 47
0.0
 48
0.0
 49
0.0
140
0.0
141
0.0
142
1.0
143
1.0
 70
0
 72
0
 73
0
 74
0
  7

 75
0
147
1.0
148
0.0
149
0.0
100
AcDbLayout
  1
Layout1
 70
0
 71
1
 10
0.0
 20
0.0
 11
11.0
 21
8.5
 12
0.0
 22
0.0
 32
0.0
 14
0.0
 24
0.0
 34
0.0
 15
0.0
 25
0.0
 35
0.0
146
0.0
 13
0.0
 23
0.0
 33
0.0
 16
1.0
 26
0.0
 36
0.0
 17
0.0
 27
1.0
 37
0.0
 76
0
330
203
345
0
346
0
  0
ENDSEC
  0
EOF
