999
DXF file: 1500-4272_top.dxf
999
Pro/ENGINEER 2019352 by Parametric Technology Corporation
  0
SECTION
  2
HEADER
  9
$ACADVER
  1
AC1032
  9
$DWGCODEPAGE
  3
ANSI_1252
  9
$EXTMAX
 10
11.0
 20
8.5
 30
0.0
  9
$EXTMIN
 10
0.0
 20
0.0
 30
0.0
  9
$LIMMIN
 10
0.0
 20
0.0
  9
$LIMMAX
 10
11.0
 20
8.5
  9
$VIEWCTR
 10
5.5
 20
4.25
  9
$VIEWSIZE
 40
8.5
  9
$CLAYER
  8
0
  9
$LTSCALE
 40
0.605
  9
$CELTYPE
  6
BYLAYER
  9
$DIMSCALE
 40
1.0
  9
$DIMASZ
 40
0.1
  9
$DIMEXO
 40
0.0625
  9
$DIMDLI
 40
0.418
  9
$DIMEXE
 40
0.125
  9
$DIMCEN
 40
0.099
  9
$DIMLFAC
 40
1.0
  9
$DIMBLK
  1
_FILLED
  9
$DIMALT
 70
1
  9
$DIMALTD
 70
2
  9
$DIMALTTD
 70
2
  9
$DIMALTF
 40
25.4
  9
$DIMTXT
 40
0.08
  9
$DIMTOL
 70
1
  9
$DIMLIM
 70
0
  9
$DIMTFAC
 40
1.0
  9
$DIMTP
 40
0.001
  9
$DIMTM
 40
0.001
  9
$DIMGAP
 40
0.09
  9
$DIMDSEP
 70
46
  9
$AUNITS
 70
0
  9
$PDMODE
 70
3
  9
$PDSIZE
 40
0.3125
  9
$HANDSEED
  5
352
  9
$TILEMODE
 70
1
  9
$MEASUREMENT
 70
0
  9
$INSUNITS
 70
1
  0
ENDSEC
  0
SECTION
  2
CLASSES
  0
CLASS
  1
ACDBDICTIONARYWDFLT
  2
AcDbDictionaryWithDefault
  3
AutoCAD 2000
 90
0
 91
1
280
0
281
0
  0
CLASS
  1
ACDBPLACEHOLDER
  2
AcDbPlaceHolder
  3
AutoCAD 2000
 90
0
 91
1
280
0
281
0
  0
CLASS
  1
LAYOUT
  2
AcDbLayout
  3
AutoCAD 2000
 90
0
 91
0
280
0
281
0
  0
ENDSEC
  0
SECTION
  2
TABLES
  0
TABLE
  2
VPORT
  5
8
100
AcDbSymbolTable
 70
2
  0
VPORT
  5
1F4
100
AcDbSymbolTableRecord
100
AcDbViewportTableRecord
  2
*ACTIVE
 70
0
 10
0.0
 20
0.0
 11
1.0
 21
1.0
 12
5.5
 22
4.25
 13
0.0
 23
0.0
 14
1.0
 24
1.0
 15
0.0
 25
0.0
 16
0.0
 26
0.0
 36
1.0
 17
0.0
 27
0.0
 37
0.0
 40
8.5
 41
1.2941176471
 42
50.0
 43
0.0
 44
0.0
 50
0.0
 51
0.0
 71
0
 72
100
 73
1
 74
1
 75
0
 76
0
 77
0
 78
0
  0
ENDTAB
  0
TABLE
  2
LTYPE
  5
5
100
AcDbSymbolTable
 70
6
  0
LTYPE
  5
14
100
AcDbSymbolTableRecord
100
AcDbLinetypeTableRecord
  2
BYBLOCK
 70
0
  3

 72
65
 73
0
 40
0.0
  0
LTYPE
  5
15
100
AcDbSymbolTableRecord
100
AcDbLinetypeTableRecord
  2
BYLAYER
 70
0
  3

 72
65
 73
0
 40
0.0
  0
LTYPE
  5
16
100
AcDbSymbolTableRecord
100
AcDbLinetypeTableRecord
  2
CONTINUOUS
 70
64
  3
Solid line
 72
65
 73
0
 40
0.0
  0
LTYPE
  5
1F5
100
AcDbSymbolTableRecord
100
AcDbLinetypeTableRecord
  2
CENTER
 70
64
  3
____ _ ____ _ ____ _ ____ _ ____ _ ____ _ ____
 72
65
 73
4
 40
0.6
 49
0.375
 74
0
 49
-0.075
 74
0
 49
0.075
 74
0
 49
-0.075
 74
0
  0
LTYPE
  5
1F6
100
AcDbSymbolTableRecord
100
AcDbLinetypeTableRecord
  2
HIDDEN
 70
64
  3
- - - - - - - - - - - - - - - - - - - -
 72
65
 73
2
 40
0.2
 49
0.1
 74
0
 49
-0.1
 74
0
  0
LTYPE
  5
1F7
100
AcDbSymbolTableRecord
100
AcDbLinetypeTableRecord
  2
PHANTOM
 70
64
  3
_____ _ _ _____ _ _ _____ _ _ _____
 72
65
 73
6
 40
0.8
 49
0.45
 74
0
 49
-0.05
 74
0
 49
0.1
 74
0
 49
-0.05
 74
0
 49
0.1
 74
0
 49
-0.05
 74
0
  0
LTYPE
  5
1F8
100
AcDbSymbolTableRecord
100
AcDbLinetypeTableRecord
  2
DOT
 70
64
  3
. . . . . . . . . . . . . . . . . . . .
 72
65
 73
2
 40
0.2
 49
0.1
 74
0
 49
-0.1
 74
0
  0
LTYPE
  5
1F9
100
AcDbSymbolTableRecord
100
AcDbLinetypeTableRecord
  2
DASHED
 70
64
  3
- - - - - - - - - - - - - - - - - - - -
 72
65
 73
2
 40
0.2
 49
0.1
 74
0
 49
-0.1
 74
0
  0
ENDTAB
  0
TABLE
  2
LAYER
  5
2
100
AcDbSymbolTable
 70
36
  0
LAYER
  5
10
100
AcDbSymbolTableRecord
100
AcDbLayerTableRecord
  2
0
 70
0
 62
7
  6
CONTINUOUS
370
-3
390
F
  0
LAYER
  5
1FA
100
AcDbSymbolTableRecord
100
AcDbLayerTableRecord
  2
DEFAULT_1
 70
0
 62
7
  6
CENTER
370
-3
390
F
  0
LAYER
  5
1FB
100
AcDbSymbolTableRecord
100
AcDbLayerTableRecord
  2
DEFAULT_2
 70
0
 62
8
  6
HIDDEN
370
-3
390
F
  0
LAYER
  5
1FC
100
AcDbSymbolTableRecord
100
AcDbLayerTableRecord
  2
DEFAULT_3
 70
0
 62
7
  6
PHANTOM
370
-3
390
F
  0
LAYER
  5
1FD
100
AcDbSymbolTableRecord
100
AcDbLayerTableRecord
  2
DEFAULT_COORDINATE_SYSTEM
 70
0
 62
7
  6
CONTINUOUS
370
-3
390
F
  0
LAYER
  5
1FE
100
AcDbSymbolTableRecord
100
AcDbLayerTableRecord
  2
DEFAULT_DATUM_AXES
 70
0
 62
7
  6
CONTINUOUS
370
-3
390
F
  0
LAYER
  5
1FF
100
AcDbSymbolTableRecord
100
AcDbLayerTableRecord
  2
DEFAULT_DATUM_PLANES
 70
0
 62
7
  6
CONTINUOUS
370
-3
390
F
  0
ENDTAB
  0
TABLE
  2
STYLE
  5
3
100
AcDbSymbolTable
 70
1
  0
STYLE
  5
11
100
AcDbSymbolTableRecord
100
AcDbTextStyleTableRecord
  2
STANDARD
 70
0
 40
0.0
 41
0.8
 50
0.0
 71
0
 42
0.2
  3
txt
  4

  0
STYLE
  5
200
100
AcDbSymbolTableRecord
100
AcDbTextStyleTableRecord
  2
TEXTSTYLE_1
 70
0
 40
0.0
 41
0.8
 50
0.0
 71
0
 42
0.2
  3
gdt
  4

  0
ENDTAB
  0
TABLE
  2
VIEW
  5
6
100
AcDbSymbolTable
 70
0
  0
ENDTAB
  0
TABLE
  2
UCS
  5
7
100
AcDbSymbolTable
 70
0
  0
ENDTAB
  0
TABLE
  2
APPID
  5
9
100
AcDbSymbolTable
 70
1
  0
APPID
  5
201
100
AcDbSymbolTableRecord
100
AcDbRegAppTableRecord
  2
ACAD
 70
0
  0
ENDTAB
  0
TABLE
  2
BLOCK_RECORD
  5
1
100
AcDbSymbolTable
 70
0
  0
BLOCK_RECORD
  5
202
100
AcDbSymbolTableRecord
100
AcDbBlockTableRecord
  2
*Model_Space
  0
BLOCK_RECORD
  5
203
100
AcDbSymbolTableRecord
100
AcDbBlockTableRecord
  2
*Paper_Space
  0
BLOCK_RECORD
  5
204
100
AcDbSymbolTableRecord
100
AcDbBlockTableRecord
  2
_FILLED
  0
ENDTAB
  0
TABLE
  2
DIMSTYLE
  5
A
100
AcDbSymbolTable
 70
1
100
AcDbDimStyleTable
 71
0
  0
DIMSTYLE
105
205
100
AcDbSymbolTableRecord
100
AcDbDimStyleTableRecord
  2
STANDARD
 70
0
  3

  4

 40
1.0
 41
0.1
 42
0.0625
 43
0.38
 44
0.125
 45
0.0
 46
0.0
 47
0.001
 48
0.001
140
0.08
141
0.09
142
0.0
143
25.4
144
1.0
145
0.0
146
1.0
147
0.09
 71
1.0
 72
0.0
 73
1
 74
1
 75
0
 76
0
 77
0
 78
4
 79
1
170
1
171
2
172
0
173
0
174
0
175
0
176
0
177
0
178
0
270
2
179
3
271
3
272
3
273
2
274
2
275
0
280
0
281
0
282
0
283
1
284
4
285
0
286
0
287
3
288
0
340
11
278
46
341
204
342
204
343
204
344
204
  0
ENDTAB
  0
ENDSEC
  0
SECTION
  2
BLOCKS
  0
BLOCK
  5
20
100
AcDbEntity
  8
0
100
AcDbBlockBegin
  2
*Model_Space
 70
0
 10
0.0
 20
0.0
 30
0.0
  3
*Model_Space
  1

  0
ENDBLK
  5
21
100
AcDbEntity
  8
0
100
AcDbBlockEnd
  0
BLOCK
  5
1C
100
AcDbEntity
  8
0
100
AcDbBlockBegin
  2
*Paper_Space
 70
0
 10
0.0
 20
0.0
 30
0.0
  3
*Paper_Space
  1

  0
ENDBLK
  5
1D
100
AcDbEntity
  8
0
100
AcDbBlockEnd
  0
BLOCK
  5
206
100
AcDbEntity
  8
0
100
AcDbBlockBegin
  2
_FILLED
 70
64
 10
0.0
 20
0.0
  3
_FILLED
  1

  0
SOLID
  5
207
100
AcDbEntity
  8
0
  6
BYBLOCK
 62
0
100
AcDbTrace
 10
0.0
 20
0.0
 11
-1.0
 21
0.2
 12
-1.0
 22
-0.2
 13
-1.0
 23
-0.2
  0
ENDBLK
  5
208
100
AcDbEntity
  8
0
  6
BYBLOCK
 62
0
100
AcDbBlockEnd
  0
ENDSEC
  0
SECTION
  2
ENTITIES
  0
MTEXT
  5
209
100
AcDbEntity
  8
0
100
AcDbMText
 62
2
  6
CONTINUOUS
  7
STANDARD
 71
3
 72
1
 10
5.5021352569
 20
2.9863530483
 30
0.0
 11
1.0
 21
0.0
 31
0.0
 73
2
 44
0.9
  1
SCALE 0.175
 40
0.08
 41
0.704
  0
LINE
  5
20A
100
AcDbEntity
  8
0
100
AcDbLine
 62
7
  6
CONTINUOUS
 10
0.0
 20
0.0
 11
0.0
 21
8.5
  0
LINE
  5
20B
100
AcDbEntity
  8
0
100
AcDbLine
 62
7
  6
CONTINUOUS
 10
0.0
 20
0.0
 11
11.0
 21
0.0
  0
LINE
  5
20C
100
AcDbEntity
  8
0
100
AcDbLine
 62
7
  6
CONTINUOUS
 10
0.0
 20
8.5
 11
11.0
 21
8.5
  0
LINE
  5
20D
100
AcDbEntity
  8
0
100
AcDbLine
 62
7
  6
CONTINUOUS
 10
11.0
 20
0.0
 11
11.0
 21
8.5
  0
LWPOLYLINE
  5
20E
100
AcDbEntity
  8
0
100
AcDbPolyline
 62
7
  6
CONTINUOUS
 90
138
 70
0
 10
3.9354203191
 20
5.1709044287
 10
3.9354222485
 20
5.1704695928
 10
3.9354295573
 20
5.1699529543
 10
3.9354423131
 20
5.1694364214
 10
3.9354605146
 20
5.1689200516
 10
3.9354841596
 20
5.1684039022
 10
3.9355132456
 20
5.1678880309
 10
3.9355477693
 20
5.167372495
 10
3.9355877269
 20
5.1668573517
 10
3.935633114
 20
5.1663426586
 10
3.9356839254
 20
5.1658284728
 10
3.9357401555
 20
5.1653148515
 10
3.9358017981
 20
5.1648018519
 10
3.9358688463
 20
5.1642895311
 10
3.9359412926
 20
5.163777946
 10
3.936019129
 20
5.1632671531
 10
3.9361023469
 20
5.1627572092
 10
3.936190937
 20
5.162248171
 10
3.9362848896
 20
5.1617400947
 10
3.9363841942
 20
5.1612330366
 10
3.9364888399
 20
5.1607270532
 10
3.9365988149
 20
5.1602222009
 10
3.9367141072
 20
5.1597185353
 10
3.9368347039
 20
5.159216113
 10
3.9369605912
 20
5.158714991
 10
3.9370917552
 20
5.1582152251
 10
3.9372281811
 20
5.1577168708
 10
3.9373698535
 20
5.1572199852
 10
3.9375167561
 20
5.1567246241
 10
3.9376688728
 20
5.1562308419
 10
3.937826187
 20
5.1557386924
 10
3.9379886807
 20
5.1552482318
 10
3.9381563361
 20
5.1547595131
 10
3.9383291365
 20
5.1542725854
 10
3.9385070628
 20
5.153787503
 10
3.9386900954
 20
5.1533043197
 10
3.9388782159
 20
5.1528230845
 10
3.9390714061
 20
5.152343845
 10
3.9392696426
 20
5.1518666607
 10
3.939472898
 20
5.1513915974
 10
3.9396811522
 20
5.1509187023
 10
3.9398943794
 20
5.1504480334
 10
3.9401125421
 20
5.1499796724
 10
3.9403356036
 20
5.1495136939
 10
3.940563549
 20
5.1490501259
 10
3.9407963722
 20
5.1485889793
 10
3.9410340352
 20
5.1481303294
 10
3.9412765237
 20
5.147674203
 10
3.9415238722
 20
5.1472205404
 10
3.9417761036
 20
5.1467693116
 10
3.9420331486
 20
5.1463206523
 10
3.9422949016
 20
5.1458747503
 10
3.9425613877
 20
5.1454315646
 10
3.9428325237
 20
5.1449912356
 10
3.9431080235
 20
5.1445542122
 10
3.9433876546
 20
5.1441208234
 10
3.9436715552
 20
5.143690816
 10
3.9439599964
 20
5.1432637668
 10
3.9442527099
 20
5.1428400648
 10
3.9445498957
 20
5.1424194123
 10
3.944852588
 20
5.1420003986
 10
3.9451613306
 20
5.1415823953
 10
3.9454756221
 20
5.1411662054
 10
3.9457949512
 20
5.1407525818
 10
3.9461200483
 20
5.1403406635
 10
3.9464501809
 20
5.1399314616
 10
3.9467825109
 20
5.1395284333
 10
3.9471169272
 20
5.1391315431
 10
3.9474532997
 20
5.1387407784
 10
3.9477885467
 20
5.1383594479
 10
3.9481217171
 20
5.1379882381
 10
3.9484533127
 20
5.1376262055
 10
3.9487823075
 20
5.1372740945
 10
3.9491078386
 20
5.1369324181
 10
3.9494303095
 20
5.1366003542
 10
3.9497506094
 20
5.1362766503
 10
3.9500685441
 20
5.1359612055
 10
3.9503839602
 20
5.1356538821
 10
3.9506978777
 20
5.1353534347
 10
3.9510103215
 20
5.135059628
 10
3.9513210077
 20
5.1347725217
 10
3.9516305467
 20
5.1344913628
 10
3.9519390893
 20
5.1342158519
 10
3.9522462782
 20
5.1339461487
 10
3.9525519819
 20
5.1336822062
 10
3.952856124
 20
5.1334239306
 10
3.9531585835
 20
5.1331712681
 10
3.953459163
 20
5.1329242273
 10
3.9537577645
 20
5.1326827336
 10
3.954054298
 20
5.1324467074
 10
3.9543485776
 20
5.1322161456
 10
3.9546404705
 20
5.1319910016
 10
3.9549299315
 20
5.1317711625
 10
3.9552169077
 20
5.131556525
 10
3.9555012832
 20
5.1313470351
 10
3.9557830106
 20
5.1311425898
 10
3.9560621466
 20
5.1309430154
 10
3.9563386145
 20
5.1307482389
 10
3.9566123445
 20
5.130558184
 10
3.9568834111
 20
5.1303726782
 10
3.9571517164
 20
5.1301916718
 10
3.9574172269
 20
5.1300150727
 10
3.9576801215
 20
5.1298426533
 10
3.9579403143
 20
5.1296743664
 10
3.9581977762
 20
5.129510129
 10
3.9584527806
 20
5.1293496715
 10
3.9587052766
 20
5.1291929366
 10
3.9589552166
 20
5.129039866
 10
3.9592028881
 20
5.1288902015
 10
3.9594482615
 20
5.1287438844
 10
3.9596912822
 20
5.1286008718
 10
3.9599322095
 20
5.1284609404
 10
3.9601710513
 20
5.1283240197
 10
3.9604077276
 20
5.1281900907
 10
3.9606423712
 20
5.1280590159
 10
3.9608749592
 20
5.1279307483
 10
3.9611054504
 20
5.1278052519
 10
3.9613339537
 20
5.1276824108
 10
3.9615604402
 20
5.1275621863
 10
3.9617848814
 20
5.1274445399
 10
3.9620073908
 20
5.1273293608
 10
3.9622279381
 20
5.1272166154
 10
3.9624465023
 20
5.1271062657
 10
3.9626632143
 20
5.1269981992
 10
3.9628780345
 20
5.126892391
 10
3.9630909569
 20
5.1267888004
 10
3.9633021652
 20
5.1266872964
 10
3.9635116355
 20
5.1265878514
 10
3.9637193519
 20
5.1264904346
 10
3.9639255138
 20
5.1263949161
 10
3.9641301039
 20
5.1263012702
 10
3.9643331051
 20
5.1262094711
 10
3.9645347206
 20
5.1261193956
 10
3.9647349361
 20
5.126031021
 10
3.9649337363
 20
5.1259443252
 10
3.9651313263
 20
5.1258591918
 10
3.9653277141
 20
5.1257755928
 10
3.9657169296
 20
5.1256128824
  0
LWPOLYLINE
  5
20F
100
AcDbEntity
  8
0
100
AcDbPolyline
 62
7
  6
CONTINUOUS
 90
139
 70
0
 10
3.9664248583
 20
5.2164819137
 10
3.9662240706
 20
5.2164021154
 10
3.966022133
 20
5.2163208233
 10
3.9658189757
 20
5.2162379855
 10
3.96561464
 20
5.2161535941
 10
3.9654091104
 20
5.2160676179
 10
3.9652022333
 20
5.2159799661
 10
3.9649940546
 20
5.21589063
 10
3.9647845577
 20
5.2157995742
 10
3.964573499
 20
5.2157066619
 10
3.9643608971
 20
5.2156118677
 10
3.9641467677
 20
5.2155151646
 10
3.963930867
 20
5.215416406
 10
3.9637132147
 20
5.2153155615
 10
3.9634938315
 20
5.2152126008
 10
3.9632724781
 20
5.2151073688
 10
3.9630491708
 20
5.2149998276
 10
3.9628239405
 20
5.2148899455
 10
3.9625965746
 20
5.2147775697
 10
3.9623670778
 20
5.2146626499
 10
3.9621354998
 20
5.214545158
 10
3.9619016992
 20
5.2144249665
 10
3.961665702
 20
5.2143020309
 10
3.9614275437
 20
5.2141763106
 10
3.9611871008
 20
5.214047679
 10
3.9609444076
 20
5.2139160905
 10
3.9606994989
 20
5.2137814987
 10
3.9604522556
 20
5.2136437705
 10
3.9602027469
 20
5.2135028741
 10
3.9599509809
 20
5.2133587427
 10
3.959696753
 20
5.2132111834
 10
3.9594401633
 20
5.2130601749
 10
3.9591812002
 20
5.2129056298
 10
3.9589194997
 20
5.212747243
 10
3.95865512
 20
5.2125849551
 10
3.9583881087
 20
5.2124186991
 10
3.9581180977
 20
5.2122481417
 10
3.957845129
 20
5.2120731978
 10
3.9575692863
 20
5.2118938069
 10
3.9572902764
 20
5.211709657
 10
3.9570080806
 20
5.2115206056
 10
3.9567228652
 20
5.2113266311
 10
3.9564346236
 20
5.2111275934
 10
3.9561434097
 20
5.2109233899
 10
3.9558493323
 20
5.2107139536
 10
3.9555524716
 20
5.2104991964
 10
3.9552529359
 20
5.2102790484
 10
3.9549507933
 20
5.2100534086
 10
3.9546460678
 20
5.209822139
 10
3.9543389245
 20
5.2095852061
 10
3.9540293916
 20
5.2093424694
 10
3.9537172974
 20
5.2090936222
 10
3.9534027651
 20
5.2088385817
 10
3.9530858924
 20
5.2085772425
 10
3.9527664862
 20
5.2083092493
 10
3.9524446652
 20
5.2080344951
 10
3.9521205639
 20
5.2077528833
 10
3.9517940308
 20
5.2074640595
 10
3.9514650926
 20
5.20716781
 10
3.9511340129
 20
5.2068641293
 10
3.9508010063
 20
5.2065529702
 10
3.950466123
 20
5.2062341289
 10
3.9501296237
 20
5.205907597
 10
3.9497920326
 20
5.2055736337
 10
3.9494534928
 20
5.2052321357
 10
3.949114173
 20
5.2048830228
 10
3.9487746187
 20
5.2045266126
 10
3.948434791
 20
5.2041626212
 10
3.9480950414
 20
5.2037911766
 10
3.9477564619
 20
5.2034132574
 10
3.9474189781
 20
5.2030285865
 10
3.9470829296
 20
5.202637353
 10
3.9467499444
 20
5.2022413144
 10
3.9464201194
 20
5.2018405041
 10
3.9460935131
 20
5.2014349102
 10
3.9457715848
 20
5.2010263167
 10
3.9454547354
 20
5.2006152775
 10
3.9451425968
 20
5.2002013613
 10
3.9448354088
 20
5.1997849255
 10
3.9445334332
 20
5.1993663869
 10
3.9442364204
 20
5.1989454621
 10
3.9439438565
 20
5.1985214488
 10
3.943655651
 20
5.1980942104
 10
3.9433719617
 20
5.1976639755
 10
3.9430926773
 20
5.1972305682
 10
3.9428177456
 20
5.196793888
 10
3.9425472967
 20
5.1963541214
 10
3.942281492
 20
5.1959115234
 10
3.9420203897
 20
5.1954661919
 10
3.9417639896
 20
5.1950181278
 10
3.941512357
 20
5.1945674473
 10
3.9412655402
 20
5.1941142426
 10
3.9410235414
 20
5.1936585242
 10
3.9407863561
 20
5.1932002857
 10
3.9405540039
 20
5.192739565
 10
3.9403265173
 20
5.1922764259
 10
3.940103912
 20
5.1918109002
 10
3.939886208
 20
5.1913430274
 10
3.9396734355
 20
5.1908728709
 10
3.9394656252
 20
5.1904004977
 10
3.9392628017
 20
5.1899259633
 10
3.939064986
 20
5.1894493173
 10
3.9388722026
 20
5.1889706189
 10
3.9386844741
 20
5.1884899242
 10
3.9385018198
 20
5.1880072836
 10
3.938324259
 20
5.1875227482
 10
3.9381518113
 20
5.1870363716
 10
3.9379844957
 20
5.1865482079
 10
3.9378223298
 20
5.1860583086
 10
3.9376653315
 20
5.1855667272
 10
3.9375135185
 20
5.1850735189
 10
3.9373669073
 20
5.184578738
 10
3.9372255143
 20
5.1840824389
 10
3.9370893553
 20
5.1835846771
 10
3.9369584455
 20
5.1830855085
 10
3.9368327996
 20
5.1825849885
 10
3.9367124315
 20
5.1820831726
 10
3.9365973548
 20
5.1815801172
 10
3.9364875821
 20
5.1810758783
 10
3.9363831256
 20
5.1805705115
 10
3.936283997
 20
5.1800640729
 10
3.9361902072
 20
5.1795566189
 10
3.9361017666
 20
5.1790482055
 10
3.9360186849
 20
5.178538889
 10
3.9359409714
 20
5.1780287258
 10
3.9358686346
 20
5.1775177725
 10
3.9358016827
 20
5.1770060857
 10
3.9357401229
 20
5.176493722
 10
3.9356839622
 20
5.1759807383
 10
3.9356332068
 20
5.1754671915
 10
3.9355878623
 20
5.1749531385
 10
3.9355479337
 20
5.1744386365
 10
3.9355134256
 20
5.1739237425
 10
3.9354843416
 20
5.1734085136
 10
3.935460685
 20
5.172893007
 10
3.9354424586
 20
5.1723772799
 10
3.9354296642
 20
5.1718613896
 10
3.9354223033
 20
5.1713453932
 10
3.9354203191
 20
5.1709044287
  0
LWPOLYLINE
  5
210
100
AcDbEntity
  8
0
100
AcDbPolyline
 62
7
  6
CONTINUOUS
 90
3
 70
0
 10
3.9670202867
 20
5.2167125608
 10
3.9668229386
 20
5.2166371032
 10
3.9664248583
 20
5.2164819137
  0
LINE
  5
211
100
AcDbEntity
  8
0
100
AcDbLine
 62
7
  6
CONTINUOUS
 10
4.06326912
 20
5.2098419287
 11
4.06326912
 21
5.1319669287
  0
LINE
  5
212
100
AcDbEntity
  8
0
100
AcDbLine
 62
7
  6
CONTINUOUS
 10
3.9674116239
 20
5.2168593186
 11
3.9670202867
 21
5.2167125608
  0
LINE
  5
213
100
AcDbEntity
  8
0
100
AcDbLine
 62
7
  6
CONTINUOUS
 10
3.9677986528
 20
5.2170007337
 11
3.9674116239
 21
5.2168593186
  0
LINE
  5
214
100
AcDbEntity
  8
0
100
AcDbLine
 62
7
  6
CONTINUOUS
 10
3.9681814552
 20
5.217136992
 11
3.9677986528
 21
5.2170007337
  0
LINE
  5
215
100
AcDbEntity
  8
0
100
AcDbLine
 62
7
  6
CONTINUOUS
 10
3.9685601981
 20
5.2172683008
 11
3.9681814552
 21
5.217136992
  0
LINE
  5
216
100
AcDbEntity
  8
0
100
AcDbLine
 62
7
  6
CONTINUOUS
 10
3.9689350542
 20
5.2173948587
 11
3.9685601981
 21
5.2172683008
  0
LINE
  5
217
100
AcDbEntity
  8
0
100
AcDbLine
 62
7
  6
CONTINUOUS
 10
3.9693061198
 20
5.2175168296
 11
3.9689350542
 21
5.2173948587
  0
LINE
  5
218
100
AcDbEntity
  8
0
100
AcDbLine
 62
7
  6
CONTINUOUS
 10
3.9696735843
 20
5.2176343993
 11
3.9693061198
 21
5.2175168296
  0
LINE
  5
219
100
AcDbEntity
  8
0
100
AcDbLine
 62
7
  6
CONTINUOUS
 10
3.9700375918
 20
5.21774773
 11
3.9696735843
 21
5.2176343993
  0
LINE
  5
21A
100
AcDbEntity
  8
0
100
AcDbLine
 62
7
  6
CONTINUOUS
 10
3.9703982065
 20
5.217856952
 11
3.9700375918
 21
5.21774773
  0
LWPOLYLINE
  5
21B
100
AcDbEntity
  8
0
100
AcDbPolyline
 62
7
  6
CONTINUOUS
 90
3
 70
0
 10
3.9709329756
 20
5.2180133733
 10
3.9707555219
 20
5.2179621991
 10
3.9703982065
 20
5.217856952
  0
LINE
  5
21C
100
AcDbEntity
  8
0
100
AcDbLine
 62
7
  6
CONTINUOUS
 10
4.26495662
 20
5.4115294287
 11
4.26495662
 21
5.223729723
  0
LINE
  5
21D
100
AcDbEntity
  8
0
100
AcDbLine
 62
7
  6
CONTINUOUS
 10
4.26495662
 20
4.9302794287
 11
4.26495662
 21
5.1180791344
  0
LINE
  5
21E
100
AcDbEntity
  8
0
100
AcDbLine
 62
7
  6
CONTINUOUS
 10
4.34283162
 20
5.4115294287
 11
4.34283162
 21
5.223729723
  0
LINE
  5
21F
100
AcDbEntity
  8
0
100
AcDbLine
 62
7
  6
CONTINUOUS
 10
4.34283162
 20
4.9302794287
 11
4.34283162
 21
5.1180791344
  0
LINE
  5
220
100
AcDbEntity
  8
0
100
AcDbLine
 62
7
  6
CONTINUOUS
 10
4.54451912
 20
5.2098419287
 11
4.54451912
 21
5.1319669287
  0
LINE
  5
221
100
AcDbEntity
  8
0
100
AcDbLine
 62
7
  6
CONTINUOUS
 10
4.81865662
 20
5.0440294287
 11
4.81865662
 21
4.9302794287
  0
LINE
  5
222
100
AcDbEntity
  8
0
100
AcDbLine
 62
7
  6
CONTINUOUS
 10
4.83178162
 20
3.5959044287
 11
4.83178162
 21
5.1709044287
  0
LINE
  5
223
100
AcDbEntity
  8
0
100
AcDbLine
 62
7
  6
CONTINUOUS
 10
5.00678162
 20
3.5959044287
 11
5.00678162
 21
5.1709044287
  0
LINE
  5
224
100
AcDbEntity
  8
0
100
AcDbLine
 62
7
  6
CONTINUOUS
 10
5.01990662
 20
5.0440294287
 11
5.01990662
 21
4.9302794287
  0
LINE
  5
225
100
AcDbEntity
  8
0
100
AcDbLine
 62
7
  6
CONTINUOUS
 10
6.3746803332
 20
5.2315661934
 11
6.3703117949
 21
5.2286544287
  0
LINE
  5
226
100
AcDbEntity
  8
0
100
AcDbLine
 62
7
  6
CONTINUOUS
 10
5.29404412
 20
5.1319669287
 11
5.29404412
 21
5.2098419287
  0
LINE
  5
227
100
AcDbEntity
  8
0
100
AcDbLine
 62
7
  6
CONTINUOUS
 10
3.9679644273
 20
5.1247486771
 11
3.9683254593
 21
5.1246215305
  0
LINE
  5
228
100
AcDbEntity
  8
0
100
AcDbLine
 62
7
  6
CONTINUOUS
 10
3.9675997401
 20
5.1248803429
 11
3.9679644273
 21
5.1247486771
  0
LINE
  5
229
100
AcDbEntity
  8
0
100
AcDbLine
 62
7
  6
CONTINUOUS
 10
3.9672312397
 20
5.1250167128
 11
3.9675997401
 21
5.1248803429
  0
LINE
  5
22A
100
AcDbEntity
  8
0
100
AcDbLine
 62
7
  6
CONTINUOUS
 10
3.9668588468
 20
5.1251579518
 11
3.9672312397
 21
5.1250167128
  0
LINE
  5
22B
100
AcDbEntity
  8
0
100
AcDbLine
 62
7
  6
CONTINUOUS
 10
3.966482413
 20
5.1253042587
 11
3.9668588468
 21
5.1251579518
  0
LINE
  5
22C
100
AcDbEntity
  8
0
100
AcDbLine
 62
7
  6
CONTINUOUS
 10
3.9661017972
 20
5.1254558398
 11
3.966482413
 21
5.1253042587
  0
LINE
  5
22D
100
AcDbEntity
  8
0
100
AcDbLine
 62
7
  6
CONTINUOUS
 10
3.9657169296
 20
5.1256128824
 11
3.9661017972
 21
5.1254558398
  0
LINE
  5
22E
100
AcDbEntity
  8
0
100
AcDbLine
 62
7
  6
CONTINUOUS
 10
5.49573162
 20
5.4115294287
 11
5.49573162
 21
5.223729723
  0
LINE
  5
22F
100
AcDbEntity
  8
0
100
AcDbLine
 62
7
  6
CONTINUOUS
 10
5.49573162
 20
4.9302794287
 11
5.49573162
 21
5.1180791344
  0
LINE
  5
230
100
AcDbEntity
  8
0
100
AcDbLine
 62
7
  6
CONTINUOUS
 10
3.9715965651
 20
5.1236105081
 11
3.9719255433
 21
5.1235225187
  0
LINE
  5
231
100
AcDbEntity
  8
0
100
AcDbLine
 62
7
  6
CONTINUOUS
 10
3.9712647583
 20
5.1237017427
 11
3.9715965651
 21
5.1236105081
  0
LINE
  5
232
100
AcDbEntity
  8
0
100
AcDbLine
 62
7
  6
CONTINUOUS
 10
3.9709300863
 20
5.1237963114
 11
3.9712647583
 21
5.1237017427
  0
LINE
  5
233
100
AcDbEntity
  8
0
100
AcDbLine
 62
7
  6
CONTINUOUS
 10
3.9705925388
 20
5.1238942988
 11
3.9709300863
 21
5.1237963114
  0
LINE
  5
234
100
AcDbEntity
  8
0
100
AcDbLine
 62
7
  6
CONTINUOUS
 10
3.9702520827
 20
5.1239957982
 11
3.9705925388
 21
5.1238942988
  0
LINE
  5
235
100
AcDbEntity
  8
0
100
AcDbLine
 62
7
  6
CONTINUOUS
 10
3.9699086916
 20
5.1241009042
 11
3.9702520827
 21
5.1239957982
  0
LINE
  5
236
100
AcDbEntity
  8
0
100
AcDbLine
 62
7
  6
CONTINUOUS
 10
3.969562347
 20
5.1242097118
 11
3.9699086916
 21
5.1241009042
  0
LINE
  5
237
100
AcDbEntity
  8
0
100
AcDbLine
 62
7
  6
CONTINUOUS
 10
3.9692129997
 20
5.1243223289
 11
3.969562347
 21
5.1242097118
  0
LINE
  5
238
100
AcDbEntity
  8
0
100
AcDbLine
 62
7
  6
CONTINUOUS
 10
3.9688604683
 20
5.1244389116
 11
3.9692129997
 21
5.1243223289
  0
LWPOLYLINE
  5
239
100
AcDbEntity
  8
0
100
AcDbPolyline
 62
7
  6
CONTINUOUS
 90
3
 70
0
 10
3.9683254593
 20
5.1246215305
 10
3.9685046598
 20
5.1245595945
 10
3.9688604683
 20
5.1244389116
  0
LINE
  5
23A
100
AcDbEntity
  8
0
100
AcDbLine
 62
7
  6
CONTINUOUS
 10
5.57360662
 20
5.4115294287
 11
5.57360662
 21
5.223729723
  0
LINE
  5
23B
100
AcDbEntity
  8
0
100
AcDbLine
 62
7
  6
CONTINUOUS
 10
5.57360662
 20
4.9302794287
 11
5.57360662
 21
5.1180791344
  0
LINE
  5
23C
100
AcDbEntity
  8
0
100
AcDbLine
 62
7
  6
CONTINUOUS
 10
6.1912943344
 20
5.2294697021
 11
6.1912385175
 21
5.2293833002
  0
LINE
  5
23D
100
AcDbEntity
  8
0
100
AcDbLine
 62
7
  6
CONTINUOUS
 10
3.975515433
 20
5.1227185292
 11
3.9758113204
 21
5.1226647758
  0
LINE
  5
23E
100
AcDbEntity
  8
0
100
AcDbLine
 62
7
  6
CONTINUOUS
 10
3.9752169547
 20
5.122774657
 11
3.975515433
 21
5.1227185292
  0
LINE
  5
23F
100
AcDbEntity
  8
0
100
AcDbLine
 62
7
  6
CONTINUOUS
 10
3.9749158912
 20
5.1228332148
 11
3.9752169547
 21
5.122774657
  0
LINE
  5
240
100
AcDbEntity
  8
0
100
AcDbLine
 62
7
  6
CONTINUOUS
 10
3.9746122412
 20
5.1228942603
 11
3.9749158912
 21
5.1228332148
  0
LINE
  5
241
100
AcDbEntity
  8
0
100
AcDbLine
 62
7
  6
CONTINUOUS
 10
3.9743060058
 20
5.122957852
 11
3.9746122412
 21
5.1228942603
  0
LINE
  5
242
100
AcDbEntity
  8
0
100
AcDbLine
 62
7
  6
CONTINUOUS
 10
3.973997192
 20
5.1230240481
 11
3.9743060058
 21
5.122957852
  0
LINE
  5
243
100
AcDbEntity
  8
0
100
AcDbLine
 62
7
  6
CONTINUOUS
 10
3.9736858026
 20
5.1230929087
 11
3.973997192
 21
5.1230240481
  0
LINE
  5
244
100
AcDbEntity
  8
0
100
AcDbLine
 62
7
  6
CONTINUOUS
 10
3.9733717951
 20
5.1231645055
 11
3.9736858026
 21
5.1230929087
  0
LINE
  5
245
100
AcDbEntity
  8
0
100
AcDbLine
 62
7
  6
CONTINUOUS
 10
3.9730551518
 20
5.123238907
 11
3.9733717951
 21
5.1231645055
  0
LINE
  5
246
100
AcDbEntity
  8
0
100
AcDbLine
 62
7
  6
CONTINUOUS
 10
3.972735827
 20
5.1233161901
 11
3.9730551518
 21
5.123238907
  0
LINE
  5
247
100
AcDbEntity
  8
0
100
AcDbLine
 62
7
  6
CONTINUOUS
 10
3.9724137773
 20
5.1233964339
 11
3.972735827
 21
5.1233161901
  0
LWPOLYLINE
  5
248
100
AcDbEntity
  8
0
100
AcDbPolyline
 62
7
  6
CONTINUOUS
 90
3
 70
0
 10
3.9719255433
 20
5.1235225187
 10
3.9720889851
 20
5.1234797134
 10
3.9724137773
 20
5.1233964339
  0
LINE
  5
249
100
AcDbEntity
  8
0
100
AcDbLine
 62
7
  6
CONTINUOUS
 10
4.26495662
 20
4.9302794287
 11
4.34283162
 21
4.9302794287
  0
LINE
  5
24A
100
AcDbEntity
  8
0
100
AcDbLine
 62
7
  6
CONTINUOUS
 10
4.81865662
 20
4.9302794287
 11
4.83178162
 21
4.9302794287
  0
LINE
  5
24B
100
AcDbEntity
  8
0
100
AcDbLine
 62
7
  6
CONTINUOUS
 10
5.00678162
 20
4.9302794287
 11
5.01990662
 21
4.9302794287
  0
LINE
  5
24C
100
AcDbEntity
  8
0
100
AcDbLine
 62
7
  6
CONTINUOUS
 10
5.4957316284
 20
4.9302794287
 11
5.5736066115
 21
4.9302794287
  0
LINE
  5
24D
100
AcDbEntity
  8
0
100
AcDbLine
 62
7
  6
CONTINUOUS
 10
3.9794154056
 20
5.1221587354
 11
3.979668298
 21
5.1221334233
  0
LINE
  5
24E
100
AcDbEntity
  8
0
100
AcDbLine
 62
7
  6
CONTINUOUS
 10
3.9791572633
 20
5.1221859404
 11
3.9794154056
 21
5.1221587354
  0
LINE
  5
24F
100
AcDbEntity
  8
0
100
AcDbLine
 62
7
  6
CONTINUOUS
 10
3.9788945699
 20
5.1222150457
 11
3.9791572633
 21
5.1221859404
  0
LINE
  5
250
100
AcDbEntity
  8
0
100
AcDbLine
 62
7
  6
CONTINUOUS
 10
3.9786280315
 20
5.1222460442
 11
3.9788945699
 21
5.1222150457
  0
LINE
  5
251
100
AcDbEntity
  8
0
100
AcDbLine
 62
7
  6
CONTINUOUS
 10
3.9783580905
 20
5.1222789477
 11
3.9786280315
 21
5.1222460442
  0
LINE
  5
252
100
AcDbEntity
  8
0
100
AcDbLine
 62
7
  6
CONTINUOUS
 10
3.978085454
 20
5.1223137244
 11
3.9783580905
 21
5.1222789477
  0
LINE
  5
253
100
AcDbEntity
  8
0
100
AcDbLine
 62
7
  6
CONTINUOUS
 10
3.9778101975
 20
5.1223504137
 11
3.978085454
 21
5.1223137244
  0
LINE
  5
254
100
AcDbEntity
  8
0
100
AcDbLine
 62
7
  6
CONTINUOUS
 10
3.9775323798
 20
5.122389056
 11
3.9778101975
 21
5.1223504137
  0
LINE
  5
255
100
AcDbEntity
  8
0
100
AcDbLine
 62
7
  6
CONTINUOUS
 10
3.9772519868
 20
5.1224297021
 11
3.9775323798
 21
5.122389056
  0
LINE
  5
256
100
AcDbEntity
  8
0
100
AcDbLine
 62
7
  6
CONTINUOUS
 10
3.9769690145
 20
5.1224724025
 11
3.9772519868
 21
5.1224297021
  0
LINE
  5
257
100
AcDbEntity
  8
0
100
AcDbLine
 62
7
  6
CONTINUOUS
 10
3.9766834659
 20
5.1225172074
 11
3.9769690145
 21
5.1224724025
  0
LINE
  5
258
100
AcDbEntity
  8
0
100
AcDbLine
 62
7
  6
CONTINUOUS
 10
3.9763953363
 20
5.122564169
 11
3.9766834659
 21
5.1225172074
  0
LINE
  5
259
100
AcDbEntity
  8
0
100
AcDbLine
 62
7
  6
CONTINUOUS
 10
3.97610462
 20
5.1226133408
 11
3.9763953363
 21
5.122564169
  0
LINE
  5
25A
100
AcDbEntity
  8
0
100
AcDbLine
 62
7
  6
CONTINUOUS
 10
3.9758113204
 20
5.1226647758
 11
3.97610462
 21
5.1226133408
  0
LINE
  5
25B
100
AcDbEntity
  8
0
100
AcDbLine
 62
7
  6
CONTINUOUS
 10
5.77529412
 20
5.1319669287
 11
5.77529412
 21
5.2098419287
  0
LINE
  5
25C
100
AcDbEntity
  8
0
100
AcDbLine
 62
7
  6
CONTINUOUS
 10
5.49573162
 20
5.0615294287
 11
5.03740662
 21
5.0615294287
  0
LINE
  5
25D
100
AcDbEntity
  8
0
100
AcDbLine
 62
7
  6
CONTINUOUS
 10
4.80115662
 20
5.0615294287
 11
4.34283162
 21
5.0615294287
  0
LINE
  5
25E
100
AcDbEntity
  8
0
100
AcDbLine
 62
7
  6
CONTINUOUS
 10
3.9836117364
 20
5.1219089528
 11
3.9838272714
 21
5.1219058446
  0
LINE
  5
25F
100
AcDbEntity
  8
0
100
AcDbLine
 62
7
  6
CONTINUOUS
 10
3.9833951366
 20
5.121913025
 11
3.9836117364
 21
5.1219089528
  0
LINE
  5
260
100
AcDbEntity
  8
0
100
AcDbLine
 62
7
  6
CONTINUOUS
 10
3.9831801129
 20
5.1219180117
 11
3.9833951366
 21
5.121913025
  0
LINE
  5
261
100
AcDbEntity
  8
0
100
AcDbLine
 62
7
  6
CONTINUOUS
 10
3.9829689067
 20
5.1219238272
 11
3.9831801129
 21
5.1219180117
  0
LINE
  5
262
100
AcDbEntity
  8
0
100
AcDbLine
 62
7
  6
CONTINUOUS
 10
3.9827586503
 20
5.1219305206
 11
3.9829689067
 21
5.1219238272
  0
LINE
  5
263
100
AcDbEntity
  8
0
100
AcDbLine
 62
7
  6
CONTINUOUS
 10
3.9825099462
 20
5.1219396035
 11
3.9827586503
 21
5.1219305206
  0
LINE
  5
264
100
AcDbEntity
  8
0
100
AcDbLine
 62
7
  6
CONTINUOUS
 10
3.9822858431
 20
5.1219488709
 11
3.9825099462
 21
5.1219396035
  0
LINE
  5
265
100
AcDbEntity
  8
0
100
AcDbLine
 62
7
  6
CONTINUOUS
 10
3.9820382737
 20
5.1219603031
 11
3.9822858431
 21
5.1219488709
  0
LINE
  5
266
100
AcDbEntity
  8
0
100
AcDbLine
 62
7
  6
CONTINUOUS
 10
3.9817634273
 20
5.1219744647
 11
3.9820382737
 21
5.1219603031
  0
LINE
  5
267
100
AcDbEntity
  8
0
100
AcDbLine
 62
7
  6
CONTINUOUS
 10
3.9815366028
 20
5.1219873178
 11
3.9817634273
 21
5.1219744647
  0
LINE
  5
268
100
AcDbEntity
  8
0
100
AcDbLine
 62
7
  6
CONTINUOUS
 10
3.9812898445
 20
5.1220024989
 11
3.9815366028
 21
5.1219873178
  0
LINE
  5
269
100
AcDbEntity
  8
0
100
AcDbLine
 62
7
  6
CONTINUOUS
 10
3.981020577
 20
5.1220204911
 11
3.9812898445
 21
5.1220024989
  0
LINE
  5
26A
100
AcDbEntity
  8
0
100
AcDbLine
 62
7
  6
CONTINUOUS
 10
3.9807211569
 20
5.1220422482
 11
3.981020577
 21
5.1220204911
  0
LINE
  5
26B
100
AcDbEntity
  8
0
100
AcDbLine
 62
7
  6
CONTINUOUS
 10
3.9805037144
 20
5.1220592048
 11
3.9807211569
 21
5.1220422482
  0
LINE
  5
26C
100
AcDbEntity
  8
0
100
AcDbLine
 62
7
  6
CONTINUOUS
 10
3.9802738885
 20
5.1220781861
 11
3.9805037144
 21
5.1220592048
  0
LINE
  5
26D
100
AcDbEntity
  8
0
100
AcDbLine
 62
7
  6
CONTINUOUS
 10
3.9800366807
 20
5.1220989197
 11
3.9802738885
 21
5.1220781861
  0
LWPOLYLINE
  5
26E
100
AcDbEntity
  8
0
100
AcDbPolyline
 62
7
  6
CONTINUOUS
 90
3
 70
0
 10
3.979668298
 20
5.1221334233
 10
3.9797926853
 20
5.1221214591
 10
3.9800366807
 20
5.1220989197
  0
LINE
  5
26F
100
AcDbEntity
  8
0
100
AcDbLine
 62
7
  6
CONTINUOUS
 10
3.9848133318
 20
5.1219040468
 11
3.9844293748
 21
5.1219020257
  0
LINE
  5
270
100
AcDbEntity
  8
0
100
AcDbLine
 62
7
  6
CONTINUOUS
 10
4.0227576543
 20
5.1218978968
 11
4.0320479867
 21
5.1219049164
  0
LINE
  5
271
100
AcDbEntity
  8
0
100
AcDbLine
 62
7
  6
CONTINUOUS
 10
6.3703117949
 20
5.1131544287
 11
6.3494043123
 21
5.1131544287
  0
LINE
  5
272
100
AcDbEntity
  8
0
100
AcDbLine
 62
7
  6
CONTINUOUS
 10
6.3703117949
 20
5.1184044287
 11
6.3536679464
 21
5.1184044287
  0
LINE
  5
273
100
AcDbEntity
  8
0
100
AcDbLine
 62
7
  6
CONTINUOUS
 10
4.0948726017
 20
5.1219032216
 11
4.1156354618
 21
5.121911976
  0
LINE
  5
274
100
AcDbEntity
  8
0
100
AcDbLine
 62
7
  6
CONTINUOUS
 10
6.1784085455
 20
5.1219044287
 11
5.7008438146
 21
5.1219044287
  0
LINE
  5
275
100
AcDbEntity
  8
0
100
AcDbLine
 62
7
  6
CONTINUOUS
 10
6.3561608623
 20
5.1219044287
 11
6.4148609167
 21
5.1219044287
  0
LINE
  5
276
100
AcDbEntity
  8
0
100
AcDbLine
 62
7
  6
CONTINUOUS
 10
4.0320479867
 20
5.1219049164
 11
4.0406973409
 21
5.1219070178
  0
LINE
  5
277
100
AcDbEntity
  8
0
100
AcDbLine
 62
7
  6
CONTINUOUS
 10
6.08679412
 20
5.1227794287
 11
6.1721623937
 21
5.1227794287
  0
LINE
  5
278
100
AcDbEntity
  8
0
100
AcDbLine
 62
7
  6
CONTINUOUS
 10
5.4818438257
 20
5.1319669287
 11
5.29404412
 21
5.1319669287
  0
LINE
  5
279
100
AcDbEntity
  8
0
100
AcDbLine
 62
7
  6
CONTINUOUS
 10
4.2510688257
 20
5.1319669287
 11
4.06326912
 21
5.1319669287
  0
LINE
  5
27A
100
AcDbEntity
  8
0
100
AcDbLine
 62
7
  6
CONTINUOUS
 10
4.3567194143
 20
5.1319669287
 11
4.54451912
 21
5.1319669287
  0
LINE
  5
27B
100
AcDbEntity
  8
0
100
AcDbLine
 62
7
  6
CONTINUOUS
 10
5.5874944143
 20
5.1319669287
 11
5.77529412
 21
5.1319669287
  0
LINE
  5
27C
100
AcDbEntity
  8
0
100
AcDbLine
 62
7
  6
CONTINUOUS
 10
5.77529412
 20
5.1380919287
 11
6.08679412
 21
5.1380919287
  0
LINE
  5
27D
100
AcDbEntity
  8
0
100
AcDbLine
 62
7
  6
CONTINUOUS
 10
5.77529412
 20
5.2037169287
 11
6.08679412
 21
5.2037169287
  0
LINE
  5
27E
100
AcDbEntity
  8
0
100
AcDbLine
 62
7
  6
CONTINUOUS
 10
5.4818438257
 20
5.2098419287
 11
5.29404412
 21
5.2098419287
  0
LINE
  5
27F
100
AcDbEntity
  8
0
100
AcDbLine
 62
7
  6
CONTINUOUS
 10
4.2510688257
 20
5.2098419287
 11
4.06326912
 21
5.2098419287
  0
LINE
  5
280
100
AcDbEntity
  8
0
100
AcDbLine
 62
7
  6
CONTINUOUS
 10
4.3567194143
 20
5.2098419287
 11
4.54451912
 21
5.2098419287
  0
LINE
  5
281
100
AcDbEntity
  8
0
100
AcDbLine
 62
7
  6
CONTINUOUS
 10
5.5874944143
 20
5.2098419287
 11
5.77529412
 21
5.2098419287
  0
LWPOLYLINE
  5
282
100
AcDbEntity
  8
0
100
AcDbPolyline
 62
7
  6
CONTINUOUS
 90
10
 70
0
 10
4.0542279187
 20
5.1219061901
 10
4.0605579751
 20
5.1219053816
 10
4.0627426808
 20
5.121905114
 10
4.0649652379
 20
5.1219048573
 10
4.0672269492
 20
5.1219046157
 10
4.0695279847
 20
5.1219043929
 10
4.0718686301
 20
5.1219041915
 10
4.0742504417
 20
5.1219040128
 10
4.0766734793
 20
5.1219038573
 10
4.095494979
 20
5.1219038087
  0
LWPOLYLINE
  5
283
100
AcDbEntity
  8
0
100
AcDbPolyline
 62
7
  6
CONTINUOUS
 90
3
 70
0
 10
4.0501891137
 20
5.1219066597
 10
4.0521905792
 20
5.1219064376
 10
4.0542279187
 20
5.1219061901
  0
LWPOLYLINE
  5
284
100
AcDbEntity
  8
0
100
AcDbPolyline
 62
7
  6
CONTINUOUS
 90
3
 70
0
 10
3.9848133318
 20
5.1219040468
 10
3.9856330233
 20
5.121904433
 10
3.9858204693
 20
5.1219044152
  0
LINE
  5
285
100
AcDbEntity
  8
0
100
AcDbLine
 62
7
  6
CONTINUOUS
 10
4.0066010032
 20
5.1218882603
 11
4.0227576543
 21
5.1218978968
  0
LINE
  5
286
100
AcDbEntity
  8
0
100
AcDbLine
 62
7
  6
CONTINUOUS
 10
4.1156354618
 20
5.121911976
 11
4.1248456342
 21
5.1219125973
  0
LINE
  5
287
100
AcDbEntity
  8
0
100
AcDbLine
 62
7
  6
CONTINUOUS
 10
4.0406973409
 20
5.1219070178
 11
4.0482223724
 21
5.1219068468
  0
LINE
  5
288
100
AcDbEntity
  8
0
100
AcDbLine
 62
7
  6
CONTINUOUS
 10
4.0976623888
 20
5.1219031293
 11
4.1377202866
 21
5.1219015166
  0
LINE
  5
289
100
AcDbEntity
  8
0
100
AcDbLine
 62
7
  6
CONTINUOUS
 10
4.0670971889
 20
5.1219199485
 11
4.0726626812
 21
5.1219198022
  0
LWPOLYLINE
  5
28A
100
AcDbEntity
  8
0
100
AcDbPolyline
 62
7
  6
CONTINUOUS
 90
4
 70
0
 10
4.1248456342
 20
5.1219125973
 10
4.1344936393
 20
5.1219096799
 10
4.1361503553
 20
5.1219089196
 10
4.137718322
 20
5.1219081594
  0
LINE
  5
28B
100
AcDbEntity
  8
0
100
AcDbLine
 62
7
  6
CONTINUOUS
 10
3.9858204693
 20
5.1219044152
 11
3.9916861767
 21
5.1219044177
  0
LINE
  5
28C
100
AcDbEntity
  8
0
100
AcDbLine
 62
7
  6
CONTINUOUS
 10
4.0455877862
 20
5.1219059345
 11
4.0670971889
 21
5.1219199485
  0
LWPOLYLINE
  5
28D
100
AcDbEntity
  8
0
100
AcDbPolyline
 62
7
  6
CONTINUOUS
 90
8
 70
0
 10
4.0726626812
 20
5.1219198022
 10
4.0794658326
 20
5.1219146894
 10
4.0806061486
 20
5.1219135066
 10
4.0817447705
 20
5.1219122878
 10
4.0828852259
 20
5.1219110535
 10
4.0840395342
 20
5.1219098166
 10
4.0852073213
 20
5.121908606
 10
4.0888422638
 20
5.1219054298
  0
LINE
  5
28E
100
AcDbEntity
  8
0
100
AcDbLine
 62
7
  6
CONTINUOUS
 10
3.9916861767
 20
5.1219044177
 11
3.9927239471
 21
5.1219033088
  0
LINE
  5
28F
100
AcDbEntity
  8
0
100
AcDbLine
 62
7
  6
CONTINUOUS
 10
3.99857049
 20
5.1218943311
 11
4.0066010032
 21
5.1218882603
  0
LWPOLYLINE
  5
290
100
AcDbEntity
  8
0
100
AcDbPolyline
 62
7
  6
CONTINUOUS
 90
3
 70
0
 10
3.9932760558
 20
5.1219025554
 10
3.9950768243
 20
5.1218997335
 10
3.99857049
 20
5.1218943311
  0
LINE
  5
291
100
AcDbEntity
  8
0
100
AcDbLine
 62
7
  6
CONTINUOUS
 10
3.9872197098
 20
5.1218995151
 11
3.9945016434
 21
5.1219004822
  0
LINE
  5
292
100
AcDbEntity
  8
0
100
AcDbLine
 62
7
  6
CONTINUOUS
 10
3.9867592408
 20
5.1219005829
 11
3.9872197098
 21
5.1218995151
  0
LINE
  5
293
100
AcDbEntity
  8
0
100
AcDbLine
 62
7
  6
CONTINUOUS
 10
3.9842305906
 20
5.1219025181
 11
3.9867592408
 21
5.1219005829
  0
LINE
  5
294
100
AcDbEntity
  8
0
100
AcDbLine
 62
7
  6
CONTINUOUS
 10
3.9847767043
 20
5.219904963
 11
3.9845562284
 21
5.2199063544
  0
LINE
  5
295
100
AcDbEntity
  8
0
100
AcDbLine
 62
7
  6
CONTINUOUS
 10
3.9839968731
 20
5.121904056
 11
3.9842305906
 21
5.1219025181
  0
LINE
  5
296
100
AcDbEntity
  8
0
100
AcDbLine
 62
7
  6
CONTINUOUS
 10
3.9838272714
 20
5.1219058446
 11
3.9839968731
 21
5.121904056
  0
LINE
  5
297
100
AcDbEntity
  8
0
100
AcDbLine
 62
7
  6
CONTINUOUS
 10
6.2784366197
 20
5.0834560953
 11
6.2753610128
 21
5.0743386109
  0
LINE
  5
298
100
AcDbEntity
  8
0
100
AcDbLine
 62
7
  6
CONTINUOUS
 10
6.24866912
 20
5.0897493125
 11
6.2459339793
 21
5.0820805052
  0
LINE
  5
299
100
AcDbEntity
  8
0
100
AcDbLine
 62
7
  6
CONTINUOUS
 10
3.9806184565
 20
5.2197587217
 11
3.9803529846
 21
5.2197373267
  0
LINE
  5
29A
100
AcDbEntity
  8
0
100
AcDbLine
 62
7
  6
CONTINUOUS
 10
3.9808685543
 20
5.2197775501
 11
3.9806184565
 21
5.2197587217
  0
LINE
  5
29B
100
AcDbEntity
  8
0
100
AcDbLine
 62
7
  6
CONTINUOUS
 10
3.981104978
 20
5.2197941661
 11
3.9808685543
 21
5.2197775501
  0
LINE
  5
29C
100
AcDbEntity
  8
0
100
AcDbLine
 62
7
  6
CONTINUOUS
 10
3.9813288101
 20
5.2198088388
 11
3.981104978
 21
5.2197941661
  0
LINE
  5
29D
100
AcDbEntity
  8
0
100
AcDbLine
 62
7
  6
CONTINUOUS
 10
3.981609246
 20
5.2198257708
 11
3.9813288101
 21
5.2198088388
  0
LINE
  5
29E
100
AcDbEntity
  8
0
100
AcDbLine
 62
7
  6
CONTINUOUS
 10
3.981870988
 20
5.2198401191
 11
3.981609246
 21
5.2198257708
  0
LINE
  5
29F
100
AcDbEntity
  8
0
100
AcDbLine
 62
7
  6
CONTINUOUS
 10
3.9821157767
 20
5.2198522681
 11
3.981870988
 21
5.2198401191
  0
LINE
  5
2A0
100
AcDbEntity
  8
0
100
AcDbLine
 62
7
  6
CONTINUOUS
 10
3.9823442819
 20
5.2198625021
 11
3.9821157767
 21
5.2198522681
  0
LINE
  5
2A1
100
AcDbEntity
  8
0
100
AcDbLine
 62
7
  6
CONTINUOUS
 10
3.9826050586
 20
5.2198728767
 11
3.9823442819
 21
5.2198625021
  0
LINE
  5
2A2
100
AcDbEntity
  8
0
100
AcDbLine
 62
7
  6
CONTINUOUS
 10
3.9828359348
 20
5.219880902
 11
3.9826050586
 21
5.2198728767
  0
LINE
  5
2A3
100
AcDbEntity
  8
0
100
AcDbLine
 62
7
  6
CONTINUOUS
 10
3.9830702923
 20
5.2198879353
 11
3.9828359348
 21
5.219880902
  0
LINE
  5
2A4
100
AcDbEntity
  8
0
100
AcDbLine
 62
7
  6
CONTINUOUS
 10
3.9832979074
 20
5.2198936941
 11
3.9830702923
 21
5.2198879353
  0
LINE
  5
2A5
100
AcDbEntity
  8
0
100
AcDbLine
 62
7
  6
CONTINUOUS
 10
3.983530095
 20
5.2198984816
 11
3.9832979074
 21
5.2198936941
  0
LINE
  5
2A6
100
AcDbEntity
  8
0
100
AcDbLine
 62
7
  6
CONTINUOUS
 10
3.9837644203
 20
5.2199022034
 11
3.983530095
 21
5.2198984816
  0
LINE
  5
2A7
100
AcDbEntity
  8
0
100
AcDbLine
 62
7
  6
CONTINUOUS
 10
3.9839869386
 20
5.2199047124
 11
3.9837644203
 21
5.2199022034
  0
LINE
  5
2A8
100
AcDbEntity
  8
0
100
AcDbLine
 62
7
  6
CONTINUOUS
 10
3.9842187858
 20
5.2199062864
 11
3.9839869386
 21
5.2199047124
  0
LINE
  5
2A9
100
AcDbEntity
  8
0
100
AcDbLine
 62
7
  6
CONTINUOUS
 10
3.9845046941
 20
5.2199069245
 11
3.9842187858
 21
5.2199062864
  0
LINE
  5
2AA
100
AcDbEntity
  8
0
100
AcDbLine
 62
7
  6
CONTINUOUS
 10
4.0018439957
 20
5.2199182263
 11
3.9907273692
 21
5.2199039009
  0
LINE
  5
2AB
100
AcDbEntity
  8
0
100
AcDbLine
 62
7
  6
CONTINUOUS
 10
6.08679412
 20
5.2190294287
 11
6.1721623937
 21
5.2190294287
  0
LINE
  5
2AC
100
AcDbEntity
  8
0
100
AcDbLine
 62
7
  6
CONTINUOUS
 10
6.1784085455
 20
5.2199044287
 11
5.7008438146
 21
5.2199044287
  0
LINE
  5
2AD
100
AcDbEntity
  8
0
100
AcDbLine
 62
7
  6
CONTINUOUS
 10
6.3561608623
 20
5.2199044287
 11
6.4148609167
 21
5.2199044287
  0
LWPOLYLINE
  5
2AE
100
AcDbEntity
  8
0
100
AcDbPolyline
 62
7
  6
CONTINUOUS
 90
7
 70
0
 10
4.1377202866
 20
5.2199073408
 10
4.1353220401
 20
5.2199073348
 10
4.1318803299
 20
5.2199072919
 10
4.1284940965
 20
5.2199072172
 10
4.1251636286
 20
5.2199071138
 10
4.1218885548
 20
5.2199069858
 10
4.1186685809
 20
5.2199068374
  0
LWPOLYLINE
  5
2AF
100
AcDbEntity
  8
0
100
AcDbPolyline
 62
7
  6
CONTINUOUS
 90
11
 70
0
 10
4.097662158
 20
5.219905728
 10
4.0816466418
 20
5.2199052446
 10
4.0791380009
 20
5.2199051327
 10
4.0766732889
 20
5.219905
 10
4.0742502558
 20
5.2199048446
 10
4.0718684485
 20
5.2199046659
 10
4.0695278074
 20
5.2199044644
 10
4.0672267761
 20
5.2199042416
 10
4.0649650689
 20
5.2199040001
 10
4.0627425158
 20
5.2199037433
 10
4.060557814
 20
5.2199034757
  0
LWPOLYLINE
  5
2B0
100
AcDbEntity
  8
0
100
AcDbPolyline
 62
7
  6
CONTINUOUS
 90
3
 70
0
 10
4.1033946515
 20
5.2199059906
 10
4.1005028239
 20
5.2199058465
 10
4.097662158
 20
5.219905728
  0
LINE
  5
2B1
100
AcDbEntity
  8
0
100
AcDbLine
 62
7
  6
CONTINUOUS
 10
4.1186685809
 20
5.2199068374
 11
4.1033946515
 21
5.2199059906
  0
LWPOLYLINE
  5
2B2
100
AcDbEntity
  8
0
100
AcDbPolyline
 62
7
  6
CONTINUOUS
 90
4
 70
0
 10
3.9898446766
 20
5.2199127479
 10
3.985820461
 20
5.2199044422
 10
3.9856330157
 20
5.2199044243
 10
3.9854604097
 20
5.2199044102
  0
LWPOLYLINE
  5
2B3
100
AcDbEntity
  8
0
100
AcDbPolyline
 62
7
  6
CONTINUOUS
 90
3
 70
0
 10
4.0501889712
 20
5.2199021976
 10
4.0482222334
 20
5.2199020106
 10
4.0462899444
 20
5.2199018692
  0
LINE
  5
2B4
100
AcDbEntity
  8
0
100
AcDbLine
 62
7
  6
CONTINUOUS
 10
6.3536679464
 20
5.2234044287
 11
6.3703117949
 21
5.2234044287
  0
LINE
  5
2B5
100
AcDbEntity
  8
0
100
AcDbLine
 62
7
  6
CONTINUOUS
 10
6.3494043123
 20
5.2286544287
 11
6.3703117949
 21
5.2286544287
  0
LINE
  5
2B6
100
AcDbEntity
  8
0
100
AcDbLine
 62
7
  6
CONTINUOUS
 10
5.49573162
 20
5.2802794287
 11
4.34283162
 21
5.2802794287
  0
LINE
  5
2B7
100
AcDbEntity
  8
0
100
AcDbLine
 62
7
  6
CONTINUOUS
 10
4.0087275974
 20
5.2199205909
 11
4.0018439957
 21
5.2199182263
  0
LWPOLYLINE
  5
2B8
100
AcDbEntity
  8
0
100
AcDbPolyline
 62
7
  6
CONTINUOUS
 90
6
 70
0
 10
3.9907273692
 20
5.2199039009
 10
3.9886433588
 20
5.2199039442
 10
3.9882799268
 20
5.2199040456
 10
3.9879350262
 20
5.2199041475
 10
3.9876081401
 20
5.2199042418
 10
3.9867358579
 20
5.2199044298
  0
LINE
  5
2B9
100
AcDbEntity
  8
0
100
AcDbLine
 62
7
  6
CONTINUOUS
 10
4.0443920958
 20
5.2199017853
 11
4.0354067977
 21
5.2199026865
  0
LINE
  5
2BA
100
AcDbEntity
  8
0
100
AcDbLine
 62
7
  6
CONTINUOUS
 10
4.060557814
 20
5.2199034757
 11
4.0442175115
 21
5.2199017839
  0
LINE
  5
2BB
100
AcDbEntity
  8
0
100
AcDbLine
 62
7
  6
CONTINUOUS
 10
4.0354067977
 20
5.2199026865
 11
4.028822173
 21
5.2199058727
  0
LINE
  5
2BC
100
AcDbEntity
  8
0
100
AcDbLine
 62
7
  6
CONTINUOUS
 10
4.053213026
 20
5.219902544
 11
4.0525964936
 21
5.219903105
  0
LINE
  5
2BD
100
AcDbEntity
  8
0
100
AcDbLine
 62
7
  6
CONTINUOUS
 10
4.0172050375
 20
5.2199159655
 11
4.0087275974
 21
5.2199205909
  0
LINE
  5
2BE
100
AcDbEntity
  8
0
100
AcDbLine
 62
7
  6
CONTINUOUS
 10
4.028822173
 20
5.2199058727
 11
4.0172050375
 21
5.2199159655
  0
LWPOLYLINE
  5
2BF
100
AcDbEntity
  8
0
100
AcDbPolyline
 62
7
  6
CONTINUOUS
 90
3
 70
0
 10
3.9945016504
 20
5.2199083752
 10
3.994000731
 20
5.2199091314
 10
3.9898446766
 20
5.2199127479
  0
LINE
  5
2C0
100
AcDbEntity
  8
0
100
AcDbLine
 62
7
  6
CONTINUOUS
 10
3.9853036205
 20
5.2199044083
 11
3.9847748641
 21
5.2199049723
  0
LINE
  5
2C1
100
AcDbEntity
  8
0
100
AcDbLine
 62
7
  6
CONTINUOUS
 10
3.9844293758
 20
5.2199068317
 11
3.985982753
 21
5.2199066726
  0
LINE
  5
2C2
100
AcDbEntity
  8
0
100
AcDbLine
 62
7
  6
CONTINUOUS
 10
6.08679412
 20
5.1227794287
 11
6.08679412
 21
5.2190294287
  0
LINE
  5
2C3
100
AcDbEntity
  8
0
100
AcDbLine
 62
7
  6
CONTINUOUS
 10
6.2488127478
 20
5.0906476124
 11
6.24866912
 21
5.0897493125
  0
LINE
  5
2C4
100
AcDbEntity
  8
0
100
AcDbLine
 62
7
  6
CONTINUOUS
 10
6.2784572956
 20
5.0835608307
 11
6.2784366197
 21
5.0834560953
  0
LINE
  5
2C5
100
AcDbEntity
  8
0
100
AcDbLine
 62
7
  6
CONTINUOUS
 10
6.33791912
 20
5.0996150416
 11
6.3348251954
 21
5.0877774493
  0
LINE
  5
2C6
100
AcDbEntity
  8
0
100
AcDbLine
 62
7
  6
CONTINUOUS
 10
6.3081516202
 20
5.0864100603
 11
6.3049954926
 21
5.07598884
  0
LINE
  5
2C7
100
AcDbEntity
  8
0
100
AcDbLine
 62
7
  6
CONTINUOUS
 10
3.9760841047
 20
5.2191919786
 11
3.9757721818
 21
5.2191370789
  0
LINE
  5
2C8
100
AcDbEntity
  8
0
100
AcDbLine
 62
7
  6
CONTINUOUS
 10
3.9763925832
 20
5.2192442311
 11
3.9760841047
 21
5.2191919786
  0
LINE
  5
2C9
100
AcDbEntity
  8
0
100
AcDbLine
 62
7
  6
CONTINUOUS
 10
3.976697434
 20
5.2192938818
 11
3.9763925832
 21
5.2192442311
  0
LINE
  5
2CA
100
AcDbEntity
  8
0
100
AcDbLine
 62
7
  6
CONTINUOUS
 10
3.9769984738
 20
5.2193409791
 11
3.976697434
 21
5.2192938818
  0
LINE
  5
2CB
100
AcDbEntity
  8
0
100
AcDbLine
 62
7
  6
CONTINUOUS
 10
3.9772955719
 20
5.2193855821
 11
3.9769984738
 21
5.2193409791
  0
LINE
  5
2CC
100
AcDbEntity
  8
0
100
AcDbLine
 62
7
  6
CONTINUOUS
 10
3.9775885444
 20
5.2194277442
 11
3.9772955719
 21
5.2193855821
  0
LINE
  5
2CD
100
AcDbEntity
  8
0
100
AcDbLine
 62
7
  6
CONTINUOUS
 10
3.9778772316
 20
5.219467525
 11
3.9775885444
 21
5.2194277442
  0
LINE
  5
2CE
100
AcDbEntity
  8
0
100
AcDbLine
 62
7
  6
CONTINUOUS
 10
3.978161412
 20
5.2195049781
 11
3.9778772316
 21
5.219467525
  0
LINE
  5
2CF
100
AcDbEntity
  8
0
100
AcDbLine
 62
7
  6
CONTINUOUS
 10
3.9784413433
 20
5.2195402196
 11
3.978161412
 21
5.2195049781
  0
LINE
  5
2D0
100
AcDbEntity
  8
0
100
AcDbLine
 62
7
  6
CONTINUOUS
 10
3.9787125188
 20
5.2195727992
 11
3.9784413433
 21
5.2195402196
  0
LINE
  5
2D1
100
AcDbEntity
  8
0
100
AcDbLine
 62
7
  6
CONTINUOUS
 10
3.9789723185
 20
5.2196025753
 11
3.9787125188
 21
5.2195727992
  0
LINE
  5
2D2
100
AcDbEntity
  8
0
100
AcDbLine
 62
7
  6
CONTINUOUS
 10
3.9792153198
 20
5.2196291559
 11
3.9789723185
 21
5.2196025753
  0
LINE
  5
2D3
100
AcDbEntity
  8
0
100
AcDbLine
 62
7
  6
CONTINUOUS
 10
3.979444932
 20
5.2196531456
 11
3.9792153198
 21
5.2196291559
  0
LINE
  5
2D4
100
AcDbEntity
  8
0
100
AcDbLine
 62
7
  6
CONTINUOUS
 10
3.9796625793
 20
5.2196748763
 11
3.979444932
 21
5.2196531456
  0
LINE
  5
2D5
100
AcDbEntity
  8
0
100
AcDbLine
 62
7
  6
CONTINUOUS
 10
3.9799715679
 20
5.2197040432
 11
3.9796625793
 21
5.2196748763
  0
LWPOLYLINE
  5
2D6
100
AcDbEntity
  8
0
100
AcDbPolyline
 62
7
  6
CONTINUOUS
 90
3
 70
0
 10
3.9803529846
 20
5.2197373267
 10
3.9802607019
 20
5.2197295491
 10
3.9799715679
 20
5.2197040432
  0
LINE
  5
2D7
100
AcDbEntity
  8
0
100
AcDbLine
 62
7
  6
CONTINUOUS
 10
4.26495662
 20
5.4115294287
 11
4.34283162
 21
5.4115294287
  0
LINE
  5
2D8
100
AcDbEntity
  8
0
100
AcDbLine
 62
7
  6
CONTINUOUS
 10
5.4957316284
 20
5.4115294287
 11
5.5736066115
 21
5.4115294287
  0
LINE
  5
2D9
100
AcDbEntity
  8
0
100
AcDbLine
 62
7
  6
CONTINUOUS
 10
6.3382057478
 20
5.102480487
 11
6.33791912
 21
5.0996150416
  0
LINE
  5
2DA
100
AcDbEntity
  8
0
100
AcDbLine
 62
7
  6
CONTINUOUS
 10
6.3082406932
 20
5.0869265151
 11
6.3081516202
 21
5.0864100603
  0
LINE
  5
2DB
100
AcDbEntity
  8
0
100
AcDbLine
 62
7
  6
CONTINUOUS
 10
3.9712854946
 20
5.2181128899
 11
3.9709329756
 21
5.2180133733
  0
LINE
  5
2DC
100
AcDbEntity
  8
0
100
AcDbLine
 62
7
  6
CONTINUOUS
 10
3.9716349387
 20
5.218208739
 11
3.9712854946
 21
5.2181128899
  0
LINE
  5
2DD
100
AcDbEntity
  8
0
100
AcDbLine
 62
7
  6
CONTINUOUS
 10
3.9719813636
 20
5.2183010256
 11
3.9716349387
 21
5.218208739
  0
LINE
  5
2DE
100
AcDbEntity
  8
0
100
AcDbLine
 62
7
  6
CONTINUOUS
 10
3.9723248761
 20
5.2183898638
 11
3.9719813636
 21
5.2183010256
  0
LINE
  5
2DF
100
AcDbEntity
  8
0
100
AcDbLine
 62
7
  6
CONTINUOUS
 10
3.9726655854
 20
5.2184753629
 11
3.9723248761
 21
5.2183898638
  0
LINE
  5
2E0
100
AcDbEntity
  8
0
100
AcDbLine
 62
7
  6
CONTINUOUS
 10
3.9730035537
 20
5.218557616
 11
3.9726655854
 21
5.2184753629
  0
LINE
  5
2E1
100
AcDbEntity
  8
0
100
AcDbLine
 62
7
  6
CONTINUOUS
 10
3.9733388944
 20
5.2186367243
 11
3.9730035537
 21
5.218557616
  0
LINE
  5
2E2
100
AcDbEntity
  8
0
100
AcDbLine
 62
7
  6
CONTINUOUS
 10
3.97367173
 20
5.2187127864
 11
3.9733388944
 21
5.2186367243
  0
LINE
  5
2E3
100
AcDbEntity
  8
0
100
AcDbLine
 62
7
  6
CONTINUOUS
 10
3.974002105
 20
5.2187858787
 11
3.97367173
 21
5.2187127864
  0
LINE
  5
2E4
100
AcDbEntity
  8
0
100
AcDbLine
 62
7
  6
CONTINUOUS
 10
3.9743301051
 20
5.2188560837
 11
3.974002105
 21
5.2187858787
  0
LINE
  5
2E5
100
AcDbEntity
  8
0
100
AcDbLine
 62
7
  6
CONTINUOUS
 10
3.9746555389
 20
5.2189234237
 11
3.9743301051
 21
5.2188560837
  0
LINE
  5
2E6
100
AcDbEntity
  8
0
100
AcDbLine
 62
7
  6
CONTINUOUS
 10
3.9749782846
 20
5.218987939
 11
3.9746555389
 21
5.2189234237
  0
LINE
  5
2E7
100
AcDbEntity
  8
0
100
AcDbLine
 62
7
  6
CONTINUOUS
 10
3.9752981521
 20
5.219049659
 11
3.9749782846
 21
5.218987939
  0
LWPOLYLINE
  5
2E8
100
AcDbEntity
  8
0
100
AcDbPolyline
 62
7
  6
CONTINUOUS
 90
3
 70
0
 10
3.9757721818
 20
5.2191370789
 10
3.9756149565
 20
5.2191086179
 10
3.9752981521
 20
5.219049659
  0
LINE
  5
2E9
100
AcDbEntity
  8
0
100
AcDbLine
 62
7
  6
CONTINUOUS
 10
6.2291324922
 20
5.102480487
 11
6.22941912
 21
5.0996150416
  0
LINE
  5
2EA
100
AcDbEntity
  8
0
100
AcDbLine
 62
7
  6
CONTINUOUS
 10
6.3703117949
 20
5.2286544287
 11
6.3703117949
 21
5.2234044287
  0
LINE
  5
2EB
100
AcDbEntity
  8
0
100
AcDbLine
 62
7
  6
CONTINUOUS
 10
6.3703117949
 20
5.1184044287
 11
6.3703117949
 21
5.1131544287
  0
LINE
  5
2EC
100
AcDbEntity
  8
0
100
AcDbLine
 62
7
  6
CONTINUOUS
 10
6.22941912
 20
5.0996150416
 11
6.2325130446
 21
5.0877774492
  0
LINE
  5
2ED
100
AcDbEntity
  8
0
100
AcDbLine
 62
7
  6
CONTINUOUS
 10
6.2590975468
 20
5.0869265151
 11
6.2591866197
 21
5.0864100603
  0
LINE
  5
2EE
100
AcDbEntity
  8
0
100
AcDbLine
 62
7
  6
CONTINUOUS
 10
6.3703117949
 20
5.1131544287
 11
6.3746803332
 21
5.110242664
  0
LINE
  5
2EF
100
AcDbEntity
  8
0
100
AcDbLine
 62
7
  6
CONTINUOUS
 10
6.1912385153
 20
5.1124255606
 11
6.1912934772
 21
5.1123404947
  0
LINE
  5
2F0
100
AcDbEntity
  8
0
100
AcDbLine
 62
7
  6
CONTINUOUS
 10
6.1912915428
 20
5.1123434989
 11
6.1912924637
 21
5.11234206
  0
LINE
  5
2F1
100
AcDbEntity
  8
0
100
AcDbLine
 62
7
  6
CONTINUOUS
 10
6.1912934772
 20
5.1123404947
 11
6.1912943563
 21
5.112339121
  0
LINE
  5
2F2
100
AcDbEntity
  8
0
100
AcDbLine
 62
7
  6
CONTINUOUS
 10
6.1904295459
 20
5.1137268767
 11
6.1904541945
 21
5.1136867017
  0
LINE
  5
2F3
100
AcDbEntity
  8
0
100
AcDbLine
 62
7
  6
CONTINUOUS
 10
6.31866912
 20
5.0897493125
 11
6.3214042608
 21
5.0820805051
  0
LINE
  5
2F4
100
AcDbEntity
  8
0
100
AcDbLine
 62
7
  6
CONTINUOUS
 10
6.2889016202
 20
5.0834560953
 11
6.2919772272
 21
5.0743386109
  0
LINE
  5
2F5
100
AcDbEntity
  8
0
100
AcDbLine
 62
7
  6
CONTINUOUS
 10
6.2591866197
 20
5.0864100603
 11
6.2623427473
 21
5.0759888399
  0
LINE
  5
2F6
100
AcDbEntity
  8
0
100
AcDbLine
 62
7
  6
CONTINUOUS
 10
6.2888809444
 20
5.0835608307
 11
6.2889016202
 21
5.0834560953
  0
LINE
  5
2F7
100
AcDbEntity
  8
0
100
AcDbLine
 62
7
  6
CONTINUOUS
 10
6.3185254922
 20
5.0906476124
 11
6.31866912
 21
5.0897493125
  0
ARC
  5
2F8
100
AcDbEntity
  8
0
100
AcDbCircle
 62
7
  6
CONTINUOUS
 10
4.91928162
 20
3.5959044287
 40
0.0875
100
AcDbArc
 50
180.0
 51
360.0
  0
ARC
  5
2F9
100
AcDbEntity
  8
0
100
AcDbCircle
 62
7
  6
CONTINUOUS
 10
4.30389412
 20
5.1709044287
 40
0.17325
100
AcDbArc
 50
102.9881471826
 51
167.0118528174
  0
ARC
  5
2FA
100
AcDbEntity
  8
0
100
AcDbCircle
 62
7
  6
CONTINUOUS
 10
4.30389412
 20
5.1709044287
 40
0.17325
100
AcDbArc
 50
192.9881471826
 51
257.0118528174
  0
ARC
  5
2FB
100
AcDbEntity
  8
0
100
AcDbCircle
 62
7
  6
CONTINUOUS
 10
4.30389412
 20
5.1709044287
 40
0.17325
100
AcDbArc
 50
282.9881471826
 51
320.8525183079
  0
ARC
  5
2FC
100
AcDbEntity
  8
0
100
AcDbCircle
 62
7
  6
CONTINUOUS
 10
4.30389412
 20
5.1709044287
 40
0.17325
100
AcDbArc
 50
39.1474816921
 51
77.0118528174
  0
ARC
  5
2FD
100
AcDbEntity
  8
0
100
AcDbCircle
 62
7
  6
CONTINUOUS
 10
4.30389412
 20
5.1709044287
 40
0.168
100
AcDbArc
 50
283.4013652111
 51
319.379358717
  0
ARC
  5
2FE
100
AcDbEntity
  8
0
100
AcDbCircle
 62
7
  6
CONTINUOUS
 10
4.30389412
 20
5.1709044287
 40
0.168
100
AcDbArc
 50
40.620641283
 51
76.5986347889
  0
ARC
  5
2FF
100
AcDbEntity
  8
0
100
AcDbCircle
 62
7
  6
CONTINUOUS
 10
4.30389412
 20
5.1709044287
 40
0.168
100
AcDbArc
 50
103.4013652111
 51
166.5985218219
  0
ARC
  5
300
100
AcDbEntity
  8
0
100
AcDbCircle
 62
7
  6
CONTINUOUS
 10
4.30389412
 20
5.1709044287
 40
0.168
100
AcDbArc
 50
193.4014781781
 51
256.5986347889
  0
ARC
  5
301
100
AcDbEntity
  8
0
100
AcDbCircle
 62
7
  6
CONTINUOUS
 10
4.91928162
 20
5.1709044287
 40
0.109375
100
AcDbArc
 50
323.1308426061
 51
216.8691573939
  0
ARC
  5
302
100
AcDbEntity
  8
0
100
AcDbCircle
 62
7
  6
CONTINUOUS
 10
4.30389412
 20
5.1709044287
 40
0.109375
100
AcDbArc
 50
20.8548185377
 51
69.1451814623
  0
ARC
  5
303
100
AcDbEntity
  8
0
100
AcDbCircle
 62
7
  6
CONTINUOUS
 10
4.30389412
 20
5.1709044287
 40
0.109375
100
AcDbArc
 50
110.8548185377
 51
159.1451814623
  0
ARC
  5
304
100
AcDbEntity
  8
0
100
AcDbCircle
 62
7
  6
CONTINUOUS
 10
4.30389412
 20
5.1709044287
 40
0.109375
100
AcDbArc
 50
200.8548185377
 51
249.1451814623
  0
ARC
  5
305
100
AcDbEntity
  8
0
100
AcDbCircle
 62
7
  6
CONTINUOUS
 10
4.30389412
 20
5.1709044287
 40
0.109375
100
AcDbArc
 50
290.8548185377
 51
339.1451814623
  0
ARC
  5
306
100
AcDbEntity
  8
0
100
AcDbCircle
 62
7
  6
CONTINUOUS
 10
4.30389412
 20
5.1709044287
 40
0.104125
100
AcDbArc
 50
21.959759585
 51
68.0405932237
  0
ARC
  5
307
100
AcDbEntity
  8
0
100
AcDbCircle
 62
7
  6
CONTINUOUS
 10
4.30389412
 20
5.1709044287
 40
0.104125
100
AcDbArc
 50
111.9594067762
 51
158.040240415
  0
ARC
  5
308
100
AcDbEntity
  8
0
100
AcDbCircle
 62
7
  6
CONTINUOUS
 10
4.30389412
 20
5.1709044287
 40
0.104125
100
AcDbArc
 50
201.959759585
 51
248.0405932237
  0
ARC
  5
309
100
AcDbEntity
  8
0
100
AcDbCircle
 62
7
  6
CONTINUOUS
 10
4.30389412
 20
5.1709044287
 40
0.104125
100
AcDbArc
 50
291.9594067762
 51
338.040240415
  0
ARC
  5
30A
100
AcDbEntity
  8
0
100
AcDbCircle
 62
7
  6
CONTINUOUS
 10
4.91928162
 20
5.1709044287
 40
0.104125
100
AcDbArc
 50
327.1773205668
 51
212.8226794329
  0
ARC
  5
30B
100
AcDbEntity
  8
0
100
AcDbCircle
 62
7
  6
CONTINUOUS
 10
4.91928162
 20
5.1709044287
 40
0.0875
100
AcDbArc
 50
0.0
 51
180.0
  0
CIRCLE
  5
30C
100
AcDbEntity
  8
0
100
AcDbCircle
 62
7
  6
CONTINUOUS
 10
4.30389412
 20
5.1709044287
 40
0.065625
  0
ARC
  5
30D
100
AcDbEntity
  8
0
100
AcDbCircle
 62
7
  6
CONTINUOUS
 10
4.80115662
 20
5.0440294287
 40
0.0175
100
AcDbArc
 50
0.0
 51
90.0000000004
  0
ARC
  5
30E
100
AcDbEntity
  8
0
100
AcDbCircle
 62
7
  6
CONTINUOUS
 10
5.0374058169
 20
5.0440302067
 40
0.017499881
100
AcDbArc
 50
89.9973704478
 51
180.0025474063
  0
ARC
  5
30F
100
AcDbEntity
  8
0
100
AcDbCircle
 62
7
  6
CONTINUOUS
 10
5.53466912
 20
5.1709044287
 40
0.17325
100
AcDbArc
 50
102.9881471826
 51
140.8525183079
  0
ARC
  5
310
100
AcDbEntity
  8
0
100
AcDbCircle
 62
7
  6
CONTINUOUS
 10
5.53466912
 20
5.1709044287
 40
0.17325
100
AcDbArc
 50
219.1474816921
 51
257.0118528174
  0
ARC
  5
311
100
AcDbEntity
  8
0
100
AcDbCircle
 62
7
  6
CONTINUOUS
 10
5.53466912
 20
5.1709044287
 40
0.17325
100
AcDbArc
 50
282.9881471826
 51
347.0118528174
  0
ARC
  5
312
100
AcDbEntity
  8
0
100
AcDbCircle
 62
7
  6
CONTINUOUS
 10
5.53466912
 20
5.1709044287
 40
0.17325
100
AcDbArc
 50
12.9881471826
 51
77.0118528174
  0
ARC
  5
313
100
AcDbEntity
  8
0
100
AcDbCircle
 62
7
  6
CONTINUOUS
 10
5.53466912
 20
5.1709044287
 40
0.168
100
AcDbArc
 50
283.4013652111
 51
346.5985218219
  0
ARC
  5
314
100
AcDbEntity
  8
0
100
AcDbCircle
 62
7
  6
CONTINUOUS
 10
5.53466912
 20
5.1709044287
 40
0.168
100
AcDbArc
 50
13.4014781781
 51
76.5986347889
  0
ARC
  5
315
100
AcDbEntity
  8
0
100
AcDbCircle
 62
7
  6
CONTINUOUS
 10
5.53466912
 20
5.1709044287
 40
0.168
100
AcDbArc
 50
103.4013652111
 51
139.379358717
  0
ARC
  5
316
100
AcDbEntity
  8
0
100
AcDbCircle
 62
7
  6
CONTINUOUS
 10
5.53466912
 20
5.1709044287
 40
0.168
100
AcDbArc
 50
220.620641283
 51
256.5986347889
  0
ARC
  5
317
100
AcDbEntity
  8
0
100
AcDbCircle
 62
7
  6
CONTINUOUS
 10
5.53466912
 20
5.1709044287
 40
0.109375
100
AcDbArc
 50
200.8550023429
 51
249.1450392694
  0
ARC
  5
318
100
AcDbEntity
  8
0
100
AcDbCircle
 62
7
  6
CONTINUOUS
 10
5.53466912
 20
5.1709044287
 40
0.109375
100
AcDbArc
 50
290.8549607306
 51
339.1449976571
  0
ARC
  5
319
100
AcDbEntity
  8
0
100
AcDbCircle
 62
7
  6
CONTINUOUS
 10
5.53466912
 20
5.1709044287
 40
0.109375
100
AcDbArc
 50
20.8550023429
 51
69.1450392694
  0
ARC
  5
31A
100
AcDbEntity
  8
0
100
AcDbCircle
 62
7
  6
CONTINUOUS
 10
5.53466912
 20
5.1709044287
 40
0.109375
100
AcDbArc
 50
110.8549607306
 51
159.1449976571
  0
ARC
  5
31B
100
AcDbEntity
  8
0
100
AcDbCircle
 62
7
  6
CONTINUOUS
 10
5.53466912
 20
5.1709044287
 40
0.104125
100
AcDbArc
 50
201.959580973
 51
248.0404267044
  0
ARC
  5
31C
100
AcDbEntity
  8
0
100
AcDbCircle
 62
7
  6
CONTINUOUS
 10
5.53466912
 20
5.1709044287
 40
0.104125
100
AcDbArc
 50
291.9595732957
 51
338.0404190271
  0
ARC
  5
31D
100
AcDbEntity
  8
0
100
AcDbCircle
 62
7
  6
CONTINUOUS
 10
5.53466912
 20
5.1709044287
 40
0.104125
100
AcDbArc
 50
21.959580973
 51
68.0404267044
  0
ARC
  5
31E
100
AcDbEntity
  8
0
100
AcDbCircle
 62
7
  6
CONTINUOUS
 10
5.53466912
 20
5.1709044287
 40
0.104125
100
AcDbArc
 50
111.9595732957
 51
158.0404190271
  0
CIRCLE
  5
31F
100
AcDbEntity
  8
0
100
AcDbCircle
 62
7
  6
CONTINUOUS
 10
5.53466912
 20
5.1709044287
 40
0.065625
  0
ARC
  5
320
100
AcDbEntity
  8
0
100
AcDbCircle
 62
7
  6
CONTINUOUS
 10
6.2338675473
 20
5.0881314692
 40
0.0014000028
100
AcDbArc
 50
194.6474639688
 51
238.966112891
  0
ARC
  5
321
100
AcDbEntity
  8
0
100
AcDbCircle
 62
7
  6
CONTINUOUS
 10
6.2446153381
 20
5.0825508089
 40
0.0014
100
AcDbArc
 50
246.153767374
 51
340.370825737
  0
ARC
  5
322
100
AcDbEntity
  8
0
100
AcDbCircle
 62
7
  6
CONTINUOUS
 10
6.2636826464
 20
5.0763946362
 40
0.0014
100
AcDbArc
 50
196.8492439121
 51
258.0592943439
  0
ARC
  5
323
100
AcDbEntity
  8
0
100
AcDbCircle
 62
7
  6
CONTINUOUS
 10
6.1721623937
 20
5.1000294287
 40
0.02275
100
AcDbArc
 50
32.4405244247
 51
32.9883964352
  0
ARC
  5
324
100
AcDbEntity
  8
0
100
AcDbCircle
 62
7
  6
CONTINUOUS
 10
6.1721623937
 20
5.1000294287
 40
0.02275
100
AcDbArc
 50
33.0167996413
 51
90.0000000001
  0
ARC
  5
325
100
AcDbEntity
  8
0
100
AcDbCircle
 62
7
  6
CONTINUOUS
 10
6.2740344555
 20
5.0747860993
 40
0.0014
100
AcDbArc
 50
264.2788379897
 51
341.3591723378
  0
ARC
  5
326
100
AcDbEntity
  8
0
100
AcDbCircle
 62
7
  6
CONTINUOUS
 10
6.2933037844
 20
5.0747860993
 40
0.0014
100
AcDbArc
 50
198.6408276687
 51
275.724067847
  0
ARC
  5
327
100
AcDbEntity
  8
0
100
AcDbCircle
 62
7
  6
CONTINUOUS
 10
6.3036555936
 20
5.0763946362
 40
0.0014
100
AcDbArc
 50
281.9407056562
 51
343.1507561468
  0
ARC
  5
328
100
AcDbEntity
  8
0
100
AcDbCircle
 62
7
  6
CONTINUOUS
 10
6.3227229018
 20
5.0825508089
 40
0.0014
100
AcDbArc
 50
199.6291731679
 51
293.8462326331
  0
ARC
  5
329
100
AcDbEntity
  8
0
100
AcDbCircle
 62
7
  6
CONTINUOUS
 10
6.333470695
 20
5.0881314674
 40
0.0014
100
AcDbArc
 50
301.0338407132
 51
345.3525838163
  0
ARC
  5
32A
100
AcDbEntity
  8
0
100
AcDbCircle
 62
7
  6
CONTINUOUS
 10
6.3703117949
 20
5.1131544287
 40
0.00525
100
AcDbArc
 50
326.3153273875
 51
90.0
  0
ARC
  5
32B
100
AcDbEntity
  8
0
100
AcDbCircle
 62
7
  6
CONTINUOUS
 10
6.28366912
 20
5.1709044287
 40
0.109375
100
AcDbArc
 50
33.6846726124
 51
326.3153273875
  0
ARC
  5
32C
100
AcDbEntity
  8
0
100
AcDbCircle
 62
7
  6
CONTINUOUS
 10
6.28366912
 20
5.1709044287
 40
0.104125
100
AcDbArc
 50
33.684672613
 51
326.3153273869
  0
ARC
  5
32D
100
AcDbEntity
  8
0
100
AcDbCircle
 62
7
  6
CONTINUOUS
 10
6.2836760176
 20
5.1817982922
 40
0.0984817397
100
AcDbArc
 50
255.6012044526
 51
266.9503240212
  0
ARC
  5
32E
100
AcDbEntity
  8
0
100
AcDbCircle
 62
7
  6
CONTINUOUS
 10
6.2836622224
 20
5.1817982922
 40
0.0984817397
100
AcDbArc
 50
273.049675981
 51
284.3987955495
  0
ARC
  5
32F
100
AcDbEntity
  8
0
100
AcDbCircle
 62
7
  6
CONTINUOUS
 10
6.2836685103
 20
5.1817532391
 40
0.0984361578
100
AcDbArc
 50
236.5566412456
 51
249.1725885509
  0
ARC
  5
330
100
AcDbEntity
  8
0
100
AcDbCircle
 62
7
  6
CONTINUOUS
 10
6.283669748
 20
5.1817532491
 40
0.0984361578
100
AcDbArc
 50
290.8273993928
 51
303.4433466329
  0
ARC
  5
331
100
AcDbEntity
  8
0
100
AcDbCircle
 62
7
  6
CONTINUOUS
 10
6.28366912
 20
5.1709044287
 40
0.098
100
AcDbArc
 50
293.8462325994
 51
301.0338407167
  0
ARC
  5
332
100
AcDbEntity
  8
0
100
AcDbCircle
 62
7
  6
CONTINUOUS
 10
6.28366912
 20
5.1709044287
 40
0.098
100
AcDbArc
 50
275.7240678469
 51
281.9407056562
  0
ARC
  5
333
100
AcDbEntity
  8
0
100
AcDbCircle
 62
7
  6
CONTINUOUS
 10
6.28366912
 20
5.1709044287
 40
0.098
100
AcDbArc
 50
258.0592943438
 51
264.2759321531
  0
ARC
  5
334
100
AcDbEntity
  8
0
100
AcDbCircle
 62
7
  6
CONTINUOUS
 10
6.28366912
 20
5.1709044287
 40
0.098
100
AcDbArc
 50
238.9661592833
 51
246.1537674006
  0
CIRCLE
  5
335
100
AcDbEntity
  8
0
100
AcDbCircle
 62
7
  6
CONTINUOUS
 10
6.28366912
 20
5.1709044287
 40
0.0875
  0
ARC
  5
336
100
AcDbEntity
  8
0
100
AcDbCircle
 62
7
  6
CONTINUOUS
 10
6.1721623937
 20
5.2417794287
 40
0.02275
100
AcDbArc
 50
327.0115600204
 51
327.5594755753
  0
ARC
  5
337
100
AcDbEntity
  8
0
100
AcDbCircle
 62
7
  6
CONTINUOUS
 10
6.1721623937
 20
5.2417794287
 40
0.02275
100
AcDbArc
 50
269.9999999999
 51
326.982690476
  0
ARC
  5
338
100
AcDbEntity
  8
0
100
AcDbCircle
 62
7
  6
CONTINUOUS
 10
6.4148648936
 20
5.1709044287
 40
0.049
100
AcDbArc
 50
270.0
 51
90.0
  0
ARC
  5
339
100
AcDbEntity
  8
0
100
AcDbCircle
 62
7
  6
CONTINUOUS
 10
6.4129623313
 20
5.1712038097
 40
0.048700619
100
AcDbArc
 50
87.7673672267
 51
89.9998965363
  0
ARC
  5
33A
100
AcDbEntity
  8
0
100
AcDbCircle
 62
7
  6
CONTINUOUS
 10
6.3703117949
 20
5.2286544287
 40
0.00525
100
AcDbArc
 50
270.0
 51
33.6846726125
  0
SPLINE
  5
33B
100
AcDbEntity
  8
0
100
AcDbSpline
 62
7
  6
CONTINUOUS
 70
0
 71
3
 72
66
 73
62
 74
0
 42
0.0000001
 43
0.0000001
 44
0.0000000001
 40
0.0
 40
0.0
 40
0.0
 40
0.0
 40
0.000040035
 40
0.0001597793
 40
0.000359094
 40
0.0006378402
 40
0.0014330991
 40
0.0025446561
 40
0.0039716789
 40
0.0057132654
 40
0.0077684323
 40
0.0101353723
 40
0.0157941294
 40
0.0226691991
 40
0.0307368754
 40
0.0399676053
 40
0.0503298372
 40
0.0617908424
 40
0.0878517241
 40
0.1178095066
 40
0.1512890406
 40
0.1879049722
 40
0.2272516969
 40
0.3124314024
 40
0.357441902
 40
0.4035394891
 40
0.4974443163
 40
0.544515107
 40
0.5911906401
 40
0.6371235948
 40
0.6819676376
 40
0.7253790961
 40
0.7670059896
 40
0.8064814547
 40
0.8434210261
 40
0.8774299836
 40
0.8932093476
 40
0.9081016317
 40
0.9220539954
 40
0.9350161483
 40
0.9469352123
 40
0.957759412
 40
0.9674428497
 40
0.9759394752
 40
0.9832048437
 40
0.9863653759
 40
0.9892058062
 40
0.9917218704
 40
0.9939088643
 40
0.9957631483
 40
0.9972835423
 40
0.997918234
 40
0.9984690144
 40
0.9989356817
 40
0.9993180338
 40
0.9996158636
 40
0.9998289501
 40
0.9999036448
 40
0.99995707
 40
0.9999891977
 40
1.0
 40
1.0
 40
1.0
 40
1.0
 10
6.2459339793
 20
5.0820805052
 30
0.0
 10
6.2459338023
 20
5.0820805867
 30
0.0
 10
6.2459330489
 20
5.082080793
 30
0.0
 10
6.245931413
 20
5.0820814006
 30
0.0
 10
6.2459286513
 20
5.0820823163
 30
0.0
 10
6.245922796
 20
5.0820843345
 30
0.0
 10
6.2459127322
 20
5.082087765
 30
0.0
 10
6.2458973906
 20
5.0820930222
 30
0.0
 10
6.2458776912
 20
5.0820997642
 30
0.0
 10
6.2458536509
 20
5.0821079984
 30
0.0
 10
6.2458252859
 20
5.0821177169
 30
0.0
 10
6.2457788984
 20
5.0821336235
 30
0.0
 10
6.2457103491
 20
5.0821571855
 30
0.0
 10
6.2456155997
 20
5.082189836
 30
0.0
 10
6.2455044592
 20
5.0822282544
 30
0.0
 10
6.2453773374
 20
5.0822723633
 30
0.0
 10
6.2452346775
 20
5.082322047
 30
0.0
 10
6.2450148121
 20
5.0823989758
 30
0.0
 10
6.2447052904
 20
5.0825082953
 30
0.0
 10
6.244295261
 20
5.0826546623
 30
0.0
 10
6.2438375962
 20
5.0828203011
 30
0.0
 10
6.243337849
 20
5.0830038549
 30
0.0
 10
6.2426033575
 20
5.0832777284
 30
0.0
 10
6.2418335378
 20
5.0835736791
 30
0.0
 10
6.2410356573
 20
5.0838880137
 30
0.0
 10
6.2402005301
 20
5.0842235527
 30
0.0
 10
6.2393598705
 20
5.0845721363
 30
0.0
 10
6.2385202554
 20
5.0849303726
 30
0.0
 10
6.2378971981
 20
5.0852014796
 30
0.0
 10
6.2372860108
 20
5.0854726712
 30
0.0
 10
6.2366911862
 20
5.0857415523
 30
0.0
 10
6.2361173879
 20
5.0860060509
 30
0.0
 10
6.2355689402
 20
5.0862631271
 30
0.0
 10
6.2350505163
 20
5.086510052
 30
0.0
 10
6.2345669648
 20
5.0867439894
 30
0.0
 10
6.2341882452
 20
5.0869299119
 30
0.0
 10
6.2339063555
 20
5.0870696916
 30
0.0
 10
6.2337120892
 20
5.0871665562
 30
0.0
 10
6.2335302921
 20
5.0872577151
 30
0.0
 10
6.2333616308
 20
5.0873428019
 30
0.0
 10
6.2332067064
 20
5.0874213327
 30
0.0
 10
6.2330661253
 20
5.0874928828
 30
0.0
 10
6.2329405056
 20
5.087557124
 30
0.0
 10
6.2328303739
 20
5.0876136281
 30
0.0
 10
6.2327485013
 20
5.0876557
 30
0.0
 10
6.2326911452
 20
5.0876852809
 30
0.0
 10
6.2326543354
 20
5.087704297
 30
0.0
 10
6.2326217414
 20
5.0877211555
 30
0.0
 10
6.2325934106
 20
5.0877358146
 30
0.0
 10
6.2325693791
 20
5.0877482429
 30
0.0
 10
6.2325520564
 20
5.0877572053
 30
0.0
 10
6.2325403694
 20
5.0877632611
 30
0.0
 10
6.2325332346
 20
5.0877669608
 30
0.0
 10
6.2325271912
 20
5.0877700982
 30
0.0
 10
6.2325222385
 20
5.0877726674
 30
0.0
 10
6.2325183864
 20
5.0877746753
 30
0.0
 10
6.2325158501
 20
5.0877759789
 30
0.0
 10
6.232514389
 20
5.0877767583
 30
0.0
 10
6.2325136786
 20
5.0877770958
 30
0.0
 10
6.2325132965
 20
5.087777352
 30
0.0
 10
6.2325130765
 20
5.0877774076
 30
0.0
 10
6.2325130445
 20
5.0877774493
 30
0.0
  0
SPLINE
  5
33C
100
AcDbEntity
  8
0
100
AcDbSpline
 62
7
  6
CONTINUOUS
 70
0
 71
3
 72
83
 73
79
 74
0
 42
0.0000001
 43
0.0000001
 44
0.0000000001
 40
0.0
 40
0.0
 40
0.0
 40
0.0
 40
0.0000090701
 40
0.0000363362
 40
0.0000818879
 40
0.0001458145
 40
0.0002282056
 40
0.0003291505
 40
0.0005870595
 40
0.0009202565
 40
0.0013293036
 40
0.0018144345
 40
0.0023758399
 40
0.0030137105
 40
0.0037282174
 40
0.0053859741
 40
0.0073450249
 40
0.00960103
 40
0.0121503302
 40
0.0149895472
 40
0.0181165845
 40
0.0215305088
 40
0.0292157518
 40
0.0380380198
 40
0.0479812057
 40
0.059013555
 40
0.0711011398
 40
0.084216189
 40
0.0983320739
 40
0.1134193225
 40
0.1463713207
 40
0.1827471153
 40
0.2221511302
 40
0.264189194
 40
0.3084752889
 40
0.3546036613
 40
0.4021151463
 40
0.4505463345
 40
0.4994342776
 40
0.5483082358
 40
0.5967076354
 40
0.6441894135
 40
0.6903040442
 40
0.734596895
 40
0.7766532518
 40
0.8160829778
 40
0.8346931171
 40
0.8525002525
 40
0.8694589642
 40
0.8855324077
 40
0.9006880988
 40
0.9148930001
 40
0.9281143299
 40
0.9403168866
 40
0.9514634457
 40
0.9615132275
 40
0.9704310517
 40
0.9782026742
 40
0.9816559461
 40
0.9848195941
 40
0.9876926819
 40
0.9902731281
 40
0.992557272
 40
0.9945412048
 40
0.996220506
 40
0.9969445062
 40
0.9975909521
 40
0.9981599899
 40
0.9986517965
 40
0.9990665489
 40
0.9994044599
 40
0.9996660613
 40
0.9997684641
 40
0.9998520517
 40
0.9999169115
 40
0.9999631312
 40
0.9999907982
 40
1.0
 40
1.0
 40
1.0
 40
1.0
 10
6.2753610128
 20
5.0743386109
 30
0.0
 10
6.2753609976
 20
5.0743385742
 30
0.0
 10
6.2753607796
 20
5.0743386833
 30
0.0
 10
6.2753604799
 20
5.0743386173
 30
0.0
 10
6.2753598504
 20
5.0743387172
 30
0.0
 10
6.2753590279
 20
5.0743387585
 30
0.0
 10
6.2753579435
 20
5.0743388517
 30
0.0
 10
6.2753560213
 20
5.0743389972
 30
0.0
 10
6.2753530003
 20
5.0743392355
 30
0.0
 10
6.2753486378
 20
5.0743395749
 30
0.0
 10
6.2753432831
 20
5.074339994
 30
0.0
 10
6.2753369332
 20
5.0743404911
 30
0.0
 10
6.275329585
 20
5.0743410678
 30
0.0
 10
6.2753212363
 20
5.0743417242
 30
0.0
 10
6.275308105
 20
5.0743427587
 30
0.0
 10
6.2752892108
 20
5.0743442534
 30
0.0
 10
6.2752635934
 20
5.0743462953
 30
0.0
 10
6.2752340887
 20
5.0743486681
 30
0.0
 10
6.2752007458
 20
5.0743513604
 30
0.0
 10
6.2751636038
 20
5.0743543595
 30
0.0
 10
6.2751226906
 20
5.0743576636
 30
0.0
 10
6.2750606416
 20
5.0743626869
 30
0.0
 10
6.2749737551
 20
5.0743697558
 30
0.0
 10
6.2748583923
 20
5.07437915
 30
0.0
 10
6.2747284452
 20
5.0743899044
 30
0.0
 10
6.2745842756
 20
5.0744020441
 30
0.0
 10
6.2744262897
 20
5.0744155187
 30
0.0
 10
6.2742548733
 20
5.0744303018
 30
0.0
 10
6.2740703975
 20
5.074446422
 30
0.0
 10
6.2737994763
 20
5.0744704271
 30
0.0
 10
6.2734315787
 20
5.0745035943
 30
0.0
 10
6.2729578802
 20
5.0745482345
 30
0.0
 10
6.2724447725
 20
5.0745984221
 30
0.0
 10
6.2718974178
 20
5.0746540199
 30
0.0
 10
6.2713210207
 20
5.0747148322
 30
0.0
 10
6.2707210656
 20
5.0747805856
 30
0.0
 10
6.2701033955
 20
5.0748511357
 30
0.0
 10
6.269474058
 20
5.0749258889
 30
0.0
 10
6.2688391341
 20
5.0750041059
 30
0.0
 10
6.2682047251
 20
5.0750853131
 30
0.0
 10
6.2675768739
 20
5.0751692151
 30
0.0
 10
6.2669614097
 20
5.0752545823
 30
0.0
 10
6.2663640359
 20
5.0753395539
 30
0.0
 10
6.2657905847
 20
5.0754240771
 30
0.0
 10
6.2652464612
 20
5.0755069172
 30
0.0
 10
6.2648136832
 20
5.0755744073
 30
0.0
 10
6.2644859025
 20
5.0756265142
 30
0.0
 10
6.2642552824
 20
5.0756634949
 30
0.0
 10
6.2640356834
 20
5.0756990965
 30
0.0
 10
6.2638276187
 20
5.0757333402
 30
0.0
 10
6.2636315091
 20
5.0757660173
 30
0.0
 10
6.2634477652
 20
5.0757969712
 30
0.0
 10
6.2632768117
 20
5.0758260579
 30
0.0
 10
6.2631190867
 20
5.0758531063
 30
0.0
 10
6.2629750628
 20
5.0758779397
 30
0.0
 10
6.2628452176
 20
5.0759004122
 30
0.0
 10
6.2627299388
 20
5.0759204504
 30
0.0
 10
6.2626431279
 20
5.0759357102
 30
0.0
 10
6.2625811221
 20
5.0759466435
 30
0.0
 10
6.2625402273
 20
5.0759538621
 30
0.0
 10
6.262503095
 20
5.075960424
 30
0.0
 10
6.2624697534
 20
5.0759663207
 30
0.0
 10
6.2624402432
 20
5.0759715403
 30
0.0
 10
6.2624146153
 20
5.075976069
 30
0.0
 10
6.2623957103
 20
5.0759794099
 30
0.0
 10
6.2623825693
 20
5.0759817359
 30
0.0
 10
6.2623742127
 20
5.0759832175
 30
0.0
 10
6.2623668569
 20
5.0759845238
 30
0.0
 10
6.2623605
 20
5.0759856553
 30
0.0
 10
6.2623551383
 20
5.0759866115
 30
0.0
 10
6.2623507714
 20
5.0759873943
 30
0.0
 10
6.2623477437
 20
5.0759879355
 30
0.0
 10
6.2623458232
 20
5.0759882856
 30
0.0
 10
6.2623447283
 20
5.0759884747
 30
0.0
 10
6.2623439278
 20
5.0759886415
 30
0.0
 10
6.2623432452
 20
5.0759887154
 30
0.0
 10
6.2623430365
 20
5.0759888404
 30
0.0
 10
6.2623427238
 20
5.0759888073
 30
0.0
 10
6.2623427473
 20
5.0759888399
 30
0.0
  0
SPLINE
  5
33D
100
AcDbEntity
  8
0
100
AcDbSpline
 62
7
  6
CONTINUOUS
 70
0
 71
3
 72
77
 73
73
 74
0
 42
0.0000001
 43
0.0000001
 44
0.0000000001
 40
0.0
 40
0.0
 40
0.0
 40
0.0
 40
0.0000092165
 40
0.0000368886
 40
0.0000831059
 40
0.0001479582
 40
0.0002315351
 40
0.0003339262
 40
0.00059551
 40
0.0009334252
 40
0.001348208
 40
0.001840057
 40
0.0024091335
 40
0.0037795842
 40
0.0054587796
 40
0.0074426245
 40
0.0097268044
 40
0.0123073504
 40
0.015180505
 40
0.0183441473
 40
0.021797332
 40
0.0295687647
 40
0.0384868624
 40
0.0485366176
 40
0.0596831211
 40
0.0718856969
 40
0.0851070082
 40
0.0993120763
 40
0.1144677013
 40
0.147499638
 40
0.1839171115
 40
0.2233470074
 40
0.2654033239
 40
0.309695218
 40
0.3558113711
 40
0.4032925845
 40
0.5005656037
 40
0.5978850675
 40
0.6453965414
 40
0.691524212
 40
0.7358104643
 40
0.7778490958
 40
0.8172527095
 40
0.8536285589
 40
0.8865806453
 40
0.9016678817
 40
0.9157838111
 40
0.9288988281
 40
0.9409863734
 40
0.9520187879
 40
0.9619620187
 40
0.9707842162
 40
0.97846949
 40
0.9818834096
 40
0.9850104312
 40
0.9878496504
 40
0.9903989754
 40
0.9926549955
 40
0.994614031
 40
0.9962717668
 40
0.9976241452
 40
0.9981855567
 40
0.9986706938
 40
0.9990797446
 40
0.9994129396
 40
0.9996708425
 40
0.9997717843
 40
0.9998541732
 40
0.999918099
 40
0.9999636521
 40
0.9999909224
 40
1.0
 40
1.0
 40
1.0
 40
1.0
 10
6.3049954926
 20
5.0759888399
 30
0.0
 10
6.3049954703
 20
5.0759888064
 30
0.0
 10
6.3049952693
 20
5.0759888413
 30
0.0
 10
6.3049949523
 20
5.0759887146
 30
0.0
 10
6.3049943315
 20
5.0759886419
 30
0.0
 10
6.3049935037
 20
5.0759884748
 30
0.0
 10
6.3049924195
 20
5.0759882862
 30
0.0
 10
6.304990494
 20
5.0759879363
 30
0.0
 10
6.3049874697
 20
5.0759873953
 30
0.0
 10
6.3049831014
 20
5.0759866122
 30
0.0
 10
6.3049777401
 20
5.075985655
 30
0.0
 10
6.3049713827
 20
5.0759845223
 30
0.0
 10
6.3049609075
 20
5.0759826605
 30
0.0
 10
6.3049453151
 20
5.0759798994
 30
0.0
 10
6.3049236246
 20
5.07597607
 30
0.0
 10
6.304897997
 20
5.0759715439
 30
0.0
 10
6.3048684869
 20
5.0759663228
 30
0.0
 10
6.3048351449
 20
5.075960423
 30
0.0
 10
6.3047980123
 20
5.075953859
 30
0.0
 10
6.3047571176
 20
5.0759466406
 30
0.0
 10
6.3046951124
 20
5.0759357112
 30
0.0
 10
6.3046083
 20
5.0759204603
 30
0.0
 10
6.304493024
 20
5.0759004054
 30
0.0
 10
6.3043631768
 20
5.0758779394
 30
0.0
 10
6.3042191532
 20
5.0758531069
 30
0.0
 10
6.3040614288
 20
5.0758260573
 30
0.0
 10
6.3038904741
 20
5.0757969734
 30
0.0
 10
6.3037067313
 20
5.0757660115
 30
0.0
 10
6.3034374238
 20
5.0757211293
 30
0.0
 10
6.3030720289
 20
5.0756615443
 30
0.0
 10
6.3026015434
 20
5.0755864425
 30
0.0
 10
6.3020917799
 20
5.0755069029
 30
0.0
 10
6.3015476639
 20
5.0754240371
 30
0.0
 10
6.3009741815
 20
5.0753397156
 30
0.0
 10
6.300376855
 20
5.0752544143
 30
0.0
 10
6.2995495117
 20
5.0751399415
 30
0.0
 10
6.2984991877
 20
5.0750023213
 30
0.0
 10
6.2974473734
 20
5.074875513
 30
0.0
 10
6.2966171631
 20
5.0747806661
 30
0.0
 10
6.2960172267
 20
5.0747147663
 30
0.0
 10
6.2954408271
 20
5.0746539777
 30
0.0
 10
6.294893462
 20
5.0745984735
 30
0.0
 10
6.2943803604
 20
5.0745482157
 30
0.0
 10
6.2939066616
 20
5.0745035931
 30
0.0
 10
6.2935387633
 20
5.0744704306
 30
0.0
 10
6.2932678422
 20
5.0744464199
 30
0.0
 10
6.2930833661
 20
5.0744303049
 30
0.0
 10
6.2929119502
 20
5.0744155188
 30
0.0
 10
6.2927539648
 20
5.07440204
 30
0.0
 10
6.2926097945
 20
5.0743899051
 30
0.0
 10
6.292479847
 20
5.0743791551
 30
0.0
 10
6.2923644848
 20
5.0743697527
 30
0.0
 10
6.2922775983
 20
5.0743626873
 30
0.0
 10
6.2922155494
 20
5.0743576636
 30
0.0
 10
6.2921746363
 20
5.0743543584
 30
0.0
 10
6.2921374943
 20
5.0743513595
 30
0.0
 10
6.2921041511
 20
5.0743486687
 30
0.0
 10
6.2920746462
 20
5.0743462968
 30
0.0
 10
6.292049029
 20
5.074344254
 30
0.0
 10
6.2920273525
 20
5.0743425378
 30
0.0
 10
6.2920117722
 20
5.0743413113
 30
0.0
 10
6.292001307
 20
5.0743404905
 30
0.0
 10
6.2919949569
 20
5.0743399937
 30
0.0
 10
6.2919896023
 20
5.074339575
 30
0.0
 10
6.2919852393
 20
5.0743392354
 30
0.0
 10
6.2919822196
 20
5.0743389979
 30
0.0
 10
6.2919802956
 20
5.074338851
 30
0.0
 10
6.2919792149
 20
5.0743387606
 30
0.0
 10
6.2919783829
 20
5.074338712
 30
0.0
 10
6.2919777749
 20
5.0743386285
 30
0.0
 10
6.2919774375
 20
5.0743386658
 30
0.0
 10
6.2919772584
 20
5.0743385863
 30
0.0
 10
6.2919772272
 20
5.0743386109
 30
0.0
  0
SPLINE
  5
33E
100
AcDbEntity
  8
0
100
AcDbSpline
 62
7
  6
CONTINUOUS
 70
0
 71
3
 72
31
 73
27
 74
0
 42
0.0000001
 43
0.0000001
 44
0.0000000001
 40
0.0
 40
0.0
 40
0.0
 40
0.0
 40
0.0312049949
 40
0.0624107939
 40
0.0936178323
 40
0.1248265335
 40
0.187232562
 40
0.2496498836
 40
0.2808725918
 40
0.3120990592
 40
0.3433295308
 40
0.3745642151
 40
0.4370289332
 40
0.499512024
 40
0.5620136839
 40
0.6245334311
 40
0.6558086891
 40
0.6870879875
 40
0.7183710871
 40
0.7496577146
 40
0.812222459
 40
0.874797289
 40
0.9060964271
 40
0.9373968794
 40
0.9686981832
 40
1.0
 40
1.0
 40
1.0
 40
1.0
 10
6.414859558
 20
5.2198674596
 30
0.0
 10
6.4156384049
 20
5.2198370936
 30
0.0
 10
6.4171949215
 20
5.219738937
 30
0.0
 10
6.4195197563
 20
5.2194798134
 30
0.0
 10
6.4218296691
 20
5.2191093631
 30
0.0
 10
6.4248818686
 20
5.2184683021
 30
0.0
 10
6.4286346478
 20
5.2173931473
 30
0.0
 10
6.4322673628
 20
5.2159629923
 30
0.0
 10
6.4350807509
 20
5.2146143879
 30
0.0
 10
6.4371406943
 20
5.2135025242
 30
0.0
 10
6.4391452272
 20
5.2122930304
 30
0.0
 10
6.4417375617
 20
5.2105542234
 30
0.0
 10
6.4448180619
 20
5.2081500351
 30
0.0
 10
6.4482216832
 20
5.2049245926
 30
0.0
 10
6.4513023761
 20
5.2013876031
 30
0.0
 10
6.4535772071
 20
5.1982068978
 30
0.0
 10
6.4552083716
 20
5.1955412919
 30
0.0
 10
6.456335327
 20
5.1934850643
 30
0.0
 10
6.4573628762
 20
5.1913770911
 30
0.0
 10
6.458597115
 20
5.1885044063
 30
0.0
 10
6.4598806715
 20
5.184807335
 30
0.0
 10
6.460805769
 20
5.1810043767
 30
0.0
 10
6.4613257686
 20
5.1779203135
 30
0.0
 10
6.4616050695
 20
5.175590597
 30
0.0
 10
6.4617728965
 20
5.1732502462
 30
0.0
 10
6.4618102213
 20
5.1716862857
 30
0.0
 10
6.4618102213
 20
5.1709044287
 30
0.0
  0
SPLINE
  5
33F
100
AcDbEntity
  8
0
100
AcDbSpline
 62
7
  6
CONTINUOUS
 70
0
 71
3
 72
27
 73
23
 74
0
 42
0.0000001
 43
0.0000001
 44
0.0000000001
 40
0.0
 40
0.0
 40
0.0
 40
0.0
 40
0.0676195984
 40
0.1013671418
 40
0.1350357534
 40
0.1686012765
 40
0.2020412785
 40
0.2353352844
 40
0.2684649549
 40
0.3341616993
 40
0.3667116496
 40
0.3990472963
 40
0.4630427979
 40
0.526122105
 40
0.5882786186
 40
0.6495263755
 40
0.7098930265
 40
0.7694155655
 40
0.8281391422
 40
0.8861119906
 40
0.9433822731
 40
1.0
 40
1.0
 40
1.0
 40
1.0
 10
5.04615662
 20
5.1709044287
 30
0.0
 10
5.0461565398
 20
5.1688439512
 30
0.0
 10
5.0460541126
 20
5.1657538993
 30
0.0
 10
5.045717491
 20
5.1616524655
 30
0.0
 10
5.0453666759
 20
5.1585948664
 30
0.0
 10
5.044918526
 20
5.1555595425
 30
0.0
 10
5.0443742736
 20
5.1525515713
 30
0.0
 10
5.0437368923
 20
5.1495755115
 30
0.0
 10
5.0427700681
 20
5.1456668931
 30
0.0
 10
5.0416282132
 20
5.1418267806
 30
0.0
 10
5.0403199876
 20
5.1380684287
 30
0.0
 10
5.0389175064
 20
5.134399618
 30
0.0
 10
5.0369828804
 20
5.1299407543
 30
0.0
 10
5.0343876915
 20
5.1247882656
 30
0.0
 10
5.0315523883
 20
5.1198604095
 30
0.0
 10
5.0285013451
 20
5.1151616871
 30
0.0
 10
5.0252580705
 20
5.1106926061
 30
0.0
 10
5.0218441359
 20
5.106451029
 30
0.0
 10
5.0182774976
 20
5.1024342819
 30
0.0
 10
5.0145747535
 20
5.0986381302
 30
0.0
 10
5.0107513983
 20
5.0950570558
 30
0.0
 10
5.0081159668
 20
5.0927972633
 30
0.0
 10
5.0067825544
 20
5.0917025306
 30
0.0
  0
SPLINE
  5
340
100
AcDbEntity
  8
0
100
AcDbSpline
 62
7
  6
CONTINUOUS
 70
0
 71
3
 72
24
 73
20
 74
0
 42
0.0000001
 43
0.0000001
 44
0.0000000001
 40
0.0
 40
0.0
 40
0.0
 40
0.0
 40
0.0704793613
 40
0.1396301976
 40
0.2074587067
 40
0.2740040491
 40
0.3393279566
 40
0.4035053721
 40
0.4666184439
 40
0.52875175
 40
0.5594800722
 40
0.5899946802
 40
0.6504187634
 40
0.7101075919
 40
0.7691360115
 40
0.8275745419
 40
0.8854900505
 40
0.9429453622
 40
1.0
 40
1.0
 40
1.0
 40
1.0
 10
5.4226480017
 20
5.1319666878
 30
0.0
 10
5.4235587509
 20
5.1297854578
 30
0.0
 10
5.4255112845
 20
5.1255243032
 30
0.0
 10
5.4288288975
 20
5.1194030387
 30
0.0
 10
5.4324649921
 20
5.1136208238
 30
0.0
 10
5.4363798225
 20
5.1081815071
 30
0.0
 10
5.4405382922
 20
5.1030836104
 30
0.0
 10
5.4449090715
 20
5.0983220419
 30
0.0
 10
5.4494648483
 20
5.0938898034
 30
0.0
 10
5.4534103279
 20
5.0904509089
 30
0.0
 10
5.4566361248
 20
5.0878588322
 30
0.0
 10
5.4598830301
 20
5.0853867804
 30
0.0
 10
5.4640195398
 20
5.0824827452
 30
0.0
 10
5.4691061752
 20
5.0792809496
 30
0.0
 10
5.4742857548
 20
5.0763653749
 30
0.0
 10
5.4795459577
 20
5.0737283967
 30
0.0
 10
5.4848760317
 20
5.0713630568
 30
0.0
 10
5.4902661199
 20
5.069263083
 30
0.0
 10
5.4939056019
 20
5.0680322996
 30
0.0
 10
5.4957315468
 20
5.0674601231
 30
0.0
  0
SPLINE
  5
341
100
AcDbEntity
  8
0
100
AcDbSpline
 62
7
  6
CONTINUOUS
 70
0
 71
3
 72
26
 73
22
 74
0
 42
0.0000001
 43
0.0000001
 44
0.0000000001
 40
0.0
 40
0.0
 40
0.0
 40
0.0
 40
0.0570535903
 40
0.1145077537
 40
0.1724218674
 40
0.2308592919
 40
0.2898863203
 40
0.3495739965
 40
0.4099966466
 40
0.4712331179
 40
0.5333649923
 40
0.5964767466
 40
0.6606527239
 40
0.6931692335
 40
0.72598238
 40
0.7925262632
 40
0.8603532176
 40
0.8947658503
 40
0.9295119045
 40
0.9645910436
 40
1.0
 40
1.0
 40
1.0
 40
1.0
 10
5.4957312335
 20
5.2743486379
 30
0.0
 10
5.4939052935
 20
5.2737764593
 30
0.0
 10
5.4902658296
 20
5.2725456591
 30
0.0
 10
5.4848757602
 20
5.2704457084
 30
0.0
 10
5.4795457343
 20
5.2680803326
 30
0.0
 10
5.4742855414
 20
5.2654434021
 30
0.0
 10
5.4691060317
 20
5.2625277907
 30
0.0
 10
5.464019343
 20
5.2593260291
 30
0.0
 10
5.4590393888
 20
5.2558297484
 30
0.0
 10
5.4541818413
 20
5.252030451
 30
0.0
 10
5.449464847
 20
5.2479190163
 30
0.0
 10
5.4449090708
 20
5.2434868556
 30
0.0
 10
5.4412826056
 20
5.239536102
 30
0.0
 10
5.4384873504
 20
5.2362109555
 30
0.0
 10
5.4357426666
 20
5.2327420537
 30
0.0
 10
5.4324650304
 20
5.2281881215
 30
0.0
 10
5.4294494883
 20
5.2233926115
 30
0.0
 10
5.4271940752
 20
5.219389253
 30
0.0
 10
5.4255788873
 20
5.2162880024
 30
0.0
 10
5.4240538501
 20
5.2131044029
 30
0.0
 10
5.4231054144
 20
5.2109383306
 30
0.0
 10
5.4226478544
 20
5.209842455
 30
0.0
  0
SPLINE
  5
342
100
AcDbEntity
  8
0
100
AcDbSpline
 62
7
  6
CONTINUOUS
 70
0
 71
3
 72
38
 73
34
 74
0
 42
0.0000001
 43
0.0000001
 44
0.0000000001
 40
0.0
 40
0.0
 40
0.0
 40
0.0
 40
0.0279913123
 40
0.0560010959
 40
0.1121276754
 40
0.1685104414
 40
0.22527865
 40
0.2825725175
 40
0.3405471164
 40
0.3698490958
 40
0.3993888428
 40
0.4592696072
 40
0.4896806307
 40
0.5204403258
 40
0.5515804138
 40
0.5831329643
 40
0.6151311902
 40
0.647606527
 40
0.6805887284
 40
0.7141027042
 40
0.7481655818
 40
0.7827833478
 40
0.8179458036
 40
0.8357251474
 40
0.853627424
 40
0.8716449102
 40
0.889768205
 40
0.9079861689
 40
0.9262860252
 40
0.9446534671
 40
0.9630728774
 40
0.981527488
 40
1.0
 40
1.0
 40
1.0
 40
1.0
 10
4.9206805481
 20
5.2802727578
 30
0.0
 10
4.9224008072
 20
5.2802563938
 30
0.0
 10
4.925842238
 20
5.2801633765
 30
0.0
 10
4.9327213467
 20
5.2797352449
 30
0.0
 10
4.9413083931
 20
5.2787432532
 30
0.0
 10
4.9515406726
 20
5.2768145612
 30
0.0
 10
4.9616761184
 20
5.274129597
 30
0.0
 10
4.9716759322
 20
5.2706645055
 30
0.0
 10
4.9798312934
 20
5.2671126187
 30
0.0
 10
4.9862309598
 20
5.2638545203
 30
0.0
 10
4.9925931335
 20
5.260278625
 30
0.0
 10
4.9987798661
 20
5.2562626305
 30
0.0
 10
5.0047378218
 20
5.2518036116
 30
0.0
 10
5.0091200403
 20
5.2481968966
 30
0.0
 10
5.013377579
 20
5.2443384959
 30
0.0
 10
5.0174933255
 20
5.2402205189
 30
0.0
 10
5.0214487053
 20
5.2358368142
 30
0.0
 10
5.0252211577
 20
5.2311807479
 30
0.0
 10
5.0287862193
 20
5.2262482928
 30
0.0
 10
5.0321160548
 20
5.2210375348
 30
0.0
 10
5.0351789579
 20
5.2155496976
 30
0.0
 10
5.0379417549
 20
5.2097919871
 30
0.0
 10
5.039955804
 20
5.2047972087
 30
0.0
 10
5.0413830474
 20
5.2006830202
 30
0.0
 10
5.0423595908
 20
5.1975297837
 30
0.0
 10
5.0432334781
 20
5.1943246697
 30
0.0
 10
5.0440009061
 20
5.1910724472
 30
0.0
 10
5.0446578066
 20
5.1877783912
 30
0.0
 10
5.0452002678
 20
5.1844483479
 30
0.0
 10
5.0456257678
 20
5.1810888605
 30
0.0
 10
5.0459314189
 20
5.1777067788
 30
0.0
 10
5.0461154789
 20
5.1743094831
 30
0.0
 10
5.0461566104
 20
5.1720397433
 30
0.0
 10
5.04615662
 20
5.1709044287
 30
0.0
  0
SPLINE
  5
343
100
AcDbEntity
  8
0
100
AcDbSpline
 62
7
  6
CONTINUOUS
 70
0
 71
3
 72
38
 73
34
 74
0
 42
0.0000001
 43
0.0000001
 44
0.0000000001
 40
0.0
 40
0.0
 40
0.0
 40
0.0
 40
0.0369207671
 40
0.0553400118
 40
0.0737072756
 40
0.0920069437
 40
0.1102247391
 40
0.1283478813
 40
0.1463652152
 40
0.164267298
 40
0.1820464357
 40
0.2172086643
 40
0.2518261227
 40
0.2858886043
 40
0.3194023282
 40
0.3523843781
 40
0.3848594736
 40
0.4168574176
 40
0.4484097672
 40
0.4795496271
 40
0.510309012
 40
0.5407198772
 40
0.570812056
 40
0.6006143186
 40
0.6301538374
 40
0.6594556328
 40
0.7174297468
 40
0.7747231404
 40
0.8314908635
 40
0.8878731708
 40
0.9439992635
 40
0.9720087647
 40
1.0
 40
1.0
 40
1.0
 40
1.0
 10
4.7924066232
 20
5.1709044287
 30
0.0
 10
4.7924067261
 20
5.1731735553
 30
0.0
 10
4.7925309477
 20
5.1765763584
 30
0.0
 10
4.7929386819
 20
5.1810885981
 30
0.0
 10
4.793363178
 20
5.18444823
 30
0.0
 10
4.793905255
 20
5.1877782773
 30
0.0
 10
4.7945624215
 20
5.1910722393
 30
0.0
 10
4.7953301571
 20
5.1943243396
 30
0.0
 10
4.7962041745
 20
5.1975293631
 30
0.0
 10
4.79718022
 20
5.2006826945
 30
0.0
 10
4.7986069259
 20
5.2047970165
 30
0.0
 10
4.8006217294
 20
5.20979142
 30
0.0
 10
4.8033841379
 20
5.2155491874
 30
0.0
 10
4.8064467087
 20
5.2210371187
 30
0.0
 10
4.8097765425
 20
5.2262477869
 30
0.0
 10
4.8133416739
 20
5.2311801017
 30
0.0
 10
4.8171140228
 20
5.2358361536
 30
0.0
 10
4.8210692774
 20
5.2402198749
 30
0.0
 10
4.8251849635
 20
5.2443377975
 30
0.0
 10
4.8294424439
 20
5.2481961938
 30
0.0
 10
4.8338244244
 20
5.2518029053
 30
0.0
 10
4.8383165615
 20
5.2551648146
 30
0.0
 10
4.8429056871
 20
5.2582894838
 30
0.0
 10
4.847580512
 20
5.2611836862
 30
0.0
 10
4.8523311191
 20
5.2638539146
 30
0.0
 10
4.8587305561
 20
5.2671119369
 30
0.0
 10
4.8668858193
 20
5.2706639311
 30
0.0
 10
4.8768854385
 20
5.2741290804
 30
0.0
 10
4.8870207166
 20
5.2768141449
 30
0.0
 10
4.89725283
 20
5.2787429452
 30
0.0
 10
4.9058397429
 20
5.2797350418
 30
0.0
 10
4.9127187572
 20
5.2801632819
 30
0.0
 10
4.916160147
 20
5.2802563366
 30
0.0
 10
4.9178803922
 20
5.2802727304
 30
0.0
  0
SPLINE
  5
344
100
AcDbEntity
  8
0
100
AcDbSpline
 62
7
  6
CONTINUOUS
 70
0
 71
3
 72
106
 73
102
 74
0
 42
0.0000001
 43
0.0000001
 44
0.0000000001
 40
0.0
 40
0.0
 40
0.0
 40
0.0
 40
0.0000032003
 40
0.0000127328
 40
0.0000285931
 40
0.0000507768
 40
0.0000792794
 40
0.0001140965
 40
0.0002026565
 40
0.0003164211
 40
0.000455351
 40
0.0006193887
 40
0.0008084718
 40
0.0010225376
 40
0.0012615236
 40
0.0018139858
 40
0.0024652409
 40
0.0032146424
 40
0.0040615135
 40
0.0050051369
 40
0.0060447652
 40
0.0071794567
 40
0.0097298237
 40
0.0126464023
 40
0.0159182249
 40
0.0195343356
 40
0.0234836037
 40
0.0277549775
 40
0.0323372202
 40
0.037218201
 40
0.0478290803
 40
0.0594974934
 40
0.0721404318
 40
0.0856813945
 40
0.1000515644
 40
0.1151895735
 40
0.1310412175
 40
0.1475598276
 40
0.1647046694
 40
0.200729678
 40
0.2388779933
 40
0.2789483474
 40
0.2996473081
 40
0.3207536442
 40
0.3422390236
 40
0.3640717954
 40
0.386216007
 40
0.4086306706
 40
0.4312698402
 40
0.4540825557
 40
0.4999953702
 40
0.5229864584
 40
0.5459175257
 40
0.5687302431
 40
0.5913694049
 40
0.6137840885
 40
0.6359282846
 40
0.6577610368
 40
0.6792464545
 40
0.7003527757
 40
0.7210517133
 40
0.7611220792
 40
0.7992703993
 40
0.8352953191
 40
0.8524402051
 40
0.8689588992
 40
0.884810484
 40
0.8999483648
 40
0.9143185909
 40
0.9278596
 40
0.9405026284
 40
0.9521710608
 40
0.9627818472
 40
0.9676627941
 40
0.9722450313
 40
0.9765164081
 40
0.9804656504
 40
0.9840817112
 40
0.9873535055
 40
0.9902700973
 40
0.9928205536
 40
0.9939553104
 40
0.9949949907
 40
0.9959386385
 40
0.9967855121
 40
0.9975349021
 40
0.9981861369
 40
0.9987385726
 40
0.9989775439
 40
0.9991915947
 40
0.9993806628
 40
0.9995446862
 40
0.9996836028
 40
0.9997973557
 40
0.9998859063
 40
0.9999207201
 40
0.9999492203
 40
0.9999714027
 40
0.999987263
 40
0.9999967969
 40
1.0
 40
1.0
 40
1.0
 40
1.0
 10
6.1721623937
 20
5.1227794287
 30
0.0
 10
6.1721622907
 20
5.1227794785
 30
0.0
 10
6.1721620348
 20
5.1227798879
 30
0.0
 10
6.1721612765
 20
5.1227805539
 30
0.0
 10
6.1721601391
 20
5.1227818331
 30
0.0
 10
6.1721584912
 20
5.1227835434
 30
0.0
 10
6.172156398
 20
5.1227857738
 30
0.0
 10
6.1721526694
 20
5.1227897204
 30
0.0
 10
6.1721468569
 20
5.1227958938
 30
0.0
 10
6.1721384956
 20
5.1228047791
 30
0.0
 10
6.1721282935
 20
5.122815638
 30
0.0
 10
6.1721162553
 20
5.1228284668
 30
0.0
 10
6.1721023881
 20
5.1228432632
 30
0.0
 10
6.1720866986
 20
5.1228600242
 30
0.0
 10
6.172062146
 20
5.1228862848
 30
0.0
 10
6.1720269528
 20
5.1229239955
 30
0.0
 10
6.1719793668
 20
5.1229751022
 30
0.0
 10
6.1719246749
 20
5.1230339751
 30
0.0
 10
6.171862941
 20
5.1231005737
 30
0.0
 10
6.1717942261
 20
5.1231748502
 30
0.0
 10
6.1717185978
 20
5.1232567496
 30
0.0
 10
6.1716041237
 20
5.1233809709
 30
0.0
 10
6.1714444639
 20
5.1235548086
 30
0.0
 10
6.1712338126
 20
5.123785559
 30
0.0
 10
6.1709984624
 20
5.1240453524
 30
0.0
 10
6.1707395286
 20
5.124333597
 30
0.0
 10
6.1704581509
 20
5.1246497139
 30
0.0
 10
6.1701554403
 20
5.1249930798
 30
0.0
 10
6.1698325294
 20
5.1253630388
 30
0.0
 10
6.1693635929
 20
5.1259063824
 30
0.0
 10
6.1687359755
 20
5.1266474187
 30
0.0
 10
6.1679420386
 20
5.127611132
 30
0.0
 10
6.1670971049
 20
5.1286683886
 30
0.0
 10
6.1662104367
 20
5.1298157191
 30
0.0
 10
6.1652908255
 20
5.1310500508
 30
0.0
 10
6.1643467215
 20
5.1323688175
 30
0.0
 10
6.1633863348
 20
5.1337699819
 30
0.0
 10
6.1624172454
 20
5.1352517035
 30
0.0
 10
6.1611013895
 20
5.1373677134
 30
0.0
 10
6.1594806198
 20
5.1402037487
 30
0.0
 10
6.1576466528
 20
5.1438557846
 30
0.0
 10
6.1562481579
 20
5.1471069069
 30
0.0
 10
6.1552214055
 20
5.1498487404
 30
0.0
 10
6.154498855
 20
5.1519936202
 30
0.0
 10
6.1538398185
 20
5.1542012245
 30
0.0
 10
6.153251423
 20
5.1564670949
 30
0.0
 10
6.152739632
 20
5.1587855661
 30
0.0
 10
6.1523115578
 20
5.1611502803
 30
0.0
 10
6.151972437
 20
5.1635535945
 30
0.0
 10
6.1516435098
 20
5.1668042402
 30
0.0
 10
6.1515111911
 20
5.1700850348
 30
0.0
 10
6.1515772973
 20
5.1733684528
 30
0.0
 10
6.1517264656
 20
5.175822146
 30
0.0
 10
6.15197244
 20
5.1782552963
 30
0.0
 10
6.1523113832
 20
5.1806586033
 30
0.0
 10
6.152739831
 20
5.1830232598
 30
0.0
 10
6.1532514256
 20
5.1853417652
 30
0.0
 10
6.1538397231
 20
5.1876076672
 30
0.0
 10
6.1544989531
 20
5.1898152132
 30
0.0
 10
6.1552214259
 20
5.1919601169
 30
0.0
 10
6.1562481397
 20
5.1947019655
 30
0.0
 10
6.1576466669
 20
5.1979530749
 30
0.0
 10
6.1594806529
 20
5.2016050957
 30
0.0
 10
6.1611013573
 20
5.2044411671
 30
0.0
 10
6.1624172389
 20
5.2065571635
 30
0.0
 10
6.1633863658
 20
5.2080388633
 30
0.0
 10
6.1643467326
 20
5.2094400362
 30
0.0
 10
6.1652907911
 20
5.2107588301
 30
0.0
 10
6.1662104316
 20
5.211993139
 30
0.0
 10
6.1670971058
 20
5.2131404735
 30
0.0
 10
6.167942062
 20
5.2141977194
 30
0.0
 10
6.1687360033
 20
5.2151614295
 30
0.0
 10
6.1693636041
 20
5.2159024749
 30
0.0
 10
6.1698325316
 20
5.2164458199
 30
0.0
 10
6.1701554415
 20
5.2168157782
 30
0.0
 10
6.1704581526
 20
5.2171591423
 30
0.0
 10
6.1707395261
 20
5.2174752594
 30
0.0
 10
6.1709984514
 20
5.2177635066
 30
0.0
 10
6.1712337975
 20
5.2180233007
 30
0.0
 10
6.1714444507
 20
5.2182540529
 30
0.0
 10
6.1716041214
 20
5.2184278888
 30
0.0
 10
6.1717186092
 20
5.2185521075
 30
0.0
 10
6.1717942459
 20
5.218634006
 30
0.0
 10
6.1718629647
 20
5.2187082827
 30
0.0
 10
6.1719246992
 20
5.2187748815
 30
0.0
 10
6.1719793893
 20
5.2188337546
 30
0.0
 10
6.1720269723
 20
5.2188848614
 30
0.0
 10
6.172062162
 20
5.2189225723
 30
0.0
 10
6.1720867114
 20
5.2189488331
 30
0.0
 10
6.1721023986
 20
5.2189655941
 30
0.0
 10
6.1721162634
 20
5.2189803906
 30
0.0
 10
6.1721282994
 20
5.2189932193
 30
0.0
 10
6.1721384995
 20
5.2190040783
 30
0.0
 10
6.1721468591
 20
5.2190129634
 30
0.0
 10
6.1721526703
 20
5.2190191369
 30
0.0
 10
6.1721563982
 20
5.2190230833
 30
0.0
 10
6.1721584909
 20
5.2190253141
 30
0.0
 10
6.1721601391
 20
5.2190270233
 30
0.0
 10
6.1721612753
 20
5.219028305
 30
0.0
 10
6.1721620357
 20
5.2190289668
 30
0.0
 10
6.1721622897
 20
5.2190293808
 30
0.0
 10
6.1721623937
 20
5.2190294287
 30
0.0
  0
SPLINE
  5
345
100
AcDbEntity
  8
0
100
AcDbSpline
 62
7
  6
CONTINUOUS
 70
0
 71
3
 72
31
 73
27
 74
0
 42
0.0000001
 43
0.0000001
 44
0.0000000001
 40
0.0
 40
0.0
 40
0.0
 40
0.0
 40
0.0098052584
 40
0.0199763582
 40
0.0308413294
 40
0.0426689294
 40
0.0556660481
 40
0.0699862131
 40
0.0857411914
 40
0.103011499
 40
0.1218546065
 40
0.1423109376
 40
0.1644081425
 40
0.1881641243
 40
0.2135891906
 40
0.2406875951
 40
0.2694586702
 40
0.2998976594
 40
0.3657410132
 40
0.4381211566
 40
0.5169003026
 40
0.6019095699
 40
0.6929534642
 40
0.7898130213
 40
0.8922482436
 40
1.0
 40
1.0
 40
1.0
 40
1.0
 10
5.8834145892
 20
5.1219044287
 30
0.0
 10
5.8833577836
 20
5.1219044287
 30
0.0
 10
5.8832417514
 20
5.1219161123
 30
0.0
 10
5.8830698029
 20
5.1219680734
 30
0.0
 10
5.8828989625
 20
5.1220539561
 30
0.0
 10
5.8827293162
 20
5.1221732228
 30
0.0
 10
5.8825606963
 20
5.1223255574
 30
0.0
 10
5.8823929956
 20
5.1225107979
 30
0.0
 10
5.8822261666
 20
5.1227288435
 30
0.0
 10
5.882060227
 20
5.1229795971
 30
0.0
 10
5.8818952348
 20
5.1232629397
 30
0.0
 10
5.8817312734
 20
5.1235787224
 30
0.0
 10
5.8815684402
 20
5.1239267646
 30
0.0
 10
5.8814068406
 20
5.1243068555
 30
0.0
 10
5.8812465827
 20
5.1247187557
 30
0.0
 10
5.8810877781
 20
5.1251621992
 30
0.0
 10
5.8809305319
 20
5.1256368939
 30
0.0
 10
5.8807174855
 20
5.1263293913
 30
0.0
 10
5.8804576304
 20
5.1272715619
 30
0.0
 10
5.8801611799
 20
5.1284934499
 30
0.0
 10
5.8798733716
 20
5.1298311899
 30
0.0
 10
5.8795950238
 20
5.1312811598
 30
0.0
 10
5.8793269388
 20
5.1328394415
 30
0.0
 10
5.8790698775
 20
5.1345017986
 30
0.0
 10
5.8788245662
 20
5.1362636999
 30
0.0
 10
5.8786730185
 20
5.1374719667
 30
0.0
 10
5.8785990622
 20
5.1380918176
 30
0.0
  0
LINE
  5
346
100
AcDbEntity
  8
0
100
AcDbLine
 62
7
  6
CONTINUOUS
 10
5.01990662
 20
5.0440294287
 11
5.0067826601
 21
5.0582328598
  0
SPLINE
  5
347
100
AcDbEntity
  8
0
100
AcDbSpline
 62
7
  6
CONTINUOUS
 70
0
 71
3
 72
24
 73
20
 74
0
 42
0.0000001
 43
0.0000001
 44
0.0000000001
 40
0.0
 40
0.0
 40
0.0
 40
0.0
 40
0.0704792558
 40
0.1396300005
 40
0.2074584384
 40
0.2740037347
 40
0.3393276075
 40
0.4035049864
 40
0.4666180627
 40
0.5287513689
 40
0.5594796929
 40
0.5899943176
 40
0.6504184078
 40
0.7101072921
 40
0.7691357785
 40
0.8275743114
 40
0.8854898704
 40
0.9429453073
 40
1.0
 40
1.0
 40
1.0
 40
1.0
 10
4.4159149683
 20
5.2098428162
 30
0.0
 10
4.4150042141
 20
5.2120240151
 30
0.0
 10
4.4130516725
 20
5.216285108
 30
0.0
 10
4.4097340666
 20
5.2224062883
 30
0.0
 10
4.4060979842
 20
5.2281884237
 30
0.0
 10
4.4021831727
 20
5.2336276667
 30
0.0
 10
4.3980247291
 20
5.2387254964
 30
0.0
 10
4.3936539817
 20
5.243487005
 30
0.0
 10
4.3890982415
 20
5.2479191903
 30
0.0
 10
4.3851527938
 20
5.2513580436
 30
0.0
 10
4.3819270272
 20
5.2539500942
 30
0.0
 10
4.3786801507
 20
5.2564221193
 30
0.0
 10
4.3745436807
 20
5.2593261296
 30
0.0
 10
4.3694570893
 20
5.262527893
 30
0.0
 10
4.3642775547
 20
5.2654434372
 30
0.0
 10
4.3590174059
 20
5.2680804033
 30
0.0
 10
4.3536873819
 20
5.2704457304
 30
0.0
 10
4.3482973413
 20
5.272545691
 30
0.0
 10
4.3446578931
 20
5.2737764758
 30
0.0
 10
4.342831965
 20
5.2743486496
 30
0.0
  0
LINE
  5
348
100
AcDbEntity
  8
0
100
AcDbLine
 62
7
  6
CONTINUOUS
 10
4.8317805986
 20
5.0582329729
 11
4.81865662
 21
5.0440294287
  0
SPLINE
  5
349
100
AcDbEntity
  8
0
100
AcDbSpline
 62
7
  6
CONTINUOUS
 70
0
 71
3
 72
68
 73
64
 74
0
 42
0.0000001
 43
0.0000001
 44
0.0000000001
 40
0.0
 40
0.0
 40
0.0
 40
0.0
 40
0.0000108218
 40
0.0000429305
 40
0.0000963041
 40
0.0001709203
 40
0.0003837915
 40
0.0006813661
 40
0.001063469
 40
0.0015299419
 40
0.0020806328
 40
0.0027153897
 40
0.0042364504
 40
0.0060916148
 40
0.0082790222
 40
0.0107948786
 40
0.0136346048
 40
0.0167944177
 40
0.0240601555
 40
0.032557503
 40
0.0422407501
 40
0.0530647524
 40
0.0649839254
 40
0.0779462309
 40
0.0918986675
 40
0.1067908186
 40
0.122569971
 40
0.1565784299
 40
0.1935174743
 40
0.232994351
 40
0.274621467
 40
0.3180316502
 40
0.3628756471
 40
0.408808633
 40
0.4554844372
 40
0.5025552521
 40
0.5496680006
 40
0.5964607491
 40
0.6425582608
 40
0.6875684272
 40
0.7310982664
 40
0.7727482563
 40
0.8120951234
 40
0.8487111053
 40
0.8821906328
 40
0.9121482884
 40
0.9382092363
 40
0.9496702424
 40
0.9600324315
 40
0.9692631419
 40
0.9773308197
 40
0.9842058861
 40
0.989864639
 40
0.9922315771
 40
0.9942867432
 40
0.9960283274
 40
0.9974553469
 40
0.9985669015
 40
0.9993621624
 40
0.9996409115
 40
0.9998402282
 40
0.9999599715
 40
1.0
 40
1.0
 40
1.0
 40
1.0
 10
6.3348251954
 20
5.0877774492
 30
0.0
 10
6.334825164
 20
5.087777407
 30
0.0
 10
6.3348249426
 20
5.0877773523
 30
0.0
 10
6.3348245617
 20
5.0877770959
 30
0.0
 10
6.3348238508
 20
5.0877767599
 30
0.0
 10
6.3348223908
 20
5.0877759828
 30
0.0
 10
6.3348198551
 20
5.0877746833
 30
0.0
 10
6.3348160045
 20
5.0877726803
 30
0.0
 10
6.3348110529
 20
5.0877701162
 30
0.0
 10
6.3348050104
 20
5.0877669828
 30
0.0
 10
6.3347978759
 20
5.0877632849
 30
0.0
 10
6.3347861867
 20
5.0877572264
 30
0.0
 10
6.3347688626
 20
5.0877482497
 30
0.0
 10
6.33474483
 20
5.0877358025
 30
0.0
 10
6.3347164974
 20
5.0877211355
 30
0.0
 10
6.3346839036
 20
5.0877042818
 30
0.0
 10
6.3346470945
 20
5.0876852814
 30
0.0
 10
6.3345897336
 20
5.0876557211
 30
0.0
 10
6.3345078673
 20
5.0876136327
 30
0.0
 10
6.3343977387
 20
5.0875571128
 30
0.0
 10
6.3342721133
 20
5.0874928788
 30
0.0
 10
6.3341315316
 20
5.0874213325
 30
0.0
 10
6.3339766086
 20
5.0873427981
 30
0.0
 10
6.3338079474
 20
5.0872577069
 30
0.0
 10
6.333626151
 20
5.0871665451
 30
0.0
 10
6.3334318841
 20
5.0870696842
 30
0.0
 10
6.3331499943
 20
5.0869299133
 30
0.0
 10
6.332771277
 20
5.0867439986
 30
0.0
 10
6.3322877019
 20
5.086510105
 30
0.0
 10
6.3317693169
 20
5.0862630849
 30
0.0
 10
6.3312208792
 20
5.0860059807
 30
0.0
 10
6.3306470236
 20
5.0857416181
 30
0.0
 10
6.3300522208
 20
5.0854727028
 30
0.0
 10
6.3294410204
 20
5.085201536
 30
0.0
 10
6.3288180076
 20
5.0849303227
 30
0.0
 10
6.328187773
 20
5.0846613647
 30
0.0
 10
6.3275551164
 20
5.0843966782
 30
0.0
 10
6.3269250236
 20
5.0841381725
 30
0.0
 10
6.3263025504
 20
5.0838880889
 30
0.0
 10
6.3256931979
 20
5.0836479683
 30
0.0
 10
6.3251027027
 20
5.0834190331
 30
0.0
 10
6.3245364866
 20
5.0832037191
 30
0.0
 10
6.3240003955
 20
5.0830038474
 30
0.0
 10
6.3235006449
 20
5.0828202988
 30
0.0
 10
6.323042971
 20
5.0826546851
 30
0.0
 10
6.3226329617
 20
5.0825082615
 30
0.0
 10
6.3223234266
 20
5.0823989798
 30
0.0
 10
6.3221035558
 20
5.0823220653
 30
0.0
 10
6.3219609025
 20
5.0822723634
 30
0.0
 10
6.3218337826
 20
5.0822282493
 30
0.0
 10
6.32172264
 20
5.0821898367
 30
0.0
 10
6.3216278905
 20
5.0821571864
 30
0.0
 10
6.3215593411
 20
5.0821336248
 30
0.0
 10
6.3215129536
 20
5.0821177179
 30
0.0
 10
6.3214845887
 20
5.0821079993
 30
0.0
 10
6.3214605486
 20
5.0820997648
 30
0.0
 10
6.321440849
 20
5.082093023
 30
0.0
 10
6.3214255079
 20
5.0820877647
 30
0.0
 10
6.3214154431
 20
5.0820843361
 30
0.0
 10
6.3214095892
 20
5.0820823149
 30
0.0
 10
6.3214068253
 20
5.0820814038
 30
0.0
 10
6.3214051935
 20
5.0820807878
 30
0.0
 10
6.321404436
 20
5.08208059
 30
0.0
 10
6.3214042608
 20
5.0820805051
 30
0.0
  0
SPLINE
  5
34A
100
AcDbEntity
  8
0
100
AcDbSpline
 62
7
  6
CONTINUOUS
 70
0
 71
3
 72
39
 73
35
 74
0
 42
0.0000001
 43
0.0000001
 44
0.0000000001
 40
0.0
 40
0.0
 40
0.0
 40
0.0
 40
0.0000303461
 40
0.0000993509
 40
0.0002068272
 40
0.000352582
 40
0.0007581531
 40
0.0013145211
 40
0.0020203494
 40
0.002875598
 40
0.003880735
 40
0.005036226
 40
0.0077995389
 40
0.0111640007
 40
0.0151259307
 40
0.0196827142
 40
0.0248324514
 40
0.0305714651
 40
0.0437941065
 40
0.0592986162
 40
0.0770282628
 40
0.0969243689
 40
0.1189267805
 40
0.1429742433
 40
0.1690012219
 40
0.2266992528
 40
0.2914332736
 40
0.3626355126
 40
0.4397667889
 40
0.5223018647
 40
0.6097424028
 40
0.7016255359
 40
0.797539088
 40
1.0
 40
1.0
 40
1.0
 40
1.0
 10
5.037406568
 20
5.0615294561
 30
0.0
 10
5.0374062335
 20
5.0615296639
 30
0.0
 10
5.0374052102
 20
5.0615304526
 30
0.0
 10
5.0374030526
 20
5.0615320456
 30
0.0
 10
5.0373997348
 20
5.0615345929
 30
0.0
 10
5.0373929574
 20
5.061539803
 30
0.0
 10
5.0373816221
 20
5.0615486438
 30
0.0
 10
5.037364623
 20
5.0615620388
 30
0.0
 10
5.0373431321
 20
5.061579162
 30
0.0
 10
5.0373171457
 20
5.0615999878
 30
0.0
 10
5.0372866416
 20
5.0616245075
 30
0.0
 10
5.0372368621
 20
5.0616645697
 30
0.0
 10
5.037163221
 20
5.0617238157
 30
0.0
 10
5.0370611904
 20
5.061805874
 30
0.0
 10
5.0369410385
 20
5.061902537
 30
0.0
 10
5.0368028175
 20
5.0620136998
 30
0.0
 10
5.0366465521
 20
5.0621392234
 30
0.0
 10
5.036402494
 20
5.0623350255
 30
0.0
 10
5.0360534452
 20
5.0626146932
 30
0.0
 10
5.0355828485
 20
5.062991512
 30
0.0
 10
5.035044602
 20
5.063422399
 30
0.0
 10
5.0344404574
 20
5.0639058969
 30
0.0
 10
5.03377215
 20
5.0644404338
 30
0.0
 10
5.0330414059
 20
5.0650242834
 30
0.0
 10
5.0319481545
 20
5.065896516
 30
0.0
 10
5.030441197
 20
5.0670968089
 30
0.0
 10
5.0284741508
 20
5.0686604213
 30
0.0
 10
5.0263075697
 20
5.0703782882
 30
0.0
 10
5.0239566702
 20
5.0722354981
 30
0.0
 10
5.0214365074
 20
5.0742183758
 30
0.0
 10
5.0187613997
 20
5.0763139018
 30
0.0
 10
5.0159447395
 20
5.0785102473
 30
0.0
 10
5.0119428442
 20
5.0816139314
 30
0.0
 10
5.0088715822
 20
5.0839719335
 30
0.0
 10
5.0067816319
 20
5.0855641109
 30
0.0
  0
SPLINE
  5
34B
100
AcDbEntity
  8
0
100
AcDbSpline
 62
7
  6
CONTINUOUS
 70
0
 71
3
 72
50
 73
46
 74
0
 42
0.0000001
 43
0.0000001
 44
0.0000000001
 40
0.0
 40
0.0
 40
0.0
 40
0.0
 40
0.1029763666
 40
0.2026371843
 40
0.2986317732
 40
0.3905828453
 40
0.4780802366
 40
0.5606633549
 40
0.6378327518
 40
0.7090615126
 40
0.7422790426
 40
0.7738046281
 40
0.8035657084
 40
0.8314882488
 40
0.8574985273
 40
0.8815271016
 40
0.9035095347
 40
0.923381773
 40
0.9410805904
 40
0.9490957312
 40
0.9565446828
 40
0.9634201679
 40
0.9697152548
 40
0.9754253171
 40
0.9805468661
 40
0.9850768407
 40
0.9890124936
 40
0.9907564897
 40
0.9923506579
 40
0.9937945349
 40
0.9950876765
 40
0.9962299693
 40
0.9972215799
 40
0.9980626849
 40
0.9987534598
 40
0.9990424379
 40
0.9992936502
 40
0.9995069564
 40
0.9996822157
 40
0.9998192873
 40
0.9999180306
 40
0.9999529855
 40
0.9999783067
 40
0.9999939789
 40
1.0
 40
1.0
 40
1.0
 40
1.0
 10
4.8317816566
 20
5.0855639942
 30
0.0
 10
4.830718746
 20
5.084754059
 30
0.0
 10
4.8286300727
 20
5.0831564235
 30
0.0
 10
4.8255600418
 20
5.0807913965
 30
0.0
 10
4.8226105943
 20
5.0785043186
 30
0.0
 10
4.8197919316
 20
5.0763061925
 30
0.0
 10
4.8171151908
 20
5.0742091087
 30
0.0
 10
4.8145935974
 20
5.0722250429
 30
0.0
 10
4.8122415143
 20
5.0703669676
 30
0.0
 10
4.8103946405
 20
5.0689028195
 30
0.0
 10
4.8090129868
 20
5.0678053049
 30
0.0
 10
4.8080531451
 20
5.0670419413
 30
0.0
 10
4.8071474765
 20
5.0663208534
 30
0.0
 10
4.8062981856
 20
5.0656438625
 30
0.0
 10
4.8055074645
 20
5.0650127414
 30
0.0
 10
4.804777328
 20
5.064429285
 30
0.0
 10
4.8041095954
 20
5.0638953316
 30
0.0
 10
4.8035061215
 20
5.0634125455
 30
0.0
 10
4.8030442572
 20
5.0630428954
 30
0.0
 10
4.8027083334
 20
5.0627738937
 30
0.0
 10
4.8024820902
 20
5.0625926288
 30
0.0
 10
4.8022733297
 20
5.0624252421
 30
0.0
 10
4.8020822654
 20
5.0622718579
 30
0.0
 10
4.8019090247
 20
5.0621326299
 30
0.0
 10
4.8017536794
 20
5.0620077002
 30
0.0
 10
4.8016162917
 20
5.0618971839
 30
0.0
 10
4.8015130403
 20
5.0618141603
 30
0.0
 10
4.8014394583
 20
5.0617550361
 30
0.0
 10
4.801391076
 20
5.0617161749
 30
0.0
 10
4.8013472488
 20
5.0616809856
 30
0.0
 10
4.80130799
 20
5.0616494726
 30
0.0
 10
4.8012732998
 20
5.0616216441
 30
0.0
 10
4.8012431653
 20
5.0615975112
 30
0.0
 10
4.8012175729
 20
5.0615770803
 30
0.0
 10
4.8011990653
 20
5.0615623894
 30
0.0
 10
4.8011865173
 20
5.0615525039
 30
0.0
 10
4.8011788221
 20
5.0615464708
 30
0.0
 10
4.8011722746
 20
5.0615413662
 30
0.0
 10
4.8011668838
 20
5.0615371855
 30
0.0
 10
4.801162654
 20
5.061533938
 30
0.0
 10
4.8011598624
 20
5.0615317975
 30
0.0
 10
4.801158208
 20
5.0615305729
 30
0.0
 10
4.8011574233
 20
5.0615299617
 30
0.0
 10
4.8011569148
 20
5.0615296503
 30
0.0
 10
4.8011566972
 20
5.0615294408
 30
0.0
 10
4.80115662
 20
5.0615294287
 30
0.0
  0
SPLINE
  5
34C
100
AcDbEntity
  8
0
100
AcDbSpline
 62
7
  6
CONTINUOUS
 70
0
 71
3
 72
28
 73
24
 74
0
 42
0.0000001
 43
0.0000001
 44
0.0000000001
 40
0.0
 40
0.0
 40
0.0
 40
0.0
 40
0.0566173218
 40
0.1138867724
 40
0.1718591081
 40
0.2305825569
 40
0.2901044574
 40
0.3504702556
 40
0.4117175984
 40
0.473873956
 40
0.5369530053
 40
0.6009479153
 40
0.6332831978
 40
0.6658328912
 40
0.6985879594
 40
0.7315370558
 40
0.7646664647
 40
0.7979601946
 40
0.8313999603
 40
0.8649652709
 40
0.8986336229
 40
0.9323809004
 40
1.0
 40
1.0
 40
1.0
 40
1.0
 10
4.831780685
 20
5.0917024089
 30
0.0
 10
4.8304472521
 20
5.0927971241
 30
0.0
 10
4.8278118058
 20
5.0950568974
 30
0.0
 10
4.8239885619
 20
5.0986380909
 30
0.0
 10
4.8202858546
 20
5.1024342823
 30
0.0
 10
4.8167190226
 20
5.1064508764
 30
0.0
 10
4.8133051548
 20
5.1106925234
 30
0.0
 10
4.810062177
 20
5.1151618138
 30
0.0
 10
4.8070111151
 20
5.1198605288
 30
0.0
 10
4.8041755118
 20
5.1247882454
 30
0.0
 10
4.8015799273
 20
5.1299405603
 30
0.0
 10
4.7996453426
 20
5.1343994928
 30
0.0
 10
4.7982434086
 20
5.1380684729
 30
0.0
 10
4.7972652761
 20
5.1408788738
 30
0.0
 10
4.7963674088
 20
5.1437355369
 30
0.0
 10
4.7955531051
 20
5.1466355108
 30
0.0
 10
4.7948259636
 20
5.1495754861
 30
0.0
 10
4.7941891384
 20
5.1525516402
 30
0.0
 10
4.793645032
 20
5.1555596439
 30
0.0
 10
4.7931959632
 20
5.1585948331
 30
0.0
 10
4.7928445733
 20
5.1616523842
 30
0.0
 10
4.7925083628
 20
5.1657538735
 30
0.0
 10
4.7924066562
 20
5.168843946
 30
0.0
 10
4.79240662
 20
5.1709044287
 30
0.0
  0
SPLINE
  5
34D
100
AcDbEntity
  8
0
100
AcDbSpline
 62
7
  6
CONTINUOUS
 70
0
 71
3
 72
26
 73
22
 74
0
 42
0.0000001
 43
0.0000001
 44
0.0000000001
 40
0.0
 40
0.0
 40
0.0
 40
0.0
 40
0.0570534237
 40
0.1145075891
 40
0.1724217625
 40
0.2308592329
 40
0.2898863035
 40
0.349574009
 40
0.4099966684
 40
0.4712331773
 40
0.5333650564
 40
0.5964768378
 40
0.6606528079
 40
0.6931693208
 40
0.7259824681
 40
0.7925263443
 40
0.8603532788
 40
0.894765899
 40
0.9295119392
 40
0.9645910624
 40
1.0
 40
1.0
 40
1.0
 40
1.0
 10
4.342832073
 20
5.0674602406
 30
0.0
 10
4.3446579993
 20
5.0680324151
 30
0.0
 10
4.3482974412
 20
5.0692632087
 30
0.0
 10
4.3536874821
 20
5.0713631503
 30
0.0
 10
4.3590174873
 20
5.0737285162
 30
0.0
 10
4.3642776608
 20
5.0763654366
 30
0.0
 10
4.3694571529
 20
5.0792810321
 30
0.0
 10
4.3745438223
 20
5.0824827781
 30
0.0
 10
4.3795237558
 20
5.0859790444
 30
0.0
 10
4.3843812908
 20
5.089778315
 30
0.0
 10
4.3890982664
 20
5.0938897313
 30
0.0
 10
4.3936540343
 20
5.0983218602
 30
0.0
 10
4.3972804869
 20
5.1022725933
 30
0.0
 10
4.4000757396
 20
5.1055977159
 30
0.0
 10
4.4028204166
 20
5.1090665972
 30
0.0
 10
4.4060980502
 20
5.1136204987
 30
0.0
 10
4.4091135905
 20
5.1184159777
 30
0.0
 10
4.4113690047
 20
5.1224193098
 30
0.0
 10
4.412984195
 20
5.1255205397
 30
0.0
 10
4.4145092352
 20
5.128704118
 30
0.0
 10
4.4154576746
 20
5.1308701758
 30
0.0
 10
4.4159152358
 20
5.1319660443
 30
0.0
  0
SPLINE
  5
34E
100
AcDbEntity
  8
0
100
AcDbSpline
 62
7
  6
CONTINUOUS
 70
0
 71
3
 72
31
 73
27
 74
0
 42
0.0000001
 43
0.0000001
 44
0.0000000001
 40
0.0
 40
0.0
 40
0.0
 40
0.0
 40
0.1077517564
 40
0.2101869787
 40
0.3070465358
 40
0.3980904301
 40
0.4830996974
 40
0.5618788434
 40
0.6342589868
 40
0.7001023406
 40
0.7305413298
 40
0.7593124049
 40
0.7864108094
 40
0.8118358757
 40
0.8355918575
 40
0.8576890624
 40
0.8781453935
 40
0.896988501
 40
0.9142588086
 40
0.9300137869
 40
0.9443339519
 40
0.9573310706
 40
0.9691586706
 40
0.9800236418
 40
0.9901947416
 40
1.0
 40
1.0
 40
1.0
 40
1.0
 10
5.8785990622
 20
5.2037170397
 30
0.0
 10
5.8786730185
 20
5.2043368907
 30
0.0
 10
5.8788245662
 20
5.2055451574
 30
0.0
 10
5.8790698775
 20
5.2073070587
 30
0.0
 10
5.8793269388
 20
5.2089694158
 30
0.0
 10
5.8795950238
 20
5.2105276975
 30
0.0
 10
5.8798733716
 20
5.2119776674
 30
0.0
 10
5.8801611799
 20
5.2133154074
 30
0.0
 10
5.8804576304
 20
5.2145372954
 30
0.0
 10
5.8807174855
 20
5.215479466
 30
0.0
 10
5.8809305319
 20
5.2161719634
 30
0.0
 10
5.8810877781
 20
5.2166466581
 30
0.0
 10
5.8812465827
 20
5.2170901016
 30
0.0
 10
5.8814068406
 20
5.2175020018
 30
0.0
 10
5.8815684402
 20
5.2178820928
 30
0.0
 10
5.8817312734
 20
5.218230135
 30
0.0
 10
5.8818952348
 20
5.2185459177
 30
0.0
 10
5.882060227
 20
5.2188292603
 30
0.0
 10
5.8822261666
 20
5.2190800138
 30
0.0
 10
5.8823929956
 20
5.2192980594
 30
0.0
 10
5.8825606963
 20
5.2194833
 30
0.0
 10
5.8827293162
 20
5.2196356346
 30
0.0
 10
5.8828989625
 20
5.2197549013
 30
0.0
 10
5.8830698029
 20
5.219840784
 30
0.0
 10
5.8832417514
 20
5.2198927451
 30
0.0
 10
5.8833577836
 20
5.2199044287
 30
0.0
 10
5.8834145892
 20
5.2199044287
 30
0.0
  0
SPLINE
  5
34F
100
AcDbEntity
  8
0
100
AcDbSpline
 62
7
  6
CONTINUOUS
 70
0
 71
3
 72
31
 73
27
 74
0
 42
0.0000001
 43
0.0000001
 44
0.0000000001
 40
0.0
 40
0.0
 40
0.0
 40
0.0
 40
0.0313032765
 40
0.0626060239
 40
0.0939078702
 40
0.125208336
 40
0.1877846256
 40
0.2503503424
 40
0.2816376989
 40
0.3129213711
 40
0.3442010799
 40
0.3754765843
 40
0.4379954184
 40
0.5004955695
 40
0.5629766659
 40
0.625439068
 40
0.656673001
 40
0.6879027233
 40
0.7191284754
 40
0.7503505358
 40
0.8127659775
 40
0.8751708192
 40
0.9063797378
 40
0.9375872694
 40
0.9687938689
 40
1.0
 40
1.0
 40
1.0
 40
1.0
 10
6.4618102213
 20
5.1709044287
 30
0.0
 10
6.4618102213
 20
5.1701027492
 30
0.0
 10
6.4617709792
 20
5.1684991244
 30
0.0
 10
6.4615945381
 20
5.166099713
 30
0.0
 10
6.4613009239
 20
5.163711765
 30
0.0
 10
6.4607543488
 20
5.1605517889
 30
0.0
 10
6.459782161
 20
5.1566579891
 30
0.0
 10
6.4584338933
 20
5.1528782656
 30
0.0
 10
6.457138115
 20
5.1499459725
 30
0.0
 10
6.4560597139
 20
5.1477968441
 30
0.0
 10
6.4548774656
 20
5.1457033881
 30
0.0
 10
6.4531670629
 20
5.1429938703
 30
0.0
 10
6.4507833764
 20
5.1397696189
 30
0.0
 10
6.4475590659
 20
5.1362010279
 30
0.0
 10
6.4440016365
 20
5.1329665463
 30
0.0
 10
6.4407869515
 20
5.1305749561
 30
0.0
 10
6.4380854605
 20
5.1288589516
 30
0.0
 10
6.4359984986
 20
5.1276729971
 30
0.0
 10
6.4338560325
 20
5.1265912133
 30
0.0
 10
6.430933136
 20
5.1252915058
 30
0.0
 10
6.4271653912
 20
5.1239390399
 30
0.0
 10
6.4232832423
 20
5.1229636546
 30
0.0
 10
6.4201328475
 20
5.1224153284
 30
0.0
 10
6.4177522811
 20
5.1221207903
 30
0.0
 10
6.415360288
 20
5.1219437946
 30
0.0
 10
6.4137616108
 20
5.1219044287
 30
0.0
 10
6.4129624192
 20
5.1219044287
 30
0.0
  0
ENDSEC
  0
SECTION
  2
OBJECTS
  0
DICTIONARY
  5
C
100
AcDbDictionary
280
0
281
1
  3
ACAD_GROUP
350
D
  3
ACAD_MLINESTYLE
350
17
  3
ACAD_LAYOUT
350
1A
  3
ACAD_PLOTSETTINGS
350
19
  3
ACAD_PLOTSTYLENAME
350
E
  0
DICTIONARY
  5
D
102
{ACAD_REACTORS
330
C
102
}
100
AcDbDictionary
280
0
281
1
  0
ACDBDICTIONARYWDFLT
  5
E
102
{ACAD_REACTORS
330
C
102
}
100
AcDbDictionary
281
1
  3
Normal
350
F
100
AcDbDictionaryWithDefault
340
F
  0
DICTIONARY
  5
17
102
{ACAD_REACTORS
330
C
102
}
100
AcDbDictionary
280
0
281
1
  3
Standard
350
18
  0
DICTIONARY
  5
19
102
{ACAD_REACTORS
330
C
102
}
100
AcDbDictionary
281
1
  0
DICTIONARY
  5
1A
102
{ACAD_REACTORS
330
C
102
}
100
AcDbDictionary
281
1
  3
Model
350
350
  3
Layout1
350
351
  0
ACDBPLACEHOLDER
  5
F
102
{ACAD_REACTORS
330
E
102
}
  0
MLINESTYLE
  5
18
102
{ACAD_REACTORS
330
17
102
}
100
AcDbMlineStyle
  2
STANDARD
 70
0
  3

 62
256
 51
90.0
 52
90.0
 71
2
 49
0.5
 62
256
  6
BYLAYER
 49
-0.5
 62
256
  6
BYLAYER
  0
LAYOUT
  5
350
102
{ACAD_REACTORS
330
1A
102
}
100
AcDbPlotSettings
  1

  2
none_device
  4
ANSI_A_(11.00_x_8.50_Inches)
  6

 40
0.0
 41
0.0
 42
0.0
 43
0.0
 44
279.4
 45
215.9
 46
0.0
 47
0.0
 48
0.0
 49
0.0
140
0.0
141
0.0
142
1.0
143
1.0
 70
1024
 72
0
 73
0
 74
0
  7

 75
0
147
1.0
148
0.0
149
0.0
100
AcDbLayout
  1
Model
 70
0
 71
0
 10
0.0
 20
0.0
 11
11.0
 21
8.5
 12
0.0
 22
0.0
 32
0.0
 14
0.0
 24
0.0
 34
0.0
 15
0.0
 25
0.0
 35
0.0
146
0.0
 13
0.0
 23
0.0
 33
0.0
 16
1.0
 26
0.0
 36
0.0
 17
0.0
 27
1.0
 37
0.0
 76
0
330
202
345
0
346
0
  0
LAYOUT
  5
351
102
{ACAD_REACTORS
330
1A
102
}
100
AcDbPlotSettings
  1

  2
none_device
  4
ANSI_A_(11.00_x_8.50_Inches)
  6

 40
0.0
 41
0.0
 42
0.0
 43
0.0
 44
279.4
 45
215.9
 46
0.0
 47
0.0
 48
0.0
 49
0.0
140
0.0
141
0.0
142
1.0
143
1.0
 70
0
 72
0
 73
0
 74
0
  7

 75
0
147
1.0
148
0.0
149
0.0
100
AcDbLayout
  1
Layout1
 70
0
 71
1
 10
0.0
 20
0.0
 11
11.0
 21
8.5
 12
0.0
 22
0.0
 32
0.0
 14
0.0
 24
0.0
 34
0.0
 15
0.0
 25
0.0
 35
0.0
146
0.0
 13
0.0
 23
0.0
 33
0.0
 16
1.0
 26
0.0
 36
0.0
 17
0.0
 27
1.0
 37
0.0
 76
0
330
203
345
0
346
0
  0
ENDSEC
  0
EOF
