999
DXF file: 1500-5173_RIGHT.dxf
999
Pro/ENGINEER 2023134 by Parametric Technology Corporation
  0
SECTION
  2
HEADER
  9
$ACADVER
  1
AC1032
  9
$DWGCODEPAGE
  3
ANSI_1252
  9
$EXTMAX
 10
11.0
 20
8.5
 30
0.0
  9
$EXTMIN
 10
0.0
 20
0.0
 30
0.0
  9
$LIMMIN
 10
0.0
 20
0.0
  9
$LIMMAX
 10
11.0
 20
8.5
  9
$VIEWCTR
 10
5.5
 20
4.25
  9
$VIEWSIZE
 40
8.5
  9
$CLAYER
  8
0
  9
$LTSCALE
 40
0.605
  9
$CELTYPE
  6
BYLAYER
  9
$DIMSCALE
 40
1.0
  9
$DIMASZ
 40
0.1875
  9
$DIMEXO
 40
0.0625
  9
$DIMDLI
 40
0.418
  9
$DIMEXE
 40
0.125
  9
$DIMCEN
 40
0.099
  9
$DIMLFAC
 40
1.0
  9
$DIMBLK
  1
_FILLED
  9
$DIMALT
 70
0
  9
$DIMALTF
 40
25.4
  9
$DIMTXT
 40
0.15625
  9
$DIMTOL
 70
0
  9
$DIMLIM
 70
0
  9
$DIMTFAC
 40
1.0
  9
$DIMGAP
 40
0.09
  9
$DIMDSEP
 70
46
  9
$AUNITS
 70
0
  9
$PDMODE
 70
3
  9
$PDSIZE
 40
0.3125
  9
$HANDSEED
  5
329
  9
$TILEMODE
 70
1
  9
$MEASUREMENT
 70
0
  9
$INSUNITS
 70
1
  0
ENDSEC
  0
SECTION
  2
CLASSES
  0
CLASS
  1
ACDBDICTIONARYWDFLT
  2
AcDbDictionaryWithDefault
  3
AutoCAD 2000
 90
0
 91
1
280
0
281
0
  0
CLASS
  1
ACDBPLACEHOLDER
  2
AcDbPlaceHolder
  3
AutoCAD 2000
 90
0
 91
1
280
0
281
0
  0
CLASS
  1
LAYOUT
  2
AcDbLayout
  3
AutoCAD 2000
 90
0
 91
0
280
0
281
0
  0
ENDSEC
  0
SECTION
  2
TABLES
  0
TABLE
  2
VPORT
  5
8
100
AcDbSymbolTable
 70
2
  0
VPORT
  5
1F4
100
AcDbSymbolTableRecord
100
AcDbViewportTableRecord
  2
*ACTIVE
 70
0
 10
0.0
 20
0.0
 11
1.0
 21
1.0
 12
5.5
 22
4.25
 13
0.0
 23
0.0
 14
1.0
 24
1.0
 15
0.0
 25
0.0
 16
0.0
 26
0.0
 36
1.0
 17
0.0
 27
0.0
 37
0.0
 40
8.5
 41
1.2941176471
 42
50.0
 43
0.0
 44
0.0
 50
0.0
 51
0.0
 71
0
 72
100
 73
1
 74
1
 75
0
 76
0
 77
0
 78
0
  0
ENDTAB
  0
TABLE
  2
LTYPE
  5
5
100
AcDbSymbolTable
 70
6
  0
LTYPE
  5
14
100
AcDbSymbolTableRecord
100
AcDbLinetypeTableRecord
  2
BYBLOCK
 70
0
  3

 72
65
 73
0
 40
0.0
  0
LTYPE
  5
15
100
AcDbSymbolTableRecord
100
AcDbLinetypeTableRecord
  2
BYLAYER
 70
0
  3

 72
65
 73
0
 40
0.0
  0
LTYPE
  5
16
100
AcDbSymbolTableRecord
100
AcDbLinetypeTableRecord
  2
CONTINUOUS
 70
64
  3
Solid line
 72
65
 73
0
 40
0.0
  0
LTYPE
  5
1F5
100
AcDbSymbolTableRecord
100
AcDbLinetypeTableRecord
  2
CENTER
 70
64
  3
____ _ ____ _ ____ _ ____ _ ____ _ ____ _ ____
 72
65
 73
4
 40
0.6
 49
0.375
 74
0
 49
-0.075
 74
0
 49
0.075
 74
0
 49
-0.075
 74
0
  0
LTYPE
  5
1F6
100
AcDbSymbolTableRecord
100
AcDbLinetypeTableRecord
  2
HIDDEN
 70
64
  3
- - - - - - - - - - - - - - - - - - - -
 72
65
 73
2
 40
0.2
 49
0.1
 74
0
 49
-0.1
 74
0
  0
LTYPE
  5
1F7
100
AcDbSymbolTableRecord
100
AcDbLinetypeTableRecord
  2
PHANTOM
 70
64
  3
_____ _ _ _____ _ _ _____ _ _ _____
 72
65
 73
6
 40
0.8
 49
0.45
 74
0
 49
-0.05
 74
0
 49
0.1
 74
0
 49
-0.05
 74
0
 49
0.1
 74
0
 49
-0.05
 74
0
  0
LTYPE
  5
1F8
100
AcDbSymbolTableRecord
100
AcDbLinetypeTableRecord
  2
DOT
 70
64
  3
. . . . . . . . . . . . . . . . . . . .
 72
65
 73
2
 40
0.2
 49
0.1
 74
0
 49
-0.1
 74
0
  0
LTYPE
  5
1F9
100
AcDbSymbolTableRecord
100
AcDbLinetypeTableRecord
  2
DASHED
 70
64
  3
- - - - - - - - - - - - - - - - - - - -
 72
65
 73
2
 40
0.2
 49
0.1
 74
0
 49
-0.1
 74
0
  0
ENDTAB
  0
TABLE
  2
LAYER
  5
2
100
AcDbSymbolTable
 70
36
  0
LAYER
  5
10
100
AcDbSymbolTableRecord
100
AcDbLayerTableRecord
  2
0
 70
0
 62
7
  6
CONTINUOUS
370
-3
390
F
  0
LAYER
  5
1FA
100
AcDbSymbolTableRecord
100
AcDbLayerTableRecord
  2
DEFAULT_1
 70
0
 62
7
  6
CENTER
370
-3
390
F
  0
LAYER
  5
1FB
100
AcDbSymbolTableRecord
100
AcDbLayerTableRecord
  2
DEFAULT_2
 70
0
 62
8
  6
HIDDEN
370
-3
390
F
  0
LAYER
  5
1FC
100
AcDbSymbolTableRecord
100
AcDbLayerTableRecord
  2
DEFAULT_3
 70
0
 62
7
  6
PHANTOM
370
-3
390
F
  0
LAYER
  5
1FD
100
AcDbSymbolTableRecord
100
AcDbLayerTableRecord
  2
3_ALL_SYMBOLS
 70
0
 62
7
  6
CONTINUOUS
370
-3
390
F
  0
ENDTAB
  0
TABLE
  2
STYLE
  5
3
100
AcDbSymbolTable
 70
1
  0
STYLE
  5
11
100
AcDbSymbolTableRecord
100
AcDbTextStyleTableRecord
  2
STANDARD
 70
0
 40
0.0
 41
1.0
 50
0.0
 71
0
 42
0.2
  3
ar_wgl__.ttf
  4

1001
ACAD
1000
Arial WGL
1071
34
  0
STYLE
  5
1FE
100
AcDbSymbolTableRecord
100
AcDbTextStyleTableRecord
  2
TEXTSTYLE_1
 70
0
 40
0.0
 41
0.8
 50
0.0
 71
0
 42
0.2
  3
gdt
  4

  0
ENDTAB
  0
TABLE
  2
VIEW
  5
6
100
AcDbSymbolTable
 70
0
  0
ENDTAB
  0
TABLE
  2
UCS
  5
7
100
AcDbSymbolTable
 70
0
  0
ENDTAB
  0
TABLE
  2
APPID
  5
9
100
AcDbSymbolTable
 70
1
  0
APPID
  5
1FF
100
AcDbSymbolTableRecord
100
AcDbRegAppTableRecord
  2
ACAD
 70
0
  0
ENDTAB
  0
TABLE
  2
BLOCK_RECORD
  5
1
100
AcDbSymbolTable
 70
0
  0
BLOCK_RECORD
  5
200
100
AcDbSymbolTableRecord
100
AcDbBlockTableRecord
  2
*Model_Space
  0
BLOCK_RECORD
  5
201
100
AcDbSymbolTableRecord
100
AcDbBlockTableRecord
  2
*Paper_Space
  0
BLOCK_RECORD
  5
202
100
AcDbSymbolTableRecord
100
AcDbBlockTableRecord
  2
_FILLED
  0
ENDTAB
  0
TABLE
  2
DIMSTYLE
  5
A
100
AcDbSymbolTable
 70
1
100
AcDbDimStyleTable
 71
0
  0
DIMSTYLE
105
203
100
AcDbSymbolTableRecord
100
AcDbDimStyleTableRecord
  2
STANDARD
 70
0
  3

  4

 40
1.0
 41
0.1875
 42
0.0625
 43
0.38
 44
0.125
 45
0.0
 46
0.0
 47
0.001
 48
0.001
140
0.15625
141
0.09
142
0.0
143
25.4
144
1.0
145
0.0
146
1.0
147
0.09
 71
0
 72
0
 73
1
 74
1
 75
0
 76
0
 77
0
 78
4
 79
1
170
0
171
2
172
0
173
0
174
0
175
0
176
0
177
0
178
0
270
2
179
3
271
3
272
3
273
2
274
2
275
0
280
0
281
0
282
0
283
1
284
4
285
0
286
0
287
3
288
0
340
11
278
46
341
202
342
202
343
202
344
202
  0
ENDTAB
  0
ENDSEC
  0
SECTION
  2
BLOCKS
  0
BLOCK
  5
20
100
AcDbEntity
  8
0
100
AcDbBlockBegin
  2
*Model_Space
 70
0
 10
0.0
 20
0.0
 30
0.0
  3
*Model_Space
  1

  0
ENDBLK
  5
21
100
AcDbEntity
  8
0
100
AcDbBlockEnd
  0
BLOCK
  5
1C
100
AcDbEntity
  8
0
100
AcDbBlockBegin
  2
*Paper_Space
 70
0
 10
0.0
 20
0.0
 30
0.0
  3
*Paper_Space
  1

  0
ENDBLK
  5
1D
100
AcDbEntity
  8
0
100
AcDbBlockEnd
  0
BLOCK
  5
204
100
AcDbEntity
  8
0
100
AcDbBlockBegin
  2
_FILLED
 70
64
 10
0.0
 20
0.0
  3
_FILLED
  1

  0
SOLID
  5
205
100
AcDbEntity
  8
0
  6
BYBLOCK
 62
0
100
AcDbTrace
 10
0.0
 20
0.0
 11
-1.0
 21
0.1666666667
 12
-1.0
 22
-0.1666666667
 13
-1.0
 23
-0.1666666667
  0
ENDBLK
  5
206
100
AcDbEntity
  8
0
  6
BYBLOCK
 62
0
100
AcDbBlockEnd
  0
ENDSEC
  0
SECTION
  2
ENTITIES
  0
LINE
  5
207
100
AcDbEntity
  8
0
100
AcDbLine
 62
7
  6
CONTINUOUS
 10
0.0
 20
0.0
 11
0.0
 21
8.5
  0
LINE
  5
208
100
AcDbEntity
  8
0
100
AcDbLine
 62
7
  6
CONTINUOUS
 10
0.0
 20
0.0
 11
11.0
 21
0.0
  0
LINE
  5
209
100
AcDbEntity
  8
0
100
AcDbLine
 62
7
  6
CONTINUOUS
 10
0.0
 20
8.5
 11
11.0
 21
8.5
  0
LINE
  5
20A
100
AcDbEntity
  8
0
100
AcDbLine
 62
7
  6
CONTINUOUS
 10
11.0
 20
0.0
 11
11.0
 21
8.5
  0
LINE
  5
20B
100
AcDbEntity
  8
0
100
AcDbLine
 62
7
  6
CONTINUOUS
 10
6.3205928446
 20
1.6800198532
 11
6.9145928445
 21
1.6800198532
  0
LINE
  5
20C
100
AcDbEntity
  8
0
100
AcDbLine
 62
7
  6
CONTINUOUS
 10
6.9145928446
 20
1.7985198532
 11
6.3205928446
 21
1.7985198532
  0
LINE
  5
20D
100
AcDbEntity
  8
0
100
AcDbLine
 62
7
  6
CONTINUOUS
 10
6.3295928447
 20
1.8075198532
 11
6.9055928444
 21
1.8075198532
  0
LINE
  5
20E
100
AcDbEntity
  8
0
100
AcDbLine
 62
7
  6
CONTINUOUS
 10
3.7268559113
 20
4.7938784585
 11
3.7266774227
 21
4.7927120302
  0
LINE
  5
20F
100
AcDbEntity
  8
0
100
AcDbLine
 62
7
  6
CONTINUOUS
 10
3.7157805948
 20
4.7215009416
 11
3.7156021062
 21
4.7203345133
  0
LINE
  5
210
100
AcDbEntity
  8
0
100
AcDbLine
 62
7
  6
CONTINUOUS
 10
3.9129855845
 20
5.303184464
 11
3.8571703418
 21
4.9384302197
  0
LINE
  5
211
100
AcDbEntity
  8
0
100
AcDbLine
 62
7
  6
CONTINUOUS
 10
3.8547441952
 20
4.9205919515
 11
3.8355945754
 21
4.7954486254
  0
LINE
  5
212
100
AcDbEntity
  8
0
100
AcDbLine
 62
7
  6
CONTINUOUS
 10
3.915551045
 20
5.317966494
 11
3.9979125616
 21
5.8562014154
  0
LINE
  5
213
100
AcDbEntity
  8
0
100
AcDbLine
 62
7
  6
CONTINUOUS
 10
3.9988498898
 20
5.8621278243
 11
4.0158667321
 21
5.9733333865
  0
LINE
  5
214
100
AcDbEntity
  8
0
100
AcDbLine
 62
7
  6
CONTINUOUS
 10
3.8664503118
 20
4.6870952653
 11
3.8643064576
 21
4.6730851158
  0
LINE
  5
215
100
AcDbEntity
  8
0
100
AcDbLine
 62
7
  6
CONTINUOUS
 10
6.5178428446
 20
2.8966669375
 11
6.5237516911
 21
2.8966669375
  0
LINE
  5
216
100
AcDbEntity
  8
0
100
AcDbLine
 62
7
  6
CONTINUOUS
 10
6.7113428446
 20
2.8966669375
 11
6.7173428446
 21
2.8966669375
  0
LINE
  5
217
100
AcDbEntity
  8
0
100
AcDbLine
 62
7
  6
CONTINUOUS
 10
3.8794168799
 20
4.6851111016
 11
3.8772730258
 21
4.671100952
  0
LINE
  5
218
100
AcDbEntity
  8
0
100
AcDbLine
 62
7
  6
CONTINUOUS
 10
3.9037860568
 20
4.6813820935
 11
3.9016422026
 21
4.667371944
  0
LINE
  5
219
100
AcDbEntity
  8
0
100
AcDbLine
 62
7
  6
CONTINUOUS
 10
3.9341413808
 20
4.6767370762
 11
3.9319975267
 21
4.6627269266
  0
LINE
  5
21A
100
AcDbEntity
  8
0
100
AcDbLine
 62
7
  6
CONTINUOUS
 10
3.9366185599
 20
4.6763580146
 11
3.9344747057
 21
4.662347865
  0
LINE
  5
21B
100
AcDbEntity
  8
0
100
AcDbLine
 62
7
  6
CONTINUOUS
 10
3.966973884
 20
4.6717129972
 11
3.9648300298
 21
4.6577028477
  0
LINE
  5
21C
100
AcDbEntity
  8
0
100
AcDbLine
 62
7
  6
CONTINUOUS
 10
3.9739543048
 20
4.6706448428
 11
3.9718104507
 21
4.6566346932
  0
LINE
  5
21D
100
AcDbEntity
  8
0
100
AcDbLine
 62
7
  6
CONTINUOUS
 10
4.0043096289
 20
4.6659998254
 11
4.0021657748
 21
4.6519896759
  0
LINE
  5
21E
100
AcDbEntity
  8
0
100
AcDbLine
 62
7
  6
CONTINUOUS
 10
4.0112900498
 20
4.6649316709
 11
4.0091461957
 21
4.6509215214
  0
LINE
  5
21F
100
AcDbEntity
  8
0
100
AcDbLine
 62
7
  6
CONTINUOUS
 10
4.0416453739
 20
4.6602866536
 11
4.0395015198
 21
4.646276504
  0
LINE
  5
220
100
AcDbEntity
  8
0
100
AcDbLine
 62
7
  6
CONTINUOUS
 10
4.0441225529
 20
4.659907592
 11
4.0419786988
 21
4.6458974424
  0
LINE
  5
221
100
AcDbEntity
  8
0
100
AcDbLine
 62
7
  6
CONTINUOUS
 10
4.074477877
 20
4.6552625747
 11
4.0723340229
 21
4.6412524251
  0
LINE
  5
222
100
AcDbEntity
  8
0
100
AcDbLine
 62
7
  6
CONTINUOUS
 10
3.9205845999
 20
5.3107249251
 11
3.9205530447
 21
5.3107118677
  0
LINE
  5
223
100
AcDbEntity
  8
0
100
AcDbLine
 62
7
  6
CONTINUOUS
 10
6.7171621833
 20
3.1297700273
 11
6.711173094
 21
3.1295867672
  0
LINE
  5
224
100
AcDbEntity
  8
0
100
AcDbLine
 62
7
  6
CONTINUOUS
 10
6.7173428446
 20
3.1237698532
 11
6.7113428446
 21
3.1237698532
  0
LINE
  5
225
100
AcDbEntity
  8
0
100
AcDbLine
 62
7
  6
CONTINUOUS
 10
6.5238428446
 20
3.1237698532
 11
6.5178428446
 21
3.1237698532
  0
LINE
  5
226
100
AcDbEntity
  8
0
100
AcDbLine
 62
7
  6
CONTINUOUS
 10
6.518023474
 20
3.1297700283
 11
6.5240125952
 21
3.1295867672
  0
LINE
  5
227
100
AcDbEntity
  8
0
100
AcDbLine
 62
7
  6
CONTINUOUS
 10
4.2147348849
 20
4.8976547586
 11
4.2177775922
 21
4.9290344565
  0
LINE
  5
228
100
AcDbEntity
  8
0
100
AcDbLine
 62
7
  6
CONTINUOUS
 10
4.2207068761
 20
4.8970756893
 11
4.2237495834
 21
4.9284553871
  0
LINE
  5
229
100
AcDbEntity
  8
0
100
AcDbLine
 62
7
  6
CONTINUOUS
 10
4.0988470539
 20
4.6515335666
 11
4.0967031997
 21
4.637523417
  0
LINE
  5
22A
100
AcDbEntity
  8
0
100
AcDbLine
 62
7
  6
CONTINUOUS
 10
4.111813622
 20
4.6495494028
 11
4.1096697679
 21
4.6355392533
  0
LINE
  5
22B
100
AcDbEntity
  8
0
100
AcDbLine
 62
7
  6
CONTINUOUS
 10
4.1722804748
 20
4.8902115936
 11
4.2068586983
 21
5.1161812961
  0
LINE
  5
22C
100
AcDbEntity
  8
0
100
AcDbLine
 62
7
  6
CONTINUOUS
 10
4.2221772054
 20
5.1138372321
 11
4.1862376349
 21
4.8789710876
  0
LINE
  5
22D
100
AcDbEntity
  8
0
100
AcDbLine
 62
7
  6
CONTINUOUS
 10
4.3368552725
 20
5.8104057326
 11
4.3538721148
 21
5.9216112949
  0
LINE
  5
22E
100
AcDbEntity
  8
0
100
AcDbLine
 62
7
  6
CONTINUOUS
 10
4.1928091045
 20
4.868860751
 11
4.1736594847
 21
4.7437174249
  0
LINE
  5
22F
100
AcDbEntity
  8
0
100
AcDbLine
 62
7
  6
CONTINUOUS
 10
4.2536159543
 20
5.2662352935
 11
4.3359774709
 21
5.8044702149
  0
LINE
  5
230
100
AcDbEntity
  8
0
100
AcDbLine
 62
7
  6
CONTINUOUS
 10
4.2516435901
 20
5.2513625069
 11
4.2337716058
 21
5.1345685664
  0
LINE
  5
231
100
AcDbEntity
  8
0
100
AcDbLine
 62
7
  6
CONTINUOUS
 10
4.1971359336
 20
4.8773034135
 11
4.2344108157
 21
5.120895859
  0
LINE
  5
232
100
AcDbEntity
  8
0
100
AcDbLine
 62
7
  6
CONTINUOUS
 10
4.2419719494
 20
5.1108082136
 11
4.2073937259
 21
4.8848385111
  0
LINE
  5
233
100
AcDbEntity
  8
0
100
AcDbLine
 62
7
  6
CONTINUOUS
 10
4.2472381347
 20
5.085723013
 11
4.2274707201
 21
4.9565423799
  0
LINE
  5
234
100
AcDbEntity
  8
0
100
AcDbLine
 62
7
  6
CONTINUOUS
 10
4.217349959
 20
4.8904029099
 11
4.2149288235
 21
4.8745807187
  0
LINE
  5
235
100
AcDbEntity
  8
0
100
AcDbLine
 62
7
  6
CONTINUOUS
 10
4.2295999919
 20
4.9159156806
 11
4.2344468333
 21
4.9475899308
  0
LINE
  5
236
100
AcDbEntity
  8
0
100
AcDbLine
 62
7
  6
CONTINUOUS
 10
4.2327217135
 20
4.871858024
 11
4.2340830609
 21
4.880754469
  0
LINE
  5
237
100
AcDbEntity
  8
0
100
AcDbLine
 62
7
  6
CONTINUOUS
 10
4.2500599756
 20
4.985164074
 11
4.2650310247
 21
5.0830003182
  0
LINE
  5
238
100
AcDbEntity
  8
0
100
AcDbLine
 62
7
  6
CONTINUOUS
 10
4.2801012199
 20
5.0624847335
 11
4.2721945639
 21
5.0108145055
  0
LINE
  5
239
100
AcDbEntity
  8
0
100
AcDbLine
 62
7
  6
CONTINUOUS
 10
4.3071011339
 20
4.9364722605
 11
4.3022542926
 21
4.9047980103
  0
LINE
  5
23A
100
AcDbEntity
  8
0
100
AcDbLine
 62
7
  6
CONTINUOUS
 10
4.2769527593
 20
4.709701812
 11
4.2767742707
 21
4.7085353837
  0
LINE
  5
23B
100
AcDbEntity
  8
0
100
AcDbLine
 62
7
  6
CONTINUOUS
 10
4.2658774429
 20
4.6373242951
 11
4.2656989542
 21
4.6361578668
  0
LINE
  5
23C
100
AcDbEntity
  8
0
100
AcDbLine
 62
7
  6
CONTINUOUS
 10
4.2464157456
 20
4.880032988
 11
4.2442337688
 21
4.8745499224
  0
LINE
  5
23D
100
AcDbEntity
  8
0
100
AcDbLine
 62
7
  6
CONTINUOUS
 10
4.2746919159
 20
4.8623228971
 11
4.2769103965
 21
4.8678976925
  0
LINE
  5
23E
100
AcDbEntity
  8
0
100
AcDbLine
 62
7
  6
CONTINUOUS
 10
4.4447169763
 20
5.1697871257
 11
4.6354693134
 21
5.5053537403
  0
LINE
  5
23F
100
AcDbEntity
  8
0
100
AcDbLine
 62
7
  6
CONTINUOUS
 10
4.4499331181
 20
5.1668220177
 11
4.6436505631
 21
5.5076047742
  0
LINE
  5
240
100
AcDbEntity
  8
0
100
AcDbLine
 62
7
  6
CONTINUOUS
 10
4.3066488857
 20
4.8783364425
 11
4.6592989884
 21
5.4987094503
  0
LINE
  5
241
100
AcDbEntity
  8
0
100
AcDbLine
 62
7
  6
CONTINUOUS
 10
4.3118650275
 20
4.8753713345
 11
4.6615500222
 21
5.4905282006
  0
LINE
  5
242
100
AcDbEntity
  8
0
100
AcDbLine
 62
7
  6
CONTINUOUS
 10
4.2221760997
 20
4.8941978342
 11
4.2191924707
 21
4.8891063719
  0
LINE
  5
243
100
AcDbEntity
  8
0
100
AcDbLine
 62
7
  6
CONTINUOUS
 10
4.2429746697
 20
4.8750554245
 11
4.2460082139
 21
4.8802320653
  0
LINE
  5
244
100
AcDbEntity
  8
0
100
AcDbLine
 62
7
  6
CONTINUOUS
 10
4.2305182618
 20
4.9605660191
 11
4.2632189244
 21
5.0017278489
  0
LINE
  5
245
100
AcDbEntity
  8
0
100
AcDbLine
 62
7
  6
CONTINUOUS
 10
4.235216186
 20
4.9568337935
 11
4.2679168486
 21
4.9979956233
  0
LINE
  5
246
100
AcDbEntity
  8
0
100
AcDbLine
 62
7
  6
CONTINUOUS
 10
3.8976692175
 20
4.6560313916
 11
3.9039809839
 21
4.6626381199
  0
LINE
  5
247
100
AcDbEntity
  8
0
100
AcDbLine
 62
7
  6
CONTINUOUS
 10
3.9220383943
 20
4.6523023836
 11
3.9319975267
 21
4.6627269266
  0
LINE
  5
248
100
AcDbEntity
  8
0
100
AcDbLine
 62
7
  6
CONTINUOUS
 10
3.9548708974
 20
4.6472783046
 11
3.9648300298
 21
4.6577028477
  0
LINE
  5
249
100
AcDbEntity
  8
0
100
AcDbLine
 62
7
  6
CONTINUOUS
 10
3.9922066424
 20
4.6415651328
 11
4.0021657748
 21
4.6519896759
  0
LINE
  5
24A
100
AcDbEntity
  8
0
100
AcDbLine
 62
7
  6
CONTINUOUS
 10
4.0295423874
 20
4.635851961
 11
4.0395015198
 21
4.646276504
  0
LINE
  5
24B
100
AcDbEntity
  8
0
100
AcDbLine
 62
7
  6
CONTINUOUS
 10
4.0623748905
 20
4.630827882
 11
4.0723340229
 21
4.6412524251
  0
LINE
  5
24C
100
AcDbEntity
  8
0
100
AcDbLine
 62
7
  6
CONTINUOUS
 10
6.518023474
 20
3.3134591865
 11
6.5238681378
 21
3.3134591865
  0
LINE
  5
24D
100
AcDbEntity
  8
0
100
AcDbLine
 62
7
  6
CONTINUOUS
 10
6.7171621833
 20
3.3134593354
 11
6.711317545
 21
3.3134593354
  0
LINE
  5
24E
100
AcDbEntity
  8
0
100
AcDbLine
 62
7
  6
CONTINUOUS
 10
3.8706924998
 20
4.6601594095
 11
3.8643064576
 21
4.6730851158
  0
LINE
  5
24F
100
AcDbEntity
  8
0
100
AcDbLine
 62
7
  6
CONTINUOUS
 10
3.8836590679
 20
4.6581752458
 11
3.8772730258
 21
4.671100952
  0
LINE
  5
250
100
AcDbEntity
  8
0
100
AcDbLine
 62
7
  6
CONTINUOUS
 10
3.9080282447
 20
4.6544462377
 11
3.9016422026
 21
4.667371944
  0
LINE
  5
251
100
AcDbEntity
  8
0
100
AcDbLine
 62
7
  6
CONTINUOUS
 10
3.9408607479
 20
4.6494221588
 11
3.9344747057
 21
4.662347865
  0
LINE
  5
252
100
AcDbEntity
  8
0
100
AcDbLine
 62
7
  6
CONTINUOUS
 10
3.9781964928
 20
4.6437089869
 11
3.9718104507
 21
4.6566346932
  0
LINE
  5
253
100
AcDbEntity
  8
0
100
AcDbLine
 62
7
  6
CONTINUOUS
 10
4.0155322378
 20
4.6379958151
 11
4.0091461957
 21
4.6509215214
  0
LINE
  5
254
100
AcDbEntity
  8
0
100
AcDbLine
 62
7
  6
CONTINUOUS
 10
4.0483647409
 20
4.6329717362
 11
4.0419786988
 21
4.6458974424
  0
LINE
  5
255
100
AcDbEntity
  8
0
100
AcDbLine
 62
7
  6
CONTINUOUS
 10
4.0867440673
 20
4.6270988739
 11
4.0967031997
 21
4.637523417
  0
LINE
  5
256
100
AcDbEntity
  8
0
100
AcDbLine
 62
7
  6
CONTINUOUS
 10
4.0997106355
 20
4.6251147102
 11
4.1096697679
 21
4.6355392533
  0
LINE
  5
257
100
AcDbEntity
  8
0
100
AcDbLine
 62
7
  6
CONTINUOUS
 10
4.2400740172
 20
4.9546138045
 11
4.2699281432
 21
4.9662534418
  0
LINE
  5
258
100
AcDbEntity
  8
0
100
AcDbLine
 62
7
  6
CONTINUOUS
 10
4.0727339178
 20
4.6292427281
 11
4.0686866569
 21
4.6374346102
  0
LINE
  5
259
100
AcDbEntity
  8
0
100
AcDbLine
 62
7
  6
CONTINUOUS
 10
4.2966271087
 20
4.8977741366
 11
4.2667729826
 21
4.8861344993
  0
LINE
  5
25A
100
AcDbEntity
  8
0
100
AcDbLine
 62
7
  6
CONTINUOUS
 10
6.8575928446
 20
3.6915198532
 11
6.7015928446
 21
3.6915198532
  0
LINE
  5
25B
100
AcDbEntity
  8
0
100
AcDbLine
 62
7
  6
CONTINUOUS
 10
6.5335928446
 20
3.6915198532
 11
6.3775928446
 21
3.6915198532
  0
LINE
  5
25C
100
AcDbEntity
  8
0
100
AcDbLine
 62
7
  6
CONTINUOUS
 10
6.8497115137
 20
3.7005198532
 11
6.7015928446
 21
3.7005198532
  0
LINE
  5
25D
100
AcDbEntity
  8
0
100
AcDbLine
 62
7
  6
CONTINUOUS
 10
6.5335928446
 20
3.7005198532
 11
6.3865928448
 21
3.7005198532
  0
LINE
  5
25E
100
AcDbEntity
  8
0
100
AcDbLine
 62
7
  6
CONTINUOUS
 10
4.283750279
 20
5.0182619688
 11
4.2863950677
 21
5.0128763312
  0
LINE
  5
25F
100
AcDbEntity
  8
0
100
AcDbLine
 62
7
  6
CONTINUOUS
 10
6.7015928446
 20
4.0290198532
 11
6.5335928446
 21
4.0290198532
  0
LINE
  5
260
100
AcDbEntity
  8
0
100
AcDbLine
 62
7
  6
CONTINUOUS
 10
6.6955928446
 20
4.0350198532
 11
6.5395928446
 21
4.0350198532
  0
LINE
  5
261
100
AcDbEntity
  8
0
100
AcDbLine
 62
7
  6
CONTINUOUS
 10
4.2305182618
 20
4.9605660191
 11
4.235216186
 21
4.9568337935
  0
LINE
  5
262
100
AcDbEntity
  8
0
100
AcDbLine
 62
7
  6
CONTINUOUS
 10
4.2679168486
 20
4.9979956233
 11
4.2632189244
 21
5.0017278489
  0
LINE
  5
263
100
AcDbEntity
  8
0
100
AcDbLine
 62
7
  6
CONTINUOUS
 10
4.2578765376
 20
4.8874958466
 11
4.232869253
 21
4.9075304595
  0
LINE
  5
264
100
AcDbEntity
  8
0
100
AcDbLine
 62
7
  6
CONTINUOUS
 10
4.2788245882
 20
4.9648920945
 11
4.3038318729
 21
4.9448574816
  0
LINE
  5
265
100
AcDbEntity
  8
0
100
AcDbLine
 62
7
  6
CONTINUOUS
 10
3.8706927372
 20
4.6601593732
 11
3.8830189089
 21
4.6582732039
  0
LINE
  5
266
100
AcDbEntity
  8
0
100
AcDbLine
 62
7
  6
CONTINUOUS
 10
3.8836590684
 20
4.6581752457
 11
3.897548994
 21
4.6560497884
  0
LINE
  5
267
100
AcDbEntity
  8
0
100
AcDbLine
 62
7
  6
CONTINUOUS
 10
3.9080282528
 20
4.6544462365
 11
3.9219240846
 21
4.6523198754
  0
LINE
  5
268
100
AcDbEntity
  8
0
100
AcDbLine
 62
7
  6
CONTINUOUS
 10
3.9408607598
 20
4.6494221569
 11
3.9547470872
 21
4.6472972502
  0
LINE
  5
269
100
AcDbEntity
  8
0
100
AcDbLine
 62
7
  6
CONTINUOUS
 10
3.9781964929
 20
4.6437089869
 11
3.9920878572
 21
4.6415833095
  0
LINE
  5
26A
100
AcDbEntity
  8
0
100
AcDbLine
 62
7
  6
CONTINUOUS
 10
4.0155322473
 20
4.6379958137
 11
4.0294333425
 21
4.6358686472
  0
LINE
  5
26B
100
AcDbEntity
  8
0
100
AcDbLine
 62
7
  6
CONTINUOUS
 10
4.0483647504
 20
4.6329717347
 11
4.0622648007
 21
4.6308447281
  0
LINE
  5
26C
100
AcDbEntity
  8
0
100
AcDbLine
 62
7
  6
CONTINUOUS
 10
4.0727339179
 20
4.6292427281
 11
4.0866388921
 21
4.627114968
  0
LINE
  5
26D
100
AcDbEntity
  8
0
100
AcDbLine
 62
7
  6
CONTINUOUS
 10
4.0881934244
 20
4.6268770911
 11
4.0996042127
 21
4.6251309952
  0
LINE
  5
26E
100
AcDbEntity
  8
0
100
AcDbLine
 62
7
  6
CONTINUOUS
 10
3.7320512708
 20
4.7870083026
 11
3.7298987894
 21
4.7877018271
  0
LINE
  5
26F
100
AcDbEntity
  8
0
100
AcDbLine
 62
7
  6
CONTINUOUS
 10
4.3066488857
 20
4.8783364425
 11
4.3118650275
 21
4.8753713346
  0
LINE
  5
270
100
AcDbEntity
  8
0
100
AcDbLine
 62
7
  6
CONTINUOUS
 10
4.2429746697
 20
4.8750554245
 11
4.2191425556
 21
4.8890211934
  0
LINE
  5
271
100
AcDbEntity
  8
0
100
AcDbLine
 62
7
  6
CONTINUOUS
 10
4.2462044337
 20
4.8801170792
 11
4.2221760997
 21
4.8941978342
  0
LINE
  5
272
100
AcDbEntity
  8
0
100
AcDbLine
 62
7
  6
CONTINUOUS
 10
3.8643064576
 20
4.6730851158
 11
3.9319975267
 21
4.6627269266
  0
LINE
  5
273
100
AcDbEntity
  8
0
100
AcDbLine
 62
7
  6
CONTINUOUS
 10
3.9344747057
 20
4.662347865
 11
3.9648300298
 21
4.6577028477
  0
LINE
  5
274
100
AcDbEntity
  8
0
100
AcDbLine
 62
7
  6
CONTINUOUS
 10
3.9718104507
 20
4.6566346932
 11
4.0021657748
 21
4.6519896759
  0
LINE
  5
275
100
AcDbEntity
  8
0
100
AcDbLine
 62
7
  6
CONTINUOUS
 10
4.0091461957
 20
4.6509215214
 11
4.0395015198
 21
4.646276504
  0
LINE
  5
276
100
AcDbEntity
  8
0
100
AcDbLine
 62
7
  6
CONTINUOUS
 10
4.0419786988
 20
4.6458974424
 11
4.1096697679
 21
4.6355392533
  0
LINE
  5
277
100
AcDbEntity
  8
0
100
AcDbLine
 62
7
  6
CONTINUOUS
 10
3.8597481349
 20
4.6881208425
 11
4.1187258452
 21
4.6484916841
  0
LINE
  5
278
100
AcDbEntity
  8
0
100
AcDbLine
 62
7
  6
CONTINUOUS
 10
3.7231372038
 20
4.7100767209
 11
4.2554411618
 21
4.6286227692
  0
LINE
  5
279
100
AcDbEntity
  8
0
100
AcDbLine
 62
7
  6
CONTINUOUS
 10
3.7156021062
 20
4.7203345133
 11
4.2656989542
 21
4.6361578668
  0
LINE
  5
27A
100
AcDbEntity
  8
0
100
AcDbLine
 62
7
  6
CONTINUOUS
 10
4.2658774429
 20
4.6373242951
 11
3.7157805948
 21
4.7215009416
  0
LINE
  5
27B
100
AcDbEntity
  8
0
100
AcDbLine
 62
7
  6
CONTINUOUS
 10
4.2630795848
 20
4.6421914109
 11
3.71990589
 21
4.725308666
  0
LINE
  5
27C
100
AcDbEntity
  8
0
100
AcDbLine
 62
7
  6
CONTINUOUS
 10
4.2699406808
 20
4.7046996566
 11
3.7320512708
 21
4.7870083026
  0
LINE
  5
27D
100
AcDbEntity
  8
0
100
AcDbLine
 62
7
  6
CONTINUOUS
 10
4.2722020575
 20
4.7047177659
 11
3.7298987894
 21
4.7877018271
  0
LINE
  5
27E
100
AcDbEntity
  8
0
100
AcDbLine
 62
7
  6
CONTINUOUS
 10
3.7266774227
 20
4.7927120302
 11
4.2767742707
 21
4.7085353837
  0
LINE
  5
27F
100
AcDbEntity
  8
0
100
AcDbLine
 62
7
  6
CONTINUOUS
 10
4.2769527593
 20
4.709701812
 11
3.7268559113
 21
4.7938784585
  0
LINE
  5
280
100
AcDbEntity
  8
0
100
AcDbLine
 62
7
  6
CONTINUOUS
 10
4.2694176617
 20
4.7199596044
 11
3.7371137036
 21
4.8014135561
  0
LINE
  5
281
100
AcDbEntity
  8
0
100
AcDbLine
 62
7
  6
CONTINUOUS
 10
3.8355945754
 20
4.7954486254
 11
4.1736594847
 21
4.7437174249
  0
LINE
  5
282
100
AcDbEntity
  8
0
100
AcDbLine
 62
7
  6
CONTINUOUS
 10
4.2746919159
 20
4.8623228971
 11
4.2441972651
 21
4.8744581925
  0
LINE
  5
283
100
AcDbEntity
  8
0
100
AcDbLine
 62
7
  6
CONTINUOUS
 10
4.2462044337
 20
4.8801170792
 11
4.2769103965
 21
4.8678976925
  0
LINE
  5
284
100
AcDbEntity
  8
0
100
AcDbLine
 62
7
  6
CONTINUOUS
 10
4.4447169763
 20
5.1697871257
 11
4.4499331181
 21
5.1668220177
  0
LINE
  5
285
100
AcDbEntity
  8
0
100
AcDbLine
 62
7
  6
CONTINUOUS
 10
4.2699406808
 20
4.7046996566
 11
4.2722020575
 21
4.7047177659
  0
LINE
  5
286
100
AcDbEntity
  8
0
100
AcDbLine
 62
7
  6
CONTINUOUS
 10
4.2147348849
 20
4.8976547587
 11
4.2207068761
 21
4.8970756893
  0
LINE
  5
287
100
AcDbEntity
  8
0
100
AcDbLine
 62
7
  6
CONTINUOUS
 10
4.2237495834
 20
4.9284553871
 11
4.2177775922
 21
4.9290344565
  0
LINE
  5
288
100
AcDbEntity
  8
0
100
AcDbLine
 62
7
  6
CONTINUOUS
 10
4.1928091045
 20
4.868860751
 11
3.8547441952
 21
4.9205919515
  0
LINE
  5
289
100
AcDbEntity
  8
0
100
AcDbLine
 62
7
  6
CONTINUOUS
 10
3.8647048484
 20
4.9281674638
 11
4.2416181585
 21
4.8704966766
  0
LINE
  5
28A
100
AcDbEntity
  8
0
100
AcDbLine
 62
7
  6
CONTINUOUS
 10
3.8571703418
 20
4.9384302197
 11
4.2329548325
 21
4.8809271122
  0
LINE
  5
28B
100
AcDbEntity
  8
0
100
AcDbLine
 62
7
  6
CONTINUOUS
 10
4.2742020479
 20
5.0239334719
 11
4.229719823
 21
5.0307402088
  0
LINE
  5
28C
100
AcDbEntity
  8
0
100
AcDbLine
 62
7
  6
CONTINUOUS
 10
4.2788545687
 20
5.0543378315
 11
4.3315184595
 21
5.0462791238
  0
LINE
  5
28D
100
AcDbEntity
  8
0
100
AcDbLine
 62
7
  6
CONTINUOUS
 10
4.2472381347
 20
5.085723013
 11
4.2650310247
 21
5.0830003182
  0
LINE
  5
28E
100
AcDbEntity
  8
0
100
AcDbLine
 62
7
  6
CONTINUOUS
 10
4.2068586983
 20
5.1161812961
 11
4.2419719494
 21
5.1108082136
  0
LINE
  5
28F
100
AcDbEntity
  8
0
100
AcDbLine
 62
7
  6
CONTINUOUS
 10
4.6236088816
 20
5.4844891733
 11
4.6496895905
 21
5.4696636336
  0
LINE
  5
290
100
AcDbEntity
  8
0
100
AcDbLine
 62
7
  6
CONTINUOUS
 10
4.6436505631
 20
5.5076047742
 11
4.6592989884
 21
5.4987094503
  0
LINE
  5
291
100
AcDbEntity
  8
0
100
AcDbLine
 62
7
  6
CONTINUOUS
 10
6.7173428446
 20
2.8966669375
 11
6.7198943919
 21
2.8913373903
  0
LINE
  5
292
100
AcDbEntity
  8
0
100
AcDbLine
 62
7
  6
CONTINUOUS
 10
6.5180234888
 20
3.3134591848
 11
6.5154765742
 21
3.3187909407
  0
LINE
  5
293
100
AcDbEntity
  8
0
100
AcDbLine
 62
7
  6
CONTINUOUS
 10
4.2466214201
 20
5.2608338501
 11
4.2466580689
 21
5.2608286728
  0
LINE
  5
294
100
AcDbEntity
  8
0
100
AcDbLine
 62
7
  6
CONTINUOUS
 10
4.2516435901
 20
5.2513625069
 11
3.9129855845
 21
5.303184464
  0
LINE
  5
295
100
AcDbEntity
  8
0
100
AcDbLine
 62
7
  6
CONTINUOUS
 10
3.9205530447
 20
5.3107118677
 11
4.2466214201
 21
5.2608338501
  0
LINE
  5
296
100
AcDbEntity
  8
0
100
AcDbLine
 62
7
  6
CONTINUOUS
 10
4.246777426
 20
5.2612118951
 11
4.2467743204
 21
5.2612123703
  0
LINE
  5
297
100
AcDbEntity
  8
0
100
AcDbLine
 62
7
  6
CONTINUOUS
 10
3.9205884129
 20
5.3111258281
 11
3.9205744434
 21
5.3111279658
  0
LINE
  5
298
100
AcDbEntity
  8
0
100
AcDbLine
 62
7
  6
CONTINUOUS
 10
3.915551045
 20
5.317966494
 11
4.2536159543
 21
5.2662352935
  0
LINE
  5
299
100
AcDbEntity
  8
0
100
AcDbLine
 62
7
  6
CONTINUOUS
 10
6.3205928446
 20
1.7985198532
 11
6.3205928446
 21
1.6800198532
  0
LINE
  5
29A
100
AcDbEntity
  8
0
100
AcDbLine
 62
7
  6
CONTINUOUS
 10
6.3775928446
 20
1.8075198532
 11
6.3775928446
 21
3.6915198532
  0
LINE
  5
29B
100
AcDbEntity
  8
0
100
AcDbLine
 62
7
  6
CONTINUOUS
 10
6.4466229543
 20
5.7624198532
 11
6.4466229543
 21
3.7005198532
  0
LINE
  5
29C
100
AcDbEntity
  8
0
100
AcDbLine
 62
7
  6
CONTINUOUS
 10
6.5178428446
 20
2.8966669375
 11
6.5178428446
 21
3.1237698532
  0
LINE
  5
29D
100
AcDbEntity
  8
0
100
AcDbLine
 62
7
  6
CONTINUOUS
 10
6.5180234592
 20
3.1297698532
 11
6.5180234888
 21
3.3134591555
  0
LINE
  5
29E
100
AcDbEntity
  8
0
100
AcDbLine
 62
7
  6
CONTINUOUS
 10
6.5238428446
 20
3.1237698532
 11
6.5238428446
 21
2.8966669375
  0
LINE
  5
29F
100
AcDbEntity
  8
0
100
AcDbLine
 62
7
  6
CONTINUOUS
 10
6.5240125946
 20
3.1294180122
 11
6.5240125946
 21
3.3134592001
  0
LINE
  5
2A0
100
AcDbEntity
  8
0
100
AcDbLine
 62
7
  6
CONTINUOUS
 10
6.5335928446
 20
4.0290198532
 11
6.5335928446
 21
2.8528056585
  0
LINE
  5
2A1
100
AcDbEntity
  8
0
100
AcDbLine
 62
7
  6
CONTINUOUS
 10
4.3359774709
 20
5.8044702149
 11
3.9979270391
 21
5.8561992
  0
LINE
  5
2A2
100
AcDbEntity
  8
0
100
AcDbLine
 62
7
  6
CONTINUOUS
 10
3.9988201265
 20
5.8621323787
 11
4.3368850358
 21
5.8104011782
  0
LINE
  5
2A3
100
AcDbEntity
  8
0
100
AcDbLine
 62
7
  6
CONTINUOUS
 10
6.7015928446
 20
4.0290198532
 11
6.7015928446
 21
2.8528056585
  0
LINE
  5
2A4
100
AcDbEntity
  8
0
100
AcDbLine
 62
7
  6
CONTINUOUS
 10
6.7111730925
 20
3.3134593202
 11
6.7111730925
 21
3.1294176046
  0
LINE
  5
2A5
100
AcDbEntity
  8
0
100
AcDbLine
 62
7
  6
CONTINUOUS
 10
6.7113428446
 20
2.8966669375
 11
6.7113428446
 21
3.1237698532
  0
LINE
  5
2A6
100
AcDbEntity
  8
0
100
AcDbLine
 62
7
  6
CONTINUOUS
 10
6.7171621367
 20
3.3134591902
 11
6.7171622299
 21
3.1297698532
  0
LINE
  5
2A7
100
AcDbEntity
  8
0
100
AcDbLine
 62
7
  6
CONTINUOUS
 10
6.7173428446
 20
3.1237698532
 11
6.7173428446
 21
2.8966669375
  0
LINE
  5
2A8
100
AcDbEntity
  8
0
100
AcDbLine
 62
7
  6
CONTINUOUS
 10
6.7885627348
 20
5.7624198532
 11
6.7885627348
 21
3.7005198532
  0
LINE
  5
2A9
100
AcDbEntity
  8
0
100
AcDbLine
 62
7
  6
CONTINUOUS
 10
6.7885627348
 20
5.7624198532
 11
6.4466229543
 21
5.7624198532
  0
LINE
  5
2AA
100
AcDbEntity
  8
0
100
AcDbLine
 62
7
  6
CONTINUOUS
 10
4.0158667321
 20
5.9733333865
 11
4.3538721148
 21
5.9216112949
  0
LINE
  5
2AB
100
AcDbEntity
  8
0
100
AcDbLine
 62
7
  6
CONTINUOUS
 10
6.8575928446
 20
1.8075198532
 11
6.8575928446
 21
3.6915198532
  0
LINE
  5
2AC
100
AcDbEntity
  8
0
100
AcDbLine
 62
7
  6
CONTINUOUS
 10
6.9145928446
 20
1.7985198532
 11
6.9145928446
 21
1.6800198532
  0
LWPOLYLINE
  5
2AD
100
AcDbEntity
  8
0
100
AcDbPolyline
 62
7
  6
CONTINUOUS
 90
3
 70
0
 10
6.5240125946
 20
3.3134592001
 10
6.5247333507
 20
3.3138412098
 10
6.5260539058
 20
3.3145005403
  0
LINE
  5
2AE
100
AcDbEntity
  8
0
100
AcDbLine
 62
7
  6
CONTINUOUS
 10
6.5240126344
 20
3.3134591996
 11
6.5260634802
 21
3.3144959694
  0
LINE
  5
2AF
100
AcDbEntity
  8
0
100
AcDbLine
 62
7
  6
CONTINUOUS
 10
6.7171620782
 20
3.3134592154
 11
6.7197089842
 21
3.3187909815
  0
LINE
  5
2B0
100
AcDbEntity
  8
0
100
AcDbLine
 62
7
  6
CONTINUOUS
 10
6.5178428446
 20
2.8966669375
 11
6.5152912972
 21
2.8913373903
  0
ARC
  5
2B1
100
AcDbEntity
  8
0
100
AcDbCircle
 62
7
  6
CONTINUOUS
 10
3.7278559642
 20
4.7557889272
 40
0.0315
100
AcDbArc
 50
82.3463581352
 51
255.3814109536
  0
ARC
  5
2B2
100
AcDbEntity
  8
0
100
AcDbCircle
 62
7
  6
CONTINUOUS
 10
4.1201550866
 20
4.657831783
 40
0.0094488189
100
AcDbArc
 50
261.3
 51
288.0455542432
  0
ARC
  5
2B3
100
AcDbEntity
  8
0
100
AcDbCircle
 62
7
  6
CONTINUOUS
 10
3.8609673194
 20
4.6974930847
 40
0.0094488189
100
AcDbArc
 50
234.5544457568
 51
261.3
  0
ARC
  5
2B4
100
AcDbEntity
  8
0
100
AcDbCircle
 62
7
  6
CONTINUOUS
 10
3.7244985512
 20
4.7189731659
 40
0.009
100
AcDbArc
 50
171.3
 51
261.3
  0
ARC
  5
2B5
100
AcDbEntity
  8
0
100
AcDbCircle
 62
7
  6
CONTINUOUS
 10
3.7357523562
 20
4.7925171111
 40
0.009
100
AcDbArc
 50
81.3
 51
171.3
  0
ARC
  5
2B6
100
AcDbEntity
  8
0
100
AcDbCircle
 62
7
  6
CONTINUOUS
 10
4.1825559297
 20
4.7423560775
 40
0.009
100
AcDbArc
 50
171.3
 51
261.3
  0
ARC
  5
2B7
100
AcDbEntity
  8
0
100
AcDbCircle
 62
7
  6
CONTINUOUS
 10
3.8266981304
 20
4.7968099728
 40
0.009
100
AcDbArc
 50
261.3
 51
351.3
  0
ARC
  5
2B8
100
AcDbEntity
  8
0
100
AcDbCircle
 62
7
  6
CONTINUOUS
 10
4.1839126595
 20
4.8702220984
 40
0.009
100
AcDbArc
 50
351.3
 51
79.3908986392
  0
ARC
  5
2B9
100
AcDbEntity
  8
0
100
AcDbCircle
 62
7
  6
CONTINUOUS
 10
3.8636406402
 20
4.9192306041
 40
0.009
100
AcDbArc
 50
83.209152433
 51
171.3
  0
ARC
  5
2BA
100
AcDbEntity
  8
0
100
AcDbCircle
 62
7
  6
CONTINUOUS
 10
3.8660667868
 20
4.9370688723
 40
0.009
100
AcDbArc
 50
171.3
 51
261.2999999712
  0
ARC
  5
2BB
100
AcDbEntity
  8
0
100
AcDbCircle
 62
7
  6
CONTINUOUS
 10
3.7202288173
 20
4.7208202679
 40
0.0045
100
AcDbArc
 50
94.1151754629
 51
171.3
  0
ARC
  5
2BC
100
AcDbEntity
  8
0
100
AcDbCircle
 62
7
  6
CONTINUOUS
 10
3.7311256451
 20
4.7920313565
 40
0.0045
100
AcDbArc
 50
171.3
 51
254.1788980836
  0
ARC
  5
2BD
100
AcDbEntity
  8
0
100
AcDbCircle
 62
7
  6
CONTINUOUS
 10
4.1181865017
 20
5.3554028825
 40
0.3816
100
AcDbArc
 50
296.1548159954
 51
330.3839999981
  0
ARC
  5
2BE
100
AcDbEntity
  8
0
100
AcDbCircle
 62
7
  6
CONTINUOUS
 10
4.1181865017
 20
5.3554028825
 40
0.3756
100
AcDbArc
 50
296.1548159914
 51
330.3840000001
  0
ARC
  5
2BF
100
AcDbEntity
  8
0
100
AcDbCircle
 62
7
  6
CONTINUOUS
 10
3.9218820295
 20
5.3018231166
 40
0.009
100
AcDbArc
 50
97.999244233
 51
171.3
  0
ARC
  5
2C0
100
AcDbEntity
  8
0
100
AcDbCircle
 62
7
  6
CONTINUOUS
 10
3.9214820083
 20
5.3170589291
 40
0.006
100
AcDbArc
 50
171.3
 51
261.3
  0
ARC
  5
2C1
100
AcDbEntity
  8
0
100
AcDbCircle
 62
7
  6
CONTINUOUS
 10
4.0038435249
 20
5.8552938505
 40
0.006
100
AcDbArc
 50
91.3
 51
171.3
  0
ARC
  5
2C2
100
AcDbEntity
  8
0
100
AcDbCircle
 62
7
  6
CONTINUOUS
 10
4.2330755045
 20
5.112169561
 40
0.009
100
AcDbArc
 50
351.3
 51
76.7135227767
  0
ARC
  5
2C3
100
AcDbEntity
  8
0
100
AcDbCircle
 62
7
  6
CONTINUOUS
 10
4.2485994821
 20
5.094619458
 40
0.009
100
AcDbArc
 50
171.3000000001
 51
261.3
  0
ARC
  5
2C4
100
AcDbEntity
  8
0
100
AcDbCircle
 62
7
  6
CONTINUOUS
 10
4.2429795059
 20
4.8793931216
 40
0.009
100
AcDbArc
 50
261.2999999996
 51
310.9010639509
  0
ARC
  5
2C5
100
AcDbEntity
  8
0
100
AcDbCircle
 62
7
  6
CONTINUOUS
 10
4.1984972809
 20
4.8861998585
 40
0.009
100
AcDbArc
 50
261.2999999996
 51
351.3
  0
ARC
  5
2C6
100
AcDbEntity
  8
0
100
AcDbCircle
 62
7
  6
CONTINUOUS
 10
4.2384964369
 20
4.9145543332
 40
0.009
100
AcDbArc
 50
171.3
 51
231.2999999999
  0
ARC
  5
2C7
100
AcDbEntity
  8
0
100
AcDbCircle
 62
7
  6
CONTINUOUS
 10
4.2433432782
 20
4.9462285834
 40
0.009
100
AcDbArc
 50
111.3
 51
171.3000000139
  0
ARC
  5
2C8
100
AcDbEntity
  8
0
100
AcDbCircle
 62
7
  6
CONTINUOUS
 10
4.2475249859
 20
4.8828203857
 40
0.009
100
AcDbArc
 50
239.6294288168
 51
248.3
  0
ARC
  5
2C9
100
AcDbEntity
  8
0
100
AcDbCircle
 62
7
  6
CONTINUOUS
 10
4.2236928717
 20
4.8967861546
 40
0.009
100
AcDbArc
 50
174.461674522
 51
239.6294288124
  0
ARC
  5
2CA
100
AcDbEntity
  8
0
100
AcDbCircle
 62
7
  6
CONTINUOUS
 10
4.2236928717
 20
4.8967861546
 40
0.003
100
AcDbArc
 50
174.4616745392
 51
239.6294286824
  0
ARC
  5
2CB
100
AcDbEntity
  8
0
100
AcDbCircle
 62
7
  6
CONTINUOUS
 10
4.2646081448
 20
4.6736543018
 40
0.0315
100
AcDbArc
 50
267.2185890456
 51
80.2536418658
  0
ARC
  5
2CC
100
AcDbEntity
  8
0
100
AcDbCircle
 62
7
  6
CONTINUOUS
 10
4.2568025093
 20
4.6375192142
 40
0.009
100
AcDbArc
 50
261.3000000005
 51
351.3
  0
ARC
  5
2CD
100
AcDbEntity
  8
0
100
AcDbCircle
 62
7
  6
CONTINUOUS
 10
4.2680563143
 20
4.7110631594
 40
0.009
100
AcDbArc
 50
351.3
 51
81.3
  0
ARC
  5
2CE
100
AcDbEntity
  8
0
100
AcDbCircle
 62
7
  6
CONTINUOUS
 10
4.2614292204
 20
4.6380049688
 40
0.0045
100
AcDbArc
 50
351.3
 51
68.4848245343
  0
ARC
  5
2CF
100
AcDbEntity
  8
0
100
AcDbCircle
 62
7
  6
CONTINUOUS
 10
4.2723260482
 20
4.7092160574
 40
0.0045
100
AcDbArc
 50
268.421101917
 51
351.3
  0
ARC
  5
2D0
100
AcDbEntity
  8
0
100
AcDbCircle
 62
7
  6
CONTINUOUS
 10
4.2774975041
 20
4.923243763
 40
0.06
100
AcDbArc
 50
141.5349159793
 51
174.4616744936
  0
ARC
  5
2D1
100
AcDbEntity
  8
0
100
AcDbCircle
 62
7
  6
CONTINUOUS
 10
4.3101981667
 20
4.9644055928
 40
0.06
100
AcDbArc
 50
116.1548159904
 51
141.5349159794
  0
ARC
  5
2D2
100
AcDbEntity
  8
0
100
AcDbCircle
 62
7
  6
CONTINUOUS
 10
4.2774975041
 20
4.923243763
 40
0.054
100
AcDbArc
 50
141.5349159784
 51
174.4616744916
  0
ARC
  5
2D3
100
AcDbEntity
  8
0
100
AcDbCircle
 62
7
  6
CONTINUOUS
 10
4.3101981667
 20
4.9644055928
 40
0.054
100
AcDbArc
 50
116.1548159625
 51
141.5349159851
  0
ARC
  5
2D4
100
AcDbEntity
  8
0
100
AcDbCircle
 62
7
  6
CONTINUOUS
 10
4.2857843187
 20
4.8901968742
 40
0.03
100
AcDbArc
 50
248.3000000384
 51
330.384
  0
ARC
  5
2D5
100
AcDbEntity
  8
0
100
AcDbCircle
 62
7
  6
CONTINUOUS
 10
4.2857843187
 20
4.8901968742
 40
0.024
100
AcDbArc
 50
248.3000000162
 51
330.3840000009
  0
ARC
  5
2D6
100
AcDbEntity
  8
0
100
AcDbCircle
 62
7
  6
CONTINUOUS
 10
4.2623083299
 20
5.0652074282
 40
0.018
100
AcDbArc
 50
351.3000000031
 51
81.3
  0
ARC
  5
2D7
100
AcDbEntity
  8
0
100
AcDbCircle
 62
7
  6
CONTINUOUS
 10
4.2731974043
 20
4.9578682208
 40
0.009
100
AcDbArc
 50
51.3
 51
111.299999998
  0
ARC
  5
2D8
100
AcDbEntity
  8
0
100
AcDbCircle
 62
7
  6
CONTINUOUS
 10
4.298204689
 20
4.9378336079
 40
0.009
100
AcDbArc
 50
351.3
 51
51.2999999984
  0
ARC
  5
2D9
100
AcDbEntity
  8
0
100
AcDbCircle
 62
7
  6
CONTINUOUS
 10
4.2933578476
 20
4.9061593577
 40
0.009
100
AcDbArc
 50
291.3
 51
351.2999999953
  0
ARC
  5
2DA
100
AcDbEntity
  8
0
100
AcDbCircle
 62
7
  6
CONTINUOUS
 10
4.2635037215
 20
4.8945197203
 40
0.009
100
AcDbArc
 50
231.3
 51
291.3000000067
  0
ARC
  5
2DB
100
AcDbEntity
  8
0
100
AcDbCircle
 62
7
  6
CONTINUOUS
 10
4.2427471451
 20
5.2527238543
 40
0.009
100
AcDbArc
 50
351.3
 51
64.6007557646
  0
ARC
  5
2DC
100
AcDbEntity
  8
0
100
AcDbCircle
 62
7
  6
CONTINUOUS
 10
4.2476849909
 20
5.2671428584
 40
0.006
100
AcDbArc
 50
261.3
 51
351.3
  0
ARC
  5
2DD
100
AcDbEntity
  8
0
100
AcDbCircle
 62
7
  6
CONTINUOUS
 10
4.3300465076
 20
5.8053777798
 40
0.006
100
AcDbArc
 50
351.3
 51
71.3
  0
ARC
  5
2DE
100
AcDbEntity
  8
0
100
AcDbCircle
 62
7
  6
CONTINUOUS
 10
4.6563338804
 20
5.4934933086
 40
0.006
100
AcDbArc
 50
330.3840000023
 51
60.3839999982
  0
ARC
  5
2DF
100
AcDbEntity
  8
0
100
AcDbCircle
 62
7
  6
CONTINUOUS
 10
4.6406854551
 20
5.5023886324
 40
0.006
100
AcDbArc
 50
60.3839999982
 51
150.384000008
  0
ARC
  5
2E0
100
AcDbEntity
  8
0
100
AcDbCircle
 62
7
  6
CONTINUOUS
 10
6.3295928446
 20
1.7985198532
 40
0.009
100
AcDbArc
 50
90.0
 51
180.0
  0
ARC
  5
2E1
100
AcDbEntity
  8
0
100
AcDbCircle
 62
7
  6
CONTINUOUS
 10
6.6175925284
 20
3.1465977881
 40
0.3055780906
100
AcDbArc
 50
256.6502199615
 51
283.4349202179
  0
ARC
  5
2E2
100
AcDbEntity
  8
0
100
AcDbCircle
 62
7
  6
CONTINUOUS
 10
6.6175540843
 20
3.1074369077
 40
0.2396213094
100
AcDbArc
 50
292.6345966144
 51
296.426056935
  0
ARC
  5
2E3
100
AcDbEntity
  8
0
100
AcDbCircle
 62
7
  6
CONTINUOUS
 10
6.6175567008
 20
3.102609267
 40
0.2396143318
100
AcDbArc
 50
63.5654740788
 51
67.3617500422
  0
ARC
  5
2E4
100
AcDbEntity
  8
0
100
AcDbCircle
 62
7
  6
CONTINUOUS
 10
6.6175511634
 20
3.1072729406
 40
0.2394386815
100
AcDbArc
 50
241.7481858505
 51
243.699894033
  0
ARC
  5
2E5
100
AcDbEntity
  8
0
100
AcDbCircle
 62
7
  6
CONTINUOUS
 10
6.6175507128
 20
3.1027677627
 40
0.2394375886
100
AcDbArc
 50
116.2872637972
 51
118.2428008381
  0
ARC
  5
2E6
100
AcDbEntity
  8
0
100
AcDbCircle
 62
7
  6
CONTINUOUS
 10
6.6175513985
 20
3.1027965854
 40
0.2394115735
100
AcDbArc
 50
110.5308654506
 51
112.5169960792
  0
ARC
  5
2E7
100
AcDbEntity
  8
0
100
AcDbCircle
 62
7
  6
CONTINUOUS
 10
6.6175294468
 20
3.1071874098
 40
0.2393517021
100
AcDbArc
 50
247.4763213943
 51
249.4693516274
  0
ARC
  5
2E8
100
AcDbEntity
  8
0
100
AcDbCircle
 62
7
  6
CONTINUOUS
 10
6.6074374355
 20
3.1031750105
 40
0.2312020547
100
AcDbArc
 50
294.0528436502
 51
295.2716441631
  0
ARC
  5
2E9
100
AcDbEntity
  8
0
100
AcDbCircle
 62
7
  6
CONTINUOUS
 10
6.6143673665
 20
3.0620087536
 40
0.2246945832
100
AcDbArc
 50
292.8440415842
 51
295.0108742362
  0
ARC
  5
2EA
100
AcDbEntity
  8
0
100
AcDbCircle
 62
7
  6
CONTINUOUS
 10
6.3865928446
 20
3.6915198532
 40
0.009
100
AcDbArc
 50
90.0
 51
180.0
  0
ARC
  5
2EB
100
AcDbEntity
  8
0
100
AcDbCircle
 62
7
  6
CONTINUOUS
 10
6.5178428446
 20
2.8966669375
 40
0.006
100
AcDbArc
 50
244.4169980371
 51
360.0
  0
ARC
  5
2EC
100
AcDbEntity
  8
0
100
AcDbCircle
 62
7
  6
CONTINUOUS
 10
6.5183018618
 20
3.3139275771
 40
0.0054457897
100
AcDbArc
 50
50.6418201241
 51
57.7060088271
  0
ARC
  5
2ED
100
AcDbEntity
  8
0
100
AcDbCircle
 62
7
  6
CONTINUOUS
 10
6.526799855
 20
3.1515024634
 40
0.003
100
AcDbArc
 50
332.8892538036
 51
48.4372152453
  0
ARC
  5
2EE
100
AcDbEntity
  8
0
100
AcDbCircle
 62
7
  6
CONTINUOUS
 10
6.9055928446
 20
1.7985198532
 40
0.009
100
AcDbArc
 50
0.0
 51
90.0
  0
ARC
  5
2EF
100
AcDbEntity
  8
0
100
AcDbCircle
 62
7
  6
CONTINUOUS
 10
6.6175928446
 20
3.0112698532
 40
0.09375
100
AcDbArc
 50
333.7093432145
 51
360.0
  0
ARC
  5
2F0
100
AcDbEntity
  8
0
100
AcDbCircle
 62
7
  6
CONTINUOUS
 10
6.6175928446
 20
3.0112698532
 40
0.09375
100
AcDbArc
 50
180.0
 51
206.2819629106
  0
ARC
  5
2F1
100
AcDbEntity
  8
0
100
AcDbCircle
 62
7
  6
CONTINUOUS
 10
6.6175928446
 20
3.1050198532
 40
0.27
100
AcDbArc
 50
252.8152040989
 51
287.1847959011
  0
ARC
  5
2F2
100
AcDbEntity
  8
0
100
AcDbCircle
 62
7
  6
CONTINUOUS
 10
6.6176313263
 20
3.1026028603
 40
0.2396211391
100
AcDbArc
 50
112.5169114677
 51
116.2870835799
  0
ARC
  5
2F3
100
AcDbEntity
  8
0
100
AcDbCircle
 62
7
  6
CONTINUOUS
 10
6.6176281654
 20
3.107430678
 40
0.2396142083
100
AcDbArc
 50
243.700099201
 51
247.476629022
  0
ARC
  5
2F4
100
AcDbEntity
  8
0
100
AcDbCircle
 62
7
  6
CONTINUOUS
 10
6.6176339354
 20
3.1027650605
 40
0.2394404651
100
AcDbArc
 50
61.5954144993
 51
63.5652790435
  0
ARC
  5
2F5
100
AcDbEntity
  8
0
100
AcDbCircle
 62
7
  6
CONTINUOUS
 10
6.6176352809
 20
3.1072719933
 40
0.239437491
100
AcDbArc
 50
296.426220043
 51
298.3921688258
  0
ARC
  5
2F6
100
AcDbEntity
  8
0
100
AcDbCircle
 62
7
  6
CONTINUOUS
 10
6.6176376503
 20
3.107235613
 40
0.2394033582
100
AcDbArc
 50
290.5317259864
 51
292.6346777963
  0
ARC
  5
2F7
100
AcDbEntity
  8
0
100
AcDbCircle
 62
7
  6
CONTINUOUS
 10
6.6176599431
 20
3.102860484
 40
0.239342731
100
AcDbArc
 50
67.3614128582
 51
69.4685250907
  0
ARC
  5
2F8
100
AcDbEntity
  8
0
100
AcDbCircle
 62
7
  6
CONTINUOUS
 10
6.6175928446
 20
3.1050198532
 40
0.237
100
AcDbArc
 50
292.1089925816
 51
69.223338438
  0
ARC
  5
2F9
100
AcDbEntity
  8
0
100
AcDbCircle
 62
7
  6
CONTINUOUS
 10
6.6175928446
 20
3.1050198532
 40
0.237
100
AcDbArc
 50
110.7794441886
 51
249.2345685844
  0
ARC
  5
2FA
100
AcDbEntity
  8
0
100
AcDbCircle
 62
7
  6
CONTINUOUS
 10
6.6175928446
 20
3.1050198532
 40
0.231
100
AcDbArc
 50
295.5830019774
 51
64.4666815682
  0
ARC
  5
2FB
100
AcDbEntity
  8
0
100
AcDbCircle
 62
7
  6
CONTINUOUS
 10
6.6175928446
 20
3.1050198532
 40
0.231
100
AcDbArc
 50
115.5333363859
 51
244.4169980226
  0
ARC
  5
2FC
100
AcDbEntity
  8
0
100
AcDbCircle
 62
7
  6
CONTINUOUS
 10
6.6206648291
 20
3.0616623126
 40
0.224315704
100
AcDbArc
 50
245.0118521192
 51
247.1579680761
  0
ARC
  5
2FD
100
AcDbEntity
  8
0
100
AcDbCircle
 62
7
  6
CONTINUOUS
 10
6.6256074531
 20
3.0647939445
 40
0.1887373257
100
AcDbArc
 50
295.2577521878
 51
296.0456215553
  0
ARC
  5
2FE
100
AcDbEntity
  8
0
100
AcDbCircle
 62
7
  6
CONTINUOUS
 10
6.6175928446
 20
3.1237698532
 40
0.09975
100
AcDbArc
 50
0.0
 51
3.4484442639
  0
ARC
  5
2FF
100
AcDbEntity
  8
0
100
AcDbCircle
 62
7
  6
CONTINUOUS
 10
6.6175928446
 20
3.1237698532
 40
0.09975
100
AcDbArc
 50
176.5515557362
 51
180.0
  0
ARC
  5
300
100
AcDbEntity
  8
0
100
AcDbCircle
 62
7
  6
CONTINUOUS
 10
6.6175928446
 20
3.1050198532
 40
0.099
100
AcDbArc
 50
21.5475173228
 51
27.1107461963
  0
ARC
  5
301
100
AcDbEntity
  8
0
100
AcDbCircle
 62
7
  6
CONTINUOUS
 10
6.6175928446
 20
3.1050198532
 40
0.099
100
AcDbArc
 50
152.8892538036
 51
158.4524826772
  0
ARC
  5
302
100
AcDbEntity
  8
0
100
AcDbCircle
 62
7
  6
CONTINUOUS
 10
6.6175928446
 20
3.1237698532
 40
0.09375
100
AcDbArc
 50
156.9336794579
 51
180.0
  0
ARC
  5
303
100
AcDbEntity
  8
0
100
AcDbCircle
 62
7
  6
CONTINUOUS
 10
6.6175928446
 20
3.1237698532
 40
0.09375
100
AcDbArc
 50
0.0
 51
26.3297580106
  0
ARC
  5
304
100
AcDbEntity
  8
0
100
AcDbCircle
 62
7
  6
CONTINUOUS
 10
6.7173428446
 20
2.8966669375
 40
0.006
100
AcDbArc
 50
180.0
 51
295.5830019623
  0
ARC
  5
305
100
AcDbEntity
  8
0
100
AcDbCircle
 62
7
  6
CONTINUOUS
 10
6.7083858341
 20
3.1515024634
 40
0.003
100
AcDbArc
 50
131.5627847576
 51
207.1107461964
  0
ARC
  5
306
100
AcDbEntity
  8
0
100
AcDbCircle
 62
7
  6
CONTINUOUS
 10
6.8485928446
 20
3.6915198532
 40
0.009
100
AcDbArc
 50
0.0
 51
82.9146714076
  0
ARC
  5
307
100
AcDbEntity
  8
0
100
AcDbCircle
 62
7
  6
CONTINUOUS
 10
5.3941932307
 20
5.7624249293
 40
1.394393601
100
AcDbArc
 50
359.9997914059
 51
171.3002085843
  0
ARC
  5
308
100
AcDbEntity
  8
0
100
AcDbCircle
 62
7
  6
CONTINUOUS
 10
5.3941932307
 20
5.7624249293
 40
1.0523967161
100
AcDbArc
 50
359.9997236245
 51
171.3002763754
  0
ARC
  5
309
100
AcDbEntity
  8
0
100
AcDbCircle
 62
7
  6
CONTINUOUS
 10
6.5395928446
 20
4.0290198532
 40
0.006
100
AcDbArc
 50
90.0
 51
180.0
  0
ARC
  5
30A
100
AcDbEntity
  8
0
100
AcDbCircle
 62
7
  6
CONTINUOUS
 10
6.6955928446
 20
4.0290198532
 40
0.006
100
AcDbArc
 50
0.0
 51
90.0
  0
SPLINE
  5
30B
100
AcDbEntity
  8
0
100
AcDbSpline
 62
7
  6
CONTINUOUS
 70
0
 71
3
 72
11
 73
7
 74
0
 42
0.0000001
 43
0.0000001
 44
0.0000000001
 40
0.0
 40
0.0
 40
0.0
 40
0.0
 40
0.2249326147
 40
0.4719720258
 40
0.7316047065
 40
1.0
 40
1.0
 40
1.0
 40
1.0
 10
6.7111729611
 20
3.313459337
 30
0.0
 10
6.7111737412
 20
3.3139099427
 30
0.0
 10
6.7113101468
 20
3.314856787
 30
0.0
 10
6.7118358702
 20
3.3162364589
 30
0.0
 10
6.7127079467
 20
3.3175385884
 30
0.0
 10
6.7135195417
 20
3.3182440226
 30
0.0
 10
6.7139741847
 20
3.3185310661
 30
0.0
  0
SPLINE
  5
30C
100
AcDbEntity
  8
0
100
AcDbSpline
 62
7
  6
CONTINUOUS
 70
0
 71
3
 72
11
 73
7
 74
0
 42
0.0000001
 43
0.0000001
 44
0.0000000001
 40
0.0
 40
0.0
 40
0.0
 40
0.0
 40
0.2686304649
 40
0.5282591766
 40
0.7751828663
 40
1.0
 40
1.0
 40
1.0
 40
1.0
 10
6.7139741858
 20
3.3185310656
 30
0.0
 10
6.7144285777
 20
3.3188179506
 30
0.0
 10
6.7154134793
 20
3.3192470109
 30
0.0
 10
6.7169623219
 20
3.3194732647
 30
0.0
 10
6.7184313364
 20
3.3193527625
 30
0.0
 10
6.7193424936
 20
3.3190671429
 30
0.0
 10
6.7197483031
 20
3.3188732932
 30
0.0
  0
SPLINE
  5
30D
100
AcDbEntity
  8
0
100
AcDbSpline
 62
7
  6
CONTINUOUS
 70
0
 71
3
 72
11
 73
7
 74
0
 42
0.0000001
 43
0.0000001
 44
0.0000000001
 40
0.0
 40
0.0
 40
0.0
 40
0.0
 40
0.2248171053
 40
0.4717405844
 40
0.7313692247
 40
1.0
 40
1.0
 40
1.0
 40
1.0
 10
6.5154372807
 20
3.3188731952
 30
0.0
 10
6.515843086
 20
3.3190670441
 30
0.0
 10
6.5167542333
 20
3.3193526643
 30
0.0
 10
6.5182232333
 20
3.3194731721
 30
0.0
 10
6.5197720631
 20
3.3192469287
 30
0.0
 10
6.520756959
 20
3.3188178793
 30
0.0
 10
6.52121135
 20
3.3185310006
 30
0.0
  0
SPLINE
  5
30E
100
AcDbEntity
  8
0
100
AcDbSpline
 62
7
  6
CONTINUOUS
 70
0
 71
3
 72
9
 73
5
 74
0
 42
0.0000001
 43
0.0000001
 44
0.0000000001
 40
0.0
 40
0.0
 40
0.0
 40
0.0
 40
0.5194522047
 40
1.0
 40
1.0
 40
1.0
 40
1.0
 10
6.5217553982
 20
3.3181382434
 30
0.0
 10
6.5223789083
 20
3.317627232
 30
0.0
 10
6.5233679656
 20
3.3163724234
 30
0.0
 10
6.5238669535
 20
3.3148676046
 30
0.0
 10
6.5239659862
 20
3.3141284244
 30
0.0
  0
LINE
  5
30F
100
AcDbEntity
  8
0
100
AcDbLine
 62
7
  6
CONTINUOUS
 10
6.5239659862
 20
3.3141284244
 11
6.5240126317
 21
3.313459186
  0
SPLINE
  5
310
100
AcDbEntity
  8
0
100
AcDbSpline
 62
7
  6
CONTINUOUS
 70
0
 71
3
 72
11
 73
7
 74
0
 42
0.0000001
 43
0.0000001
 44
0.0000000001
 40
0.0
 40
0.0
 40
0.0
 40
0.0
 40
0.2357367161
 40
0.4874258168
 40
0.7463257364
 40
1.0
 40
1.0
 40
1.0
 40
1.0
 10
6.6973655702
 20
2.8470735172
 30
0.0
 10
6.6979351937
 20
2.8472496793
 30
0.0
 10
6.6990588144
 20
2.8478038961
 30
0.0
 10
6.700465125
 20
2.8491124636
 30
0.0
 10
6.7013612939
 20
2.8508633273
 30
0.0
 10
6.7015928446
 20
2.8521640481
 30
0.0
 10
6.7015928446
 20
2.8528056585
 30
0.0
  0
SPLINE
  5
311
100
AcDbEntity
  8
0
100
AcDbSpline
 62
7
  6
CONTINUOUS
 70
0
 71
3
 72
11
 73
7
 74
0
 42
0.0000001
 43
0.0000001
 44
0.0000000001
 40
0.0
 40
0.0
 40
0.0
 40
0.0
 40
0.2357367167
 40
0.4874258176
 40
0.7463257369
 40
1.0
 40
1.0
 40
1.0
 40
1.0
 10
6.5378201189
 20
2.8470735172
 30
0.0
 10
6.5372504954
 20
2.8472496794
 30
0.0
 10
6.5361268747
 20
2.8478038961
 30
0.0
 10
6.5347205641
 20
2.8491124637
 30
0.0
 10
6.5338243952
 20
2.8508633274
 30
0.0
 10
6.5335928446
 20
2.8521640481
 30
0.0
 10
6.5335928446
 20
2.8528056585
 30
0.0
  0
SPLINE
  5
312
100
AcDbEntity
  8
0
100
AcDbSpline
 62
7
  6
CONTINUOUS
 70
0
 71
3
 72
9
 73
5
 74
0
 42
0.0000001
 43
0.0000001
 44
0.0000000001
 40
0.0
 40
0.0
 40
0.0
 40
0.0
 40
0.2512739195
 40
1.0
 40
1.0
 40
1.0
 40
1.0
 10
4.2392385016
 20
5.1187283312
 30
0.0
 10
4.2386551583
 20
5.1192764741
 30
0.0
 10
4.2364918902
 20
5.1216201744
 30
0.0
 10
4.2349441702
 20
5.1245342001
 30
0.0
 10
4.2342784827
 20
5.1268245951
 30
0.0
  0
SPLINE
  5
313
100
AcDbEntity
  8
0
100
AcDbSpline
 62
7
  6
CONTINUOUS
 70
0
 71
3
 72
9
 73
5
 74
0
 42
0.0000001
 43
0.0000001
 44
0.0000000001
 40
0.0
 40
0.0
 40
0.0
 40
0.0
 40
0.2604497748
 40
1.0
 40
1.0
 40
1.0
 40
1.0
 10
4.2342784827
 20
5.1268245951
 30
0.0
 10
4.2340895997
 20
5.1274744743
 30
0.0
 10
4.2335110383
 20
5.1300102957
 30
0.0
 10
4.2334809278
 20
5.132668979
 30
0.0
 10
4.2337716062
 20
5.1345685688
 30
0.0
  0
SPLINE
  5
314
100
AcDbEntity
  8
0
100
AcDbSpline
 62
7
  6
CONTINUOUS
 70
0
 71
3
 72
28
 73
24
 74
0
 42
0.0000001
 43
0.0000001
 44
0.0000000001
 40
0.0
 40
0.0
 40
0.0
 40
0.0
 40
0.0699028105
 40
0.1363295664
 40
0.1998045989
 40
0.260984203
 40
0.320492648
 40
0.3789204009
 40
0.4079603153
 40
0.4370870282
 40
0.4667921557
 40
0.4824125648
 40
0.4996356636
 40
0.5183207798
 40
0.5350520854
 40
0.5653799557
 40
0.623653062
 40
0.6819464929
 40
0.741198927
 40
0.80200785
 40
0.864986933
 40
0.930792874
 40
1.0
 40
1.0
 40
1.0
 40
1.0
 10
6.7015994532
 20
3.3551015067
 30
0.0
 10
6.7147870115
 20
3.3495467435
 30
0.0
 10
6.7395206524
 20
3.3361996071
 30
0.0
 10
6.7716381171
 20
3.3105804123
 30
0.0
 10
6.7980359035
 20
3.2815065206
 30
0.0
 10
6.819120806
 20
3.2501070937
 30
0.0
 10
6.8353383435
 20
3.2171092599
 30
0.0
 10
6.845122728
 20
3.1885699705
 30
0.0
 10
6.8507790062
 20
3.1653699918
 30
0.0
 10
6.8539855657
 20
3.1476588383
 30
0.0
 10
6.8557919912
 20
3.1325149322
 30
0.0
 10
6.8567095168
 20
3.1197417377
 30
0.0
 10
6.8570970863
 20
3.1091978761
 30
0.0
 10
6.8570450634
 20
3.0984187277
 30
0.0
 10
6.8564363566
 20
3.084971268
 30
0.0
 10
6.8543971729
 20
3.0634927972
 30
0.0
 10
6.8488346102
 20
3.0338620172
 30
0.0
 10
6.8379483705
 20
2.9994641296
 30
0.0
 10
6.8226273155
 20
2.9662122773
 30
0.0
 10
6.8025175513
 20
2.9344572465
 30
0.0
 10
6.7771840638
 20
2.9048595902
 30
0.0
 10
6.7462011302
 20
2.8784617441
 30
0.0
 10
6.7222049164
 20
2.8643739111
 30
0.0
 10
6.7093660485
 20
2.8583843294
 30
0.0
  0
LINE
  5
315
100
AcDbEntity
  8
0
100
AcDbLine
 62
7
  6
CONTINUOUS
 10
6.7113428446
 20
2.8966669376
 11
6.7084794968
 21
2.8952238926
  0
LINE
  5
316
100
AcDbEntity
  8
0
100
AcDbLine
 62
7
  6
CONTINUOUS
 10
6.5335421605
 20
2.8920362053
 11
6.5238897648
 21
2.8966421083
  0
SPLINE
  5
317
100
AcDbEntity
  8
0
100
AcDbSpline
 62
7
  6
CONTINUOUS
 70
0
 71
3
 72
27
 73
23
 74
0
 42
0.0000001
 43
0.0000001
 44
0.0000000001
 40
0.0
 40
0.0
 40
0.0
 40
0.0
 40
0.0692137748
 40
0.1350248759
 40
0.1980082775
 40
0.2588198989
 40
0.318073705
 40
0.3763673463
 40
0.4346383801
 40
0.4649615299
 40
0.4816858008
 40
0.5003690231
 40
0.5332164141
 40
0.5629236609
 40
0.5920504041
 40
0.6210898462
 40
0.6795161357
 40
0.739022752
 40
0.8002002117
 40
0.8636730988
 40
0.9300984724
 40
1.0
 40
1.0
 40
1.0
 40
1.0
 10
6.5259069724
 20
2.8583436375
 30
0.0
 10
6.5130623385
 20
2.864329224
 30
0.0
 10
6.4890546534
 20
2.878411038
 30
0.0
 10
6.4580556422
 20
2.9048049556
 30
0.0
 10
6.4327083565
 20
2.9344020941
 30
0.0
 10
6.4125870866
 20
2.9661587859
 30
0.0
 10
6.3972565985
 20
2.9994135082
 30
0.0
 10
6.3863627464
 20
3.0338147154
 30
0.0
 10
6.3807949455
 20
3.0634479082
 30
0.0
 10
6.3787526408
 20
3.0849265014
 30
0.0
 10
6.3781419981
 20
3.0983732646
 30
0.0
 10
6.3780728999
 20
3.1123516293
 30
0.0
 10
6.3789743554
 20
3.1289753627
 30
0.0
 10
6.3811945781
 20
3.1476250873
 30
0.0
 10
6.3844003937
 20
3.165340098
 30
0.0
 10
6.3900549579
 20
3.1885436772
 30
0.0
 10
6.3998381649
 20
3.2170875768
 30
0.0
 10
6.416055186
 20
3.2500906978
 30
0.0
 10
6.4371406993
 20
3.2814952386
 30
0.0
 10
6.4635403688
 20
3.3105740331
 30
0.0
 10
6.495661283
 20
3.3361975114
 30
0.0
 10
6.5203981911
 20
3.3495466377
 30
0.0
 10
6.5335875716
 20
3.355102061
 30
0.0
  0
LINE
  5
318
100
AcDbEntity
  8
0
100
AcDbLine
 62
7
  6
CONTINUOUS
 10
6.7016604561
 20
3.3179980129
 11
6.711172966
 21
3.3134593214
  0
SPLINE
  5
319
100
AcDbEntity
  8
0
100
AcDbSpline
 62
7
  6
CONTINUOUS
 70
0
 71
3
 72
26
 73
22
 74
0
 42
0.0000001
 43
0.0000001
 44
0.0000000001
 40
0.0
 40
0.0
 40
0.0
 40
0.0
 40
0.0002950996
 40
0.001176542
 40
0.0026385693
 40
0.0046754822
 40
0.0104514425
 40
0.0184600584
 40
0.0286579649
 40
0.0410028504
 40
0.0554534973
 40
0.0719698243
 40
0.1110442597
 40
0.1579305053
 40
0.2123533016
 40
0.2740599263
 40
0.3427879593
 40
0.4181840037
 40
0.5877853087
 40
0.7815746036
 40
1.0
 40
1.0
 40
1.0
 40
1.0
 10
4.2337716057
 20
5.1345685658
 30
0.0
 10
4.2337707669
 20
5.134567608
 30
0.0
 10
4.233767466
 20
5.1345761163
 30
0.0
 10
4.2337599541
 20
5.1345801959
 30
0.0
 10
4.2337474517
 20
5.1345968866
 30
0.0
 10
4.2337207783
 20
5.1346251959
 30
0.0
 10
4.2336748123
 20
5.1346767793
 30
0.0
 10
4.233604244
 20
5.1347519158
 30
0.0
 10
4.2335131976
 20
5.1348474344
 30
0.0
 10
4.2334015402
 20
5.1349614053
 30
0.0
 10
4.2332691427
 20
5.1350932985
 30
0.0
 10
4.2330523125
 20
5.1353037656
 30
0.0
 10
4.2327287364
 20
5.1356051272
 30
0.0
 10
4.2322744678
 20
5.1360058071
 30
0.0
 10
4.2317340514
 20
5.1364560456
 30
0.0
 10
4.2311065911
 20
5.1369485046
 30
0.0
 10
4.2303915214
 20
5.1374753473
 30
0.0
 10
4.2292721717
 20
5.1382367749
 30
0.0
 10
4.2276353299
 20
5.1391942153
 30
0.0
 10
4.2253415506
 20
5.1402261611
 30
0.0
 10
4.2236380612
 20
5.1407563417
 30
0.0
 10
4.2227227809
 20
5.140980577
 30
0.0
  0
SPLINE
  5
31A
100
AcDbEntity
  8
0
100
AcDbSpline
 62
7
  6
CONTINUOUS
 70
0
 71
3
 72
25
 73
21
 74
0
 42
0.0000001
 43
0.0000001
 44
0.0000000001
 40
0.0
 40
0.0
 40
0.0
 40
0.0
 40
0.0709371935
 40
0.1377001294
 40
0.2010098988
 40
0.2616172801
 40
0.3202275477
 40
0.3775543566
 40
0.4346973919
 40
0.4644102201
 40
0.5000109961
 40
0.5355811338
 40
0.5652890855
 40
0.6224311732
 40
0.6797587456
 40
0.738370498
 40
0.7989799285
 40
0.86229211
 40
0.9290582087
 40
1.0
 40
1.0
 40
1.0
 40
1.0
 10
6.5042134481
 20
2.8963572122
 30
0.0
 10
6.4935637856
 20
2.9020799177
 30
0.0
 10
6.4737002892
 20
2.9147788478
 30
0.0
 10
6.447772403
 20
2.9373376371
 30
0.0
 10
6.4263781828
 20
2.9619332228
 30
0.0
 10
6.4091910272
 20
2.9879660748
 30
0.0
 10
6.39590148
 20
3.0150490242
 30
0.0
 10
6.3862547221
 20
3.0430011302
 30
0.0
 10
6.3811207642
 20
3.0671009092
 30
0.0
 10
6.3786947293
 20
3.0878407837
 30
0.0
 10
6.3779271559
 20
3.1050391582
 30
0.0
 10
6.3786979846
 20
3.1222365017
 30
0.0
 10
6.3811260868
 20
3.1429698704
 30
0.0
 10
6.3862629516
 20
3.1670681428
 30
0.0
 10
6.395913338
 20
3.1950192336
 30
0.0
 10
6.4092067363
 20
3.2221011161
 30
0.0
 10
6.4263979377
 20
3.2481325202
 30
0.0
 10
6.447796409
 20
3.2727261454
 30
0.0
 10
6.473728873
 20
3.2952823394
 30
0.0
 10
6.4935954417
 20
3.3079789558
 30
0.0
 10
6.5042466956
 20
3.3137003551
 30
0.0
  0
LINE
  5
31B
100
AcDbEntity
  8
0
100
AcDbLine
 62
7
  6
CONTINUOUS
 10
6.5260634802
 20
3.3144959694
 11
6.5335623817
 21
3.3180145562
  0
LINE
  5
31C
100
AcDbEntity
  8
0
100
AcDbLine
 62
7
  6
CONTINUOUS
 10
6.7015928446
 20
2.8528056585
 11
6.6885903193
 21
2.8493838886
  0
LINE
  5
31D
100
AcDbEntity
  8
0
100
AcDbLine
 62
7
  6
CONTINUOUS
 10
6.5470364536
 20
2.849278653
 11
6.5335928446
 21
2.8528056585
  0
SPLINE
  5
31E
100
AcDbEntity
  8
0
100
AcDbSpline
 62
7
  6
CONTINUOUS
 70
0
 71
3
 72
11
 73
7
 74
0
 42
0.0000001
 43
0.0000001
 44
0.0000000001
 40
0.0
 40
0.0
 40
0.0
 40
0.0
 40
0.2322980731
 40
0.4756204273
 40
0.7332988698
 40
1.0
 40
1.0
 40
1.0
 40
1.0
 10
4.1632598736
 20
4.8824871791
 30
0.0
 10
4.1642615128
 20
4.8823339068
 30
0.0
 10
4.1664120202
 20
4.8825126865
 30
0.0
 10
4.1692675508
 20
4.8841421108
 30
0.0
 10
4.1713699034
 20
4.8868419894
 30
0.0
 10
4.172104503
 20
4.8890616129
 30
0.0
 10
4.1722804748
 20
4.8902115936
 30
0.0
  0
SPLINE
  5
31F
100
AcDbEntity
  8
0
100
AcDbSpline
 62
7
  6
CONTINUOUS
 70
0
 71
3
 72
15
 73
11
 74
0
 42
0.0000001
 43
0.0000001
 44
0.0000000001
 40
0.0
 40
0.0
 40
0.0
 40
0.0
 40
0.1581440402
 40
0.3129890254
 40
0.4603085867
 40
0.5972742279
 40
0.7214026522
 40
0.8307153849
 40
0.9237219853
 40
1.0
 40
1.0
 40
1.0
 40
1.0
 10
4.2068587002
 20
5.1161813094
 30
0.0
 10
4.2070922595
 20
5.1177077245
 30
0.0
 10
4.2076968405
 20
5.1207085981
 30
0.0
 10
4.2089775507
 20
5.1250232345
 30
0.0
 10
4.2105830448
 20
5.1290062289
 30
0.0
 10
4.2124242611
 20
5.1325510872
 30
0.0
 10
4.2144199133
 20
5.1355758851
 30
0.0
 10
4.2164893322
 20
5.1380142323
 30
0.0
 10
4.2185501599
 20
5.1398053694
 30
0.0
 10
4.2200198483
 20
5.1406158609
 30
0.0
 10
4.2207265561
 20
5.1408510281
 30
0.0
  0
SPLINE
  5
320
100
AcDbEntity
  8
0
100
AcDbSpline
 62
7
  6
CONTINUOUS
 70
0
 71
3
 72
13
 73
9
 74
0
 42
0.0000001
 43
0.0000001
 44
0.0000000001
 40
0.0
 40
0.0
 40
0.0
 40
0.0
 40
0.107456235
 40
0.2204597141
 40
0.3414116914
 40
0.469357328
 40
0.7359945112
 40
1.0
 40
1.0
 40
1.0
 40
1.0
 10
4.222177233
 20
5.1138372309
 30
0.0
 10
4.2222592654
 20
5.1143729952
 30
0.0
 10
4.2226275999
 20
5.1154469258
 30
0.0
 10
4.223641386
 20
5.1168596958
 30
0.0
 10
4.2250102248
 20
5.1180846888
 30
0.0
 10
4.2272268531
 20
5.1194639764
 30
0.0
 10
4.2303984492
 20
5.1205740399
 30
0.0
 10
4.2330791901
 20
5.1208940508
 30
0.0
 10
4.2344108296
 20
5.1208958532
 30
0.0
  0
LINE
  5
321
100
AcDbEntity
  8
0
100
AcDbLine
 62
7
  6
CONTINUOUS
 10
4.2344108155
 20
5.1208958591
 11
4.2350439678
 21
5.1209478804
  0
SPLINE
  5
322
100
AcDbEntity
  8
0
100
AcDbSpline
 62
7
  6
CONTINUOUS
 70
0
 71
3
 72
9
 73
5
 74
0
 42
0.0000001
 43
0.0000001
 44
0.0000000001
 40
0.0
 40
0.0
 40
0.0
 40
0.0
 40
0.5219555404
 40
1.0
 40
1.0
 40
1.0
 40
1.0
 10
4.2207265561
 20
5.1408510281
 30
0.0
 10
4.2210601504
 20
5.1409620164
 30
0.0
 10
4.2217259192
 20
5.1411085004
 30
0.0
 10
4.2224100365
 20
5.1410572135
 30
0.0
 10
4.2227227836
 20
5.1409805935
 30
0.0
  0
SPLINE
  5
323
100
AcDbEntity
  8
0
100
AcDbSpline
 62
7
  6
CONTINUOUS
 70
0
 71
3
 72
9
 73
5
 74
0
 42
0.0000001
 43
0.0000001
 44
0.0000000001
 40
0.0
 40
0.0
 40
0.0
 40
0.0
 40
0.2370589461
 40
1.0
 40
1.0
 40
1.0
 40
1.0
 10
4.2344108129
 20
5.1208958583
 30
0.0
 10
4.2339313325
 20
5.1210098799
 30
0.0
 10
4.2319327203
 20
5.1215871952
 30
0.0
 10
4.2300465166
 20
5.1225501484
 30
0.0
 10
4.2287476624
 20
5.1234605998
 30
0.0
  0
SPLINE
  5
324
100
AcDbEntity
  8
0
100
AcDbSpline
 62
7
  6
CONTINUOUS
 70
0
 71
3
 72
11
 73
7
 74
0
 42
0.0000001
 43
0.0000001
 44
0.0000000001
 40
0.0
 40
0.0
 40
0.0
 40
0.0
 40
0.2506723806
 40
0.509710611
 40
0.7636688834
 40
1.0
 40
1.0
 40
1.0
 40
1.0
 10
4.2287476624
 20
5.1234605998
 30
0.0
 10
4.2273815339
 20
5.1244182082
 30
0.0
 10
4.2248672817
 20
5.1267702621
 30
0.0
 10
4.222191771
 20
5.1311592444
 30
0.0
 10
4.220741431
 20
5.1359854639
 30
0.0
 10
4.2206007345
 20
5.1392832105
 30
0.0
 10
4.2207266312
 20
5.1408510457
 30
0.0
  0
SPLINE
  5
325
100
AcDbEntity
  8
0
100
AcDbSpline
 62
7
  6
CONTINUOUS
 70
0
 71
3
 72
13
 73
9
 74
0
 42
0.0000001
 43
0.0000001
 44
0.0000000001
 40
0.0
 40
0.0
 40
0.0
 40
0.0
 40
0.2326981888
 40
0.3587019974
 40
0.4886281634
 40
0.6204184917
 40
0.7515293047
 40
1.0
 40
1.0
 40
1.0
 40
1.0
 10
4.235143885
 20
5.1209286593
 30
0.0
 10
4.2331913566
 20
5.1213897309
 30
0.0
 10
4.230283332
 20
5.1227104271
 30
0.0
 10
4.2271091021
 20
5.1255097021
 30
0.0
 10
4.2250565625
 20
5.1281779439
 30
0.0
 10
4.2235667324
 20
5.1312443029
 30
0.0
 10
4.2223851093
 20
5.1355105188
 30
0.0
 10
4.2223761384
 20
5.1388665851
 30
0.0
 10
4.2227229173
 20
5.1409805436
 30
0.0
  0
SPLINE
  5
326
100
AcDbEntity
  8
0
100
AcDbSpline
 62
7
  6
CONTINUOUS
 70
0
 71
3
 72
25
 73
21
 74
0
 42
0.0000001
 43
0.0000001
 44
0.0000000001
 40
0.0
 40
0.0
 40
0.0
 40
0.0
 40
0.0708916124
 40
0.1376247893
 40
0.2009205621
 40
0.2615267943
 40
0.3201454671
 40
0.3774879769
 40
0.4346541828
 40
0.464384226
 40
0.5000013039
 40
0.5355979644
 40
0.5653221662
 40
0.622487202
 40
0.6798309757
 40
0.7384521104
 40
0.7990619082
 40
0.862362532
 40
0.9291020003
 40
1.0
 40
1.0
 40
1.0
 40
1.0
 10
6.7315344735
 20
3.3133794088
 30
0.0
 10
6.7421358045
 20
3.3076461914
 30
0.0
 10
6.7619080937
 20
3.2949377653
 30
0.0
 10
6.7877153394
 20
3.2723936872
 30
0.0
 10
6.8090122234
 20
3.2478308739
 30
0.0
 10
6.8261235546
 20
3.2218420383
 30
0.0
 10
6.8393562915
 20
3.194810124
 30
0.0
 10
6.8489631455
 20
3.166913183
 30
0.0
 10
6.8540765474
 20
3.1428616446
 30
0.0
 10
6.8564930743
 20
3.1221628194
 30
0.0
 10
6.8572575688
 20
3.1049966451
 30
0.0
 10
6.8564892599
 20
3.0878316758
 30
0.0
 10
6.8540697089
 20
3.0671379085
 30
0.0
 10
6.8489525039
 20
3.0430881812
 30
0.0
 10
6.8393408904
 20
3.0151924176
 30
0.0
 10
6.8261030347
 20
2.9881616188
 30
0.0
 10
6.8089861187
 20
2.9621742266
 30
0.0
 10
6.7876830226
 20
2.9376134608
 30
0.0
 10
6.761869091
 20
2.9150724623
 30
0.0
 10
6.7420922894
 20
2.9023670162
 30
0.0
 10
6.7314887595
 20
2.8966355826
 30
0.0
  0
ENDSEC
  0
SECTION
  2
OBJECTS
  0
DICTIONARY
  5
C
100
AcDbDictionary
280
0
281
1
  3
ACAD_GROUP
350
D
  3
ACAD_MLINESTYLE
350
17
  3
ACAD_LAYOUT
350
1A
  3
ACAD_PLOTSETTINGS
350
19
  3
ACAD_PLOTSTYLENAME
350
E
  0
DICTIONARY
  5
D
102
{ACAD_REACTORS
330
C
102
}
100
AcDbDictionary
280
0
281
1
  0
ACDBDICTIONARYWDFLT
  5
E
102
{ACAD_REACTORS
330
C
102
}
100
AcDbDictionary
281
1
  3
Normal
350
F
100
AcDbDictionaryWithDefault
340
F
  0
DICTIONARY
  5
17
102
{ACAD_REACTORS
330
C
102
}
100
AcDbDictionary
280
0
281
1
  3
Standard
350
18
  0
DICTIONARY
  5
19
102
{ACAD_REACTORS
330
C
102
}
100
AcDbDictionary
281
1
  0
DICTIONARY
  5
1A
102
{ACAD_REACTORS
330
C
102
}
100
AcDbDictionary
281
1
  3
Model
350
327
  3
Layout1
350
328
  0
ACDBPLACEHOLDER
  5
F
102
{ACAD_REACTORS
330
E
102
}
  0
MLINESTYLE
  5
18
102
{ACAD_REACTORS
330
17
102
}
100
AcDbMlineStyle
  2
STANDARD
 70
0
  3

 62
256
 51
90.0
 52
90.0
 71
2
 49
0.5
 62
256
  6
BYLAYER
 49
-0.5
 62
256
  6
BYLAYER
  0
LAYOUT
  5
327
102
{ACAD_REACTORS
330
1A
102
}
100
AcDbPlotSettings
  1

  2
none_device
  4
ANSI_A_(11.00_x_8.50_Inches)
  6

 40
0.0
 41
0.0
 42
0.0
 43
0.0
 44
279.4
 45
215.9
 46
0.0
 47
0.0
 48
0.0
 49
0.0
140
0.0
141
0.0
142
1.0
143
1.0
 70
1024
 72
0
 73
0
 74
0
  7

 75
0
147
1.0
148
0.0
149
0.0
100
AcDbLayout
  1
Model
 70
0
 71
0
 10
0.0
 20
0.0
 11
11.0
 21
8.5
 12
0.0
 22
0.0
 32
0.0
 14
0.0
 24
0.0
 34
0.0
 15
0.0
 25
0.0
 35
0.0
146
0.0
 13
0.0
 23
0.0
 33
0.0
 16
1.0
 26
0.0
 36
0.0
 17
0.0
 27
1.0
 37
0.0
 76
0
330
200
345
0
346
0
  0
LAYOUT
  5
328
102
{ACAD_REACTORS
330
1A
102
}
100
AcDbPlotSettings
  1

  2
none_device
  4
ANSI_A_(11.00_x_8.50_Inches)
  6

 40
0.0
 41
0.0
 42
0.0
 43
0.0
 44
279.4
 45
215.9
 46
0.0
 47
0.0
 48
0.0
 49
0.0
140
0.0
141
0.0
142
1.0
143
1.0
 70
0
 72
0
 73
0
 74
0
  7

 75
0
147
1.0
148
0.0
149
0.0
100
AcDbLayout
  1
Layout1
 70
0
 71
1
 10
0.0
 20
0.0
 11
11.0
 21
8.5
 12
0.0
 22
0.0
 32
0.0
 14
0.0
 24
0.0
 34
0.0
 15
0.0
 25
0.0
 35
0.0
146
0.0
 13
0.0
 23
0.0
 33
0.0
 16
1.0
 26
0.0
 36
0.0
 17
0.0
 27
1.0
 37
0.0
 76
0
330
201
345
0
346
0
  0
ENDSEC
  0
EOF
