999
DXF file: 1500-5173_TOP.dxf
999
Pro/ENGINEER 2023134 by Parametric Technology Corporation
  0
SECTION
  2
HEADER
  9
$ACADVER
  1
AC1032
  9
$DWGCODEPAGE
  3
ANSI_1252
  9
$EXTMAX
 10
11.0
 20
8.5
 30
0.0
  9
$EXTMIN
 10
0.0
 20
0.0
 30
0.0
  9
$LIMMIN
 10
0.0
 20
0.0
  9
$LIMMAX
 10
11.0
 20
8.5
  9
$VIEWCTR
 10
5.5
 20
4.25
  9
$VIEWSIZE
 40
8.5
  9
$CLAYER
  8
0
  9
$LTSCALE
 40
0.605
  9
$CELTYPE
  6
BYLAYER
  9
$DIMSCALE
 40
1.0
  9
$DIMASZ
 40
0.1875
  9
$DIMEXO
 40
0.0625
  9
$DIMDLI
 40
0.418
  9
$DIMEXE
 40
0.125
  9
$DIMCEN
 40
0.099
  9
$DIMLFAC
 40
1.0
  9
$DIMBLK
  1
_FILLED
  9
$DIMALT
 70
0
  9
$DIMALTF
 40
25.4
  9
$DIMTXT
 40
0.15625
  9
$DIMTOL
 70
0
  9
$DIMLIM
 70
0
  9
$DIMTFAC
 40
1.0
  9
$DIMGAP
 40
0.09
  9
$DIMDSEP
 70
46
  9
$AUNITS
 70
0
  9
$PDMODE
 70
3
  9
$PDSIZE
 40
0.3125
  9
$HANDSEED
  5
29C
  9
$TILEMODE
 70
1
  9
$MEASUREMENT
 70
0
  9
$INSUNITS
 70
1
  0
ENDSEC
  0
SECTION
  2
CLASSES
  0
CLASS
  1
ACDBDICTIONARYWDFLT
  2
AcDbDictionaryWithDefault
  3
AutoCAD 2000
 90
0
 91
1
280
0
281
0
  0
CLASS
  1
ACDBPLACEHOLDER
  2
AcDbPlaceHolder
  3
AutoCAD 2000
 90
0
 91
1
280
0
281
0
  0
CLASS
  1
LAYOUT
  2
AcDbLayout
  3
AutoCAD 2000
 90
0
 91
0
280
0
281
0
  0
ENDSEC
  0
SECTION
  2
TABLES
  0
TABLE
  2
VPORT
  5
8
100
AcDbSymbolTable
 70
2
  0
VPORT
  5
1F4
100
AcDbSymbolTableRecord
100
AcDbViewportTableRecord
  2
*ACTIVE
 70
0
 10
0.0
 20
0.0
 11
1.0
 21
1.0
 12
5.5
 22
4.25
 13
0.0
 23
0.0
 14
1.0
 24
1.0
 15
0.0
 25
0.0
 16
0.0
 26
0.0
 36
1.0
 17
0.0
 27
0.0
 37
0.0
 40
8.5
 41
1.2941176471
 42
50.0
 43
0.0
 44
0.0
 50
0.0
 51
0.0
 71
0
 72
100
 73
1
 74
1
 75
0
 76
0
 77
0
 78
0
  0
ENDTAB
  0
TABLE
  2
LTYPE
  5
5
100
AcDbSymbolTable
 70
6
  0
LTYPE
  5
14
100
AcDbSymbolTableRecord
100
AcDbLinetypeTableRecord
  2
BYBLOCK
 70
0
  3

 72
65
 73
0
 40
0.0
  0
LTYPE
  5
15
100
AcDbSymbolTableRecord
100
AcDbLinetypeTableRecord
  2
BYLAYER
 70
0
  3

 72
65
 73
0
 40
0.0
  0
LTYPE
  5
16
100
AcDbSymbolTableRecord
100
AcDbLinetypeTableRecord
  2
CONTINUOUS
 70
64
  3
Solid line
 72
65
 73
0
 40
0.0
  0
LTYPE
  5
1F5
100
AcDbSymbolTableRecord
100
AcDbLinetypeTableRecord
  2
CENTER
 70
64
  3
____ _ ____ _ ____ _ ____ _ ____ _ ____ _ ____
 72
65
 73
4
 40
0.6
 49
0.375
 74
0
 49
-0.075
 74
0
 49
0.075
 74
0
 49
-0.075
 74
0
  0
LTYPE
  5
1F6
100
AcDbSymbolTableRecord
100
AcDbLinetypeTableRecord
  2
HIDDEN
 70
64
  3
- - - - - - - - - - - - - - - - - - - -
 72
65
 73
2
 40
0.2
 49
0.1
 74
0
 49
-0.1
 74
0
  0
LTYPE
  5
1F7
100
AcDbSymbolTableRecord
100
AcDbLinetypeTableRecord
  2
PHANTOM
 70
64
  3
_____ _ _ _____ _ _ _____ _ _ _____
 72
65
 73
6
 40
0.8
 49
0.45
 74
0
 49
-0.05
 74
0
 49
0.1
 74
0
 49
-0.05
 74
0
 49
0.1
 74
0
 49
-0.05
 74
0
  0
LTYPE
  5
1F8
100
AcDbSymbolTableRecord
100
AcDbLinetypeTableRecord
  2
DOT
 70
64
  3
. . . . . . . . . . . . . . . . . . . .
 72
65
 73
2
 40
0.2
 49
0.1
 74
0
 49
-0.1
 74
0
  0
LTYPE
  5
1F9
100
AcDbSymbolTableRecord
100
AcDbLinetypeTableRecord
  2
DASHED
 70
64
  3
- - - - - - - - - - - - - - - - - - - -
 72
65
 73
2
 40
0.2
 49
0.1
 74
0
 49
-0.1
 74
0
  0
ENDTAB
  0
TABLE
  2
LAYER
  5
2
100
AcDbSymbolTable
 70
36
  0
LAYER
  5
10
100
AcDbSymbolTableRecord
100
AcDbLayerTableRecord
  2
0
 70
0
 62
7
  6
CONTINUOUS
370
-3
390
F
  0
LAYER
  5
1FA
100
AcDbSymbolTableRecord
100
AcDbLayerTableRecord
  2
DEFAULT_1
 70
0
 62
7
  6
CENTER
370
-3
390
F
  0
LAYER
  5
1FB
100
AcDbSymbolTableRecord
100
AcDbLayerTableRecord
  2
DEFAULT_2
 70
0
 62
8
  6
HIDDEN
370
-3
390
F
  0
LAYER
  5
1FC
100
AcDbSymbolTableRecord
100
AcDbLayerTableRecord
  2
DEFAULT_3
 70
0
 62
7
  6
PHANTOM
370
-3
390
F
  0
LAYER
  5
1FD
100
AcDbSymbolTableRecord
100
AcDbLayerTableRecord
  2
3_ALL_SYMBOLS
 70
0
 62
7
  6
CONTINUOUS
370
-3
390
F
  0
ENDTAB
  0
TABLE
  2
STYLE
  5
3
100
AcDbSymbolTable
 70
1
  0
STYLE
  5
11
100
AcDbSymbolTableRecord
100
AcDbTextStyleTableRecord
  2
STANDARD
 70
0
 40
0.0
 41
1.0
 50
0.0
 71
0
 42
0.2
  3
ar_wgl__.ttf
  4

1001
ACAD
1000
Arial WGL
1071
34
  0
STYLE
  5
1FE
100
AcDbSymbolTableRecord
100
AcDbTextStyleTableRecord
  2
TEXTSTYLE_1
 70
0
 40
0.0
 41
0.8
 50
0.0
 71
0
 42
0.2
  3
gdt
  4

  0
ENDTAB
  0
TABLE
  2
VIEW
  5
6
100
AcDbSymbolTable
 70
0
  0
ENDTAB
  0
TABLE
  2
UCS
  5
7
100
AcDbSymbolTable
 70
0
  0
ENDTAB
  0
TABLE
  2
APPID
  5
9
100
AcDbSymbolTable
 70
1
  0
APPID
  5
1FF
100
AcDbSymbolTableRecord
100
AcDbRegAppTableRecord
  2
ACAD
 70
0
  0
ENDTAB
  0
TABLE
  2
BLOCK_RECORD
  5
1
100
AcDbSymbolTable
 70
0
  0
BLOCK_RECORD
  5
200
100
AcDbSymbolTableRecord
100
AcDbBlockTableRecord
  2
*Model_Space
  0
BLOCK_RECORD
  5
201
100
AcDbSymbolTableRecord
100
AcDbBlockTableRecord
  2
*Paper_Space
  0
BLOCK_RECORD
  5
202
100
AcDbSymbolTableRecord
100
AcDbBlockTableRecord
  2
_FILLED
  0
ENDTAB
  0
TABLE
  2
DIMSTYLE
  5
A
100
AcDbSymbolTable
 70
1
100
AcDbDimStyleTable
 71
0
  0
DIMSTYLE
105
203
100
AcDbSymbolTableRecord
100
AcDbDimStyleTableRecord
  2
STANDARD
 70
0
  3

  4

 40
1.0
 41
0.1875
 42
0.0625
 43
0.38
 44
0.125
 45
0.0
 46
0.0
 47
0.001
 48
0.001
140
0.15625
141
0.09
142
0.0
143
25.4
144
1.0
145
0.0
146
1.0
147
0.09
 71
0
 72
0
 73
1
 74
1
 75
0
 76
0
 77
0
 78
4
 79
1
170
0
171
2
172
0
173
0
174
0
175
0
176
0
177
0
178
0
270
2
179
3
271
3
272
3
273
2
274
2
275
0
280
0
281
0
282
0
283
1
284
4
285
0
286
0
287
3
288
0
340
11
278
46
341
202
342
202
343
202
344
202
  0
ENDTAB
  0
ENDSEC
  0
SECTION
  2
BLOCKS
  0
BLOCK
  5
20
100
AcDbEntity
  8
0
100
AcDbBlockBegin
  2
*Model_Space
 70
0
 10
0.0
 20
0.0
 30
0.0
  3
*Model_Space
  1

  0
ENDBLK
  5
21
100
AcDbEntity
  8
0
100
AcDbBlockEnd
  0
BLOCK
  5
1C
100
AcDbEntity
  8
0
100
AcDbBlockBegin
  2
*Paper_Space
 70
0
 10
0.0
 20
0.0
 30
0.0
  3
*Paper_Space
  1

  0
ENDBLK
  5
1D
100
AcDbEntity
  8
0
100
AcDbBlockEnd
  0
BLOCK
  5
204
100
AcDbEntity
  8
0
100
AcDbBlockBegin
  2
_FILLED
 70
64
 10
0.0
 20
0.0
  3
_FILLED
  1

  0
SOLID
  5
205
100
AcDbEntity
  8
0
  6
BYBLOCK
 62
0
100
AcDbTrace
 10
0.0
 20
0.0
 11
-1.0
 21
0.1666666667
 12
-1.0
 22
-0.1666666667
 13
-1.0
 23
-0.1666666667
  0
ENDBLK
  5
206
100
AcDbEntity
  8
0
  6
BYBLOCK
 62
0
100
AcDbBlockEnd
  0
ENDSEC
  0
SECTION
  2
ENTITIES
  0
LINE
  5
207
100
AcDbEntity
  8
0
100
AcDbLine
 62
7
  6
CONTINUOUS
 10
0.0
 20
0.0
 11
0.0
 21
8.5
  0
LINE
  5
208
100
AcDbEntity
  8
0
100
AcDbLine
 62
7
  6
CONTINUOUS
 10
0.0
 20
0.0
 11
11.0
 21
0.0
  0
LINE
  5
209
100
AcDbEntity
  8
0
100
AcDbLine
 62
7
  6
CONTINUOUS
 10
0.0
 20
8.5
 11
11.0
 21
8.5
  0
LINE
  5
20A
100
AcDbEntity
  8
0
100
AcDbLine
 62
7
  6
CONTINUOUS
 10
11.0
 20
0.0
 11
11.0
 21
8.5
  0
LINE
  5
20B
100
AcDbEntity
  8
0
100
AcDbLine
 62
7
  6
CONTINUOUS
 10
4.7261200737
 20
3.1129662321
 11
4.7261200737
 21
3.1127877435
  0
LINE
  5
20C
100
AcDbEntity
  8
0
100
AcDbLine
 62
7
  6
CONTINUOUS
 10
4.8330700737
 20
3.1375612415
 11
4.8330700737
 21
3.1933764842
  0
LINE
  5
20D
100
AcDbEntity
  8
0
100
AcDbLine
 62
7
  6
CONTINUOUS
 10
4.8333700737
 20
3.1307624762
 11
4.8333700737
 21
3.1156889269
  0
LINE
  5
20E
100
AcDbEntity
  8
0
100
AcDbLine
 62
7
  6
CONTINUOUS
 10
4.8333700737
 20
3.1956453965
 11
4.8333700737
 21
3.2780069131
  0
LINE
  5
20F
100
AcDbEntity
  8
0
100
AcDbLine
 62
7
  6
CONTINUOUS
 10
4.8333700107
 20
5.7286502861
 11
4.8334001834
 21
3.278914478
  0
LINE
  5
210
100
AcDbEntity
  8
0
100
AcDbLine
 62
7
  6
CONTINUOUS
 10
5.1753700737
 20
3.1307623396
 11
5.1753700737
 21
3.1156889269
  0
LINE
  5
211
100
AcDbEntity
  8
0
100
AcDbLine
 62
7
  6
CONTINUOUS
 10
5.1753700737
 20
3.1956453965
 11
5.1753700737
 21
3.2780069131
  0
LINE
  5
212
100
AcDbEntity
  8
0
100
AcDbLine
 62
7
  6
CONTINUOUS
 10
5.1753701367
 20
5.7286502861
 11
5.175339964
 21
3.278914478
  0
LINE
  5
213
100
AcDbEntity
  8
0
100
AcDbLine
 62
7
  6
CONTINUOUS
 10
5.1756700737
 20
3.1375612415
 11
5.1756700737
 21
3.1933764842
  0
LINE
  5
214
100
AcDbEntity
  8
0
100
AcDbLine
 62
7
  6
CONTINUOUS
 10
5.2826200737
 20
3.1129662321
 11
5.2826200737
 21
3.1127877435
  0
LINE
  5
215
100
AcDbEntity
  8
0
100
AcDbLine
 62
7
  6
CONTINUOUS
 10
5.5168486125
 20
5.4935770739
 11
5.5168486125
 21
5.963732409
  0
LINE
  5
216
100
AcDbEntity
  8
0
100
AcDbLine
 62
7
  6
CONTINUOUS
 10
5.5257700737
 20
5.9547327517
 11
5.5257700737
 21
5.5025767312
  0
LINE
  5
217
100
AcDbEntity
  8
0
100
AcDbLine
 62
7
  6
CONTINUOUS
 10
5.5317700737
 20
5.9566547414
 11
5.5317700737
 21
5.5008451731
  0
LINE
  5
218
100
AcDbEntity
  8
0
100
AcDbLine
 62
7
  6
CONTINUOUS
 10
5.5407700737
 20
5.9656547414
 11
5.5407700737
 21
5.4916547414
  0
LINE
  5
219
100
AcDbEntity
  8
0
100
AcDbLine
 62
7
  6
CONTINUOUS
 10
5.8209700737
 20
5.4916547414
 11
5.8209700737
 21
5.62649919
  0
LINE
  5
21A
100
AcDbEntity
  8
0
100
AcDbLine
 62
7
  6
CONTINUOUS
 10
5.8209700737
 20
5.830810189
 11
5.8209700737
 21
5.9656547414
  0
LINE
  5
21B
100
AcDbEntity
  8
0
100
AcDbLine
 62
7
  6
CONTINUOUS
 10
5.8269700737
 20
5.9596547197
 11
5.8269700737
 21
5.828223975
  0
LINE
  5
21C
100
AcDbEntity
  8
0
100
AcDbLine
 62
7
  6
CONTINUOUS
 10
5.8269700737
 20
5.6290854056
 11
5.8269700737
 21
5.4976547631
  0
LINE
  5
21D
100
AcDbEntity
  8
0
100
AcDbLine
 62
7
  6
CONTINUOUS
 10
5.5168486125
 20
5.4935770739
 11
5.1753701367
 21
5.4905970364
  0
LINE
  5
21E
100
AcDbEntity
  8
0
100
AcDbLine
 62
7
  6
CONTINUOUS
 10
5.5407700737
 20
5.4916547414
 11
5.8209700737
 21
5.4916547414
  0
LINE
  5
21F
100
AcDbEntity
  8
0
100
AcDbLine
 62
7
  6
CONTINUOUS
 10
5.5257700737
 20
5.5025767312
 11
5.5317700737
 21
5.5025767312
  0
LINE
  5
220
100
AcDbEntity
  8
0
100
AcDbLine
 62
7
  6
CONTINUOUS
 10
5.7976432738
 20
5.8087547414
 11
5.7971623333
 21
5.808662867
  0
LINE
  5
221
100
AcDbEntity
  8
0
100
AcDbLine
 62
7
  6
CONTINUOUS
 10
5.7976432738
 20
5.6485547414
 11
5.7783227343
 21
5.6485547414
  0
LINE
  5
222
100
AcDbEntity
  8
0
100
AcDbLine
 62
7
  6
CONTINUOUS
 10
5.7754306342
 20
5.6547406794
 11
5.769403925
 21
5.6547406794
  0
LINE
  5
223
100
AcDbEntity
  8
0
100
AcDbLine
 62
7
  6
CONTINUOUS
 10
5.2741082753
 20
5.728654701
 11
5.2443697901
 21
5.7286547324
  0
LINE
  5
224
100
AcDbEntity
  8
0
100
AcDbLine
 62
7
  6
CONTINUOUS
 10
5.7332200737
 20
5.7286547414
 11
5.7272200737
 21
5.7286547414
  0
LINE
  5
225
100
AcDbEntity
  8
0
100
AcDbLine
 62
7
  6
CONTINUOUS
 10
5.7754308617
 20
5.8025688147
 11
5.7693205189
 21
5.8025688147
  0
LINE
  5
226
100
AcDbEntity
  8
0
100
AcDbLine
 62
7
  6
CONTINUOUS
 10
5.7971503224
 20
5.6486485089
 11
5.7976432541
 21
5.6485547426
  0
LINE
  5
227
100
AcDbEntity
  8
0
100
AcDbLine
 62
7
  6
CONTINUOUS
 10
5.7784080313
 20
5.8087547414
 11
5.7976432738
 21
5.8087547414
  0
LINE
  5
228
100
AcDbEntity
  8
0
100
AcDbLine
 62
7
  6
CONTINUOUS
 10
5.5257700737
 20
5.9547327517
 11
5.5317700737
 21
5.9547327517
  0
LINE
  5
229
100
AcDbEntity
  8
0
100
AcDbLine
 62
7
  6
CONTINUOUS
 10
5.5407700737
 20
5.9656547414
 11
5.8209700737
 21
5.9656547414
  0
LINE
  5
22A
100
AcDbEntity
  8
0
100
AcDbLine
 62
7
  6
CONTINUOUS
 10
5.5168486125
 20
5.963732409
 11
5.0222004098
 21
5.9680491384
  0
LWPOLYLINE
  5
22B
100
AcDbEntity
  8
0
100
AcDbPolyline
 62
7
  6
CONTINUOUS
 90
3
 70
0
 10
5.0222004589
 20
5.9680490149
 10
5.0214906796
 20
5.9680636258
 10
5.0204553293
 20
5.9681151837
  0
ARC
  5
22C
100
AcDbEntity
  8
0
100
AcDbCircle
 62
7
  6
CONTINUOUS
 10
5.0105296403
 20
3.114327582
 40
0.2630904334
100
AcDbArc
 50
359.6259535423
 51
359.9999994562
  0
ARC
  5
22D
100
AcDbEntity
  8
0
100
AcDbCircle
 62
7
  6
CONTINUOUS
 10
4.9982105069
 20
3.114327577
 40
0.2630904332
100
AcDbArc
 50
179.6259535458
 51
179.9999994563
  0
ARC
  5
22E
100
AcDbEntity
  8
0
100
AcDbCircle
 62
7
  6
CONTINUOUS
 10
5.0075042332
 20
3.1141953495
 40
0.1768710844
100
AcDbArc
 50
7.8935478771
 51
9.8698193053
  0
ARC
  5
22F
100
AcDbEntity
  8
0
100
AcDbCircle
 62
7
  6
CONTINUOUS
 10
5.0006102525
 20
3.1142949908
 40
0.1762377475
100
AcDbArc
 50
162.0086564784
 51
179.9791046937
  0
ARC
  5
230
100
AcDbEntity
  8
0
100
AcDbCircle
 62
7
  6
CONTINUOUS
 10
5.0081525133
 20
3.1143021914
 40
0.1762140853
100
AcDbArc
 50
9.8717250703
 51
17.9568614944
  0
ARC
  5
231
100
AcDbEntity
  8
0
100
AcDbCircle
 62
7
  6
CONTINUOUS
 10
5.0002525022
 20
3.1143275824
 40
0.1758824285
100
AcDbArc
 50
180.0000009412
 51
180.4491196186
  0
ARC
  5
232
100
AcDbEntity
  8
0
100
AcDbCircle
 62
7
  6
CONTINUOUS
 10
5.0086102356
 20
3.1143087628
 40
0.1757599905
100
AcDbArc
 50
0.0000009413
 51
7.9064413537
  0
ARC
  5
233
100
AcDbEntity
  8
0
100
AcDbCircle
 62
7
  6
CONTINUOUS
 10
5.0044329761
 20
3.2001034625
 40
0.1734896789
100
AcDbArc
 50
261.0735688455
 51
270.718360896
  0
ARC
  5
234
100
AcDbEntity
  8
0
100
AcDbCircle
 62
7
  6
CONTINUOUS
 10
5.0043297692
 20
3.1972209581
 40
0.173173873
100
AcDbArc
 50
270.7883289693
 51
274.959042803
  0
ARC
  5
235
100
AcDbEntity
  8
0
100
AcDbCircle
 62
7
  6
CONTINUOUS
 10
5.0044116646
 20
3.2818479601
 40
0.1728733583
100
AcDbArc
 50
265.7823039351
 51
269.9779519141
  0
ARC
  5
236
100
AcDbEntity
  8
0
100
AcDbCircle
 62
7
  6
CONTINUOUS
 10
5.0043694422
 20
3.1956510955
 40
0.1716036141
100
AcDbArc
 50
270.0002108576
 51
270.7822955827
  0
ARC
  5
237
100
AcDbEntity
  8
0
100
AcDbCircle
 62
7
  6
CONTINUOUS
 10
5.0043926048
 20
3.2802690037
 40
0.1712943956
100
AcDbArc
 50
269.9841239322
 51
270.7410725742
  0
ARC
  5
238
100
AcDbEntity
  8
0
100
AcDbCircle
 62
7
  6
CONTINUOUS
 10
5.0017651002
 20
3.1379885736
 40
0.1687674385
100
AcDbArc
 50
201.8775361316
 51
206.3142101387
  0
ARC
  5
239
100
AcDbEntity
  8
0
100
AcDbCircle
 62
7
  6
CONTINUOUS
 10
5.0015458461
 20
3.1379011135
 40
0.1685314392
100
AcDbArc
 50
200.4112061284
 51
201.8769786981
  0
ARC
  5
23A
100
AcDbEntity
  8
0
100
AcDbCircle
 62
7
  6
CONTINUOUS
 10
5.0014921183
 20
3.1378505665
 40
0.1684615663
100
AcDbArc
 50
206.3132934652
 51
210.5130348705
  0
ARC
  5
23B
100
AcDbEntity
  8
0
100
AcDbCircle
 62
7
  6
CONTINUOUS
 10
5.0010738686
 20
3.1377281266
 40
0.1680287653
100
AcDbArc
 50
197.2876546452
 51
200.41205145
  0
ARC
  5
23C
100
AcDbEntity
  8
0
100
AcDbCircle
 62
7
  6
CONTINUOUS
 10
5.0008473645
 20
3.1376021793
 40
0.1677769789
100
AcDbArc
 50
185.2405674832
 51
192.5431542861
  0
ARC
  5
23D
100
AcDbEntity
  8
0
100
AcDbCircle
 62
7
  6
CONTINUOUS
 10
5.0079334689
 20
3.1934149942
 40
0.1677366092
100
AcDbArc
 50
344.8405756705
 51
359.9868456287
  0
ARC
  5
23E
100
AcDbEntity
  8
0
100
AcDbCircle
 62
7
  6
CONTINUOUS
 10
5.0002999599
 20
3.1375723637
 40
0.1672298818
100
AcDbArc
 50
180.0038106396
 51
185.2423700497
  0
ARC
  5
23F
100
AcDbEntity
  8
0
100
AcDbCircle
 62
7
  6
CONTINUOUS
 10
5.000259722
 20
3.1374717342
 40
0.167175206
100
AcDbArc
 50
192.5428295258
 51
197.2866708054
  0
ARC
  5
240
100
AcDbEntity
  8
0
100
AcDbCircle
 62
7
  6
CONTINUOUS
 10
5.0005288467
 20
3.2780357476
 40
0.1671596703
100
AcDbArc
 50
183.6484921178
 51
184.6836423698
  0
ARC
  5
241
100
AcDbEntity
  8
0
100
AcDbCircle
 62
7
  6
CONTINUOUS
 10
5.0004583809
 20
3.1156889296
 40
0.1670883072
100
AcDbArc
 50
180.0000009413
 51
180.4491196185
  0
ARC
  5
242
100
AcDbEntity
  8
0
100
AcDbCircle
 62
7
  6
CONTINUOUS
 10
5.008993438
 20
3.1933644559
 40
0.1666767247
100
AcDbArc
 50
0.7875329324
 51
2.3442208299
  0
ARC
  5
243
100
AcDbEntity
  8
0
100
AcDbCircle
 62
7
  6
CONTINUOUS
 10
4.9997464991
 20
3.1933644558
 40
0.1666765144
100
AcDbArc
 50
177.6559242482
 51
179.2124659214
  0
ARC
  5
244
100
AcDbEntity
  8
0
100
AcDbCircle
 62
7
  6
CONTINUOUS
 10
5.0000105999
 20
3.2780054526
 40
0.1666405462
100
AcDbArc
 50
180.7601606962
 51
183.6494359649
  0
ARC
  5
245
100
AcDbEntity
  8
0
100
AcDbCircle
 62
7
  6
CONTINUOUS
 10
4.9997054385
 20
3.1956355067
 40
0.1663352891
100
AcDbArc
 50
179.9965933812
 51
182.0049680388
  0
ARC
  5
246
100
AcDbEntity
  8
0
100
AcDbCircle
 62
7
  6
CONTINUOUS
 10
4.9996581226
 20
3.2789181608
 40
0.1662870512
100
AcDbArc
 50
180.003757078
 51
180.313167334
  0
ARC
  5
247
100
AcDbEntity
  8
0
100
AcDbCircle
 62
7
  6
CONTINUOUS
 10
4.9996414347
 20
3.2779957915
 40
0.1662712853
100
AcDbArc
 50
179.9961675947
 51
180.7585195822
  0
ARC
  5
248
100
AcDbEntity
  8
0
100
AcDbCircle
 62
7
  6
CONTINUOUS
 10
5.0091852368
 20
3.2789108183
 40
0.1661838392
100
AcDbArc
 50
359.6893289011
 51
0.0037514677
  0
ARC
  5
249
100
AcDbEntity
  8
0
100
AcDbCircle
 62
7
  6
CONTINUOUS
 10
5.009713343
 20
3.1933758784
 40
0.1659567307
100
AcDbArc
 50
0.0002091333
 51
0.7870058694
  0
ARC
  5
24A
100
AcDbEntity
  8
0
100
AcDbCircle
 62
7
  6
CONTINUOUS
 10
4.9990265743
 20
3.1933758784
 40
0.1659565006
100
AcDbArc
 50
179.2129928975
 51
179.9997908493
  0
ARC
  5
24B
100
AcDbEntity
  8
0
100
AcDbCircle
 62
7
  6
CONTINUOUS
 10
5.009471394
 20
3.2780068273
 40
0.1658986797
100
AcDbArc
 50
0.0000296424
 51
0.3159659215
  0
ARC
  5
24C
100
AcDbEntity
  8
0
100
AcDbCircle
 62
7
  6
CONTINUOUS
 10
4.9988393165
 20
3.2780068178
 40
0.1654692428
100
AcDbArc
 50
179.6882799011
 51
179.999967008
  0
ARC
  5
24D
100
AcDbEntity
  8
0
100
AcDbCircle
 62
7
  6
CONTINUOUS
 10
5.0043700737
 20
5.7286547414
 40
0.297
100
AcDbArc
 50
305.1716172802
 51
306.6871896275
  0
ARC
  5
24E
100
AcDbEntity
  8
0
100
AcDbCircle
 62
7
  6
CONTINUOUS
 10
5.0043700737
 20
5.7286547414
 40
0.297
100
AcDbArc
 50
53.3128103725
 51
234.8283827198
  0
ARC
  5
24F
100
AcDbEntity
  8
0
100
AcDbCircle
 62
7
  6
CONTINUOUS
 10
5.0043700737
 20
5.7286547414
 40
0.288
100
AcDbArc
 50
55.7947525904
 51
233.5405924763
  0
ARC
  5
250
100
AcDbEntity
  8
0
100
AcDbCircle
 62
7
  6
CONTINUOUS
 10
5.0043700737
 20
5.7286547414
 40
0.24
100
AcDbArc
 50
315.437130076
 51
224.5177227501
  0
ARC
  5
251
100
AcDbEntity
  8
0
100
AcDbCircle
 62
7
  6
CONTINUOUS
 10
5.0043581631
 20
5.7297661054
 40
0.2310066854
100
AcDbArc
 50
0.4736923508
 51
89.9984398166
  0
ARC
  5
252
100
AcDbEntity
  8
0
100
AcDbCircle
 62
7
  6
CONTINUOUS
 10
5.0043700737
 20
5.7286547414
 40
0.231
100
AcDbArc
 50
317.7862694589
 51
0.4571876035
  0
ARC
  5
253
100
AcDbEntity
  8
0
100
AcDbCircle
 62
7
  6
CONTINUOUS
 10
5.0043700737
 20
5.7286547414
 40
0.231
100
AcDbArc
 50
179.9858060432
 51
222.2398480901
  0
ARC
  5
254
100
AcDbEntity
  8
0
100
AcDbCircle
 62
7
  6
CONTINUOUS
 10
5.0043684532
 20
5.7286502861
 40
0.1709984425
100
AcDbArc
 50
0.0
 51
180.0000006237
  0
ARC
  5
255
100
AcDbEntity
  8
0
100
AcDbCircle
 62
7
  6
CONTINUOUS
 10
5.0789766835
 20
5.7302786547
 40
0.1563868269
100
AcDbArc
 50
0.0803529043
 51
0.511930302
  0
ARC
  5
256
100
AcDbEntity
  8
0
100
AcDbCircle
 62
7
  6
CONTINUOUS
 10
5.6163795572
 20
5.6414071124
 40
0.2051329962
100
AcDbArc
 50
355.8323846165
 51
357.283480773
  0
ARC
  5
257
100
AcDbEntity
  8
0
100
AcDbCircle
 62
7
  6
CONTINUOUS
 10
5.5407700737
 20
5.5006547414
 40
0.009
100
AcDbArc
 50
180.0
 51
270.0
  0
ARC
  5
258
100
AcDbEntity
  8
0
100
AcDbCircle
 62
7
  6
CONTINUOUS
 10
5.5167700737
 20
5.5025767312
 40
0.009
100
AcDbArc
 50
270.5000000001
 51
360.0
  0
ARC
  5
259
100
AcDbEntity
  8
0
100
AcDbCircle
 62
7
  6
CONTINUOUS
 10
5.6030417096
 20
5.8151118703
 40
0.2184936141
100
AcDbArc
 50
3.4382622323
 51
3.956544646
  0
ARC
  5
25A
100
AcDbEntity
  8
0
100
AcDbCircle
 62
7
  6
CONTINUOUS
 10
5.650177153
 20
5.8176932316
 40
0.1712883852
100
AcDbArc
 50
2.4569286157
 51
3.5219332987
  0
ARC
  5
25B
100
AcDbEntity
  8
0
100
AcDbCircle
 62
7
  6
CONTINUOUS
 10
5.5167700737
 20
5.9547327517
 40
0.009
100
AcDbArc
 50
0.0
 51
89.4999999999
  0
ARC
  5
25C
100
AcDbEntity
  8
0
100
AcDbCircle
 62
7
  6
CONTINUOUS
 10
5.5407700737
 20
5.9566547414
 40
0.009
100
AcDbArc
 50
90.0
 51
180.0
  0
ARC
  5
25D
100
AcDbEntity
  8
0
100
AcDbCircle
 62
7
  6
CONTINUOUS
 10
5.8239172336
 20
5.6703724932
 40
0.1408551424
100
AcDbArc
 50
100.9546716194
 51
103.7355006711
  0
ARC
  5
25E
100
AcDbEntity
  8
0
100
AcDbCircle
 62
7
  6
CONTINUOUS
 10
5.8217914831
 20
5.6786628646
 40
0.1322971543
100
AcDbArc
 50
103.6937113961
 51
109.9047632516
  0
ARC
  5
25F
100
AcDbEntity
  8
0
100
AcDbCircle
 62
7
  6
CONTINUOUS
 10
5.6912042193
 20
5.6377676375
 40
0.1302199578
100
AcDbArc
 50
357.3226893106
 51
357.5817925193
  0
ARC
  5
260
100
AcDbEntity
  8
0
100
AcDbCircle
 62
7
  6
CONTINUOUS
 10
5.8181930935
 20
5.6889507492
 40
0.1213988286
100
AcDbArc
 50
109.9610064312
 51
110.624743518
  0
ARC
  5
261
100
AcDbEntity
  8
0
100
AcDbCircle
 62
7
  6
CONTINUOUS
 10
5.8318519141
 20
5.7286388068
 40
0.1046318416
100
AcDbArc
 50
175.2000890015
 51
179.9912742995
  0
ARC
  5
262
100
AcDbEntity
  8
0
100
AcDbCircle
 62
7
  6
CONTINUOUS
 10
5.8269678288
 20
5.7232340519
 40
0.0969206199
100
AcDbArc
 50
261.6688177359
 51
266.452088687
  0
ARC
  5
263
100
AcDbEntity
  8
0
100
AcDbCircle
 62
7
  6
CONTINUOUS
 10
5.7976432738
 20
5.6305547414
 40
0.018
100
AcDbArc
 50
74.1048938384
 51
90.0
  0
ARC
  5
264
100
AcDbEntity
  8
0
100
AcDbCircle
 62
7
  6
CONTINUOUS
 10
5.8209700737
 20
5.6290853561
 40
0.006
100
AcDbArc
 50
0.0001412703
 51
86.551555736
  0
ARC
  5
265
100
AcDbEntity
  8
0
100
AcDbCircle
 62
7
  6
CONTINUOUS
 10
5.8209700737
 20
5.4976547414
 40
0.006
100
AcDbArc
 50
270.0
 51
360.0
  0
ARC
  5
266
100
AcDbEntity
  8
0
100
AcDbCircle
 62
7
  6
CONTINUOUS
 10
5.6743980371
 20
5.819991894
 40
0.1469706417
100
AcDbArc
 50
3.978057779
 51
4.221281061
  0
ARC
  5
267
100
AcDbEntity
  8
0
100
AcDbCircle
 62
7
  6
CONTINUOUS
 10
5.8246543951
 20
5.7903050668
 40
0.1443019556
100
AcDbArc
 50
256.2955291934
 51
259.0121499092
  0
ARC
  5
268
100
AcDbEntity
  8
0
100
AcDbCircle
 62
7
  6
CONTINUOUS
 10
5.8212497141
 20
5.7768286191
 40
0.1304026081
100
AcDbArc
 50
249.4291108593
 51
256.3460545235
  0
ARC
  5
269
100
AcDbEntity
  8
0
100
AcDbCircle
 62
7
  6
CONTINUOUS
 10
5.8318964846
 20
5.7286684106
 40
0.1046764118
100
AcDbArc
 50
180.0074819809
 51
184.5093508081
  0
ARC
  5
26A
100
AcDbEntity
  8
0
100
AcDbCircle
 62
7
  6
CONTINUOUS
 10
5.8269640817
 20
5.7340710943
 40
0.0969246129
100
AcDbArc
 50
93.5455457012
 51
98.1520635136
  0
ARC
  5
26B
100
AcDbEntity
  8
0
100
AcDbCircle
 62
7
  6
CONTINUOUS
 10
5.8269700737
 20
5.7286547414
 40
0.09375
100
AcDbArc
 50
93.448459371
 51
266.5515615104
  0
CIRCLE
  5
26C
100
AcDbEntity
  8
0
100
AcDbCircle
 62
7
  6
CONTINUOUS
 10
5.8255787351
 20
5.7286547414
 40
0.084
  0
CIRCLE
  5
26D
100
AcDbEntity
  8
0
100
AcDbCircle
 62
7
  6
CONTINUOUS
 10
5.8255787351
 20
5.7286547414
 40
0.078
  0
ARC
  5
26E
100
AcDbEntity
  8
0
100
AcDbCircle
 62
7
  6
CONTINUOUS
 10
5.7976432738
 20
5.8267547414
 40
0.018
100
AcDbArc
 50
270.0
 51
285.8951061616
  0
ARC
  5
26F
100
AcDbEntity
  8
0
100
AcDbCircle
 62
7
  6
CONTINUOUS
 10
5.8209700737
 20
5.8282239985
 40
0.006
100
AcDbArc
 50
273.448517941
 51
0.0007796648
  0
ARC
  5
270
100
AcDbEntity
  8
0
100
AcDbCircle
 62
7
  6
CONTINUOUS
 10
5.8209700737
 20
5.9596547414
 40
0.006
100
AcDbArc
 50
0.0
 51
90.0
  0
SPLINE
  5
271
100
AcDbEntity
  8
0
100
AcDbSpline
 62
7
  6
CONTINUOUS
 70
0
 71
3
 72
15
 73
11
 74
0
 42
0.0000001
 43
0.0000001
 44
0.0000000001
 40
0.0
 40
0.0
 40
0.0
 40
0.0
 40
0.1246325781
 40
0.249447417
 40
0.3742572995
 40
0.4991342059
 40
0.6241479276
 40
0.7492945831
 40
0.8745786214
 40
1.0
 40
1.0
 40
1.0
 40
1.0
 10
5.3073700737
 20
3.1072939514
 30
0.0
 10
5.3073700737
 20
3.1194175265
 30
0.0
 10
5.3058708448
 20
3.1437078875
 30
0.0
 10
5.299205165
 20
3.1795864313
 30
0.0
 10
5.2881798662
 20
3.2144047752
 30
0.0
 10
5.2729829615
 20
3.247633869
 30
0.0
 10
5.2538339917
 20
3.2787918817
 30
0.0
 10
5.2310179064
 20
3.3074257271
 30
0.0
 10
5.2048741082
 20
3.3331057402
 30
0.0
 10
5.1854815095
 20
3.3480090225
 30
0.0
 10
5.1753763898
 20
3.3548452498
 30
0.0
  0
SPLINE
  5
272
100
AcDbEntity
  8
0
100
AcDbSpline
 62
7
  6
CONTINUOUS
 70
0
 71
3
 72
15
 73
11
 74
0
 42
0.0000001
 43
0.0000001
 44
0.0000000001
 40
0.0
 40
0.0
 40
0.0
 40
0.0
 40
0.1254213295
 40
0.2507052971
 40
0.3758518878
 40
0.500865579
 40
0.6257424797
 40
0.7505523614
 40
0.8753672744
 40
1.0
 40
1.0
 40
1.0
 40
1.0
 10
4.833365713
 20
3.3548465678
 30
0.0
 10
4.8232604662
 20
3.3480103611
 30
0.0
 10
4.8038675898
 20
3.3331071333
 30
0.0
 10
4.7777234529
 20
3.3074270661
 30
0.0
 10
4.7549070093
 20
3.2787931482
 30
0.0
 10
4.7357577675
 20
3.2476349649
 30
0.0
 10
4.720560607
 20
3.2144056675
 30
0.0
 10
4.7095351283
 20
3.1795870621
 30
0.0
 10
4.7028693283
 20
3.143708218
 30
0.0
 10
4.7013700737
 20
3.1194176387
 30
0.0
 10
4.7013700737
 20
3.1072939514
 30
0.0
  0
SPLINE
  5
273
100
AcDbEntity
  8
0
100
AcDbSpline
 62
7
  6
CONTINUOUS
 70
0
 71
3
 72
33
 73
29
 74
0
 42
0.0000001
 43
0.0000001
 44
0.0000000001
 40
0.0
 40
0.0
 40
0.0
 40
0.0
 40
0.0621632865
 40
0.0933110884
 40
0.124460406
 40
0.1556280791
 40
0.1868241339
 40
0.2180471956
 40
0.2492973438
 40
0.2805754163
 40
0.3118812863
 40
0.3432138967
 40
0.3745696123
 40
0.4372632661
 40
0.5000003014
 40
0.5627373119
 40
0.6254308977
 40
0.6567865689
 40
0.6881191261
 40
0.7194249431
 40
0.7507029554
 40
0.7819530451
 40
0.8131760494
 40
0.8443720559
 40
0.8755396871
 40
0.906688962
 40
0.9378367299
 40
1.0
 40
1.0
 40
1.0
 40
1.0
 10
4.7013700737
 20
3.1072939514
 30
0.0
 10
4.7013700737
 20
3.0876877679
 30
0.0
 10
4.7043163881
 20
3.0581491284
 30
0.0
 10
4.7139656782
 20
3.0200543888
 30
0.0
 10
4.7240115469
 20
2.9922845841
 30
0.0
 10
4.7367575496
 20
2.9656349031
 30
0.0
 10
4.7520823844
 20
2.9403516264
 30
0.0
 10
4.7698303607
 20
2.9166739045
 30
0.0
 10
4.7898434522
 20
2.8948423051
 30
0.0
 10
4.8119126899
 20
2.8750524934
 30
0.0
 10
4.83583747
 20
2.857508493
 30
0.0
 10
4.8613800036
 20
2.8423638656
 30
0.0
 10
4.8972461945
 20
2.8255848886
 30
0.0
 10
4.9449354082
 20
2.811272729
 30
0.0
 10
5.0043703525
 20
2.8054897317
 30
0.0
 10
5.0638052666
 20
2.8112728432
 30
0.0
 10
5.1114944037
 20
2.8255850876
 30
0.0
 10
5.1473605434
 20
2.8423640527
 30
0.0
 10
5.1729029988
 20
2.8575087198
 30
0.0
 10
5.1968277238
 20
2.8750527039
 30
0.0
 10
5.2188969008
 20
2.8948425038
 30
0.0
 10
5.2389099264
 20
2.9166740866
 30
0.0
 10
5.2566578723
 20
2.9403517667
 30
0.0
 10
5.2719826522
 20
2.9656350222
 30
0.0
 10
5.2847286367
 20
2.9922846645
 30
0.0
 10
5.294774483
 20
3.0200544378
 30
0.0
 10
5.3044237637
 20
3.0581491492
 30
0.0
 10
5.3073700737
 20
3.087687773
 30
0.0
 10
5.3073700737
 20
3.1072939514
 30
0.0
  0
SPLINE
  5
274
100
AcDbEntity
  8
0
100
AcDbSpline
 62
7
  6
CONTINUOUS
 70
0
 71
3
 72
11
 73
7
 74
0
 42
0.0000001
 43
0.0000001
 44
0.0000000001
 40
0.0
 40
0.0
 40
0.0
 40
0.0
 40
0.249408095
 40
0.4990815138
 40
0.7492419773
 40
1.0
 40
1.0
 40
1.0
 40
1.0
 10
4.7261200737
 20
3.1129662321
 30
0.0
 10
4.7261200737
 20
3.1337621751
 30
0.0
 10
4.7309331038
 20
3.175532587
 30
0.0
 10
4.7522243403
 20
3.2348290626
 30
0.0
 10
4.7864476092
 20
3.2878568742
 30
0.0
 10
4.8167486679
 20
3.317216058
 30
0.0
 10
4.8333093342
 20
3.329979669
 30
0.0
  0
SPLINE
  5
275
100
AcDbEntity
  8
0
100
AcDbSpline
 62
7
  6
CONTINUOUS
 70
0
 71
3
 72
11
 73
7
 74
0
 42
0.0000001
 43
0.0000001
 44
0.0000000001
 40
0.0
 40
0.0
 40
0.0
 40
0.0
 40
0.2507579782
 40
0.5009184166
 40
0.7505918356
 40
1.0
 40
1.0
 40
1.0
 40
1.0
 10
5.1754311519
 20
3.3299794067
 30
0.0
 10
5.1919917702
 20
3.3172157977
 30
0.0
 10
5.2222927298
 20
3.2878566243
 30
0.0
 10
5.2565158877
 20
3.2348288792
 30
0.0
 10
5.2778070586
 20
3.1755324917
 30
0.0
 10
5.2826200737
 20
3.1337621454
 30
0.0
 10
5.2826200737
 20
3.1129662321
 30
0.0
  0
SPLINE
  5
276
100
AcDbEntity
  8
0
100
AcDbSpline
 62
7
  6
CONTINUOUS
 70
0
 71
3
 72
19
 73
15
 74
0
 42
0.0000001
 43
0.0000001
 44
0.0000000001
 40
0.0
 40
0.0
 40
0.0
 40
0.0
 40
0.1255940865
 40
0.1885020661
 40
0.2513281017
 40
0.3140830211
 40
0.3767819578
 40
0.5018547617
 40
0.6266388439
 40
0.6890037446
 40
0.7513121081
 40
0.8135705914
 40
0.8757872339
 40
1.0
 40
1.0
 40
1.0
 40
1.0
 10
5.0043700737
 20
3.1098820234
 30
0.0
 10
5.0155015182
 20
3.1098820234
 30
0.0
 10
5.0322663334
 20
3.1115152992
 30
0.0
 10
5.0539178281
 20
3.1168493298
 30
0.0
 10
5.069699872
 20
3.1224132391
 30
0.0
 10
5.0848522186
 20
3.1294678959
 30
0.0
 10
5.1039996549
 20
3.1407686613
 30
0.0
 10
5.1257100268
 20
3.1582753609
 30
0.0
 10
5.1435695321
 20
3.1796608994
 30
0.0
 10
5.1551171442
 20
3.1985504347
 30
0.0
 10
5.16233503
 20
3.2134937074
 30
0.0
 10
5.1680486336
 20
3.229061895
 30
0.0
 10
5.1735670142
 20
3.250426349
 30
0.0
 10
5.1753069375
 20
3.2670008793
 30
0.0
 10
5.175366633
 20
3.2780097351
 30
0.0
  0
SPLINE
  5
277
100
AcDbEntity
  8
0
100
AcDbSpline
 62
7
  6
CONTINUOUS
 70
0
 71
3
 72
33
 73
29
 74
0
 42
0.0000001
 43
0.0000001
 44
0.0000000001
 40
0.0
 40
0.0
 40
0.0
 40
0.0
 40
0.0621157809
 40
0.0932613058
 40
0.1244036888
 40
0.1555584457
 40
0.1867414167
 40
0.2491338087
 40
0.2804142936
 40
0.3117258338
 40
0.3430657162
 40
0.3744329306
 40
0.4058226187
 40
0.4372292001
 40
0.5000001966
 40
0.5627711751
 40
0.5941777399
 40
0.6255674015
 40
0.6569345884
 40
0.688274437
 40
0.719585939
 40
0.7508663864
 40
0.8132587045
 40
0.8444416459
 40
0.8755963712
 40
0.9067387247
 40
0.9378842287
 40
1.0
 40
1.0
 40
1.0
 40
1.0
 10
4.8330700737
 20
3.1375612412
 30
0.0
 10
4.8330700737
 20
3.1264887712
 30
0.0
 10
4.8347399575
 20
3.1098041351
 30
0.0
 10
4.8401854281
 20
3.0882821401
 30
0.0
 10
4.8458660962
 20
3.0725929602
 30
0.0
 10
4.8530681268
 20
3.057535065
 30
0.0
 10
4.8646109932
 20
3.0385001846
 30
0.0
 10
4.8789336179
 20
3.0212406166
 30
0.0
 10
4.895550276
 20
3.0063594794
 30
0.0
 10
4.909074683
 20
2.9964400603
 30
0.0
 10
4.923514646
 20
2.9878813908
 30
0.0
 10
4.938734163
 20
2.9807686527
 30
0.0
 10
4.9545830378
 20
2.9751578287
 30
0.0
 10
4.9763387972
 20
2.9697716829
 30
0.0
 10
5.0043701774
 20
2.967033581
 30
0.0
 10
5.0324015473
 20
2.969771728
 30
0.0
 10
5.0541572949
 20
2.9751578762
 30
0.0
 10
5.0700061505
 20
2.9807687189
 30
0.0
 10
5.0852256411
 20
2.9878814744
 30
0.0
 10
5.09966559
 20
2.996440133
 30
0.0
 10
5.1131899663
 20
3.0063595614
 30
0.0
 10
5.1298065984
 20
3.0212406869
 30
0.0
 10
5.1441291946
 20
3.0385002458
 30
0.0
 10
5.1556720435
 20
3.0575351083
 30
0.0
 10
5.1628740645
 20
3.0725929902
 30
0.0
 10
5.168554724
 20
3.0882821575
 30
0.0
 10
5.1740001921
 20
3.1098041421
 30
0.0
 10
5.1756700737
 20
3.126488773
 30
0.0
 10
5.1756700737
 20
3.1375612412
 30
0.0
  0
SPLINE
  5
278
100
AcDbEntity
  8
0
100
AcDbSpline
 62
7
  6
CONTINUOUS
 70
0
 71
3
 72
17
 73
13
 74
0
 42
0.0000001
 43
0.0000001
 44
0.0000000001
 40
0.0
 40
0.0
 40
0.0
 40
0.0
 40
0.1255856449
 40
0.2511609106
 40
0.3764694115
 40
0.5015652164
 40
0.6264005394
 40
0.6887875773
 40
0.7511173568
 40
0.8134212872
 40
0.8757301472
 40
1.0
 40
1.0
 40
1.0
 40
1.0
 10
5.0066071882
 20
3.0265583768
 30
0.0
 10
5.0176803831
 20
3.0267016456
 30
0.0
 10
5.0398562768
 20
3.0291349209
 30
0.0
 10
5.0717425443
 20
3.0390549952
 30
0.0
 10
5.1011010542
 20
3.0549071139
 30
0.0
 10
5.1268077952
 20
3.0760620599
 30
0.0
 10
5.144394389
 20
3.0975035918
 30
0.0
 10
5.1557353334
 20
3.1163955118
 30
0.0
 10
5.1628079283
 20
3.1313233252
 30
0.0
 10
5.1683855337
 20
3.1468660283
 30
0.0
 10
5.1737313562
 20
3.1681760624
 30
0.0
 10
5.1753700737
 20
3.1846873009
 30
0.0
 10
5.1753700737
 20
3.1956453963
 30
0.0
  0
SPLINE
  5
279
100
AcDbEntity
  8
0
100
AcDbSpline
 62
7
  6
CONTINUOUS
 70
0
 71
3
 72
15
 73
11
 74
0
 42
0.0000001
 43
0.0000001
 44
0.0000000001
 40
0.0
 40
0.0
 40
0.0
 40
0.0
 40
0.1243228814
 40
0.2487771891
 40
0.3733941872
 40
0.4982670409
 40
0.6234047067
 40
0.7487746249
 40
0.874354482
 40
1.0
 40
1.0
 40
1.0
 40
1.0
 10
4.8333700737
 20
3.1956453963
 30
0.0
 10
4.8333700737
 20
3.1845013534
 30
0.0
 10
4.8356163999
 20
3.1621376703
 30
0.0
 10
4.845580396
 20
3.1299614093
 30
0.0
 10
4.861757971
 20
3.1003474865
 30
0.0
 10
4.8834997511
 20
3.0744665041
 30
0.0
 10
4.9099604555
 20
3.053328319
 30
0.0
 10
4.9401030861
 20
3.0377459566
 30
0.0
 10
4.9727376966
 20
3.0283357866
 30
0.0
 10
4.9953455295
 20
3.0264126696
 30
0.0
 10
5.0066071882
 20
3.0265583768
 30
0.0
  0
SPLINE
  5
27A
100
AcDbEntity
  8
0
100
AcDbSpline
 62
7
  6
CONTINUOUS
 70
0
 71
3
 72
19
 73
15
 74
0
 42
0.0000001
 43
0.0000001
 44
0.0000000001
 40
0.0
 40
0.0
 40
0.0
 40
0.0
 40
0.1242088254
 40
0.1864232966
 40
0.2486799862
 40
0.3109867496
 40
0.373351348
 40
0.4981373592
 40
0.623213787
 40
0.6859142284
 40
0.7486712435
 40
0.8114992775
 40
0.8744082354
 40
1.0
 40
1.0
 40
1.0
 40
1.0
 10
4.8333735554
 20
3.2780092734
 30
0.0
 10
4.8334337229
 20
3.2670007941
 30
0.0
 10
4.8351724568
 20
3.2504267346
 30
0.0
 10
4.8406916274
 20
3.2290632287
 30
0.0
 10
4.846404451
 20
3.2134953672
 30
0.0
 10
4.8536218249
 20
3.1985522119
 30
0.0
 10
4.8651698781
 20
3.1796630074
 30
0.0
 10
4.8830289464
 20
3.1582766737
 30
0.0
 10
4.9047395425
 20
3.1407692375
 30
0.0
 10
4.9238875147
 20
3.1294682167
 30
0.0
 10
4.9390402704
 20
3.1224133598
 30
0.0
 10
4.954822675
 20
3.11684922
 30
0.0
 10
4.9764742199
 20
3.1115153506
 30
0.0
 10
4.9932388599
 20
3.1098820234
 30
0.0
 10
5.0043700737
 20
3.1098820234
 30
0.0
  0
SPLINE
  5
27B
100
AcDbEntity
  8
0
100
AcDbSpline
 62
7
  6
CONTINUOUS
 70
0
 71
3
 72
15
 73
11
 74
0
 42
0.0000001
 43
0.0000001
 44
0.0000000001
 40
0.0
 40
0.0
 40
0.0
 40
0.0
 40
0.1125292774
 40
0.2280915093
 40
0.3471615098
 40
0.4701626526
 40
0.5973562385
 40
0.728650777
 40
0.863340465
 40
1.0
 40
1.0
 40
1.0
 40
1.0
 10
5.1753643194
 20
5.5432774693
 30
0.0
 10
5.1819686244
 20
5.5480945685
 30
0.0
 10
5.1949143941
 20
5.5584812357
 30
0.0
 10
5.2130025353
 20
5.5761111885
 30
0.0
 10
5.2296800531
 20
5.5960950775
 30
0.0
 10
5.2445346931
 20
5.6185004234
 30
0.0
 10
5.2570544817
 20
5.6433002669
 30
0.0
 10
5.2666509742
 20
5.6702877864
 30
0.0
 10
5.2727219214
 20
5.6989881739
 30
0.0
 10
5.2741075952
 20
5.7187274257
 30
0.0
 10
5.2741082776
 20
5.7286547414
 30
0.0
  0
SPLINE
  5
27C
100
AcDbEntity
  8
0
100
AcDbSpline
 62
7
  6
CONTINUOUS
 70
0
 71
3
 72
15
 73
11
 74
0
 42
0.0000001
 43
0.0000001
 44
0.0000000001
 40
0.0
 40
0.0
 40
0.0
 40
0.0
 40
0.1266245488
 40
0.2523594027
 40
0.3770549303
 40
0.5009644733
 40
0.6246075108
 40
0.7486799745
 40
0.8737464255
 40
1.0
 40
1.0
 40
1.0
 40
1.0
 10
5.727544097
 20
5.7204385633
 30
0.0
 10
5.7279957142
 20
5.7147056034
 30
0.0
 10
5.7298319985
 20
5.7033305112
 30
0.0
 10
5.7353309528
 20
5.6870349281
 30
0.0
 10
5.7433653709
 20
5.6719642007
 30
0.0
 10
5.7537118487
 20
5.6584964447
 30
0.0
 10
5.7661281191
 20
5.646948306
 30
0.0
 10
5.7803567389
 20
5.6376220707
 30
0.0
 10
5.7960764761
 20
5.6308137874
 30
0.0
 10
5.807251069
 20
5.6281662781
 30
0.0
 10
5.8129245434
 20
5.6273362276
 30
0.0
  0
SPLINE
  5
27D
100
AcDbEntity
  8
0
100
AcDbSpline
 62
7
  6
CONTINUOUS
 70
0
 71
3
 72
18
 73
14
 74
0
 42
0.0000001
 43
0.0000001
 44
0.0000000001
 40
0.0
 40
0.0
 40
0.0
 40
0.0
 40
0.0739573665
 40
0.1469982125
 40
0.2184309884
 40
0.287866085
 40
0.3551974886
 40
0.4205019555
 40
0.5456265531
 40
0.6650705701
 40
0.780352273
 40
0.8924806773
 40
1.0
 40
1.0
 40
1.0
 40
1.0
 10
5.2741082776
 20
5.7286547414
 30
0.0
 10
5.2741076322
 20
5.7378052334
 30
0.0
 10
5.2729299314
 20
5.7560145613
 30
0.0
 10
5.2677506962
 20
5.7826088903
 30
0.0
 10
5.259506401
 20
5.8078272798
 30
0.0
 10
5.2486601272
 20
5.8312535606
 30
0.0
 10
5.2356811681
 20
5.852680612
 30
0.0
 10
5.2163862364
 20
5.878131579
 30
0.0
 10
5.1888924106
 20
5.9051951715
 30
0.0
 10
5.1520732711
 20
5.9305714494
 30
0.0
 10
5.1132057328
 20
5.9491537749
 30
0.0
 10
5.0734906206
 20
5.9614401903
 30
0.0
 10
5.0465836931
 20
5.965872478
 30
0.0
 10
5.0333438135
 20
5.9671668287
 30
0.0
  0
LINE
  5
27E
100
AcDbEntity
  8
0
100
AcDbLine
 62
7
  6
CONTINUOUS
 10
5.0333438135
 20
5.9671668287
 11
5.0222000984
 21
5.9680491189
  0
LINE
  5
27F
100
AcDbEntity
  8
0
100
AcDbLine
 62
7
  6
CONTINUOUS
 10
5.8213082203
 20
5.6322732464
 11
5.8213474863
 21
5.635027883
  0
SPLINE
  5
280
100
AcDbEntity
  8
0
100
AcDbSpline
 62
7
  6
CONTINUOUS
 70
0
 71
3
 72
20
 73
16
 74
0
 42
0.0000001
 43
0.0000001
 44
0.0000000001
 40
0.0
 40
0.0
 40
0.0
 40
0.0
 40
0.1248969655
 40
0.1874453661
 40
0.24996994
 40
0.3124919687
 40
0.3750201571
 40
0.437548066
 40
0.5000751026
 40
0.5626029689
 40
0.6251326343
 40
0.6876607072
 40
0.7501791996
 40
0.8751037384
 40
1.0
 40
1.0
 40
1.0
 40
1.0
 10
4.7733697618
 20
5.7287119674
 30
0.0
 10
4.7733237575
 20
5.7438494326
 30
0.0
 10
4.7754520899
 20
5.7666589391
 30
0.0
 10
4.7826984341
 20
5.7961115276
 30
0.0
 10
4.7902988539
 20
5.8175825293
 30
0.0
 10
4.7999708681
 20
5.8381962489
 30
0.0
 10
4.8116202494
 20
5.857762036
 30
0.0
 10
4.8251312949
 20
5.8760926823
 30
0.0
 10
4.8403854961
 20
5.893000267
 30
0.0
 10
4.857223314
 20
5.9083318642
 30
0.0
 10
4.8754910997
 20
5.9219277039
 30
0.0
 10
4.8950040528
 20
5.9336674032
 30
0.0
 10
4.9224110547
 20
5.9466779427
 30
0.0
 10
4.9588698232
 20
5.9577776911
 30
0.0
 10
4.9892270038
 20
5.9607730053
 30
0.0
 10
5.0043644535
 20
5.9607734106
 30
0.0
  0
LINE
  5
281
100
AcDbEntity
  8
0
100
AcDbLine
 62
7
  6
CONTINUOUS
 10
5.8269700737
 20
5.6290853857
 11
5.8268767821
 21
5.6286364609
  0
SPLINE
  5
282
100
AcDbEntity
  8
0
100
AcDbSpline
 62
7
  6
CONTINUOUS
 70
0
 71
3
 72
12
 73
8
 74
0
 42
0.0000001
 43
0.0000001
 44
0.0000000001
 40
0.0
 40
0.0
 40
0.0
 40
0.0
 40
0.1693641741
 40
0.2771931917
 40
0.4003998319
 40
0.6856982058
 40
1.0
 40
1.0
 40
1.0
 40
1.0
 10
5.8268767821
 20
5.6286364609
 30
0.0
 10
5.826735587
 20
5.6282958799
 30
0.0
 10
5.826289303
 20
5.6278359718
 30
0.0
 10
5.8255433375
 20
5.6273913371
 30
0.0
 10
5.8245032629
 20
5.6269520267
 30
0.0
 10
5.8229610882
 20
5.6265965078
 30
0.0
 10
5.8216543018
 20
5.6264991802
 30
0.0
 10
5.8209700983
 20
5.6264991796
 30
0.0
  0
SPLINE
  5
283
100
AcDbEntity
  8
0
100
AcDbSpline
 62
7
  6
CONTINUOUS
 70
0
 71
3
 72
17
 73
13
 74
0
 42
0.0000001
 43
0.0000001
 44
0.0000000001
 40
0.0
 40
0.0
 40
0.0
 40
0.0
 40
0.1256415727
 40
0.2512354869
 40
0.376580457
 40
0.5016872424
 40
0.6265101183
 40
0.7510738694
 40
0.8133510039
 40
0.8755902851
 40
0.9378016998
 40
1.0
 40
1.0
 40
1.0
 40
1.0
 10
5.0043700737
 20
3.1269286289
 30
0.0
 10
5.0155382572
 20
3.1269286289
 30
0.0
 10
5.0379303292
 20
3.1291081926
 30
0.0
 10
5.0701892335
 20
3.1387740126
 30
0.0
 10
5.0999352261
 20
3.1544873706
 30
0.0
 10
5.1260137143
 20
3.1756297368
 30
0.0
 10
5.1474205991
 20
3.2013972507
 30
0.0
 10
5.1606925803
 20
3.2259390973
 30
0.0
 10
5.1682379805
 20
3.2467859514
 30
0.0
 10
5.172321358
 20
3.2629035516
 30
0.0
 10
5.1747911965
 20
3.2793357368
 30
0.0
 10
5.1753386195
 20
3.2904025608
 30
0.0
 10
5.1753383557
 20
3.2959313202
 30
0.0
  0
SPLINE
  5
284
100
AcDbEntity
  8
0
100
AcDbSpline
 62
7
  6
CONTINUOUS
 70
0
 71
3
 72
11
 73
7
 74
0
 42
0.0000001
 43
0.0000001
 44
0.0000000001
 40
0.0
 40
0.0
 40
0.0
 40
0.0
 40
0.218631152
 40
0.4558756653
 40
0.7162541508
 40
1.0
 40
1.0
 40
1.0
 40
1.0
 10
5.7842804461
 20
5.8018015094
 30
0.0
 10
5.7836943402
 20
5.8014705989
 30
0.0
 10
5.7823356427
 20
5.8010104401
 30
0.0
 10
5.780107485
 20
5.8009512503
 30
0.0
 10
5.7777371022
 20
5.8014602796
 30
0.0
 10
5.7761942646
 20
5.8021441417
 30
0.0
 10
5.7754309397
 20
5.8025688616
 30
0.0
  0
SPLINE
  5
285
100
AcDbEntity
  8
0
100
AcDbSpline
 62
7
  6
CONTINUOUS
 70
0
 71
3
 72
18
 73
14
 74
0
 42
0.0000001
 43
0.0000001
 44
0.0000000001
 40
0.0
 40
0.0
 40
0.0
 40
0.0
 40
0.1257129036
 40
0.1885650862
 40
0.2513492648
 40
0.3766390949
 40
0.5017171803
 40
0.5642195799
 40
0.6266588624
 40
0.6890360211
 40
0.7513586274
 40
0.8757419016
 40
1.0
 40
1.0
 40
1.0
 40
1.0
 10
4.9916974828
 20
3.1094427758
 30
0.0
 10
4.9816461001
 20
3.1101837271
 30
0.0
 10
4.9666221312
 20
3.1126137983
 30
0.0
 10
4.9473088453
 20
3.1184293834
 30
0.0
 10
4.9286040237
 20
3.1258981971
 30
0.0
 10
4.9065950542
 20
3.1382597236
 30
0.0
 10
4.8871051995
 20
3.1542706419
 30
0.0
 10
4.8734283504
 20
3.1689545628
 30
0.0
 10
4.8641898897
 20
3.1808200327
 30
0.0
 10
4.8560471905
 20
3.1934458739
 30
0.0
 10
4.8467542881
 20
3.211146662
 30
0.0
 10
4.8381489582
 20
3.2346920643
 30
0.0
 10
4.8347407856
 20
3.2544577398
 30
0.0
 10
4.8339273661
 20
3.2643864967
 30
0.0
  0
SPLINE
  5
286
100
AcDbEntity
  8
0
100
AcDbSpline
 62
7
  6
CONTINUOUS
 70
0
 71
3
 72
15
 73
11
 74
0
 42
0.0000001
 43
0.0000001
 44
0.0000000001
 40
0.0
 40
0.0
 40
0.0
 40
0.0
 40
0.1243270293
 40
0.2488141505
 40
0.373503912
 40
0.4984139051
 40
0.6235367506
 40
0.7488280603
 40
0.8743391275
 40
1.0
 40
1.0
 40
1.0
 40
1.0
 10
5.1698331677
 20
3.1495509134
 30
0.0
 10
5.1675774994
 20
3.1412296225
 30
0.0
 10
5.1617633299
 20
3.1248986578
 30
0.0
 10
5.149397734
 20
3.1020296218
 30
0.0
 10
5.1336511933
 20
3.081284129
 30
0.0
 10
5.114896533
 20
3.0631526163
 30
0.0
 10
5.093577109
 20
3.0480485264
 30
0.0
 10
5.0701781438
 20
3.0363282264
 30
0.0
 10
5.0452498122
 20
3.028259
 30
0.0
 10
5.0279810383
 20
3.0254483463
 30
0.0
 10
5.0192995427
 20
3.0246953189
 30
0.0
  0
SPLINE
  5
287
100
AcDbEntity
  8
0
100
AcDbSpline
 62
7
  6
CONTINUOUS
 70
0
 71
3
 72
19
 73
15
 74
0
 42
0.0000001
 43
0.0000001
 44
0.0000000001
 40
0.0
 40
0.0
 40
0.0
 40
0.0
 40
0.1255935466
 40
0.1885001491
 40
0.2513247895
 40
0.3140787687
 40
0.3767773717
 40
0.5018489388
 40
0.626634804
 40
0.6890005796
 40
0.7513089849
 40
0.8135672878
 40
0.8757844518
 40
1.0
 40
1.0
 40
1.0
 40
1.0
 10
5.0043700737
 20
3.0240474814
 30
0.0
 10
4.9931812858
 20
3.0240474814
 30
0.0
 10
4.9763297806
 20
3.0256945585
 30
0.0
 10
4.9545712364
 20
3.0310741237
 30
0.0
 10
4.9387143785
 20
3.0366848345
 30
0.0
 10
4.9234944197
 20
3.0437982857
 30
0.0
 10
4.9042689714
 20
3.0551922786
 30
0.0
 10
4.8824862144
 20
3.0728402879
 30
0.0
 10
4.8645984627
 20
3.0943911818
 30
0.0
 10
4.8530579904
 20
3.113419232
 30
0.0
 10
4.8458608598
 20
3.1284676957
 30
0.0
 10
4.8401835954
 20
3.1441404034
 30
0.0
 10
4.8347348757
 20
3.1656405689
 30
0.0
 10
4.8330700737
 20
3.1823104584
 30
0.0
 10
4.8330700737
 20
3.1933764842
 30
0.0
  0
SPLINE
  5
288
100
AcDbEntity
  8
0
100
AcDbSpline
 62
7
  6
CONTINUOUS
 70
0
 71
3
 72
18
 73
14
 74
0
 42
0.0000001
 43
0.0000001
 44
0.0000000001
 40
0.0
 40
0.0
 40
0.0
 40
0.0
 40
0.1242415784
 40
0.2485880485
 40
0.3109059296
 40
0.3732807226
 40
0.4980845898
 40
0.6231717393
 40
0.6858761289
 40
0.7486370184
 40
0.8114697738
 40
0.874385264
 40
1.0
 40
1.0
 40
1.0
 40
1.0
 10
5.1753699976
 20
3.2780069129
 30
0.0
 10
5.1753692837
 20
3.2670520162
 30
0.0
 10
5.1732020889
 20
3.2450750758
 30
0.0
 10
5.1651581393
 20
3.2186763156
 30
0.0
 10
5.1557425129
 20
3.1988039073
 30
0.0
 10
5.1444034823
 20
3.1799162699
 30
0.0
 10
5.1268217707
 20
3.1584849043
 30
0.0
 10
5.1053911001
 20
3.140859001
 30
0.0
 10
5.0864578747
 20
3.1294188672
 30
0.0
 10
5.071459104
 20
3.1222372708
 30
0.0
 10
5.0558202961
 20
3.1165247369
 30
0.0
 10
5.0343412972
 20
3.110964788
 30
0.0
 10
5.0176831384
 20
3.1091322287
 30
0.0
 10
5.0066080916
 20
3.108988936
 30
0.0
  0
SPLINE
  5
289
100
AcDbEntity
  8
0
100
AcDbSpline
 62
7
  6
CONTINUOUS
 70
0
 71
3
 72
18
 73
14
 74
0
 42
0.0000001
 43
0.0000001
 44
0.0000000001
 40
0.0
 40
0.0
 40
0.0
 40
0.0
 40
0.125614736
 40
0.1885302262
 40
0.2513629816
 40
0.3141238711
 40
0.3768282607
 40
0.5019154102
 40
0.6267192774
 40
0.6890940704
 40
0.7514119515
 40
0.8757584216
 40
1.0
 40
1.0
 40
1.0
 40
1.0
 10
5.0066080916
 20
3.0266274193
 30
0.0
 10
5.0176831384
 20
3.0267707121
 30
0.0
 10
5.0343412972
 20
3.0286032713
 30
0.0
 10
5.0558202961
 20
3.0341632203
 30
0.0
 10
5.071459104
 20
3.0398757541
 30
0.0
 10
5.0864578747
 20
3.0470573506
 30
0.0
 10
5.1053911001
 20
3.0584974844
 30
0.0
 10
5.1268217707
 20
3.0761233876
 30
0.0
 10
5.1444034823
 20
3.0975547533
 30
0.0
 10
5.1557425129
 20
3.1164423907
 30
0.0
 10
5.1651581393
 20
3.136314799
 30
0.0
 10
5.1732020889
 20
3.1627135592
 30
0.0
 10
5.1753692837
 20
3.1846904995
 30
0.0
 10
5.1753699976
 20
3.1956453963
 30
0.0
  0
LINE
  5
28A
100
AcDbEntity
  8
0
100
AcDbLine
 62
7
  6
CONTINUOUS
 10
5.8269700737
 20
5.828223975
 11
5.8268767785
 21
5.8286728974
  0
SPLINE
  5
28B
100
AcDbEntity
  8
0
100
AcDbSpline
 62
7
  6
CONTINUOUS
 70
0
 71
3
 72
12
 73
8
 74
0
 42
0.0000001
 43
0.0000001
 44
0.0000000001
 40
0.0
 40
0.0
 40
0.0
 40
0.0
 40
0.1693633151
 40
0.277192246
 40
0.4003989708
 40
0.685698026
 40
1.0
 40
1.0
 40
1.0
 40
1.0
 10
5.8268767785
 20
5.8286728974
 30
0.0
 10
5.8267355791
 20
5.8290134752
 30
0.0
 10
5.8262892911
 20
5.8294733765
 30
0.0
 10
5.8255433228
 20
5.829918005
 30
0.0
 10
5.8245032435
 20
5.8303573111
 30
0.0
 10
5.822961068
 20
5.8307128391
 30
0.0
 10
5.8216542785
 20
5.8308101813
 30
0.0
 10
5.8209700737
 20
5.8308101843
 30
0.0
  0
SPLINE
  5
28C
100
AcDbEntity
  8
0
100
AcDbSpline
 62
7
  6
CONTINUOUS
 70
0
 71
3
 72
17
 73
13
 74
0
 42
0.0000001
 43
0.0000001
 44
0.0000000001
 40
0.0
 40
0.0
 40
0.0
 40
0.0
 40
0.0621982888
 40
0.124409694
 40
0.1866489662
 40
0.2489260929
 40
0.3734898316
 40
0.498312702
 40
0.6234194889
 40
0.748764463
 40
0.8743584088
 40
1.0
 40
1.0
 40
1.0
 40
1.0
 10
4.8334017914
 20
3.2959313202
 30
0.0
 10
4.8334015274
 20
3.2904025618
 30
0.0
 10
4.8339489506
 20
3.2793357396
 30
0.0
 10
4.836418789
 20
3.2629035573
 30
0.0
 10
4.8405021635
 20
3.2467859587
 30
0.0
 10
4.8480475642
 20
3.2259391075
 30
0.0
 10
4.8613195406
 20
3.2013972613
 30
0.0
 10
4.8827264224
 20
3.1756297464
 30
0.0
 10
4.9088049093
 20
3.1544873788
 30
0.0
 10
4.9385509032
 20
3.138774016
 30
0.0
 10
4.9708098123
 20
3.129108195
 30
0.0
 10
4.9932018886
 20
3.1269286289
 30
0.0
 10
5.0043700737
 20
3.1269286289
 30
0.0
  0
LINE
  5
28D
100
AcDbEntity
  8
0
100
AcDbLine
 62
7
  6
CONTINUOUS
 10
5.8213308775
 20
5.8222348579
 11
5.8213080604
 21
5.8250360816
  0
SPLINE
  5
28E
100
AcDbEntity
  8
0
100
AcDbSpline
 62
7
  6
CONTINUOUS
 70
0
 71
3
 72
25
 73
21
 74
0
 42
0.0000001
 43
0.0000001
 44
0.0000000001
 40
0.0
 40
0.0
 40
0.0
 40
0.0
 40
0.0621692634
 40
0.1243690981
 40
0.1866623515
 40
0.24909433
 40
0.3116576674
 40
0.3743398884
 40
0.4057506285
 40
0.4371786581
 40
0.4999999994
 40
0.5628213407
 40
0.5942493704
 40
0.6256601106
 40
0.6883423317
 40
0.7509056693
 40
0.8133376481
 40
0.8756309017
 40
0.9378307364
 40
1.0
 40
1.0
 40
1.0
 40
1.0
 10
5.1747732529
 20
3.1207682983
 30
0.0
 10
5.1738886871
 20
3.1103345891
 30
0.0
 10
5.1701557619
 20
3.0895742842
 30
0.0
 10
5.158826062
 20
3.0600570329
 30
0.0
 10
5.1421726055
 20
3.0331204365
 30
0.0
 10
5.1207790348
 20
3.0096904259
 30
0.0
 10
5.0953766228
 20
2.9905789986
 30
0.0
 10
5.0715850832
 20
2.9787991712
 30
0.0
 10
5.0515057794
 20
2.9721006411
 30
0.0
 10
5.0308710979
 20
2.9672762808
 30
0.0
 10
5.0043701004
 20
2.9648261495
 30
0.0
 10
4.9778691022
 20
2.9672762727
 30
0.0
 10
4.9572344191
 20
2.9721006267
 30
0.0
 10
4.9371551132
 20
2.9787991506
 30
0.0
 10
4.9133635699
 20
2.9905789706
 30
0.0
 10
4.887961152
 20
3.0096903901
 30
0.0
 10
4.8665675738
 20
3.0331203942
 30
0.0
 10
4.8499141089
 20
3.0600569854
 30
0.0
 10
4.8385843997
 20
3.0895742332
 30
0.0
 10
4.834851468
 20
3.110334537
 30
0.0
 10
4.833966899
 20
3.120768246
 30
0.0
  0
SPLINE
  5
28F
100
AcDbEntity
  8
0
100
AcDbSpline
 62
7
  6
CONTINUOUS
 70
0
 71
3
 72
11
 73
7
 74
0
 42
0.0000001
 43
0.0000001
 44
0.0000000001
 40
0.0
 40
0.0
 40
0.0
 40
0.0
 40
0.2065500702
 40
0.4381864433
 40
0.7008926631
 40
1.0
 40
1.0
 40
1.0
 40
1.0
 10
5.7842804755
 20
5.6555078442
 30
0.0
 10
5.783726577
 20
5.6558205777
 30
0.0
 10
5.782427555
 20
5.6562743936
 30
0.0
 10
5.7802481919
 20
5.6563777645
 30
0.0
 10
5.7778313728
 20
5.6558936188
 30
0.0
 10
5.7762356852
 20
5.65518853
 30
0.0
 10
5.7754307596
 20
5.6547406875
 30
0.0
  0
LINE
  5
290
100
AcDbEntity
  8
0
100
AcDbLine
 62
7
  6
CONTINUOUS
 10
5.7332653452
 20
5.7279282531
 11
5.7414310841
 21
5.7278905902
  0
SPLINE
  5
291
100
AcDbEntity
  8
0
100
AcDbSpline
 62
7
  6
CONTINUOUS
 70
0
 71
3
 72
33
 73
29
 74
0
 42
0.0000001
 43
0.0000001
 44
0.0000000001
 40
0.0
 40
0.0
 40
0.0
 40
0.0
 40
0.0620792898
 40
0.0932090677
 40
0.1243380713
 40
0.155482276
 40
0.1866580061
 40
0.2490469593
 40
0.2803309379
 40
0.3116493451
 40
0.342999228
 40
0.3743792053
 40
0.405783878
 40
0.4372071337
 40
0.5000143497
 40
0.5628204815
 40
0.5942424256
 40
0.625645331
 40
0.6570231535
 40
0.6883705744
 40
0.719686306
 40
0.7509674975
 40
0.8133509474
 40
0.8445241918
 40
0.8756662122
 40
0.9067934158
 40
0.9379218494
 40
1.0
 40
1.0
 40
1.0
 40
1.0
 10
4.8333752069
 20
3.114379202
 30
0.0
 10
4.833461558
 20
3.1033633393
 30
0.0
 10
4.8352495253
 20
3.0867768203
 30
0.0
 10
4.8408236566
 20
3.0654031121
 30
0.0
 10
4.8465864808
 20
3.0498315659
 30
0.0
 10
4.8538559558
 20
3.0348958586
 30
0.0
 10
4.8654695817
 20
3.016026091
 30
0.0
 10
4.8798333136
 20
2.9989350691
 30
0.0
 10
4.896462294
 20
2.9842170027
 30
0.0
 10
4.9099836291
 20
2.9744154976
 30
0.0
 10
4.9244081815
 20
2.9659692971
 30
0.0
 10
4.9396007773
 20
2.9589623886
 30
0.0
 10
4.9554122136
 20
2.9534497424
 30
0.0
 10
4.9771056493
 20
2.9481826998
 30
0.0
 10
5.0050365322
 20
2.9455700609
 30
0.0
 10
5.0329463734
 20
2.9483964841
 30
0.0
 10
5.0545980682
 20
2.9538295555
 30
0.0
 10
5.0703658395
 20
2.959463135
 30
0.0
 10
5.0855030782
 20
2.9665861973
 30
0.0
 10
5.0998610167
 20
2.9751426315
 30
0.0
 10
5.1133051408
 20
2.9850474184
 30
0.0
 10
5.1298182862
 20
2.9998924318
 30
0.0
 10
5.1440476725
 20
3.0170930428
 30
0.0
 10
5.1555130121
 20
3.036051173
 30
0.0
 10
5.1626651967
 20
3.051042135
 30
0.0
 10
5.1683057854
 20
3.0666573743
 30
0.0
 10
5.1737122428
 20
3.0880733321
 30
0.0
 10
5.1753700737
 20
3.104672928
 30
0.0
 10
5.1753700737
 20
3.1156889269
 30
0.0
  0
SPLINE
  5
292
100
AcDbEntity
  8
0
100
AcDbSpline
 62
7
  6
CONTINUOUS
 70
0
 71
3
 72
9
 73
5
 74
0
 42
0.0000001
 43
0.0000001
 44
0.0000000001
 40
0.0
 40
0.0
 40
0.0
 40
0.0
 40
0.2492286133
 40
1.0
 40
1.0
 40
1.0
 40
1.0
 10
5.7754308539
 20
5.8025688147
 30
0.0
 10
5.7739251252
 20
5.8018613748
 30
0.0
 10
5.7679489003
 20
5.7988865465
 30
0.0
 10
5.7622515878
 20
5.7953458196
 30
0.0
 10
5.7582075771
 20
5.7923858865
 30
0.0
  0
SPLINE
  5
293
100
AcDbEntity
  8
0
100
AcDbSpline
 62
7
  6
CONTINUOUS
 70
0
 71
3
 72
12
 73
8
 74
0
 42
0.0000001
 43
0.0000001
 44
0.0000000001
 40
0.0
 40
0.0
 40
0.0
 40
0.0
 40
0.2493011927
 40
0.4988850847
 40
0.7489510718
 40
0.8743975621
 40
1.0
 40
1.0
 40
1.0
 40
1.0
 10
4.73512568
 20
3.1160451092
 30
0.0
 10
4.7352522567
 20
3.1354335974
 30
0.0
 10
4.739834312
 20
3.1743425782
 30
0.0
 10
4.7593351552
 20
3.2296993574
 30
0.0
 10
4.7853651048
 20
3.2712740395
 30
0.0
 10
4.8112210171
 20
3.3005149625
 30
0.0
 10
4.825707348
 20
3.3136775897
 30
0.0
 10
4.8332851224
 20
3.3198420445
 30
0.0
  0
SPLINE
  5
294
100
AcDbEntity
  8
0
100
AcDbSpline
 62
7
  6
CONTINUOUS
 70
0
 71
3
 72
12
 73
8
 74
0
 42
0.0000001
 43
0.0000001
 44
0.0000000001
 40
0.0
 40
0.0
 40
0.0
 40
0.0
 40
0.1256055377
 40
0.2510548383
 40
0.5011196655
 40
0.7507005075
 40
1.0
 40
1.0
 40
1.0
 40
1.0
 10
5.1754522358
 20
3.3198441713
 30
0.0
 10
5.1830859019
 20
3.3136344292
 30
0.0
 10
5.1976741885
 20
3.3003686402
 30
0.0
 10
5.2236855596
 20
3.2708811186
 30
0.0
 10
5.2498085348
 20
3.2289325126
 30
0.0
 10
5.2692279046
 20
3.1730841966
 30
0.0
 10
5.2736200737
 20
3.1338586476
 30
0.0
 10
5.2736200737
 20
3.1143275795
 30
0.0
  0
SPLINE
  5
295
100
AcDbEntity
  8
0
100
AcDbSpline
 62
7
  6
CONTINUOUS
 70
0
 71
3
 72
33
 73
29
 74
0
 42
0.0000001
 43
0.0000001
 44
0.0000000001
 40
0.0
 40
0.0
 40
0.0
 40
0.0
 40
0.0620930569
 40
0.0932099016
 40
0.1243321493
 40
0.1554779963
 40
0.1866583249
 40
0.2178718703
 40
0.249118849
 40
0.2804006532
 40
0.3117176757
 40
0.3430681502
 40
0.3744475513
 40
0.4372018869
 40
0.5000088048
 40
0.5628145904
 40
0.6255657814
 40
0.6569431664
 40
0.6882915874
 40
0.7196065574
 40
0.7508866278
 40
0.7821320829
 40
0.8133443637
 40
0.8445235151
 40
0.8756684238
 40
0.9067902796
 40
0.9379071094
 40
1.0
 40
1.0
 40
1.0
 40
1.0
 10
5.2736144674
 20
3.1126100498
 30
0.0
 10
5.2735011575
 20
3.0952537105
 30
0.0
 10
5.2707254078
 20
3.0691208392
 30
0.0
 10
5.2619745931
 20
3.0354469084
 30
0.0
 10
5.2529309831
 20
3.0109105872
 30
0.0
 10
5.2415044852
 20
2.9873747671
 30
0.0
 10
5.2278025117
 20
2.9650558576
 30
0.0
 10
5.2119631552
 20
2.9441640678
 30
0.0
 10
5.19412628
 20
2.9249111283
 30
0.0
 10
5.1744760184
 20
2.9074693831
 30
0.0
 10
5.1531899929
 20
2.8920182295
 30
0.0
 10
5.1304785857
 20
2.8786926365
 30
0.0
 10
5.0986012052
 20
2.8639487803
 30
0.0
 10
5.0562455799
 20
2.8514207141
 30
0.0
 10
5.003498874
 20
2.8464718678
 30
0.0
 10
4.9507856165
 20
2.8517558664
 30
0.0
 10
4.9085121053
 20
2.8645525667
 30
0.0
 10
4.8767316333
 20
2.8794994087
 30
0.0
 10
4.8541070827
 20
2.8929686012
 30
0.0
 10
4.8329220229
 20
2.908555194
 30
0.0
 10
4.8133852527
 20
2.9261217333
 30
0.0
 10
4.795673459
 20
2.9454881353
 30
0.0
 10
4.7799703012
 20
2.9664811063
 30
0.0
 10
4.7664131811
 20
2.9888872074
 30
0.0
 10
4.7551402085
 20
3.0124961938
 30
0.0
 10
4.746256342
 20
3.0370904072
 30
0.0
 10
4.7377252844
 20
3.0708205347
 30
0.0
 10
4.7351200737
 20
3.0969709168
 30
0.0
 10
4.7351200737
 20
3.1143275795
 30
0.0
  0
SPLINE
  5
296
100
AcDbEntity
  8
0
100
AcDbSpline
 62
7
  6
CONTINUOUS
 70
0
 71
3
 72
31
 73
27
 74
0
 42
0.0000001
 43
0.0000001
 44
0.0000000001
 40
0.0
 40
0.0
 40
0.0
 40
0.0
 40
0.0620982813
 40
0.0932268077
 40
0.1243568413
 40
0.1555059881
 40
0.1866892934
 40
0.2179085276
 40
0.2491615734
 40
0.2804496197
 40
0.3117714347
 40
0.3744364934
 40
0.4371994137
 40
0.5000143552
 40
0.5628282129
 40
0.6255880435
 40
0.6882484681
 40
0.7195676072
 40
0.7508528659
 40
0.7821031188
 40
0.8133196619
 40
0.8445004809
 40
0.8756474429
 40
0.9067756764
 40
0.937902858
 40
1.0
 40
1.0
 40
1.0
 40
1.0
 10
4.8243754771
 20
3.1129489217
 30
0.0
 10
4.8244663874
 20
3.101351436
 30
0.0
 10
4.8263458722
 20
3.0838905932
 30
0.0
 10
4.8322176284
 20
3.0613930969
 30
0.0
 10
4.8382825542
 20
3.0450029504
 30
0.0
 10
4.8459340394
 20
3.0292828274
 30
0.0
 10
4.8551088234
 20
3.0143799638
 30
0.0
 10
4.8657080177
 20
3.0004301095
 30
0.0
 10
4.8776388989
 20
2.9875741447
 30
0.0
 10
4.8907855064
 20
2.9759335176
 30
0.0
 10
4.9097529711
 20
2.9621824986
 30
0.0
 10
4.9358870831
 20
2.9485463814
 30
0.0
 10
4.9698179274
 20
2.9385480173
 30
0.0
 10
5.0050715849
 20
2.9352615958
 30
0.0
 10
5.0402984811
 20
2.9388178206
 30
0.0
 10
5.0741500868
 20
2.9490757072
 30
0.0
 10
5.1001768054
 20
2.9629116672
 30
0.0
 10
5.1190360159
 20
2.9768076193
 30
0.0
 10
5.1320910067
 20
2.9885486082
 30
0.0
 10
5.1439207769
 20
3.0014955914
 30
0.0
 10
5.1544103204
 20
3.0155262341
 30
0.0
 10
5.1634680203
 20
3.030498949
 30
0.0
 10
5.1709960544
 20
3.04627723
 30
0.0
 10
5.1769323188
 20
3.06271336
 30
0.0
 10
5.1826275852
 20
3.0852553627
 30
0.0
 10
5.1843700737
 20
3.1027299503
 30
0.0
 10
5.1843700737
 20
3.1143275795
 30
0.0
  0
SPLINE
  5
297
100
AcDbEntity
  8
0
100
AcDbSpline
 62
7
  6
CONTINUOUS
 70
0
 71
3
 72
9
 73
5
 74
0
 42
0.0000001
 43
0.0000001
 44
0.0000000001
 40
0.0
 40
0.0
 40
0.0
 40
0.0
 40
0.2515086252
 40
1.0
 40
1.0
 40
1.0
 40
1.0
 10
5.7583537664
 20
5.6648168715
 30
0.0
 10
5.7596981151
 20
5.6638366717
 30
0.0
 10
5.7651406326
 20
5.6600741158
 30
0.0
 10
5.7709491981
 20
5.6568460107
 30
0.0
 10
5.7754306342
 20
5.6547406794
 30
0.0
  0
SPLINE
  5
298
100
AcDbEntity
  8
0
100
AcDbSpline
 62
7
  6
CONTINUOUS
 70
0
 71
3
 72
33
 73
29
 74
0
 42
0.0000001
 43
0.0000001
 44
0.0000000001
 40
0.0
 40
0.0
 40
0.0
 40
0.0
 40
0.0620923222
 40
0.0932084488
 40
0.1243298109
 40
0.155474561
 40
0.1866537263
 40
0.2178664964
 40
0.2491133465
 40
0.2803951315
 40
0.3117116491
 40
0.3430613486
 40
0.3744399471
 40
0.4371930325
 40
0.5
 40
0.5628069675
 40
0.6255600529
 40
0.6569386514
 40
0.6882883509
 40
0.7196048685
 40
0.7508866535
 40
0.7821335036
 40
0.8133462737
 40
0.844525439
 40
0.8756701891
 40
0.9067915512
 40
0.9379076778
 40
1.0
 40
1.0
 40
1.0
 40
1.0
 10
5.2826200737
 20
3.1129662321
 30
0.0
 10
5.2826200737
 20
3.0949928932
 30
0.0
 10
5.2799169705
 20
3.0679130812
 30
0.0
 10
5.2710649768
 20
3.0329890746
 30
0.0
 10
5.2618477857
 20
3.007527377
 30
0.0
 10
5.2501519597
 20
2.9830899948
 30
0.0
 10
5.2360878989
 20
2.9599025005
 30
0.0
 10
5.2197977051
 20
2.9381842125
 30
0.0
 10
5.2014255847
 20
2.9181561943
 30
0.0
 10
5.181162733
 20
2.8999984365
 30
0.0
 10
5.1591929001
 20
2.8838988052
 30
0.0
 10
5.1357341456
 20
2.8699990345
 30
0.0
 10
5.1027873643
 20
2.8545961323
 30
0.0
 10
5.0589750938
 20
2.8414568525
 30
0.0
 10
5.0043700737
 20
2.8361475266
 30
0.0
 10
4.9497650536
 20
2.8414568525
 30
0.0
 10
4.9059527831
 20
2.8545961323
 30
0.0
 10
4.8730060018
 20
2.8699990345
 30
0.0
 10
4.8495472473
 20
2.8838988052
 30
0.0
 10
4.8275774144
 20
2.8999984365
 30
0.0
 10
4.8073145627
 20
2.9181561943
 30
0.0
 10
4.7889424423
 20
2.9381842125
 30
0.0
 10
4.7726522485
 20
2.9599025005
 30
0.0
 10
4.7585881877
 20
2.9830899948
 30
0.0
 10
4.7468923617
 20
3.007527377
 30
0.0
 10
4.7376751706
 20
3.0329890746
 30
0.0
 10
4.7288231768
 20
3.0679130812
 30
0.0
 10
4.7261200737
 20
3.0949928932
 30
0.0
 10
4.7261200737
 20
3.1129662321
 30
0.0
  0
SPLINE
  5
299
100
AcDbEntity
  8
0
100
AcDbSpline
 62
7
  6
CONTINUOUS
 70
0
 71
3
 72
15
 73
11
 74
0
 42
0.0000001
 43
0.0000001
 44
0.0000000001
 40
0.0
 40
0.0
 40
0.0
 40
0.0
 40
0.1262432212
 40
0.25131675
 40
0.3753923535
 40
0.4990343644
 40
0.6229299495
 40
0.7476105955
 40
0.8733436216
 40
1.0
 40
1.0
 40
1.0
 40
1.0
 10
5.8132200952
 20
5.8300163048
 30
0.0
 10
5.807553922
 20
5.8292053312
 30
0.0
 10
5.7963898586
 20
5.8265974629
 30
0.0
 10
5.7806729339
 20
5.8198550936
 30
0.0
 10
5.7664329
 20
5.8105974549
 30
0.0
 10
5.7539924711
 20
5.7991177737
 30
0.0
 10
5.7436077958
 20
5.7857170254
 30
0.0
 10
5.7355207014
 20
5.7707084393
 30
0.0
 10
5.7299550485
 20
5.7544650128
 30
0.0
 10
5.7280669188
 20
5.7431165716
 30
0.0
 10
5.7275870175
 20
5.7373940117
 30
0.0
  0
ENDSEC
  0
SECTION
  2
OBJECTS
  0
DICTIONARY
  5
C
100
AcDbDictionary
280
0
281
1
  3
ACAD_GROUP
350
D
  3
ACAD_MLINESTYLE
350
17
  3
ACAD_LAYOUT
350
1A
  3
ACAD_PLOTSETTINGS
350
19
  3
ACAD_PLOTSTYLENAME
350
E
  0
DICTIONARY
  5
D
102
{ACAD_REACTORS
330
C
102
}
100
AcDbDictionary
280
0
281
1
  0
ACDBDICTIONARYWDFLT
  5
E
102
{ACAD_REACTORS
330
C
102
}
100
AcDbDictionary
281
1
  3
Normal
350
F
100
AcDbDictionaryWithDefault
340
F
  0
DICTIONARY
  5
17
102
{ACAD_REACTORS
330
C
102
}
100
AcDbDictionary
280
0
281
1
  3
Standard
350
18
  0
DICTIONARY
  5
19
102
{ACAD_REACTORS
330
C
102
}
100
AcDbDictionary
281
1
  0
DICTIONARY
  5
1A
102
{ACAD_REACTORS
330
C
102
}
100
AcDbDictionary
281
1
  3
Model
350
29A
  3
Layout1
350
29B
  0
ACDBPLACEHOLDER
  5
F
102
{ACAD_REACTORS
330
E
102
}
  0
MLINESTYLE
  5
18
102
{ACAD_REACTORS
330
17
102
}
100
AcDbMlineStyle
  2
STANDARD
 70
0
  3

 62
256
 51
90.0
 52
90.0
 71
2
 49
0.5
 62
256
  6
BYLAYER
 49
-0.5
 62
256
  6
BYLAYER
  0
LAYOUT
  5
29A
102
{ACAD_REACTORS
330
1A
102
}
100
AcDbPlotSettings
  1

  2
none_device
  4
ANSI_A_(11.00_x_8.50_Inches)
  6

 40
0.0
 41
0.0
 42
0.0
 43
0.0
 44
279.4
 45
215.9
 46
0.0
 47
0.0
 48
0.0
 49
0.0
140
0.0
141
0.0
142
1.0
143
1.0
 70
1024
 72
0
 73
0
 74
0
  7

 75
0
147
1.0
148
0.0
149
0.0
100
AcDbLayout
  1
Model
 70
0
 71
0
 10
0.0
 20
0.0
 11
11.0
 21
8.5
 12
0.0
 22
0.0
 32
0.0
 14
0.0
 24
0.0
 34
0.0
 15
0.0
 25
0.0
 35
0.0
146
0.0
 13
0.0
 23
0.0
 33
0.0
 16
1.0
 26
0.0
 36
0.0
 17
0.0
 27
1.0
 37
0.0
 76
0
330
200
345
0
346
0
  0
LAYOUT
  5
29B
102
{ACAD_REACTORS
330
1A
102
}
100
AcDbPlotSettings
  1

  2
none_device
  4
ANSI_A_(11.00_x_8.50_Inches)
  6

 40
0.0
 41
0.0
 42
0.0
 43
0.0
 44
279.4
 45
215.9
 46
0.0
 47
0.0
 48
0.0
 49
0.0
140
0.0
141
0.0
142
1.0
143
1.0
 70
0
 72
0
 73
0
 74
0
  7

 75
0
147
1.0
148
0.0
149
0.0
100
AcDbLayout
  1
Layout1
 70
0
 71
1
 10
0.0
 20
0.0
 11
11.0
 21
8.5
 12
0.0
 22
0.0
 32
0.0
 14
0.0
 24
0.0
 34
0.0
 15
0.0
 25
0.0
 35
0.0
146
0.0
 13
0.0
 23
0.0
 33
0.0
 16
1.0
 26
0.0
 36
0.0
 17
0.0
 27
1.0
 37
0.0
 76
0
330
201
345
0
346
0
  0
ENDSEC
  0
EOF
