999
DXF file: 1500-5233_right.dxf
999
Pro/ENGINEER 2023134 by Parametric Technology Corporation
  0
SECTION
  2
HEADER
  9
$ACADVER
  1
AC1032
  9
$DWGCODEPAGE
  3
ANSI_1252
  9
$EXTMAX
 10
11.0
 20
8.5
 30
0.0
  9
$EXTMIN
 10
0.0
 20
0.0
 30
0.0
  9
$LIMMIN
 10
0.0
 20
0.0
  9
$LIMMAX
 10
11.0
 20
8.5
  9
$VIEWCTR
 10
5.5
 20
4.25
  9
$VIEWSIZE
 40
8.5
  9
$CLAYER
  8
0
  9
$LTSCALE
 40
0.605
  9
$CELTYPE
  6
BYLAYER
  9
$DIMSCALE
 40
1.0
  9
$DIMASZ
 40
0.1
  9
$DIMEXO
 40
0.0625
  9
$DIMDLI
 40
0.418
  9
$DIMEXE
 40
0.125
  9
$DIMCEN
 40
0.099
  9
$DIMLFAC
 40
1.0
  9
$DIMBLK
  1
_FILLED
  9
$DIMALT
 70
1
  9
$DIMALTD
 70
2
  9
$DIMALTTD
 70
2
  9
$DIMALTF
 40
25.4
  9
$DIMTXT
 40
0.08
  9
$DIMTOL
 70
1
  9
$DIMLIM
 70
0
  9
$DIMTFAC
 40
1.0
  9
$DIMTP
 40
0.001
  9
$DIMTM
 40
0.001
  9
$DIMGAP
 40
0.09
  9
$DIMDSEP
 70
46
  9
$AUNITS
 70
0
  9
$PDMODE
 70
3
  9
$PDSIZE
 40
0.3125
  9
$HANDSEED
  5
276
  9
$TILEMODE
 70
1
  9
$MEASUREMENT
 70
0
  9
$INSUNITS
 70
1
  0
ENDSEC
  0
SECTION
  2
CLASSES
  0
CLASS
  1
ACDBDICTIONARYWDFLT
  2
AcDbDictionaryWithDefault
  3
AutoCAD 2000
 90
0
 91
1
280
0
281
0
  0
CLASS
  1
ACDBPLACEHOLDER
  2
AcDbPlaceHolder
  3
AutoCAD 2000
 90
0
 91
1
280
0
281
0
  0
CLASS
  1
LAYOUT
  2
AcDbLayout
  3
AutoCAD 2000
 90
0
 91
0
280
0
281
0
  0
ENDSEC
  0
SECTION
  2
TABLES
  0
TABLE
  2
VPORT
  5
8
100
AcDbSymbolTable
 70
2
  0
VPORT
  5
1F4
100
AcDbSymbolTableRecord
100
AcDbViewportTableRecord
  2
*ACTIVE
 70
0
 10
0.0
 20
0.0
 11
1.0
 21
1.0
 12
5.5
 22
4.25
 13
0.0
 23
0.0
 14
1.0
 24
1.0
 15
0.0
 25
0.0
 16
0.0
 26
0.0
 36
1.0
 17
0.0
 27
0.0
 37
0.0
 40
8.5
 41
1.2941176471
 42
50.0
 43
0.0
 44
0.0
 50
0.0
 51
0.0
 71
0
 72
100
 73
1
 74
1
 75
0
 76
0
 77
0
 78
0
  0
ENDTAB
  0
TABLE
  2
LTYPE
  5
5
100
AcDbSymbolTable
 70
6
  0
LTYPE
  5
14
100
AcDbSymbolTableRecord
100
AcDbLinetypeTableRecord
  2
BYBLOCK
 70
0
  3

 72
65
 73
0
 40
0.0
  0
LTYPE
  5
15
100
AcDbSymbolTableRecord
100
AcDbLinetypeTableRecord
  2
BYLAYER
 70
0
  3

 72
65
 73
0
 40
0.0
  0
LTYPE
  5
16
100
AcDbSymbolTableRecord
100
AcDbLinetypeTableRecord
  2
CONTINUOUS
 70
64
  3
Solid line
 72
65
 73
0
 40
0.0
  0
LTYPE
  5
1F5
100
AcDbSymbolTableRecord
100
AcDbLinetypeTableRecord
  2
CENTER
 70
64
  3
____ _ ____ _ ____ _ ____ _ ____ _ ____ _ ____
 72
65
 73
4
 40
0.6
 49
0.375
 74
0
 49
-0.075
 74
0
 49
0.075
 74
0
 49
-0.075
 74
0
  0
LTYPE
  5
1F6
100
AcDbSymbolTableRecord
100
AcDbLinetypeTableRecord
  2
HIDDEN
 70
64
  3
- - - - - - - - - - - - - - - - - - - -
 72
65
 73
2
 40
0.2
 49
0.1
 74
0
 49
-0.1
 74
0
  0
LTYPE
  5
1F7
100
AcDbSymbolTableRecord
100
AcDbLinetypeTableRecord
  2
PHANTOM
 70
64
  3
_____ _ _ _____ _ _ _____ _ _ _____
 72
65
 73
6
 40
0.8
 49
0.45
 74
0
 49
-0.05
 74
0
 49
0.1
 74
0
 49
-0.05
 74
0
 49
0.1
 74
0
 49
-0.05
 74
0
  0
LTYPE
  5
1F8
100
AcDbSymbolTableRecord
100
AcDbLinetypeTableRecord
  2
DOT
 70
64
  3
. . . . . . . . . . . . . . . . . . . .
 72
65
 73
2
 40
0.2
 49
0.1
 74
0
 49
-0.1
 74
0
  0
LTYPE
  5
1F9
100
AcDbSymbolTableRecord
100
AcDbLinetypeTableRecord
  2
DASHED
 70
64
  3
- - - - - - - - - - - - - - - - - - - -
 72
65
 73
2
 40
0.2
 49
0.1
 74
0
 49
-0.1
 74
0
  0
ENDTAB
  0
TABLE
  2
LAYER
  5
2
100
AcDbSymbolTable
 70
36
  0
LAYER
  5
10
100
AcDbSymbolTableRecord
100
AcDbLayerTableRecord
  2
0
 70
0
 62
7
  6
CONTINUOUS
370
-3
390
F
  0
LAYER
  5
1FA
100
AcDbSymbolTableRecord
100
AcDbLayerTableRecord
  2
DEFAULT_1
 70
0
 62
7
  6
CENTER
370
-3
390
F
  0
LAYER
  5
1FB
100
AcDbSymbolTableRecord
100
AcDbLayerTableRecord
  2
DEFAULT_2
 70
0
 62
8
  6
HIDDEN
370
-3
390
F
  0
LAYER
  5
1FC
100
AcDbSymbolTableRecord
100
AcDbLayerTableRecord
  2
DEFAULT_3
 70
0
 62
7
  6
PHANTOM
370
-3
390
F
  0
LAYER
  5
1FD
100
AcDbSymbolTableRecord
100
AcDbLayerTableRecord
  2
DEFAULT_COORDINATE_SYSTEM
 70
0
 62
7
  6
CONTINUOUS
370
-3
390
F
  0
LAYER
  5
1FE
100
AcDbSymbolTableRecord
100
AcDbLayerTableRecord
  2
DEFAULT_DATUM_AXES
 70
0
 62
7
  6
CONTINUOUS
370
-3
390
F
  0
LAYER
  5
1FF
100
AcDbSymbolTableRecord
100
AcDbLayerTableRecord
  2
DEFAULT_DATUM_CURVES
 70
0
 62
7
  6
CONTINUOUS
370
-3
390
F
  0
LAYER
  5
200
100
AcDbSymbolTableRecord
100
AcDbLayerTableRecord
  2
DEFAULT_DATUM_PLANES
 70
0
 62
7
  6
CONTINUOUS
370
-3
390
F
  0
ENDTAB
  0
TABLE
  2
STYLE
  5
3
100
AcDbSymbolTable
 70
1
  0
STYLE
  5
11
100
AcDbSymbolTableRecord
100
AcDbTextStyleTableRecord
  2
STANDARD
 70
0
 40
0.0
 41
0.8
 50
0.0
 71
0
 42
0.2
  3
txt
  4

  0
STYLE
  5
201
100
AcDbSymbolTableRecord
100
AcDbTextStyleTableRecord
  2
TEXTSTYLE_1
 70
0
 40
0.0
 41
0.8
 50
0.0
 71
0
 42
0.2
  3
gdt
  4

  0
ENDTAB
  0
TABLE
  2
VIEW
  5
6
100
AcDbSymbolTable
 70
0
  0
ENDTAB
  0
TABLE
  2
UCS
  5
7
100
AcDbSymbolTable
 70
0
  0
ENDTAB
  0
TABLE
  2
APPID
  5
9
100
AcDbSymbolTable
 70
1
  0
APPID
  5
202
100
AcDbSymbolTableRecord
100
AcDbRegAppTableRecord
  2
ACAD
 70
0
  0
ENDTAB
  0
TABLE
  2
BLOCK_RECORD
  5
1
100
AcDbSymbolTable
 70
0
  0
BLOCK_RECORD
  5
203
100
AcDbSymbolTableRecord
100
AcDbBlockTableRecord
  2
*Model_Space
  0
BLOCK_RECORD
  5
204
100
AcDbSymbolTableRecord
100
AcDbBlockTableRecord
  2
*Paper_Space
  0
BLOCK_RECORD
  5
205
100
AcDbSymbolTableRecord
100
AcDbBlockTableRecord
  2
_FILLED
  0
ENDTAB
  0
TABLE
  2
DIMSTYLE
  5
A
100
AcDbSymbolTable
 70
1
100
AcDbDimStyleTable
 71
0
  0
DIMSTYLE
105
206
100
AcDbSymbolTableRecord
100
AcDbDimStyleTableRecord
  2
STANDARD
 70
0
  3

  4

 40
1.0
 41
0.1
 42
0.0625
 43
0.38
 44
0.125
 45
0.0
 46
0.0
 47
0.001
 48
0.001
140
0.08
141
0.09
142
0.0
143
25.4
144
1.0
145
0.0
146
1.0
147
0.09
 71
1
 72
0
 73
1
 74
1
 75
0
 76
0
 77
0
 78
4
 79
1
170
1
171
2
172
0
173
0
174
0
175
0
176
0
177
0
178
0
270
2
179
3
271
3
272
3
273
2
274
2
275
0
280
0
281
0
282
0
283
1
284
4
285
0
286
0
287
3
288
0
340
11
278
46
341
205
342
205
343
205
344
205
  0
ENDTAB
  0
ENDSEC
  0
SECTION
  2
BLOCKS
  0
BLOCK
  5
20
100
AcDbEntity
  8
0
100
AcDbBlockBegin
  2
*Model_Space
 70
0
 10
0.0
 20
0.0
 30
0.0
  3
*Model_Space
  1

  0
ENDBLK
  5
21
100
AcDbEntity
  8
0
100
AcDbBlockEnd
  0
BLOCK
  5
1C
100
AcDbEntity
  8
0
100
AcDbBlockBegin
  2
*Paper_Space
 70
0
 10
0.0
 20
0.0
 30
0.0
  3
*Paper_Space
  1

  0
ENDBLK
  5
1D
100
AcDbEntity
  8
0
100
AcDbBlockEnd
  0
BLOCK
  5
207
100
AcDbEntity
  8
0
100
AcDbBlockBegin
  2
_FILLED
 70
64
 10
0.0
 20
0.0
  3
_FILLED
  1

  0
SOLID
  5
208
100
AcDbEntity
  8
0
  6
BYBLOCK
 62
0
100
AcDbTrace
 10
0.0
 20
0.0
 11
-1.0
 21
0.2
 12
-1.0
 22
-0.2
 13
-1.0
 23
-0.2
  0
ENDBLK
  5
209
100
AcDbEntity
  8
0
  6
BYBLOCK
 62
0
100
AcDbBlockEnd
  0
ENDSEC
  0
SECTION
  2
ENTITIES
  0
MTEXT
  5
20A
100
AcDbEntity
  8
0
100
AcDbMText
 62
2
  6
CONTINUOUS
  7
STANDARD
 71
3
 72
1
 10
4.8991510606
 20
0.5350383562
 30
0.0
 11
1.0
 21
0.0
 31
0.0
 73
2
 44
0.9
  1
SCALE 0.500
 40
0.08
 41
0.704
  0
LINE
  5
20B
100
AcDbEntity
  8
0
100
AcDbLine
 62
7
  6
CONTINUOUS
 10
0.0
 20
0.0
 11
0.0
 21
8.5
  0
LINE
  5
20C
100
AcDbEntity
  8
0
100
AcDbLine
 62
7
  6
CONTINUOUS
 10
0.0
 20
0.0
 11
11.0
 21
0.0
  0
LINE
  5
20D
100
AcDbEntity
  8
0
100
AcDbLine
 62
7
  6
CONTINUOUS
 10
0.0
 20
8.5
 11
11.0
 21
8.5
  0
LINE
  5
20E
100
AcDbEntity
  8
0
100
AcDbLine
 62
7
  6
CONTINUOUS
 10
11.0
 20
0.0
 11
11.0
 21
8.5
  0
LINE
  5
20F
100
AcDbEntity
  8
0
100
AcDbLine
 62
7
  6
CONTINUOUS
 10
6.2497173517
 20
1.0916273973
 11
7.2397173517
 21
1.0916273973
  0
LINE
  5
210
100
AcDbEntity
  8
0
100
AcDbLine
 62
7
  6
CONTINUOUS
 10
7.2397173517
 20
1.2891273973
 11
6.2497173517
 21
1.2891273973
  0
LINE
  5
211
100
AcDbEntity
  8
0
100
AcDbLine
 62
7
  6
CONTINUOUS
 10
7.2247173517
 20
1.3041273973
 11
6.2647173517
 21
1.3041273973
  0
LINE
  5
212
100
AcDbEntity
  8
0
100
AcDbLine
 62
7
  6
CONTINUOUS
 10
2.9629673517
 20
4.9869273973
 11
2.9629673517
 21
5.7664273973
  0
LINE
  5
213
100
AcDbEntity
  8
0
100
AcDbLine
 62
7
  6
CONTINUOUS
 10
6.5884673517
 20
2.2568725377
 11
6.5784673517
 21
2.2568725377
  0
LINE
  5
214
100
AcDbEntity
  8
0
100
AcDbLine
 62
7
  6
CONTINUOUS
 10
6.9009673517
 20
2.2568725377
 11
6.9109673517
 21
2.2568725377
  0
LINE
  5
215
100
AcDbEntity
  8
0
100
AcDbLine
 62
7
  6
CONTINUOUS
 10
6.900684434
 20
2.6450722625
 11
6.9106663273
 21
2.6453773973
  0
LINE
  5
216
100
AcDbEntity
  8
0
100
AcDbLine
 62
7
  6
CONTINUOUS
 10
3.4004673517
 20
4.9869273973
 11
3.4004673517
 21
5.7664273973
  0
LINE
  5
217
100
AcDbEntity
  8
0
100
AcDbLine
 62
7
  6
CONTINUOUS
 10
6.5884673517
 20
2.6353773973
 11
6.5784673517
 21
2.6353773973
  0
LINE
  5
218
100
AcDbEntity
  8
0
100
AcDbLine
 62
7
  6
CONTINUOUS
 10
6.9009673517
 20
2.6353773973
 11
6.9109673517
 21
2.6353773973
  0
LINE
  5
219
100
AcDbEntity
  8
0
100
AcDbLine
 62
7
  6
CONTINUOUS
 10
6.5882850649
 20
2.6450867038
 11
6.5787683761
 21
2.6453773973
  0
LINE
  5
21A
100
AcDbEntity
  8
0
100
AcDbLine
 62
7
  6
CONTINUOUS
 10
6.5887502694
 20
2.6450722625
 11
6.5882850649
 21
2.6450866964
  0
LINE
  5
21B
100
AcDbEntity
  8
0
100
AcDbLine
 62
7
  6
CONTINUOUS
 10
6.5887502682
 20
2.951526308
 11
6.5787684095
 21
2.9515263086
  0
LINE
  5
21C
100
AcDbEntity
  8
0
100
AcDbLine
 62
7
  6
CONTINUOUS
 10
6.9006844309
 20
2.9515265123
 11
6.9106662213
 21
2.9515265109
  0
LINE
  5
21D
100
AcDbEntity
  8
0
100
AcDbLine
 62
7
  6
CONTINUOUS
 10
7.1447173517
 20
3.4141273973
 11
6.8847173517
 21
3.4141273973
  0
LINE
  5
21E
100
AcDbEntity
  8
0
100
AcDbLine
 62
7
  6
CONTINUOUS
 10
6.6047173517
 20
3.4141273973
 11
6.3447173517
 21
3.4141273973
  0
LINE
  5
21F
100
AcDbEntity
  8
0
100
AcDbLine
 62
7
  6
CONTINUOUS
 10
7.1407155333
 20
3.4243273973
 11
6.8847173517
 21
3.4243273973
  0
LINE
  5
220
100
AcDbEntity
  8
0
100
AcDbLine
 62
7
  6
CONTINUOUS
 10
6.6047173517
 20
3.4243273973
 11
6.34871917
 21
3.4243273973
  0
LINE
  5
221
100
AcDbEntity
  8
0
100
AcDbLine
 62
7
  6
CONTINUOUS
 10
6.3447173517
 20
3.4345273973
 11
6.6047173517
 21
3.4345273973
  0
LINE
  5
222
100
AcDbEntity
  8
0
100
AcDbLine
 62
7
  6
CONTINUOUS
 10
6.8847173517
 20
3.4345273973
 11
7.1447173517
 21
3.4345273973
  0
LINE
  5
223
100
AcDbEntity
  8
0
100
AcDbLine
 62
7
  6
CONTINUOUS
 10
6.3447173517
 20
3.6695273973
 11
6.6047173517
 21
3.6695273973
  0
LINE
  5
224
100
AcDbEntity
  8
0
100
AcDbLine
 62
7
  6
CONTINUOUS
 10
6.8847173517
 20
3.6695273973
 11
7.1447173517
 21
3.6695273973
  0
LINE
  5
225
100
AcDbEntity
  8
0
100
AcDbLine
 62
7
  6
CONTINUOUS
 10
6.6047173517
 20
3.6945273973
 11
6.3697173517
 21
3.6945273973
  0
LINE
  5
226
100
AcDbEntity
  8
0
100
AcDbLine
 62
7
  6
CONTINUOUS
 10
6.8847173517
 20
3.6945273973
 11
7.1197173517
 21
3.6945273973
  0
LINE
  5
227
100
AcDbEntity
  8
0
100
AcDbLine
 62
7
  6
CONTINUOUS
 10
7.0547173517
 20
3.7045273973
 11
6.8847173517
 21
3.7045273973
  0
LINE
  5
228
100
AcDbEntity
  8
0
100
AcDbLine
 62
7
  6
CONTINUOUS
 10
6.6047173517
 20
3.7045273973
 11
6.4347173517
 21
3.7045273973
  0
LINE
  5
229
100
AcDbEntity
  8
0
100
AcDbLine
 62
7
  6
CONTINUOUS
 10
6.6047173517
 20
4.1441273973
 11
6.8847173517
 21
4.1441273973
  0
LINE
  5
22A
100
AcDbEntity
  8
0
100
AcDbLine
 62
7
  6
CONTINUOUS
 10
6.6147173517
 20
4.1541273973
 11
6.8747173517
 21
4.1541273973
  0
LINE
  5
22B
100
AcDbEntity
  8
0
100
AcDbLine
 62
7
  6
CONTINUOUS
 10
2.9629673517
 20
4.9869273973
 11
3.4004673517
 21
4.9869273973
  0
LINE
  5
22C
100
AcDbEntity
  8
0
100
AcDbLine
 62
7
  6
CONTINUOUS
 10
6.9152855334
 20
2.2478529309
 11
6.9109673517
 21
2.2568725377
  0
LINE
  5
22D
100
AcDbEntity
  8
0
100
AcDbLine
 62
7
  6
CONTINUOUS
 10
6.5744580808
 20
2.9605496326
 11
6.5787684324
 21
2.9515263091
  0
LINE
  5
22E
100
AcDbEntity
  8
0
100
AcDbLine
 62
7
  6
CONTINUOUS
 10
6.2497173517
 20
1.2891273973
 11
6.2497173517
 21
1.0916273973
  0
LINE
  5
22F
100
AcDbEntity
  8
0
100
AcDbLine
 62
7
  6
CONTINUOUS
 10
6.3447173517
 20
3.6695273973
 11
6.3447173517
 21
3.4345273973
  0
LINE
  5
230
100
AcDbEntity
  8
0
100
AcDbLine
 62
7
  6
CONTINUOUS
 10
6.3447173517
 20
1.3041273973
 11
6.3447173517
 21
3.4141273973
  0
LINE
  5
231
100
AcDbEntity
  8
0
100
AcDbLine
 62
7
  6
CONTINUOUS
 10
6.9634673517
 20
5.7664273973
 11
6.5259673517
 21
5.7664273973
  0
LINE
  5
232
100
AcDbEntity
  8
0
100
AcDbLine
 62
7
  6
CONTINUOUS
 10
2.9629673517
 20
5.7664273973
 11
3.4004673517
 21
5.7664273973
  0
LINE
  5
233
100
AcDbEntity
  8
0
100
AcDbLine
 62
7
  6
CONTINUOUS
 10
6.5259673517
 20
5.7664273973
 11
6.5259673517
 21
3.7045273973
  0
LINE
  5
234
100
AcDbEntity
  8
0
100
AcDbLine
 62
7
  6
CONTINUOUS
 10
6.5784673517
 20
2.6353773973
 11
6.5784673517
 21
2.2568725377
  0
LINE
  5
235
100
AcDbEntity
  8
0
100
AcDbLine
 62
7
  6
CONTINUOUS
 10
6.5787684095
 20
2.9515262461
 11
6.5787683761
 21
2.6453773973
  0
LINE
  5
236
100
AcDbEntity
  8
0
100
AcDbLine
 62
7
  6
CONTINUOUS
 10
6.5884673517
 20
2.6353773973
 11
6.5884673517
 21
2.2568725377
  0
LINE
  5
237
100
AcDbEntity
  8
0
100
AcDbLine
 62
7
  6
CONTINUOUS
 10
6.5887502682
 20
2.9515263082
 11
6.5887502694
 21
2.6450722625
  0
LINE
  5
238
100
AcDbEntity
  8
0
100
AcDbLine
 62
7
  6
CONTINUOUS
 10
6.6047173517
 20
2.1837704061
 11
6.6047173517
 21
4.1441273973
  0
LINE
  5
239
100
AcDbEntity
  8
0
100
AcDbLine
 62
7
  6
CONTINUOUS
 10
6.8847173517
 20
2.1837704061
 11
6.8847173517
 21
4.1441273973
  0
LINE
  5
23A
100
AcDbEntity
  8
0
100
AcDbLine
 62
7
  6
CONTINUOUS
 10
6.900684434
 20
2.6450722625
 11
6.9006844309
 21
2.9515265116
  0
LINE
  5
23B
100
AcDbEntity
  8
0
100
AcDbLine
 62
7
  6
CONTINUOUS
 10
6.9009673517
 20
2.2568725377
 11
6.9009673517
 21
2.6353773973
  0
LINE
  5
23C
100
AcDbEntity
  8
0
100
AcDbLine
 62
7
  6
CONTINUOUS
 10
6.9106663273
 20
2.6453773973
 11
6.9106662213
 21
2.9515263137
  0
LINE
  5
23D
100
AcDbEntity
  8
0
100
AcDbLine
 62
7
  6
CONTINUOUS
 10
6.9109673517
 20
2.2568725377
 11
6.9109673517
 21
2.6353773973
  0
LINE
  5
23E
100
AcDbEntity
  8
0
100
AcDbLine
 62
7
  6
CONTINUOUS
 10
6.9634673517
 20
5.7664273973
 11
6.9634673517
 21
3.7045273973
  0
LINE
  5
23F
100
AcDbEntity
  8
0
100
AcDbLine
 62
7
  6
CONTINUOUS
 10
7.1447173517
 20
3.6695273973
 11
7.1447173517
 21
3.4345273973
  0
LINE
  5
240
100
AcDbEntity
  8
0
100
AcDbLine
 62
7
  6
CONTINUOUS
 10
7.1447173517
 20
1.3041273973
 11
7.1447173517
 21
3.4141273973
  0
LINE
  5
241
100
AcDbEntity
  8
0
100
AcDbLine
 62
7
  6
CONTINUOUS
 10
7.2397173517
 20
1.2891273973
 11
7.2397173517
 21
1.0916273973
  0
LINE
  5
242
100
AcDbEntity
  8
0
100
AcDbLine
 62
7
  6
CONTINUOUS
 10
6.9149764235
 20
2.9605496868
 11
6.9106660926
 21
2.9515263867
  0
LINE
  5
243
100
AcDbEntity
  8
0
100
AcDbLine
 62
7
  6
CONTINUOUS
 10
6.5741491699
 20
2.2478529309
 11
6.5784673517
 21
2.2568725377
  0
ARC
  5
244
100
AcDbEntity
  8
0
100
AcDbCircle
 62
7
  6
CONTINUOUS
 10
4.9632173517
 20
5.7664273973
 40
2.00025
100
AcDbArc
 50
0.0
 51
180.0
  0
ARC
  5
245
100
AcDbEntity
  8
0
100
AcDbCircle
 62
7
  6
CONTINUOUS
 10
4.9632173517
 20
5.7664273973
 40
1.56275
100
AcDbArc
 50
0.0
 51
180.0
  0
ARC
  5
246
100
AcDbEntity
  8
0
100
AcDbCircle
 62
7
  6
CONTINUOUS
 10
6.2647173517
 20
1.2891273973
 40
0.015
100
AcDbArc
 50
90.0
 51
180.0
  0
ARC
  5
247
100
AcDbEntity
  8
0
100
AcDbCircle
 62
7
  6
CONTINUOUS
 10
6.5784673517
 20
2.2568725377
 40
0.01
100
AcDbArc
 50
244.4169980226
 51
360.0
  0
ARC
  5
248
100
AcDbEntity
  8
0
100
AcDbCircle
 62
7
  6
CONTINUOUS
 10
6.6147173517
 20
2.1837704061
 40
0.01
100
AcDbArc
 50
180.0000000011
 51
252.8152040991
  0
ARC
  5
249
100
AcDbEntity
  8
0
100
AcDbCircle
 62
7
  6
CONTINUOUS
 10
6.7447104854
 20
2.6080285524
 40
0.399229201
100
AcDbArc
 50
290.5304914223
 51
295.3421279872
  0
ARC
  5
24A
100
AcDbEntity
  8
0
100
AcDbCircle
 62
7
  6
CONTINUOUS
 10
6.7447138636
 20
2.6002342121
 40
0.3992205527
100
AcDbArc
 50
64.7068973268
 51
69.4695750268
  0
ARC
  5
24B
100
AcDbEntity
  8
0
100
AcDbCircle
 62
7
  6
CONTINUOUS
 10
6.7411891022
 20
2.6376989006
 40
0.3520320004
100
AcDbArc
 50
63.059142026
 51
65.9380061855
  0
ARC
  5
24C
100
AcDbEntity
  8
0
100
AcDbCircle
 62
7
  6
CONTINUOUS
 10
6.3597173517
 20
3.4345273973
 40
0.015
100
AcDbArc
 50
180.0
 51
222.8436430436
  0
ARC
  5
24D
100
AcDbEntity
  8
0
100
AcDbCircle
 62
7
  6
CONTINUOUS
 10
6.3597173517
 20
3.4141273973
 40
0.015
100
AcDbArc
 50
137.1563569564
 51
180.0
  0
ARC
  5
24E
100
AcDbEntity
  8
0
100
AcDbCircle
 62
7
  6
CONTINUOUS
 10
7.2247173517
 20
1.2891273973
 40
0.015
100
AcDbArc
 50
0.0
 51
90.0
  0
ARC
  5
24F
100
AcDbEntity
  8
0
100
AcDbCircle
 62
7
  6
CONTINUOUS
 10
6.9109673517
 20
2.2568725377
 40
0.01
100
AcDbArc
 50
180.0
 51
295.5830019774
  0
ARC
  5
250
100
AcDbEntity
  8
0
100
AcDbCircle
 62
7
  6
CONTINUOUS
 10
6.8747173517
 20
2.1837704061
 40
0.01
100
AcDbArc
 50
287.1847959009
 51
359.9999999989
  0
ARC
  5
251
100
AcDbEntity
  8
0
100
AcDbCircle
 62
7
  6
CONTINUOUS
 10
6.7447173517
 20
2.6041273973
 40
0.45
100
AcDbArc
 50
252.8152040989
 51
287.1847959011
  0
ARC
  5
252
100
AcDbEntity
  8
0
100
AcDbCircle
 62
7
  6
CONTINUOUS
 10
6.7447239729
 20
2.6002267786
 40
0.3992286124
100
AcDbArc
 50
110.5305599764
 51
115.2931483106
  0
ARC
  5
253
100
AcDbEntity
  8
0
100
AcDbCircle
 62
7
  6
CONTINUOUS
 10
6.7447203839
 20
2.6080194984
 40
0.3992193773
100
AcDbArc
 50
244.657757476
 51
249.4695035034
  0
ARC
  5
254
100
AcDbEntity
  8
0
100
AcDbCircle
 62
7
  6
CONTINUOUS
 10
6.7447173517
 20
2.6041273973
 40
0.395
100
AcDbArc
 50
110.7585772998
 51
249.2404597668
  0
ARC
  5
255
100
AcDbEntity
  8
0
100
AcDbCircle
 62
7
  6
CONTINUOUS
 10
6.7447173517
 20
2.6041273973
 40
0.395
100
AcDbArc
 50
290.7595936515
 51
69.2398502111
  0
ARC
  5
256
100
AcDbEntity
  8
0
100
AcDbCircle
 62
7
  6
CONTINUOUS
 10
6.7447173517
 20
2.6041273973
 40
0.385
100
AcDbArc
 50
295.5830019774
 51
64.4666763057
  0
ARC
  5
257
100
AcDbEntity
  8
0
100
AcDbCircle
 62
7
  6
CONTINUOUS
 10
6.7447173517
 20
2.6041273973
 40
0.385
100
AcDbArc
 50
115.533337767
 51
244.4169980226
  0
ARC
  5
258
100
AcDbEntity
  8
0
100
AcDbCircle
 62
7
  6
CONTINUOUS
 10
6.7480879527
 20
2.6380389777
 40
0.3516571938
100
AcDbArc
 50
114.0611199253
 51
116.9430795804
  0
ARC
  5
259
100
AcDbEntity
  8
0
100
AcDbCircle
 62
7
  6
CONTINUOUS
 10
6.7447173517
 20
2.6353773973
 40
0.16625
100
AcDbArc
 50
0.0
 51
3.448444264
  0
ARC
  5
25A
100
AcDbEntity
  8
0
100
AcDbCircle
 62
7
  6
CONTINUOUS
 10
6.7447173517
 20
2.6353773973
 40
0.16625
100
AcDbArc
 50
176.551555736
 51
180.0
  0
ARC
  5
25B
100
AcDbEntity
  8
0
100
AcDbCircle
 62
7
  6
CONTINUOUS
 10
6.7447173517
 20
2.6353773973
 40
0.15625
100
AcDbArc
 50
176.4428394473
 51
180.0
  0
ARC
  5
25C
100
AcDbEntity
  8
0
100
AcDbCircle
 62
7
  6
CONTINUOUS
 10
6.7447173517
 20
2.6353773973
 40
0.15625
100
AcDbArc
 50
0.0
 51
3.5571630985
  0
ARC
  5
25D
100
AcDbEntity
  8
0
100
AcDbCircle
 62
7
  6
CONTINUOUS
 10
6.7447173517
 20
2.4478773973
 40
0.15625
100
AcDbArc
 50
180.0
 51
206.3540966355
  0
ARC
  5
25E
100
AcDbEntity
  8
0
100
AcDbCircle
 62
7
  6
CONTINUOUS
 10
6.7447173517
 20
2.4478773973
 40
0.15625
100
AcDbArc
 50
333.645914454
 51
360.0
  0
ARC
  5
25F
100
AcDbEntity
  8
0
100
AcDbCircle
 62
7
  6
CONTINUOUS
 10
6.7447173517
 20
2.6353773973
 40
0.15625
100
AcDbArc
 50
153.648993846
 51
176.3305995951
  0
ARC
  5
260
100
AcDbEntity
  8
0
100
AcDbCircle
 62
7
  6
CONTINUOUS
 10
6.7447173517
 20
2.6353773973
 40
0.15625
100
AcDbArc
 50
3.6694003018
 51
26.3508277279
  0
ARC
  5
261
100
AcDbEntity
  8
0
100
AcDbCircle
 62
7
  6
CONTINUOUS
 10
7.1297173517
 20
3.4345273973
 40
0.015
100
AcDbArc
 50
317.1563569564
 51
360.0
  0
ARC
  5
262
100
AcDbEntity
  8
0
100
AcDbCircle
 62
7
  6
CONTINUOUS
 10
7.1297173517
 20
3.4141273973
 40
0.015
100
AcDbArc
 50
0.0
 51
42.8436430436
  0
ARC
  5
263
100
AcDbEntity
  8
0
100
AcDbCircle
 62
7
  6
CONTINUOUS
 10
6.3697173517
 20
3.6695273973
 40
0.025
100
AcDbArc
 50
90.0
 51
180.0
  0
ARC
  5
264
100
AcDbEntity
  8
0
100
AcDbCircle
 62
7
  6
CONTINUOUS
 10
7.1197173517
 20
3.6695273973
 40
0.025
100
AcDbArc
 50
0.0
 51
90.0
  0
ARC
  5
265
100
AcDbEntity
  8
0
100
AcDbCircle
 62
7
  6
CONTINUOUS
 10
6.4347173517
 20
3.6945273973
 40
0.01
100
AcDbArc
 50
90.0
 51
180.0
  0
ARC
  5
266
100
AcDbEntity
  8
0
100
AcDbCircle
 62
7
  6
CONTINUOUS
 10
7.0547173517
 20
3.6945273973
 40
0.01
100
AcDbArc
 50
0.0
 51
90.0
  0
ARC
  5
267
100
AcDbEntity
  8
0
100
AcDbCircle
 62
7
  6
CONTINUOUS
 10
6.6147173517
 20
4.1441273973
 40
0.01
100
AcDbArc
 50
90.0
 51
180.0
  0
ARC
  5
268
100
AcDbEntity
  8
0
100
AcDbCircle
 62
7
  6
CONTINUOUS
 10
6.8747173517
 20
4.1441273973
 40
0.01
100
AcDbArc
 50
0.0
 51
90.0
  0
SPLINE
  5
269
100
AcDbEntity
  8
0
100
AcDbSpline
 62
7
  6
CONTINUOUS
 70
0
 71
3
 72
23
 73
19
 74
0
 42
0.0000001
 43
0.0000001
 44
0.0000000001
 40
0.0
 40
0.0
 40
0.0
 40
0.0
 40
0.0624151775
 40
0.124840863
 40
0.1872693674
 40
0.2497123711
 40
0.3121692806
 40
0.3746431084
 40
0.4371343556
 40
0.4996427917
 40
0.5621669929
 40
0.6247045403
 40
0.6872522837
 40
0.7498060597
 40
0.8123627757
 40
0.8749146474
 40
0.9374655966
 40
1.0
 40
1.0
 40
1.0
 40
1.0
 10
6.5744580808
 20
2.9605496326
 30
0.0
 10
6.5748358769
 20
2.9607301019
 30
0.0
 10
6.5756152381
 20
2.9610436722
 30
0.0
 10
6.5768335145
 20
2.961362889
 30
0.0
 10
6.5780826703
 20
2.9615262318
 30
0.0
 10
6.5793426048
 20
2.9615311096
 30
0.0
 10
6.580593457
 20
2.9613774037
 30
0.0
 10
6.5818153687
 20
2.9610675877
 30
0.0
 10
6.5829889841
 20
2.9606065569
 30
0.0
 10
6.5840957024
 20
2.9600016258
 30
0.0
 10
6.5851179835
 20
2.9592623795
 30
0.0
 10
6.5860396332
 20
2.9584005404
 30
0.0
 10
6.5868460438
 20
2.9574297681
 30
0.0
 10
6.5875244601
 20
2.9563654459
 30
0.0
 10
6.5880640891
 20
2.9552244539
 30
0.0
 10
6.5884564671
 20
2.9540247919
 30
0.0
 10
6.5886952506
 20
2.9527857396
 30
0.0
 10
6.5887496079
 20
2.9519457939
 30
0.0
 10
6.5887503336
 20
2.9515263074
 30
0.0
  0
SPLINE
  5
26A
100
AcDbEntity
  8
0
100
AcDbSpline
 62
7
  6
CONTINUOUS
 70
0
 71
3
 72
23
 73
19
 74
0
 42
0.0000001
 43
0.0000001
 44
0.0000000001
 40
0.0
 40
0.0
 40
0.0
 40
0.0
 40
0.0625344675
 40
0.1250853934
 40
0.1876372185
 40
0.2501938789
 40
0.3127475967
 40
0.3752952817
 40
0.4378327767
 40
0.5003569344
 40
0.5628653393
 40
0.6253565694
 40
0.6878303953
 40
0.750287317
 40
0.8127303514
 40
0.8751588858
 40
0.9375846442
 40
1.0
 40
1.0
 40
1.0
 40
1.0
 10
6.9006842144
 20
2.9515265138
 30
0.0
 10
6.9006849383
 20
2.9519460029
 30
0.0
 10
6.9007392844
 20
2.9527859538
 30
0.0
 10
6.9009780633
 20
2.9540250142
 30
0.0
 10
6.9013704384
 20
2.9552246831
 30
0.0
 10
6.901910065
 20
2.9563656822
 30
0.0
 10
6.9025884816
 20
2.9574300107
 30
0.0
 10
6.9033948937
 20
2.9584007889
 30
0.0
 10
6.9043165466
 20
2.9592626326
 30
0.0
 10
6.9053388322
 20
2.9600018826
 30
0.0
 10
6.906445556
 20
2.960606816
 30
0.0
 10
6.9076191778
 20
2.9610678478
 30
0.0
 10
6.9088410963
 20
2.9613776631
 30
0.0
 10
6.9100919557
 20
2.9615313672
 30
0.0
 10
6.9113518973
 20
2.9615264856
 30
0.0
 10
6.9126010599
 20
2.9613631382
 30
0.0
 10
6.9138193434
 20
2.9610439148
 30
0.0
 10
6.9145987084
 20
2.9607303381
 30
0.0
 10
6.9149765073
 20
2.9605498666
 30
0.0
  0
SPLINE
  5
26B
100
AcDbEntity
  8
0
100
AcDbSpline
 62
7
  6
CONTINUOUS
 70
0
 71
3
 72
66
 73
62
 74
0
 42
0.0000001
 43
0.0000001
 44
0.0000000001
 40
0.0
 40
0.0
 40
0.0
 40
0.0
 40
0.0177939883
 40
0.0353581305
 40
0.0526913592
 40
0.0697961604
 40
0.0866783523
 40
0.1033450494
 40
0.1198054759
 40
0.1360694084
 40
0.1521473507
 40
0.1680500844
 40
0.1837884093
 40
0.1993729892
 40
0.2301175891
 40
0.2603697514
 40
0.2753374141
 40
0.2902104507
 40
0.3197058962
 40
0.3489350127
 40
0.3779806066
 40
0.4069533863
 40
0.436059145
 40
0.4508160337
 40
0.4659353691
 40
0.4737710805
 40
0.4819521206
 40
0.4862306916
 40
0.490673675
 40
0.4952826794
 40
0.4976340015
 40
0.5000009026
 40
0.5093252885
 40
0.5115700257
 40
0.5137700183
 40
0.5180487581
 40
0.5262286919
 40
0.5340644541
 40
0.5491841494
 40
0.563940738
 40
0.5930465753
 40
0.6220193707
 40
0.6510649621
 40
0.680294076
 40
0.7097895232
 40
0.7246625618
 40
0.7396302244
 40
0.7698823895
 40
0.8006270008
 40
0.8162115852
 40
0.8319499108
 40
0.847852644
 40
0.8639305866
 40
0.8801945214
 40
0.8966549482
 40
0.9133216456
 40
0.9302038386
 40
0.9473086414
 40
0.964641871
 40
0.9822060124
 40
1.0
 40
1.0
 40
1.0
 40
1.0
 10
6.6047043575
 20
3.020930256
 30
0.0
 10
6.5990283169
 20
3.0185393479
 30
0.0
 10
6.5878655509
 20
3.0135075643
 30
0.0
 10
6.571617155
 20
3.0052093144
 30
0.0
 10
6.5559877577
 20
2.9962680374
 30
0.0
 10
6.5409878287
 20
2.986741112
 30
0.0
 10
6.5266207656
 20
2.9766818493
 30
0.0
 10
6.5128848638
 20
2.9661395903
 30
0.0
 10
6.4997748305
 20
2.9551593956
 30
0.0
 10
6.4872825826
 20
2.9437821265
 30
0.0
 10
6.4753979173
 20
2.9320450854
 30
0.0
 10
6.4641097535
 20
2.9199816783
 30
0.0
 10
6.4534057086
 20
2.9076221819
 30
0.0
 10
6.4399586132
 20
2.8908622597
 30
0.0
 10
6.4245144805
 20
2.869288829
 30
0.0
 10
6.4107409323
 20
2.8468655979
 30
0.0
 10
6.400771202
 20
2.8286067542
 30
0.0
 10
6.3915331752
 20
2.8102599466
 30
0.0
 10
6.3811986585
 20
2.7869547942
 30
0.0
 10
6.3706717521
 20
2.7584361542
 30
0.0
 10
6.3619931145
 20
2.7294907401
 30
0.0
 10
6.355112695
 20
2.7001112058
 30
0.0
 10
6.3508620459
 20
2.6752443366
 30
0.0
 10
6.3483451562
 20
2.6549820186
 30
0.0
 10
6.3471414024
 20
2.6419818466
 30
0.0
 10
6.3464088365
 20
2.6312292153
 30
0.0
 10
6.3460536834
 20
2.6242129346
 30
0.0
 10
6.3458369753
 20
2.6183663696
 30
0.0
 10
6.3457123095
 20
2.6137538492
 30
0.0
 10
6.3456482164
 20
2.6098072491
 30
0.0
 10
6.3456217323
 20
2.6065789022
 30
0.0
 10
6.3456068458
 20
2.6017183361
 30
0.0
 10
6.3456613842
 20
2.5968944491
 30
0.0
 10
6.3457763024
 20
2.5921299189
 30
0.0
 10
6.3458654921
 20
2.5891117568
 30
0.0
 10
6.3460535801
 20
2.5840413623
 30
0.0
 10
6.3464089293
 20
2.577025402
 30
0.0
 10
6.3471414254
 20
2.5662730082
 30
0.0
 10
6.3483450278
 20
2.5532727815
 30
0.0
 10
6.3508621712
 20
2.533010446
 30
0.0
 10
6.3551126513
 20
2.5081436263
 30
0.0
 10
6.3619931114
 20
2.4787640637
 30
0.0
 10
6.370671741
 20
2.4498186453
 30
0.0
 10
6.3811986538
 20
2.4213000082
 30
0.0
 10
6.3915331708
 20
2.3979948557
 30
0.0
 10
6.4007712019
 20
2.3796480488
 30
0.0
 10
6.4107409367
 20
2.3613892058
 30
0.0
 10
6.4245144915
 20
2.3389659731
 30
0.0
 10
6.4399586305
 20
2.317392539
 30
0.0
 10
6.4534057315
 20
2.3006326138
 30
0.0
 10
6.4641097797
 20
2.2882731182
 30
0.0
 10
6.4753979437
 20
2.2762097111
 30
0.0
 10
6.4872826084
 20
2.2644726684
 30
0.0
 10
6.4997748543
 20
2.2530953956
 30
0.0
 10
6.51288489
 20
2.2421152019
 30
0.0
 10
6.5266207944
 20
2.2315729456
 30
0.0
 10
6.5409878534
 20
2.2215136755
 30
0.0
 10
6.555987776
 20
2.2119867376
 30
0.0
 10
6.5716171702
 20
2.2030454536
 30
0.0
 10
6.5878655738
 20
2.1947472182
 30
0.0
 10
6.5990283461
 20
2.1897154504
 30
0.0
 10
6.604704388
 20
2.1873245459
 30
0.0
  0
SPLINE
  5
26C
100
AcDbEntity
  8
0
100
AcDbSpline
 62
7
  6
CONTINUOUS
 70
0
 71
3
 72
80
 73
76
 74
0
 42
0.0000001
 43
0.0000001
 44
0.0000000001
 40
0.0
 40
0.0
 40
0.0
 40
0.0
 40
0.0000098418
 40
0.0000392203
 40
0.0000881266
 40
0.0001565517
 40
0.0002444867
 40
0.0003519226
 40
0.0006252617
 40
0.0009764979
 40
0.00140556
 40
0.0019123655
 40
0.0024967729
 40
0.003897751
 40
0.0056072106
 40
0.0076237656
 40
0.0099454891
 40
0.0125702791
 40
0.0154959435
 40
0.0187197017
 40
0.0222385451
 40
0.030149098
 40
0.0392010237
 40
0.0493651294
 40
0.0606091845
 40
0.0728992872
 40
0.0862001575
 40
0.115685081
 40
0.1487563401
 40
0.1850911763
 40
0.224352124
 40
0.2661848794
 40
0.310214928
 40
0.3560445337
 40
0.403251776
 40
0.4999954992
 40
0.5486074429
 40
0.596747968
 40
0.6439552014
 40
0.6897848014
 40
0.7338148403
 40
0.7756475647
 40
0.8149085173
 40
0.8512433211
 40
0.8843145883
 40
0.8995250585
 40
0.9137997525
 40
0.9271006602
 40
0.9393908185
 40
0.9506348586
 40
0.960798905
 40
0.9698510069
 40
0.9777616926
 40
0.9812804285
 40
0.9845040563
 40
0.9874296772
 40
0.9900545879
 40
0.9923765436
 40
0.9943933611
 40
0.9961030465
 40
0.996842256
 40
0.9975041511
 40
0.9980885628
 40
0.9985953216
 40
0.999024284
 40
0.9993753809
 40
0.9995217124
 40
0.9996485566
 40
0.9997559066
 40
0.9998437555
 40
0.9999120962
 40
0.9999609218
 40
0.9999780143
 40
0.9999902254
 40
1.0
 40
1.0
 40
1.0
 40
1.0
 10
6.6047173517
 20
2.1837704061
 30
0.0
 10
6.604718212
 20
2.1837700515
 30
0.0
 10
6.6047218493
 20
2.1837692319
 30
0.0
 10
6.6047297716
 20
2.1837666792
 30
0.0
 10
6.6047431311
 20
2.1837629158
 30
0.0
 10
6.604761746
 20
2.1837574339
 30
0.0
 10
6.6047857038
 20
2.1837504901
 30
0.0
 10
6.6048282606
 20
2.1837381244
 30
0.0
 10
6.6048947457
 20
2.1837188817
 30
0.0
 10
6.6049904623
 20
2.1836912557
 30
0.0
 10
6.6051074192
 20
2.1836576154
 30
0.0
 10
6.6052455981
 20
2.1836180004
 30
0.0
 10
6.6054721635
 20
2.1835532279
 30
0.0
 10
6.6058081593
 20
2.1834575382
 30
0.0
 10
6.606274529
 20
2.1833252496
 30
0.0
 10
6.606824801
 20
2.1831697261
 30
0.0
 10
6.6074585557
 20
2.1829913681
 30
0.0
 10
6.608175302
 20
2.1827906051
 30
0.0
 10
6.6089744654
 20
2.1825678702
 30
0.0
 10
6.609855467
 20
2.1823239037
 30
0.0
 10
6.6111914325
 20
2.1819567807
 30
0.0
 10
6.6130605463
 20
2.1814501333
 30
0.0
 10
6.6155392626
 20
2.1807908684
 30
0.0
 10
6.6183264283
 20
2.1800651916
 30
0.0
 10
6.6214147734
 20
2.1792813295
 30
0.0
 10
6.624796231
 20
2.1784470053
 30
0.0
 10
6.6298609977
 20
2.1772357494
 30
0.0
 10
6.6368566873
 20
2.1756515841
 30
0.0
 10
6.646011563
 20
2.1737469623
 30
0.0
 10
6.6561104157
 20
2.1718502085
 30
0.0
 10
6.667064564
 20
2.1700319441
 30
0.0
 10
6.6787775891
 20
2.1683595092
 30
0.0
 10
6.6911442344
 20
2.1668951245
 30
0.0
 10
6.7040499383
 20
2.1656937354
 30
0.0
 10
6.7219554746
 20
2.1644936251
 30
0.0
 10
6.740166714
 20
2.1640037573
 30
0.0
 10
6.7584622132
 20
2.1642510677
 30
0.0
 10
6.7720645628
 20
2.164800946
 30
0.0
 10
6.7853848199
 20
2.1656938195
 30
0.0
 10
6.7982904391
 20
2.1668950731
 30
0.0
 10
6.8106570746
 20
2.1683596993
 30
0.0
 10
6.8223701287
 20
2.1700318582
 30
0.0
 10
6.8333242386
 20
2.1718503596
 30
0.0
 10
6.8434231151
 20
2.1737468833
 30
0.0
 10
6.8512565465
 20
2.1753767057
 30
0.0
 10
6.8570306062
 20
2.1766598324
 30
0.0
 10
6.8609724121
 20
2.1775702073
 30
0.0
 10
6.8646384534
 20
2.1784470024
 30
0.0
 10
6.8680198948
 20
2.179281417
 30
0.0
 10
6.8711082385
 20
2.1800652763
 30
0.0
 10
6.8738954675
 20
2.1807907491
 30
0.0
 10
6.8763741454
 20
2.1814502536
 30
0.0
 10
6.8782432077
 20
2.181957161
 30
0.0
 10
6.8795792169
 20
2.1823240869
 30
0.0
 10
6.8804602398
 20
2.1825678767
 30
0.0
 10
6.8812594212
 20
2.1827905288
 30
0.0
 10
6.8819761638
 20
2.1829914139
 30
0.0
 10
6.8826099098
 20
2.1831700174
 30
0.0
 10
6.8831601693
 20
2.1833258354
 30
0.0
 10
6.8835663239
 20
2.183441282
 30
0.0
 10
6.8838491915
 20
2.1835219031
 30
0.0
 10
6.8840297152
 20
2.1835734364
 30
0.0
 10
6.8841890875
 20
2.1836189957
 30
0.0
 10
6.8843272717
 20
2.1836585433
 30
0.0
 10
6.8844442403
 20
2.1836920445
 30
0.0
 10
6.8845284417
 20
2.1837161802
 30
0.0
 10
6.8845851809
 20
2.1837324527
 30
0.0
 10
6.8846197642
 20
2.1837423777
 30
0.0
 10
6.8846490349
 20
2.1837507731
 30
0.0
 10
6.8846729781
 20
2.1837576663
 30
0.0
 10
6.8846916276
 20
2.1837629778
 30
0.0
 10
6.8847037901
 20
2.1837665684
 30
0.0
 10
6.8847109411
 20
2.1837684963
 30
0.0
 10
6.8847144021
 20
2.1837697161
 30
0.0
 10
6.884716574
 20
2.1837699068
 30
0.0
 10
6.8847173517
 20
2.1837704061
 30
0.0
  0
SPLINE
  5
26D
100
AcDbEntity
  8
0
100
AcDbSpline
 62
7
  6
CONTINUOUS
 70
0
 71
3
 72
67
 73
63
 74
0
 42
0.0000001
 43
0.0000001
 44
0.0000000001
 40
0.0
 40
0.0
 40
0.0
 40
0.0
 40
0.0177939774
 40
0.0353581061
 40
0.0526913269
 40
0.0697961172
 40
0.0866782965
 40
0.1033449874
 40
0.1198053993
 40
0.136069327
 40
0.1521472543
 40
0.1680499832
 40
0.1837882927
 40
0.1993728676
 40
0.2301174489
 40
0.2603695955
 40
0.2753372507
 40
0.290210282
 40
0.3197057142
 40
0.3489348179
 40
0.3779803976
 40
0.4069531643
 40
0.4360589091
 40
0.4508157877
 40
0.4659351188
 40
0.4737708058
 40
0.4819519023
 40
0.4862303839
 40
0.4906734566
 40
0.4952824848
 40
0.4976337272
 40
0.5000006113
 40
0.5093251253
 40
0.5115699092
 40
0.5137698188
 40
0.5180483734
 40
0.5262285484
 40
0.5340641979
 40
0.5416903049
 40
0.5491843996
 40
0.5639409756
 40
0.5930467931
 40
0.6220195763
 40
0.6510651545
 40
0.6802942556
 40
0.7097896894
 40
0.7246627225
 40
0.7396303775
 40
0.7698825267
 40
0.8006271203
 40
0.8162117006
 40
0.831950011
 40
0.8478527394
 40
0.863930667
 40
0.8801945973
 40
0.8966550096
 40
0.913321701
 40
0.9302038815
 40
0.9473086735
 40
0.9646418956
 40
0.9822060234
 40
1.0
 40
1.0
 40
1.0
 40
1.0
 10
6.8847300218
 20
2.1873244022
 30
0.0
 10
6.8904060674
 20
2.1897153073
 30
0.0
 10
6.9015688432
 20
2.1947470832
 30
0.0
 10
6.9178172561
 20
2.2030453219
 30
0.0
 10
6.9334466711
 20
2.2119865879
 30
0.0
 10
6.9484466136
 20
2.2215135104
 30
0.0
 10
6.9628136941
 20
2.2315727659
 30
0.0
 10
6.976549608
 20
2.2421150232
 30
0.0
 10
6.9896596613
 20
2.2530952115
 30
0.0
 10
7.0021519173
 20
2.2644724831
 30
0.0
 10
7.0140366037
 20
2.2762095185
 30
0.0
 10
7.0253247721
 20
2.2882729309
 30
0.0
 10
7.0360288399
 20
2.3006324211
 30
0.0
 10
7.0494759414
 20
2.3173923534
 30
0.0
 10
7.0649201017
 20
2.3389657852
 30
0.0
 10
7.0786936668
 20
2.3613890251
 30
0.0
 10
7.0886634155
 20
2.3796478751
 30
0.0
 10
7.097901453
 20
2.397994694
 30
0.0
 10
7.1082359883
 20
2.4212998587
 30
0.0
 10
7.1187629095
 20
2.4498185163
 30
0.0
 10
7.1274415615
 20
2.4787639482
 30
0.0
 10
7.1343219922
 20
2.5081435017
 30
0.0
 10
7.1385726442
 20
2.5330103869
 30
0.0
 10
7.1410895453
 20
2.553272718
 30
0.0
 10
7.1422932852
 20
2.5662728925
 30
0.0
 10
7.143025883
 20
2.5770255443
 30
0.0
 10
7.1433809833
 20
2.5840418156
 30
0.0
 10
7.1435977607
 20
2.5898884044
 30
0.0
 10
7.1437223644
 20
2.5945009403
 30
0.0
 10
7.1437864667
 20
2.5984475559
 30
0.0
 10
7.1438130174
 20
2.6016758809
 30
0.0
 10
7.1438278334
 20
2.6065364639
 30
0.0
 10
7.1437733141
 20
2.6113604102
 30
0.0
 10
7.1436584303
 20
2.6161249789
 30
0.0
 10
7.1435692133
 20
2.6191430668
 30
0.0
 10
7.1433810534
 20
2.6242134574
 30
0.0
 10
7.1430258274
 20
2.6312293931
 30
0.0
 10
7.1424695466
 20
2.639394052
 30
0.0
 10
7.1417997784
 20
2.6473118592
 30
0.0
 10
7.1407642668
 20
2.657601579
 30
0.0
 10
7.1385724992
 20
2.6752445447
 30
0.0
 10
7.1343220385
 20
2.7001112272
 30
0.0
 10
7.1274415603
 20
2.7294908556
 30
0.0
 10
7.1187629184
 20
2.7584362797
 30
0.0
 10
7.1082359895
 20
2.786954938
 30
0.0
 10
7.0979014536
 20
2.8102601016
 30
0.0
 10
7.0886634115
 20
2.8286069196
 30
0.0
 10
7.0786936578
 20
2.8468657684
 30
0.0
 10
7.0649200848
 20
2.8692890095
 30
0.0
 10
7.0494759171
 20
2.8908624445
 30
0.0
 10
7.0360288095
 20
2.9076223802
 30
0.0
 10
7.0253247378
 20
2.9199818696
 30
0.0
 10
7.014036569
 20
2.932045282
 30
0.0
 10
7.0021518827
 20
2.9437823187
 30
0.0
 10
6.9896596285
 20
2.9551595939
 30
0.0
 10
6.9765495723
 20
2.9661397808
 30
0.0
 10
6.962813655
 20
2.9766820347
 30
0.0
 10
6.9484465777
 20
2.9867412965
 30
0.0
 10
6.9334466416
 20
2.9962682318
 30
0.0
 10
6.9178172308
 20
3.0052095072
 30
0.0
 10
6.9015688094
 20
3.0135077299
 30
0.0
 10
6.8904060261
 20
3.0185394874
 30
0.0
 10
6.884729979
 20
3.0209303881
 30
0.0
  0
SPLINE
  5
26E
100
AcDbEntity
  8
0
100
AcDbSpline
 62
7
  6
CONTINUOUS
 70
0
 71
3
 72
47
 73
43
 74
0
 42
0.0000001
 43
0.0000001
 44
0.0000000001
 40
0.0
 40
0.0
 40
0.0
 40
0.0
 40
0.0365063196
 40
0.0718184706
 40
0.1060026394
 40
0.1391484529
 40
0.1713560135
 40
0.2027273651
 40
0.2333622847
 40
0.2633576649
 40
0.292807502
 40
0.3218038589
 40
0.350441079
 40
0.3788253878
 40
0.407099438
 40
0.4355255001
 40
0.4499879685
 40
0.4648995736
 40
0.4727018524
 40
0.480950071
 40
0.4899668064
 40
0.4999794385
 40
0.5100206117
 40
0.5190779591
 40
0.5273518046
 40
0.5351672184
 40
0.5500927306
 40
0.5645615174
 40
0.5929914217
 40
0.6212653739
 40
0.6496476865
 40
0.6782817394
 40
0.7072739097
 40
0.7367185976
 40
0.7667078741
 40
0.7973357281
 40
0.8286990213
 40
0.8608974527
 40
0.8940330692
 40
0.9282060604
 40
0.9635062002
 40
1.0
 40
1.0
 40
1.0
 40
1.0
 10
6.5741536496
 20
2.9611828006
 30
0.0
 10
6.5643243951
 20
2.956537938
 30
0.0
 10
6.5453516128
 20
2.9466049409
 30
0.0
 10
6.5186251048
 20
2.9297480816
 30
0.0
 10
6.4940921497
 20
2.9114642462
 30
0.0
 10
6.471705402
 20
2.8919940666
 30
0.0
 10
6.4513929782
 20
2.8715359258
 30
0.0
 10
6.4330755822
 20
2.8502535282
 30
0.0
 10
6.4166730951
 20
2.8282813524
 30
0.0
 10
6.4021093512
 20
2.8057293605
 30
0.0
 10
6.3893146715
 20
2.7826865066
 30
0.0
 10
6.378227068
 20
2.7592228959
 30
0.0
 10
6.3687925225
 20
2.7353888702
 30
0.0
 10
6.3609646311
 20
2.7112062371
 30
0.0
 10
6.3547027053
 20
2.6866372584
 30
0.0
 10
6.3507825554
 20
2.6657948852
 30
0.0
 10
6.3484224784
 20
2.6487422717
 30
0.0
 10
6.3472712784
 20
2.6377288022
 30
0.0
 10
6.3465540057
 20
2.6285359071
 30
0.0
 10
6.3461142932
 20
2.6210834167
 30
0.0
 10
6.3458060179
 20
2.6129654138
 30
0.0
 10
6.3456874473
 20
2.6043081087
 30
0.0
 10
6.3457969747
 20
2.5956385797
 30
0.0
 10
6.3460986842
 20
2.5874920745
 30
0.0
 10
6.3465336598
 20
2.5800156224
 30
0.0
 10
6.3472452733
 20
2.570806553
 30
0.0
 10
6.3483897143
 20
2.559782383
 30
0.0
 10
6.3507392419
 20
2.5427210736
 30
0.0
 10
6.3546462044
 20
2.5218731669
 30
0.0
 10
6.3608921895
 20
2.4972995937
 30
0.0
 10
6.3687037464
 20
2.473113329
 30
0.0
 10
6.3781215097
 20
2.449275667
 30
0.0
 10
6.3891918194
 20
2.4258080174
 30
0.0
 10
6.4019686046
 20
2.4027605048
 30
0.0
 10
6.4165137767
 20
2.3802030357
 30
0.0
 10
6.432896943
 20
2.3582243525
 30
0.0
 10
6.4511942151
 20
2.3369341969
 30
0.0
 10
6.4714856819
 20
2.3164667816
 30
0.0
 10
6.4938506688
 20
2.2969854752
 30
0.0
 10
6.5183612101
 20
2.2786882684
 30
0.0
 10
6.5450649641
 20
2.2618153452
 30
0.0
 10
6.5640228833
 20
2.2518697878
 30
0.0
 10
6.5738447889
 20
2.2472181094
 30
0.0
  0
SPLINE
  5
26F
100
AcDbEntity
  8
0
100
AcDbSpline
 62
7
  6
CONTINUOUS
 70
0
 71
3
 72
47
 73
43
 74
0
 42
0.0000001
 43
0.0000001
 44
0.0000000001
 40
0.0
 40
0.0
 40
0.0
 40
0.0
 40
0.0364938059
 40
0.0717939438
 40
0.105966928
 40
0.1391025477
 40
0.1713009676
 40
0.2026642251
 40
0.2332920676
 40
0.2632813533
 40
0.2927260485
 40
0.3217182119
 40
0.3503522486
 40
0.3787345921
 40
0.4070085227
 40
0.4354385455
 40
0.4499070459
 40
0.4648325347
 40
0.4726489386
 40
0.4809214762
 40
0.4899783001
 40
0.5000218476
 40
0.5100323931
 40
0.5190491474
 40
0.5272988385
 40
0.5351001974
 40
0.5500118127
 40
0.5644745625
 40
0.5929004953
 40
0.6211745625
 40
0.6495588367
 40
0.6781960692
 40
0.7071924307
 40
0.7366422616
 40
0.7666376362
 40
0.7972725741
 40
0.8286439645
 40
0.8608515329
 40
0.8939973395
 40
0.9281815196
 40
0.9634936795
 40
1.0
 40
1.0
 40
1.0
 40
1.0
 10
6.9155895639
 20
2.2472179435
 30
0.0
 10
6.925411487
 20
2.251869619
 30
0.0
 10
6.9443694389
 20
2.2618151709
 30
0.0
 10
6.9710732374
 20
2.2786880919
 30
0.0
 10
6.995583819
 20
2.2969853017
 30
0.0
 10
7.0179488421
 20
2.3164666129
 30
0.0
 10
7.0382403342
 20
2.3369340322
 30
0.0
 10
7.0565376305
 20
2.3582241874
 30
0.0
 10
7.072920821
 20
2.3802028787
 30
0.0
 10
7.0874660196
 20
2.4027603701
 30
0.0
 10
7.1002428285
 20
2.4258079081
 30
0.0
 10
7.1113131553
 20
2.4492755782
 30
0.0
 10
7.1207309367
 20
2.4731132679
 30
0.0
 10
7.1285425036
 20
2.4972995586
 30
0.0
 10
7.1347885085
 20
2.5218731968
 30
0.0
 10
7.1386954585
 20
2.5427210741
 30
0.0
 10
7.1410449825
 20
2.5597823462
 30
0.0
 10
7.1421894727
 20
2.5708067286
 30
0.0
 10
7.1429010166
 20
2.5800157124
 30
0.0
 10
7.143336006
 20
2.5874919209
 30
0.0
 10
7.1436377796
 20
2.5956385954
 30
0.0
 10
7.1437472659
 20
2.604308066
 30
0.0
 10
7.1436286391
 20
2.6129654709
 30
0.0
 10
7.1433204078
 20
2.6210833071
 30
0.0
 10
7.1428807272
 20
2.6285359793
 30
0.0
 10
7.1421633778
 20
2.6377290475
 30
0.0
 10
7.1410122172
 20
2.6487423452
 30
0.0
 10
7.1386521286
 20
2.665795027
 30
0.0
 10
7.1347319488
 20
2.6866374708
 30
0.0
 10
7.1284700169
 20
2.7112064335
 30
0.0
 10
7.120642102
 20
2.7353890887
 30
0.0
 10
7.1112075336
 20
2.7592231321
 30
0.0
 10
7.1001198995
 20
2.7826867657
 30
0.0
 10
7.0873251888
 20
2.8057296354
 30
0.0
 10
7.0727614072
 20
2.8282816428
 30
0.0
 10
7.0563588733
 20
2.8502538431
 30
0.0
 10
7.0380414194
 20
2.8715362601
 30
0.0
 10
7.0177289363
 20
2.8919944063
 30
0.0
 10
6.9953421355
 20
2.9114645835
 30
0.0
 10
6.9708091228
 20
2.9297484087
 30
0.0
 10
6.9440825532
 20
2.9466052516
 30
0.0
 10
6.9251097297
 20
2.9565382308
 30
0.0
 10
6.9152804558
 20
2.9611830829
 30
0.0
  0
LINE
  5
270
100
AcDbEntity
  8
0
100
AcDbLine
 62
7
  6
CONTINUOUS
 10
6.9006470234
 20
2.6453772948
 11
6.900684434
 21
2.6450722625
  0
LINE
  5
271
100
AcDbEntity
  8
0
100
AcDbLine
 62
7
  6
CONTINUOUS
 10
6.5887502694
 20
2.6450722625
 11
6.58878768
 21
2.6453772951
  0
SPLINE
  5
272
100
AcDbEntity
  8
0
100
AcDbSpline
 62
7
  6
CONTINUOUS
 70
0
 71
3
 72
29
 73
25
 74
0
 42
0.0000001
 43
0.0000001
 44
0.0000000001
 40
0.0
 40
0.0
 40
0.0
 40
0.0
 40
0.2268570464
 40
0.4269383928
 40
0.5165277763
 40
0.5989398404
 40
0.6740220145
 40
0.7416310863
 40
0.8016343938
 40
0.8539047833
 40
0.8983332408
 40
0.9175738701
 40
0.9348167701
 40
0.9500541969
 40
0.9632786564
 40
0.9744826511
 40
0.9836588703
 40
0.9908022674
 40
0.9936105434
 40
0.9959092814
 40
0.9976980389
 40
0.9989763732
 40
0.9997438413
 40
1.0
 40
1.0
 40
1.0
 40
1.0
 10
6.8847215052
 20
2.249113866
 30
0.0
 10
6.8859647752
 20
2.2496689308
 30
0.0
 10
6.8882985029
 20
2.2507272058
 30
0.0
 10
6.8911077123
 20
2.2520384125
 30
0.0
 10
6.8931242656
 20
2.2529978743
 30
0.0
 10
6.8944605412
 20
2.2536409202
 30
0.0
 10
6.895675571
 20
2.2542316631
 30
0.0
 10
6.8967676968
 20
2.2547675879
 30
0.0
 10
6.8977353221
 20
2.2552464234
 30
0.0
 10
6.8985770582
 20
2.255665961
 30
0.0
 10
6.8991990608
 20
2.2559779126
 30
0.0
 10
6.8996328286
 20
2.2561962462
 30
0.0
 10
6.89991
 20
2.2563360165
 30
0.0
 10
6.9001548358
 20
2.2564597172
 30
0.0
 10
6.9003672389
 20
2.2565672372
 30
0.0
 10
6.9005471165
 20
2.2566584639
 30
0.0
 10
6.9006943812
 20
2.2567333042
 30
0.0
 10
6.9007966928
 20
2.2567853809
 30
0.0
 10
6.9008621821
 20
2.2568187996
 30
0.0
 10
6.900899066
 20
2.2568375794
 30
0.0
 10
6.9009276883
 20
2.2568523265
 30
0.0
 10
6.9009483045
 20
2.2568625925
 30
0.0
 10
6.900960381
 20
2.2568692628
 30
0.0
 10
6.9009660781
 20
2.2568716765
 30
0.0
 10
6.9009673517
 20
2.2568725377
 30
0.0
  0
SPLINE
  5
273
100
AcDbEntity
  8
0
100
AcDbSpline
 62
7
  6
CONTINUOUS
 70
0
 71
3
 72
31
 73
27
 74
0
 42
0.0000001
 43
0.0000001
 44
0.0000000001
 40
0.0
 40
0.0
 40
0.0
 40
0.0
 40
0.0002559888
 40
0.000575677
 40
0.0010230963
 40
0.0023009332
 40
0.0040891105
 40
0.0063872393
 40
0.0091949307
 40
0.0125117963
 40
0.0163374473
 40
0.0255135223
 40
0.0367182419
 40
0.0499439506
 40
0.0651827632
 40
0.0824267995
 40
0.1016679662
 40
0.1460959095
 40
0.1983650032
 40
0.2583676182
 40
0.3259767226
 40
0.4010593433
 40
0.4834720216
 40
0.5730618703
 40
0.7731432642
 40
1.0
 40
1.0
 40
1.0
 40
1.0
 10
6.5884673517
 20
2.2568725377
 30
0.0
 10
6.5884685795
 20
2.2568716142
 30
0.0
 10
6.5884718763
 20
2.2568703939
 30
0.0
 10
6.5884772301
 20
2.2568674175
 30
0.0
 10
6.5884882249
 20
2.2568619383
 30
0.0
 10
6.5885069575
 20
2.2568522733
 30
0.0
 10
6.5885356588
 20
2.2568376806
 30
0.0
 10
6.5885725121
 20
2.2568188744
 30
0.0
 10
6.5886175583
 20
2.2567959339
 30
0.0
 10
6.5886707768
 20
2.2567688402
 30
0.0
 10
6.5887580716
 20
2.2567244349
 30
0.0
 10
6.58888759
 20
2.2566586215
 30
0.0
 10
6.5890674607
 20
2.256567362
 30
0.0
 10
6.5892798585
 20
2.2564597925
 30
0.0
 10
6.5895246882
 20
2.2563360364
 30
0.0
 10
6.5898018537
 20
2.2561962211
 30
0.0
 10
6.5902356116
 20
2.2559778641
 30
0.0
 10
6.5908576141
 20
2.2556659463
 30
0.0
 10
6.5916993528
 20
2.2552464705
 30
0.0
 10
6.5926669668
 20
2.2547676656
 30
0.0
 10
6.5937590778
 20
2.2542317437
 30
0.0
 10
6.594974091
 20
2.2536409855
 30
0.0
 10
6.5963103477
 20
2.2529979167
 30
0.0
 10
6.5983268721
 20
2.252038435
 30
0.0
 10
6.6011360549
 20
2.2507272486
 30
0.0
 10
6.6034697604
 20
2.2496689961
 30
0.0
 10
6.6047130168
 20
2.249113942
 30
0.0
  0
ENDSEC
  0
SECTION
  2
OBJECTS
  0
DICTIONARY
  5
C
100
AcDbDictionary
280
0
281
1
  3
ACAD_GROUP
350
D
  3
ACAD_MLINESTYLE
350
17
  3
ACAD_LAYOUT
350
1A
  3
ACAD_PLOTSETTINGS
350
19
  3
ACAD_PLOTSTYLENAME
350
E
  0
DICTIONARY
  5
D
102
{ACAD_REACTORS
330
C
102
}
100
AcDbDictionary
280
0
281
1
  0
ACDBDICTIONARYWDFLT
  5
E
102
{ACAD_REACTORS
330
C
102
}
100
AcDbDictionary
281
1
  3
Normal
350
F
100
AcDbDictionaryWithDefault
340
F
  0
DICTIONARY
  5
17
102
{ACAD_REACTORS
330
C
102
}
100
AcDbDictionary
280
0
281
1
  3
Standard
350
18
  0
DICTIONARY
  5
19
102
{ACAD_REACTORS
330
C
102
}
100
AcDbDictionary
281
1
  0
DICTIONARY
  5
1A
102
{ACAD_REACTORS
330
C
102
}
100
AcDbDictionary
281
1
  3
Model
350
274
  3
Layout1
350
275
  0
ACDBPLACEHOLDER
  5
F
102
{ACAD_REACTORS
330
E
102
}
  0
MLINESTYLE
  5
18
102
{ACAD_REACTORS
330
17
102
}
100
AcDbMlineStyle
  2
STANDARD
 70
0
  3

 62
256
 51
90.0
 52
90.0
 71
2
 49
0.5
 62
256
  6
BYLAYER
 49
-0.5
 62
256
  6
BYLAYER
  0
LAYOUT
  5
274
102
{ACAD_REACTORS
330
1A
102
}
100
AcDbPlotSettings
  1

  2
none_device
  4
ANSI_A_(11.00_x_8.50_Inches)
  6

 40
0.0
 41
0.0
 42
0.0
 43
0.0
 44
279.4
 45
215.9
 46
0.0
 47
0.0
 48
0.0
 49
0.0
140
0.0
141
0.0
142
1.0
143
1.0
 70
1024
 72
0
 73
0
 74
0
  7

 75
0
147
1.0
148
0.0
149
0.0
100
AcDbLayout
  1
Model
 70
0
 71
0
 10
0.0
 20
0.0
 11
11.0
 21
8.5
 12
0.0
 22
0.0
 32
0.0
 14
0.0
 24
0.0
 34
0.0
 15
0.0
 25
0.0
 35
0.0
146
0.0
 13
0.0
 23
0.0
 33
0.0
 16
1.0
 26
0.0
 36
0.0
 17
0.0
 27
1.0
 37
0.0
 76
0
330
203
345
0
346
0
  0
LAYOUT
  5
275
102
{ACAD_REACTORS
330
1A
102
}
100
AcDbPlotSettings
  1

  2
none_device
  4
ANSI_A_(11.00_x_8.50_Inches)
  6

 40
0.0
 41
0.0
 42
0.0
 43
0.0
 44
279.4
 45
215.9
 46
0.0
 47
0.0
 48
0.0
 49
0.0
140
0.0
141
0.0
142
1.0
143
1.0
 70
0
 72
0
 73
0
 74
0
  7

 75
0
147
1.0
148
0.0
149
0.0
100
AcDbLayout
  1
Layout1
 70
0
 71
1
 10
0.0
 20
0.0
 11
11.0
 21
8.5
 12
0.0
 22
0.0
 32
0.0
 14
0.0
 24
0.0
 34
0.0
 15
0.0
 25
0.0
 35
0.0
146
0.0
 13
0.0
 23
0.0
 33
0.0
 16
1.0
 26
0.0
 36
0.0
 17
0.0
 27
1.0
 37
0.0
 76
0
330
204
345
0
346
0
  0
ENDSEC
  0
EOF
