999
DXF file: 1500-5462_RIGHT.dxf
999
Pro/ENGINEER 2019352 by Parametric Technology Corporation
  0
SECTION
  2
HEADER
  9
$ACADVER
  1
AC1032
  9
$DWGCODEPAGE
  3
ANSI_1252
  9
$EXTMAX
 10
11.0
 20
8.5
 30
0.0
  9
$EXTMIN
 10
0.0
 20
0.0
 30
0.0
  9
$LIMMIN
 10
0.0
 20
0.0
  9
$LIMMAX
 10
11.0
 20
8.5
  9
$VIEWCTR
 10
5.5
 20
4.25
  9
$VIEWSIZE
 40
8.5
  9
$CLAYER
  8
0
  9
$LTSCALE
 40
0.605
  9
$CELTYPE
  6
BYLAYER
  9
$DIMSCALE
 40
1.0
  9
$DIMASZ
 40
0.1
  9
$DIMEXO
 40
0.0625
  9
$DIMDLI
 40
0.418
  9
$DIMEXE
 40
0.125
  9
$DIMCEN
 40
0.099
  9
$DIMLFAC
 40
1.0
  9
$DIMBLK
  1
_FILLED
  9
$DIMALT
 70
1
  9
$DIMALTD
 70
2
  9
$DIMALTTD
 70
2
  9
$DIMALTF
 40
25.4
  9
$DIMTXT
 40
0.08
  9
$DIMTOL
 70
1
  9
$DIMLIM
 70
0
  9
$DIMTFAC
 40
1.0
  9
$DIMTP
 40
0.001
  9
$DIMTM
 40
0.001
  9
$DIMGAP
 40
0.09
  9
$DIMDSEP
 70
46
  9
$AUNITS
 70
0
  9
$PDMODE
 70
3
  9
$PDSIZE
 40
0.3125
  9
$HANDSEED
  5
2A9
  9
$TILEMODE
 70
1
  9
$MEASUREMENT
 70
0
  9
$INSUNITS
 70
1
  0
ENDSEC
  0
SECTION
  2
CLASSES
  0
CLASS
  1
ACDBDICTIONARYWDFLT
  2
AcDbDictionaryWithDefault
  3
AutoCAD 2000
 90
0
 91
1
280
0
281
0
  0
CLASS
  1
ACDBPLACEHOLDER
  2
AcDbPlaceHolder
  3
AutoCAD 2000
 90
0
 91
1
280
0
281
0
  0
CLASS
  1
LAYOUT
  2
AcDbLayout
  3
AutoCAD 2000
 90
0
 91
0
280
0
281
0
  0
ENDSEC
  0
SECTION
  2
TABLES
  0
TABLE
  2
VPORT
  5
8
100
AcDbSymbolTable
 70
2
  0
VPORT
  5
1F4
100
AcDbSymbolTableRecord
100
AcDbViewportTableRecord
  2
*ACTIVE
 70
0
 10
0.0
 20
0.0
 11
1.0
 21
1.0
 12
5.5
 22
4.25
 13
0.0
 23
0.0
 14
1.0
 24
1.0
 15
0.0
 25
0.0
 16
0.0
 26
0.0
 36
1.0
 17
0.0
 27
0.0
 37
0.0
 40
8.5
 41
1.2941176471
 42
50.0
 43
0.0
 44
0.0
 50
0.0
 51
0.0
 71
0
 72
100
 73
1
 74
1
 75
0
 76
0
 77
0
 78
0
  0
ENDTAB
  0
TABLE
  2
LTYPE
  5
5
100
AcDbSymbolTable
 70
6
  0
LTYPE
  5
14
100
AcDbSymbolTableRecord
100
AcDbLinetypeTableRecord
  2
BYBLOCK
 70
0
  3

 72
65
 73
0
 40
0.0
  0
LTYPE
  5
15
100
AcDbSymbolTableRecord
100
AcDbLinetypeTableRecord
  2
BYLAYER
 70
0
  3

 72
65
 73
0
 40
0.0
  0
LTYPE
  5
16
100
AcDbSymbolTableRecord
100
AcDbLinetypeTableRecord
  2
CONTINUOUS
 70
64
  3
Solid line
 72
65
 73
0
 40
0.0
  0
LTYPE
  5
1F5
100
AcDbSymbolTableRecord
100
AcDbLinetypeTableRecord
  2
CENTER
 70
64
  3
____ _ ____ _ ____ _ ____ _ ____ _ ____ _ ____
 72
65
 73
4
 40
0.6
 49
0.375
 74
0
 49
-0.075
 74
0
 49
0.075
 74
0
 49
-0.075
 74
0
  0
LTYPE
  5
1F6
100
AcDbSymbolTableRecord
100
AcDbLinetypeTableRecord
  2
HIDDEN
 70
64
  3
- - - - - - - - - - - - - - - - - - - -
 72
65
 73
2
 40
0.2
 49
0.1
 74
0
 49
-0.1
 74
0
  0
LTYPE
  5
1F7
100
AcDbSymbolTableRecord
100
AcDbLinetypeTableRecord
  2
PHANTOM
 70
64
  3
_____ _ _ _____ _ _ _____ _ _ _____
 72
65
 73
6
 40
0.8
 49
0.45
 74
0
 49
-0.05
 74
0
 49
0.1
 74
0
 49
-0.05
 74
0
 49
0.1
 74
0
 49
-0.05
 74
0
  0
LTYPE
  5
1F8
100
AcDbSymbolTableRecord
100
AcDbLinetypeTableRecord
  2
DOT
 70
64
  3
. . . . . . . . . . . . . . . . . . . .
 72
65
 73
2
 40
0.2
 49
0.1
 74
0
 49
-0.1
 74
0
  0
LTYPE
  5
1F9
100
AcDbSymbolTableRecord
100
AcDbLinetypeTableRecord
  2
DASHED
 70
64
  3
- - - - - - - - - - - - - - - - - - - -
 72
65
 73
2
 40
0.2
 49
0.1
 74
0
 49
-0.1
 74
0
  0
ENDTAB
  0
TABLE
  2
LAYER
  5
2
100
AcDbSymbolTable
 70
36
  0
LAYER
  5
10
100
AcDbSymbolTableRecord
100
AcDbLayerTableRecord
  2
0
 70
0
 62
7
  6
CONTINUOUS
370
-3
390
F
  0
LAYER
  5
1FA
100
AcDbSymbolTableRecord
100
AcDbLayerTableRecord
  2
DEFAULT_1
 70
0
 62
7
  6
CENTER
370
-3
390
F
  0
LAYER
  5
1FB
100
AcDbSymbolTableRecord
100
AcDbLayerTableRecord
  2
DEFAULT_2
 70
0
 62
8
  6
HIDDEN
370
-3
390
F
  0
LAYER
  5
1FC
100
AcDbSymbolTableRecord
100
AcDbLayerTableRecord
  2
DEFAULT_3
 70
0
 62
7
  6
PHANTOM
370
-3
390
F
  0
LAYER
  5
1FD
100
AcDbSymbolTableRecord
100
AcDbLayerTableRecord
  2
DEFAULT_COORDINATE_SYSTEM
 70
0
 62
7
  6
CONTINUOUS
370
-3
390
F
  0
LAYER
  5
1FE
100
AcDbSymbolTableRecord
100
AcDbLayerTableRecord
  2
DEFAULT_DATUM_AXES
 70
0
 62
7
  6
CONTINUOUS
370
-3
390
F
  0
LAYER
  5
1FF
100
AcDbSymbolTableRecord
100
AcDbLayerTableRecord
  2
DEFAULT_DATUM_PLANES
 70
0
 62
7
  6
CONTINUOUS
370
-3
390
F
  0
ENDTAB
  0
TABLE
  2
STYLE
  5
3
100
AcDbSymbolTable
 70
1
  0
STYLE
  5
11
100
AcDbSymbolTableRecord
100
AcDbTextStyleTableRecord
  2
STANDARD
 70
0
 40
0.0
 41
0.8
 50
0.0
 71
0
 42
0.2
  3
txt
  4

  0
STYLE
  5
200
100
AcDbSymbolTableRecord
100
AcDbTextStyleTableRecord
  2
TEXTSTYLE_1
 70
0
 40
0.0
 41
0.8
 50
0.0
 71
0
 42
0.2
  3
gdt
  4

  0
ENDTAB
  0
TABLE
  2
VIEW
  5
6
100
AcDbSymbolTable
 70
0
  0
ENDTAB
  0
TABLE
  2
UCS
  5
7
100
AcDbSymbolTable
 70
0
  0
ENDTAB
  0
TABLE
  2
APPID
  5
9
100
AcDbSymbolTable
 70
1
  0
APPID
  5
201
100
AcDbSymbolTableRecord
100
AcDbRegAppTableRecord
  2
ACAD
 70
0
  0
ENDTAB
  0
TABLE
  2
BLOCK_RECORD
  5
1
100
AcDbSymbolTable
 70
0
  0
BLOCK_RECORD
  5
202
100
AcDbSymbolTableRecord
100
AcDbBlockTableRecord
  2
*Model_Space
  0
BLOCK_RECORD
  5
203
100
AcDbSymbolTableRecord
100
AcDbBlockTableRecord
  2
*Paper_Space
  0
BLOCK_RECORD
  5
204
100
AcDbSymbolTableRecord
100
AcDbBlockTableRecord
  2
_FILLED
  0
ENDTAB
  0
TABLE
  2
DIMSTYLE
  5
A
100
AcDbSymbolTable
 70
1
100
AcDbDimStyleTable
 71
0
  0
DIMSTYLE
105
205
100
AcDbSymbolTableRecord
100
AcDbDimStyleTableRecord
  2
STANDARD
 70
0
  3

  4

 40
1.0
 41
0.1
 42
0.0625
 43
0.38
 44
0.125
 45
0.0
 46
0.0
 47
0.001
 48
0.001
140
0.08
141
0.09
142
0.0
143
25.4
144
1.0
145
0.0
146
1.0
147
0.09
 71
1.0
 72
0.0
 73
1
 74
1
 75
0
 76
0
 77
0
 78
4
 79
1
170
1
171
2
172
0
173
0
174
0
175
0
176
0
177
0
178
0
270
2
179
3
271
3
272
3
273
2
274
2
275
0
280
0
281
0
282
0
283
1
284
4
285
0
286
0
287
3
288
0
340
11
278
46
341
204
342
204
343
204
344
204
  0
ENDTAB
  0
ENDSEC
  0
SECTION
  2
BLOCKS
  0
BLOCK
  5
20
100
AcDbEntity
  8
0
100
AcDbBlockBegin
  2
*Model_Space
 70
0
 10
0.0
 20
0.0
 30
0.0
  3
*Model_Space
  1

  0
ENDBLK
  5
21
100
AcDbEntity
  8
0
100
AcDbBlockEnd
  0
BLOCK
  5
1C
100
AcDbEntity
  8
0
100
AcDbBlockBegin
  2
*Paper_Space
 70
0
 10
0.0
 20
0.0
 30
0.0
  3
*Paper_Space
  1

  0
ENDBLK
  5
1D
100
AcDbEntity
  8
0
100
AcDbBlockEnd
  0
BLOCK
  5
206
100
AcDbEntity
  8
0
100
AcDbBlockBegin
  2
_FILLED
 70
64
 10
0.0
 20
0.0
  3
_FILLED
  1

  0
SOLID
  5
207
100
AcDbEntity
  8
0
  6
BYBLOCK
 62
0
100
AcDbTrace
 10
0.0
 20
0.0
 11
-1.0
 21
0.2
 12
-1.0
 22
-0.2
 13
-1.0
 23
-0.2
  0
ENDBLK
  5
208
100
AcDbEntity
  8
0
  6
BYBLOCK
 62
0
100
AcDbBlockEnd
  0
ENDSEC
  0
SECTION
  2
ENTITIES
  0
MTEXT
  5
209
100
AcDbEntity
  8
0
100
AcDbMText
 62
2
  6
CONTINUOUS
  7
STANDARD
 71
3
 72
1
 10
5.1209878319
 20
1.1764718841
 30
0.0
 11
1.0
 21
0.0
 31
0.0
 73
2
 44
0.9
  1
SCALE 0.250
 40
0.08
 41
0.704
  0
LINE
  5
20A
100
AcDbEntity
  8
0
100
AcDbLine
 62
7
  6
CONTINUOUS
 10
0.0
 20
0.0
 11
0.0
 21
8.5
  0
LINE
  5
20B
100
AcDbEntity
  8
0
100
AcDbLine
 62
7
  6
CONTINUOUS
 10
0.0
 20
0.0
 11
11.0
 21
0.0
  0
LINE
  5
20C
100
AcDbEntity
  8
0
100
AcDbLine
 62
7
  6
CONTINUOUS
 10
0.0
 20
8.5
 11
11.0
 21
8.5
  0
LINE
  5
20D
100
AcDbEntity
  8
0
100
AcDbLine
 62
7
  6
CONTINUOUS
 10
11.0
 20
0.0
 11
11.0
 21
8.5
  0
LINE
  5
20E
100
AcDbEntity
  8
0
100
AcDbLine
 62
7
  6
CONTINUOUS
 10
5.9011483145
 20
2.1797999895
 11
5.4061483145
 21
2.1797999895
  0
LINE
  5
20F
100
AcDbEntity
  8
0
100
AcDbLine
 62
7
  6
CONTINUOUS
 10
5.4061483145
 20
2.2785499895
 11
5.9011483145
 21
2.2785499895
  0
LINE
  5
210
100
AcDbEntity
  8
0
100
AcDbLine
 62
7
  6
CONTINUOUS
 10
5.4136483145
 20
2.2860499895
 11
5.8936483145
 21
2.2860499895
  0
LINE
  5
211
100
AcDbEntity
  8
0
100
AcDbLine
 62
7
  6
CONTINUOUS
 10
3.4852879356
 20
5.3688546564
 11
3.4711072337
 21
5.2761833545
  0
LINE
  5
212
100
AcDbEntity
  8
0
100
AcDbLine
 62
7
  6
CONTINUOUS
 10
3.3839431861
 20
4.7065637522
 11
3.4695946255
 21
5.2662984156
  0
LINE
  5
213
100
AcDbEntity
  8
0
100
AcDbLine
 62
7
  6
CONTINUOUS
 10
3.4719497653
 20
5.2684671287
 11
3.4728951455
 21
5.2746452155
  0
LINE
  5
214
100
AcDbEntity
  8
0
100
AcDbLine
 62
7
  6
CONTINUOUS
 10
3.4902593028
 20
5.2732526761
 11
3.4900702268
 21
5.2720170587
  0
LINE
  5
215
100
AcDbEntity
  8
0
100
AcDbLine
 62
7
  6
CONTINUOUS
 10
3.7092768592
 20
4.9749577715
 11
3.7099965234
 21
4.9763318964
  0
LINE
  5
216
100
AcDbEntity
  8
0
100
AcDbLine
 62
7
  6
CONTINUOUS
 10
3.7096519862
 20
4.975677563
 11
3.7103503871
 21
4.9769971048
  0
LINE
  5
217
100
AcDbEntity
  8
0
100
AcDbLine
 62
7
  6
CONTINUOUS
 10
3.7103412344
 20
4.9769800653
 11
3.711005501
 21
4.978211687
  0
LINE
  5
218
100
AcDbEntity
  8
0
100
AcDbLine
 62
7
  6
CONTINUOUS
 10
3.7109976722
 20
4.9781973492
 11
3.7116134618
 21
4.979320107
  0
LINE
  5
219
100
AcDbEntity
  8
0
100
AcDbLine
 62
7
  6
CONTINUOUS
 10
3.7116069281
 20
4.9793082725
 11
3.7121709091
 21
4.9803215646
  0
LWPOLYLINE
  5
21A
100
AcDbEntity
  8
0
100
AcDbPolyline
 62
7
  6
CONTINUOUS
 90
10
 70
0
 10
3.7146175093
 20
4.9845618077
 10
3.7146733818
 20
4.9846614292
 10
3.7147246457
 20
4.9847634988
 10
3.714771194
 20
4.9848678034
 10
3.7148129296
 20
4.9849741252
 10
3.7148497652
 20
4.9850822423
 10
3.7148816241
 20
4.9851919291
 10
3.7149084398
 20
4.9853029565
 10
3.7149301562
 20
4.9854150928
 10
3.7149367754
 20
4.9854560712
  0
LINE
  5
21B
100
AcDbEntity
  8
0
100
AcDbLine
 62
7
  6
CONTINUOUS
 10
3.7121655793
 20
4.9803120266
 11
3.7126751116
 21
4.9812153894
  0
LINE
  5
21C
100
AcDbEntity
  8
0
100
AcDbLine
 62
7
  6
CONTINUOUS
 10
3.7126708568
 20
4.9812078974
 11
3.7131241321
 21
4.9820020884
  0
LINE
  5
21D
100
AcDbEntity
  8
0
100
AcDbLine
 62
7
  6
CONTINUOUS
 10
3.7131241321
 20
4.9820020884
 11
3.713688052
 21
4.9829786915
  0
LINE
  5
21E
100
AcDbEntity
  8
0
100
AcDbLine
 62
7
  6
CONTINUOUS
 10
3.713688052
 20
4.9829786915
 11
3.714237012
 21
4.9839176644
  0
LINE
  5
21F
100
AcDbEntity
  8
0
100
AcDbLine
 62
7
  6
CONTINUOUS
 10
3.714237012
 20
4.9839176644
 11
3.7146175093
 21
4.9845618077
  0
LINE
  5
220
100
AcDbEntity
  8
0
100
AcDbLine
 62
7
  6
CONTINUOUS
 10
3.7141414035
 20
4.9841221017
 11
3.7149371127
 21
4.9854560198
  0
LINE
  5
221
100
AcDbEntity
  8
0
100
AcDbLine
 62
7
  6
CONTINUOUS
 10
3.7147333063
 20
4.9851166916
 11
3.7149370271
 21
4.9854558775
  0
LWPOLYLINE
  5
222
100
AcDbEntity
  8
0
100
AcDbPolyline
 62
7
  6
CONTINUOUS
 90
10
 70
0
 10
3.6967099345
 20
4.8663431213
 10
3.6967158763
 20
4.8663842326
 10
3.6967286855
 20
4.8664977312
 10
3.6967362973
 20
4.8666116959
 10
3.6967386958
 20
4.866725889
 10
3.6967358761
 20
4.866840072
 10
3.6967278441
 20
4.8669540067
 10
3.6967146166
 20
4.8670674554
 10
3.6966962212
 20
4.8671801811
 10
3.6966726964
 20
4.8672919487
  0
LINE
  5
223
100
AcDbEntity
  8
0
100
AcDbLine
 62
7
  6
CONTINUOUS
 10
3.7336759224
 20
5.2360046991
 11
3.7334868464
 21
5.2347690818
  0
LINE
  5
224
100
AcDbEntity
  8
0
100
AcDbLine
 62
7
  6
CONTINUOUS
 10
3.6932760265
 20
4.9240259578
 11
3.6944104827
 21
4.931439662
  0
LINE
  5
225
100
AcDbEntity
  8
0
100
AcDbLine
 62
7
  6
CONTINUOUS
 10
3.6933629712
 20
4.9231701573
 11
3.6946206659
 21
4.9314075
  0
LINE
  5
226
100
AcDbEntity
  8
0
100
AcDbLine
 62
7
  6
CONTINUOUS
 10
3.7506619277
 20
5.232140925
 11
3.7497165475
 21
5.2259628382
  0
LINE
  5
227
100
AcDbEntity
  8
0
100
AcDbLine
 62
7
  6
CONTINUOUS
 10
3.7630380968
 20
5.2997973581
 11
3.7528279915
 21
5.2330740207
  0
LINE
  5
228
100
AcDbEntity
  8
0
100
AcDbLine
 62
7
  6
CONTINUOUS
 10
3.6656639438
 20
4.6634544185
 11
3.6967102702
 21
4.8663430699
  0
LINE
  5
229
100
AcDbEntity
  8
0
100
AcDbLine
 62
7
  6
CONTINUOUS
 10
3.7149371128
 20
4.9854560196
 11
3.7513153833
 21
5.2231890819
  0
LINE
  5
22A
100
AcDbEntity
  8
0
100
AcDbLine
 62
7
  6
CONTINUOUS
 10
3.7273466512
 20
4.972429342
 11
3.7124474604
 21
4.8750626941
  0
LINE
  5
22B
100
AcDbEntity
  8
0
100
AcDbLine
 62
7
  6
CONTINUOUS
 10
3.7355119626
 20
4.9642512825
 11
3.7226847032
 21
4.8804247671
  0
LWPOLYLINE
  5
22C
100
AcDbEntity
  8
0
100
AcDbPolyline
 62
7
  6
CONTINUOUS
 90
43
 70
0
 10
3.6946206659
 20
4.9314075
 10
3.6947430987
 20
4.9321907883
 10
3.6949376117
 20
4.9333733147
 10
3.695143801
 20
4.9345561969
 10
3.6953614642
 20
4.9357383731
 10
3.695590505
 20
4.9369194032
 10
3.6958309615
 20
4.9380994581
 10
3.6960826973
 20
4.939277768
 10
3.6963455597
 20
4.9404535118
 10
3.6966195948
 20
4.9416267476
 10
3.6969046054
 20
4.9427968313
 10
3.697200275
 20
4.9439630643
 10
3.6975064583
 20
4.9451254441
 10
3.6978228444
 20
4.946283314
 10
3.6981491138
 20
4.9474360183
 10
3.6984851202
 20
4.9485835119
 10
3.6988305317
 20
4.9497250952
 10
3.6991849951
 20
4.9508600322
 10
3.6995483053
 20
4.9519882197
 10
3.6999200915
 20
4.9531092656
 10
3.7002997902
 20
4.9542222505
 10
3.7006868423
 20
4.9553263313
 10
3.7010808003
 20
4.9564210223
 10
3.7014810607
 20
4.9575054346
 10
3.7018867971
 20
4.9585781486
 10
3.7022974353
 20
4.9596384856
 10
3.7027123741
 20
4.9606857702
 10
3.7031307077
 20
4.9617187158
 10
3.7035518453
 20
4.962736888
 10
3.7039750813
 20
4.9637395942
 10
3.7043993191
 20
4.9647252716
 10
3.7048239153
 20
4.9656934734
 10
3.7052481551
 20
4.9666436025
 10
3.7056708351
 20
4.9675740125
 10
3.7060912695
 20
4.9684842512
 10
3.7065087865
 20
4.969373893
 10
3.7069222269
 20
4.9702414987
 10
3.7073308982
 20
4.9710866497
 10
3.7077341828
 20
4.9719090788
 10
3.7081310756
 20
4.9727077365
 10
3.708520935
 20
4.9734823224
 10
3.7089031582
 20
4.9742326042
 10
3.7092768592
 20
4.9749577715
  0
LINE
  5
22D
100
AcDbEntity
  8
0
100
AcDbLine
 62
7
  6
CONTINUOUS
 10
5.4973983145
 20
3.1535499895
 11
5.8098983145
 21
3.1535499895
  0
LINE
  5
22E
100
AcDbEntity
  8
0
100
AcDbLine
 62
7
  6
CONTINUOUS
 10
5.5048983145
 20
3.1610499895
 11
5.8023983145
 21
3.1610499895
  0
LINE
  5
22F
100
AcDbEntity
  8
0
100
AcDbLine
 62
7
  6
CONTINUOUS
 10
5.4973983145
 20
3.1685499895
 11
5.8098983145
 21
3.1685499895
  0
LINE
  5
230
100
AcDbEntity
  8
0
100
AcDbLine
 62
7
  6
CONTINUOUS
 10
3.69671027
 20
4.8663430691
 11
3.6965863809
 21
4.8668565311
  0
LINE
  5
231
100
AcDbEntity
  8
0
100
AcDbLine
 62
7
  6
CONTINUOUS
 10
3.6967102701
 20
4.8663430698
 11
3.6963644301
 21
4.8677918165
  0
LINE
  5
232
100
AcDbEntity
  8
0
100
AcDbLine
 62
7
  6
CONTINUOUS
 10
3.6966726964
 20
4.8672919487
 11
3.6963939513
 21
4.8684891596
  0
LINE
  5
233
100
AcDbEntity
  8
0
100
AcDbLine
 62
7
  6
CONTINUOUS
 10
3.6963939513
 20
4.8684891596
 11
3.6961836067
 21
4.8694157185
  0
LINE
  5
234
100
AcDbEntity
  8
0
100
AcDbLine
 62
7
  6
CONTINUOUS
 10
3.6961828426
 20
4.8694191278
 11
3.6959177595
 21
4.870615353
  0
LINE
  5
235
100
AcDbEntity
  8
0
100
AcDbLine
 62
7
  6
CONTINUOUS
 10
3.6960129416
 20
4.8701818782
 11
3.6958182587
 21
4.8710736808
  0
LINE
  5
236
100
AcDbEntity
  8
0
100
AcDbLine
 62
7
  6
CONTINUOUS
 10
3.6959190265
 20
4.8706095578
 11
3.6957136026
 21
4.8715617202
  0
LINE
  5
237
100
AcDbEntity
  8
0
100
AcDbLine
 62
7
  6
CONTINUOUS
 10
3.6958197062
 20
4.8710669634
 11
3.6956040191
 21
4.8720795445
  0
LINE
  5
238
100
AcDbEntity
  8
0
100
AcDbLine
 62
7
  6
CONTINUOUS
 10
3.6957152383
 20
4.8715540153
 11
3.6954897591
 21
4.8726271394
  0
LINE
  5
239
100
AcDbEntity
  8
0
100
AcDbLine
 62
7
  6
CONTINUOUS
 10
3.6954917969
 20
4.872617265
 11
3.6952483975
 21
4.8738108106
  0
LINE
  5
23A
100
AcDbEntity
  8
0
100
AcDbLine
 62
7
  6
CONTINUOUS
 10
3.6953733684
 20
4.8731932481
 11
3.694995148
 21
4.8750961097
  0
LINE
  5
23B
100
AcDbEntity
  8
0
100
AcDbLine
 62
7
  6
CONTINUOUS
 10
3.6951219668
 20
4.8744464807
 11
3.6948595919
 21
4.8758042733
  0
LINE
  5
23C
100
AcDbEntity
  8
0
100
AcDbLine
 62
7
  6
CONTINUOUS
 10
3.694995148
 20
4.8750961097
 11
3.6947244853
 21
4.8765258215
  0
LWPOLYLINE
  5
23D
100
AcDbEntity
  8
0
100
AcDbPolyline
 62
7
  6
CONTINUOUS
 90
43
 70
0
 10
3.6947278462
 20
4.8765078983
 10
3.6944524179
 20
4.8780311012
 10
3.6943128413
 20
4.8788331156
 10
3.6941726415
 20
4.8796615869
 10
3.6940324181
 20
4.8805155092
 10
3.6938926672
 20
4.8813944931
 10
3.6937539037
 20
4.8822980594
 10
3.6936167628
 20
4.8832249221
 10
3.6934817436
 20
4.8841746622
 10
3.6933493811
 20
4.8851466618
 10
3.6932203626
 20
4.8861391659
 10
3.6930952088
 20
4.8871515626
 10
3.692974439
 20
4.8881832364
 10
3.6928587119
 20
4.8892322559
 10
3.6927485311
 20
4.8902978408
 10
3.6926443697
 20
4.891379379
 10
3.6925467977
 20
4.8924750521
 10
3.6924562734
 20
4.8935839769
 10
3.6923732232
 20
4.8947055434
 10
3.692298121
 20
4.8958382501
 10
3.6922313476
 20
4.8969812928
 10
3.6921732641
 20
4.8981338938
 10
3.6921242508
 20
4.8992945076
 10
3.6920846352
 20
4.9004621266
 10
3.6920546961
 20
4.9016361741
 10
3.6920346837
 20
4.9028157084
 10
3.6920248302
 20
4.9039996376
 10
3.6920253485
 20
4.9051874688
 10
3.6920364366
 20
4.9063791682
 10
3.6920582508
 20
4.9075739327
 10
3.6920909335
 20
4.9087710135
 10
3.6921346497
 20
4.9099704698
 10
3.6921895123
 20
4.9111715644
 10
3.6922555889
 20
4.9123735398
 10
3.6923329928
 20
4.913576454
 10
3.6924217849
 20
4.9147795811
 10
3.6925219686
 20
4.9159821956
 10
3.6926336093
 20
4.9171843871
 10
3.6927567028
 20
4.918385446
 10
3.6928911943
 20
4.9195846877
 10
3.6930371126
 20
4.9207822596
 10
3.6931944256
 20
4.921977754
 10
3.6933629712
 20
4.9231701573
  0
LINE
  5
23E
100
AcDbEntity
  8
0
100
AcDbLine
 62
7
  6
CONTINUOUS
 10
3.694587338
 20
4.8772753966
 11
3.6944918556
 21
4.8778102878
  0
LINE
  5
23F
100
AcDbEntity
  8
0
100
AcDbLine
 62
7
  6
CONTINUOUS
 10
5.4973983145
 20
3.5447999895
 11
5.8098983145
 21
3.5447999895
  0
LINE
  5
240
100
AcDbEntity
  8
0
100
AcDbLine
 62
7
  6
CONTINUOUS
 10
5.8023983145
 20
3.5522999895
 11
5.5048983145
 21
3.5522999895
  0
LINE
  5
241
100
AcDbEntity
  8
0
100
AcDbLine
 62
7
  6
CONTINUOUS
 10
5.5880233145
 20
3.5600499895
 11
5.7192733145
 21
3.5600499895
  0
LINE
  5
242
100
AcDbEntity
  8
0
100
AcDbLine
 62
7
  6
CONTINUOUS
 10
5.5598983145
 20
3.6850499895
 11
5.7473983145
 21
3.6850499895
  0
LINE
  5
243
100
AcDbEntity
  8
0
100
AcDbLine
 62
7
  6
CONTINUOUS
 10
5.5598983145
 20
3.7044249895
 11
5.3098983145
 21
3.7044249895
  0
LINE
  5
244
100
AcDbEntity
  8
0
100
AcDbLine
 62
7
  6
CONTINUOUS
 10
5.7473983145
 20
3.7044249895
 11
5.9973983145
 21
3.7044249895
  0
LINE
  5
245
100
AcDbEntity
  8
0
100
AcDbLine
 62
7
  6
CONTINUOUS
 10
5.5598983145
 20
3.8156749895
 11
5.3098983145
 21
3.8156749895
  0
LINE
  5
246
100
AcDbEntity
  8
0
100
AcDbLine
 62
7
  6
CONTINUOUS
 10
5.7473983145
 20
3.8156749895
 11
5.9973983145
 21
3.8156749895
  0
LINE
  5
247
100
AcDbEntity
  8
0
100
AcDbLine
 62
7
  6
CONTINUOUS
 10
5.5598983145
 20
3.8350499895
 11
5.7473983145
 21
3.8350499895
  0
LINE
  5
248
100
AcDbEntity
  8
0
100
AcDbLine
 62
7
  6
CONTINUOUS
 10
5.4973983145
 20
3.8410499895
 11
5.8098983145
 21
3.8410499895
  0
LINE
  5
249
100
AcDbEntity
  8
0
100
AcDbLine
 62
7
  6
CONTINUOUS
 10
5.5048983145
 20
3.8485499895
 11
5.8023983145
 21
3.8485499895
  0
LINE
  5
24A
100
AcDbEntity
  8
0
100
AcDbLine
 62
7
  6
CONTINUOUS
 10
5.5111483145
 20
3.8535499895
 11
5.7961483145
 21
3.8535499895
  0
LINE
  5
24B
100
AcDbEntity
  8
0
100
AcDbLine
 62
7
  6
CONTINUOUS
 10
5.5048983145
 20
3.1610499895
 11
5.4973983145
 21
3.1685499895
  0
LINE
  5
24C
100
AcDbEntity
  8
0
100
AcDbLine
 62
7
  6
CONTINUOUS
 10
5.8023983145
 20
3.1610499895
 11
5.8098983145
 21
3.1535499895
  0
LINE
  5
24D
100
AcDbEntity
  8
0
100
AcDbLine
 62
7
  6
CONTINUOUS
 10
3.5427149125
 20
4.6754396937
 11
3.5327446604
 21
4.6769653567
  0
LINE
  5
24E
100
AcDbEntity
  8
0
100
AcDbLine
 62
7
  6
CONTINUOUS
 10
3.4230284491
 20
4.6937542962
 11
3.4716657777
 21
4.6863117391
  0
LINE
  5
24F
100
AcDbEntity
  8
0
100
AcDbLine
 62
7
  6
CONTINUOUS
 10
3.4749407353
 20
4.6858106002
 11
3.4916714855
 21
4.6832504356
  0
LINE
  5
250
100
AcDbEntity
  8
0
100
AcDbLine
 62
7
  6
CONTINUOUS
 10
3.5048501962
 20
4.6812338095
 11
3.5148204484
 21
4.6797081465
  0
LINE
  5
251
100
AcDbEntity
  8
0
100
AcDbLine
 62
7
  6
CONTINUOUS
 10
3.5558936233
 20
4.6734230676
 11
3.5726243735
 21
4.670862903
  0
LINE
  5
252
100
AcDbEntity
  8
0
100
AcDbLine
 62
7
  6
CONTINUOUS
 10
3.575899331
 20
4.6703617641
 11
3.6245366597
 21
4.662919207
  0
LINE
  5
253
100
AcDbEntity
  8
0
100
AcDbLine
 62
7
  6
CONTINUOUS
 10
3.662814557
 20
4.6613613358
 11
3.3860362687
 21
4.7037143655
  0
LINE
  5
254
100
AcDbEntity
  8
0
100
AcDbLine
 62
7
  6
CONTINUOUS
 10
3.6656639438
 20
4.6634544185
 11
3.3839431861
 21
4.7065637522
  0
LINE
  5
255
100
AcDbEntity
  8
0
100
AcDbLine
 62
7
  6
CONTINUOUS
 10
3.6944918648
 20
4.8778102864
 11
3.7124474604
 21
4.8750626941
  0
LINE
  5
256
100
AcDbEntity
  8
0
100
AcDbLine
 62
7
  6
CONTINUOUS
 10
3.6932760265
 20
4.9240259578
 11
3.6934862096
 21
4.9239937953
  0
LINE
  5
257
100
AcDbEntity
  8
0
100
AcDbLine
 62
7
  6
CONTINUOUS
 10
3.6944104827
 20
4.931439662
 11
3.6946206659
 21
4.9314075
  0
LINE
  5
258
100
AcDbEntity
  8
0
100
AcDbLine
 62
7
  6
CONTINUOUS
 10
5.8023983145
 20
3.8485499895
 11
5.8098983145
 21
3.8410499895
  0
LINE
  5
259
100
AcDbEntity
  8
0
100
AcDbLine
 62
7
  6
CONTINUOUS
 10
5.3098983145
 20
3.8156749895
 11
5.3098983145
 21
3.7044249895
  0
LINE
  5
25A
100
AcDbEntity
  8
0
100
AcDbLine
 62
7
  6
CONTINUOUS
 10
3.7093910491
 20
4.9751769352
 11
3.7273466512
 21
4.972429342
  0
LINE
  5
25B
100
AcDbEntity
  8
0
100
AcDbLine
 62
7
  6
CONTINUOUS
 10
5.4061483145
 20
2.1797999895
 11
5.4061483145
 21
2.2785499895
  0
LINE
  5
25C
100
AcDbEntity
  8
0
100
AcDbLine
 62
7
  6
CONTINUOUS
 10
5.4973983145
 20
2.2860499895
 11
5.4973983145
 21
3.7044249895
  0
LINE
  5
25D
100
AcDbEntity
  8
0
100
AcDbLine
 62
7
  6
CONTINUOUS
 10
5.4973983145
 20
3.8156749895
 11
5.4973983145
 21
3.8410499895
  0
LINE
  5
25E
100
AcDbEntity
  8
0
100
AcDbLine
 62
7
  6
CONTINUOUS
 10
5.5111483145
 20
3.8535499895
 11
5.5111483145
 21
5.1930720509
  0
LINE
  5
25F
100
AcDbEntity
  8
0
100
AcDbLine
 62
7
  6
CONTINUOUS
 10
3.7513153833
 20
5.2231890819
 11
3.4695946255
 21
5.2662984156
  0
LINE
  5
260
100
AcDbEntity
  8
0
100
AcDbLine
 62
7
  6
CONTINUOUS
 10
3.7497165475
 20
5.2259628382
 11
3.4719497653
 21
5.2684671287
  0
LINE
  5
261
100
AcDbEntity
  8
0
100
AcDbLine
 62
7
  6
CONTINUOUS
 10
3.7506619277
 20
5.232140925
 11
3.4728951455
 21
5.2746452155
  0
LINE
  5
262
100
AcDbEntity
  8
0
100
AcDbLine
 62
7
  6
CONTINUOUS
 10
3.7528279915
 20
5.2330740207
 11
3.4711072337
 21
5.2761833545
  0
LINE
  5
263
100
AcDbEntity
  8
0
100
AcDbLine
 62
7
  6
CONTINUOUS
 10
5.5598983145
 20
3.6850499895
 11
5.5598983145
 21
3.7044249895
  0
LINE
  5
264
100
AcDbEntity
  8
0
100
AcDbLine
 62
7
  6
CONTINUOUS
 10
5.5598983145
 20
3.8156749895
 11
5.5598983145
 21
3.8350499895
  0
LINE
  5
265
100
AcDbEntity
  8
0
100
AcDbLine
 62
7
  6
CONTINUOUS
 10
5.5880233145
 20
3.5600499895
 11
5.5880233145
 21
3.6850499895
  0
LINE
  5
266
100
AcDbEntity
  8
0
100
AcDbLine
 62
7
  6
CONTINUOUS
 10
5.5048983145
 20
3.8485499895
 11
5.4973983145
 21
3.8410499895
  0
LINE
  5
267
100
AcDbEntity
  8
0
100
AcDbLine
 62
7
  6
CONTINUOUS
 10
5.5111483145
 20
5.1930720509
 11
5.7961483145
 21
5.1930720509
  0
LINE
  5
268
100
AcDbEntity
  8
0
100
AcDbLine
 62
7
  6
CONTINUOUS
 10
3.764553982
 20
5.3261209462
 11
3.4852879356
 21
5.3688546564
  0
LINE
  5
269
100
AcDbEntity
  8
0
100
AcDbLine
 62
7
  6
CONTINUOUS
 10
5.7192733145
 20
3.5600499895
 11
5.7192733145
 21
3.6850499895
  0
LINE
  5
26A
100
AcDbEntity
  8
0
100
AcDbLine
 62
7
  6
CONTINUOUS
 10
5.7473983145
 20
3.6850499895
 11
5.7473983145
 21
3.7044249895
  0
LINE
  5
26B
100
AcDbEntity
  8
0
100
AcDbLine
 62
7
  6
CONTINUOUS
 10
5.7473983145
 20
3.8156749895
 11
5.7473983145
 21
3.8350499895
  0
LINE
  5
26C
100
AcDbEntity
  8
0
100
AcDbLine
 62
7
  6
CONTINUOUS
 10
5.7961483145
 20
3.8535499895
 11
5.7961483145
 21
5.1930720509
  0
LINE
  5
26D
100
AcDbEntity
  8
0
100
AcDbLine
 62
7
  6
CONTINUOUS
 10
5.8098983145
 20
2.2860499895
 11
5.8098983145
 21
3.7044249895
  0
LINE
  5
26E
100
AcDbEntity
  8
0
100
AcDbLine
 62
7
  6
CONTINUOUS
 10
5.8098983145
 20
3.8156749895
 11
5.8098983145
 21
3.8410499895
  0
LINE
  5
26F
100
AcDbEntity
  8
0
100
AcDbLine
 62
7
  6
CONTINUOUS
 10
5.9011483145
 20
2.1797999895
 11
5.9011483145
 21
2.2785499895
  0
LINE
  5
270
100
AcDbEntity
  8
0
100
AcDbLine
 62
7
  6
CONTINUOUS
 10
5.9973983145
 20
3.8156749895
 11
5.9973983145
 21
3.7044249895
  0
LINE
  5
271
100
AcDbEntity
  8
0
100
AcDbLine
 62
7
  6
CONTINUOUS
 10
5.5048983145
 20
3.1610499895
 11
5.4973983145
 21
3.1535499895
  0
LINE
  5
272
100
AcDbEntity
  8
0
100
AcDbLine
 62
7
  6
CONTINUOUS
 10
5.8023983145
 20
3.1610499895
 11
5.8098983145
 21
3.1685499895
  0
ARC
  5
273
100
AcDbEntity
  8
0
100
AcDbCircle
 62
7
  6
CONTINUOUS
 10
4.6340324065
 20
5.1930720509
 40
1.162115908
100
AcDbArc
 50
0.0
 51
171.3
  0
ARC
  5
274
100
AcDbEntity
  8
0
100
AcDbCircle
 62
7
  6
CONTINUOUS
 10
4.6340324061
 20
5.1930720469
 40
0.8771159084
100
AcDbArc
 50
0.0000002644
 51
169.5850167967
  0
ARC
  5
275
100
AcDbEntity
  8
0
100
AcDbCircle
 62
7
  6
CONTINUOUS
 10
3.5946181293
 20
4.9429163877
 40
0.1425
100
AcDbArc
 50
333.9893829162
 51
8.6106170838
  0
ARC
  5
276
100
AcDbEntity
  8
0
100
AcDbCircle
 62
7
  6
CONTINUOUS
 10
3.9040515024
 20
5.304887557
 40
0.1411047154
100
AcDbArc
 50
171.3452480604
 51
182.0673236085
  0
CIRCLE
  5
277
100
AcDbEntity
  8
0
100
AcDbCircle
 62
7
  6
CONTINUOUS
 10
5.6536483145
 20
3.7600499895
 40
0.055625
  0
ARC
  5
278
100
AcDbEntity
  8
0
100
AcDbCircle
 62
7
  6
CONTINUOUS
 10
3.7139222534
 20
4.8847005095
 40
0.00975
100
AcDbArc
 50
261.3
 51
333.9893829162
  0
ARC
  5
279
100
AcDbEntity
  8
0
100
AcDbCircle
 62
7
  6
CONTINUOUS
 10
3.7258718582
 20
4.9627915266
 40
0.00975
100
AcDbArc
 50
8.6106170838
 51
81.3
  0
ARC
  5
27A
100
AcDbEntity
  8
0
100
AcDbCircle
 62
7
  6
CONTINUOUS
 10
5.4136483145
 20
2.2785499895
 40
0.0075
100
AcDbArc
 50
90.0
 51
180.0
  0
ARC
  5
27B
100
AcDbEntity
  8
0
100
AcDbCircle
 62
7
  6
CONTINUOUS
 10
5.8936483145
 20
2.2785499895
 40
0.0075
100
AcDbArc
 50
0.0
 51
90.0
  0
ARC
  5
27C
100
AcDbEntity
  8
0
100
AcDbCircle
 62
7
  6
CONTINUOUS
 10
5.5048983145
 20
3.5447999895
 40
0.0075
100
AcDbArc
 50
90.0
 51
180.0
  0
ARC
  5
27D
100
AcDbEntity
  8
0
100
AcDbCircle
 62
7
  6
CONTINUOUS
 10
5.8023983145
 20
3.5447999895
 40
0.0075
100
AcDbArc
 50
0.0
 51
90.0
  0
ARC
  5
27E
100
AcDbEntity
  8
0
100
AcDbCircle
 62
7
  6
CONTINUOUS
 10
3.3864144208
 20
4.7061856002
 40
0.0025
100
AcDbArc
 50
171.3
 51
261.3
  0
ARC
  5
27F
100
AcDbEntity
  8
0
100
AcDbCircle
 62
7
  6
CONTINUOUS
 10
3.6631927091
 20
4.6638325705
 40
0.0025
100
AcDbArc
 50
261.3
 51
351.3
  0
ARC
  5
280
100
AcDbEntity
  8
0
100
AcDbCircle
 62
7
  6
CONTINUOUS
 10
3.4720658602
 20
5.2659202636
 40
0.0025
100
AcDbArc
 50
84.0272727273
 51
171.3
  0
ARC
  5
281
100
AcDbEntity
  8
0
100
AcDbCircle
 62
7
  6
CONTINUOUS
 10
3.7488441485
 20
5.2235672339
 40
0.0025
100
AcDbArc
 50
351.3
 51
73.1181818182
  0
SPLINE
  5
282
100
AcDbEntity
  8
0
100
AcDbSpline
 62
7
  6
CONTINUOUS
 70
0
 71
3
 72
15
 73
11
 74
0
 42
0.0000001
 43
0.0000001
 44
0.0000000001
 40
0.0
 40
0.0
 40
0.0
 40
0.0
 40
0.1941206746
 40
0.3807876197
 40
0.5529744078
 40
0.704316816
 40
0.8291486607
 40
0.9225193718
 40
0.9803832166
 40
1.0
 40
1.0
 40
1.0
 40
1.0
 10
3.764553982
 20
5.3261209462
 30
0.0
 10
3.7648129361
 20
5.3278132184
 30
0.0
 10
3.7653922694
 20
5.3311223201
 30
0.0
 10
3.7664343656
 20
5.3358877431
 30
0.0
 10
3.7675672802
 20
5.3402433559
 30
0.0
 10
3.7686956239
 20
5.344033808
 30
0.0
 10
3.7697168899
 20
5.3471291183
 30
0.0
 10
3.7705328806
 20
5.3494231284
 30
0.0
 10
3.7710604755
 20
5.3508345384
 30
0.0
 10
3.7713053065
 20
5.3514724825
 30
0.0
 10
3.7713676574
 20
5.3516338586
 30
0.0
  0
SPLINE
  5
283
100
AcDbEntity
  8
0
100
AcDbSpline
 62
7
  6
CONTINUOUS
 70
0
 71
3
 72
27
 73
23
 74
0
 42
0.0000001
 43
0.0000001
 44
0.0000000001
 40
0.0
 40
0.0
 40
0.0
 40
0.0
 40
0.0109767999
 40
0.0427259774
 40
0.0923258818
 40
0.1563344021
 40
0.2316405851
 40
0.3156625231
 40
0.3602260315
 40
0.4060620347
 40
0.4527966543
 40
0.4999999958
 40
0.5472033384
 40
0.5939379594
 40
0.6397739668
 40
0.6843374755
 40
0.768359413
 40
0.8436655966
 40
0.9076741164
 40
0.95727402
 40
0.989023199
 40
1.0
 40
1.0
 40
1.0
 40
1.0
 10
5.5598983145
 20
3.7044249895
 30
0.0
 10
5.5601196187
 20
3.704797975
 30
0.0
 10
5.5609768803
 20
3.7062522479
 30
0.0
 10
5.5627931804
 20
3.7094159783
 30
0.0
 10
5.5655329801
 20
3.7144644968
 30
0.0
 10
5.5688386149
 20
3.7211598874
 30
0.0
 10
5.5722905355
 20
3.7292875814
 30
0.0
 10
5.5748357332
 20
3.7369453301
 30
0.0
 10
5.5764771259
 20
3.7436421714
 30
0.0
 10
5.5774389561
 20
3.7489783683
 30
0.0
 10
5.5780455177
 20
3.7544721569
 30
0.0
 10
5.5782529684
 20
3.760049989
 30
0.0
 10
5.5780455178
 20
3.7656278212
 30
0.0
 10
5.5774389562
 20
3.7711216101
 30
0.0
 10
5.576477126
 20
3.7764578073
 30
0.0
 10
5.5748357333
 20
3.7831546487
 30
0.0
 10
5.5722905356
 20
3.7908123974
 30
0.0
 10
5.568838615
 20
3.7989400915
 30
0.0
 10
5.5655329803
 20
3.8056354821
 30
0.0
 10
5.5627931805
 20
3.8106840005
 30
0.0
 10
5.5609768804
 20
3.813847731
 30
0.0
 10
5.5601196187
 20
3.815302004
 30
0.0
 10
5.5598983145
 20
3.8156749895
 30
0.0
  0
SPLINE
  5
284
100
AcDbEntity
  8
0
100
AcDbSpline
 62
7
  6
CONTINUOUS
 70
0
 71
3
 72
16
 73
12
 74
0
 42
0.0000001
 43
0.0000001
 44
0.0000000001
 40
0.0
 40
0.0
 40
0.0
 40
0.0
 40
0.0854920732
 40
0.170338185
 40
0.3355956838
 40
0.4912716099
 40
0.6334834305
 40
0.7587647662
 40
0.8637826649
 40
0.9452292583
 40
1.0
 40
1.0
 40
1.0
 40
1.0
 10
3.6944104827
 20
4.931439662
 30
0.0
 10
3.6946544944
 20
4.9330341031
 30
0.0
 10
3.6952022253
 20
4.9362018945
 30
0.0
 10
3.6965171074
 20
4.9423968664
 30
0.0
 10
3.698521752
 20
4.9497932954
 30
0.0
 10
3.7013751555
 20
4.9580585892
 30
0.0
 10
3.7044192691
 20
4.9654437423
 30
0.0
 10
3.7074101924
 20
4.9718062806
 30
0.0
 10
3.7101153132
 20
4.977030357
 30
0.0
 10
3.7123241339
 20
4.9810104153
 30
0.0
 10
3.7136152911
 20
4.9832327263
 30
0.0
 10
3.7141414057
 20
4.9841221472
 30
0.0
  0
SPLINE
  5
285
100
AcDbEntity
  8
0
100
AcDbSpline
 62
7
  6
CONTINUOUS
 70
0
 71
3
 72
16
 73
12
 74
0
 42
0.0000001
 43
0.0000001
 44
0.0000000001
 40
0.0
 40
0.0
 40
0.0
 40
0.0
 40
0.0541590148
 40
0.13522094
 40
0.2400633425
 40
0.3653471581
 40
0.5077081536
 40
0.6636516783
 40
0.8292620266
 40
0.9143039681
 40
1.0
 40
1.0
 40
1.0
 40
1.0
 10
3.6963644301
 20
4.8677918165
 30
0.0
 10
3.696130418
 20
4.8687876758
 30
0.0
 10
3.695565446
 20
4.8712786439
 30
0.0
 10
3.694648861
 20
4.8757199254
 30
0.0
 10
3.6936267327
 20
4.8815093829
 30
0.0
 10
3.6926695726
 20
4.8884819237
 30
0.0
 10
3.6919664642
 20
4.8964558405
 30
0.0
 10
3.6917096989
 20
4.9052204738
 30
0.0
 10
3.6920069156
 20
4.9129020825
 30
0.0
 10
3.6926048988
 20
4.9192282206
 30
0.0
 10
3.693031186
 20
4.9224259095
 30
0.0
 10
3.6932760265
 20
4.9240259578
 30
0.0
  0
SPLINE
  5
286
100
AcDbEntity
  8
0
100
AcDbSpline
 62
7
  6
CONTINUOUS
 70
0
 71
3
 72
27
 73
23
 74
0
 42
0.0000001
 43
0.0000001
 44
0.0000000001
 40
0.0
 40
0.0
 40
0.0
 40
0.0
 40
0.0109767994
 40
0.0427259756
 40
0.0923258779
 40
0.1563343956
 40
0.2316405763
 40
0.315662512
 40
0.3602260198
 40
0.406062021
 40
0.452796646
 40
0.4999999962
 40
0.5472033467
 40
0.5939379732
 40
0.6397739783
 40
0.6843374862
 40
0.7683594213
 40
0.8436656027
 40
0.9076741201
 40
0.9572740217
 40
0.9890231995
 40
1.0
 40
1.0
 40
1.0
 40
1.0
 10
5.7473983145
 20
3.8156749895
 30
0.0
 10
5.7471770103
 20
3.815302004
 30
0.0
 10
5.7463197487
 20
3.8138477312
 30
0.0
 10
5.7445034487
 20
3.8106840009
 30
0.0
 10
5.7417636491
 20
3.8056354827
 30
0.0
 10
5.7384580144
 20
3.7989400923
 30
0.0
 10
5.7350060939
 20
3.7908123985
 30
0.0
 10
5.7324608961
 20
3.7831546501
 30
0.0
 10
5.7308195034
 20
3.776457809
 30
0.0
 10
5.729857673
 20
3.771121612
 30
0.0
 10
5.7292511113
 20
3.7656278229
 30
0.0
 10
5.7290436606
 20
3.7600499899
 30
0.0
 10
5.7292511112
 20
3.7544721569
 30
0.0
 10
5.7298576729
 20
3.7489783676
 30
0.0
 10
5.7308195033
 20
3.7436421703
 30
0.0
 10
5.732460896
 20
3.7369453291
 30
0.0
 10
5.7350060938
 20
3.7292875807
 30
0.0
 10
5.7384580143
 20
3.7211598869
 30
0.0
 10
5.7417636489
 20
3.7144644966
 30
0.0
 10
5.7445034486
 20
3.7094159783
 30
0.0
 10
5.7463197486
 20
3.7062522479
 30
0.0
 10
5.7471770103
 20
3.704797975
 30
0.0
 10
5.7473983145
 20
3.7044249895
 30
0.0
  0
ELLIPSE
  5
287
100
AcDbEntity
  8
0
100
AcDbEllipse
 62
7
  6
CONTINUOUS
 10
3.5234764037
 20
4.6763360481
 30
0.0
 11
0.0692031461
 21
-0.0612197985
 31
0.0
 40
0.0717446904
 41
1.5001189359
 42
1.5848321117
  0
ELLIPSE
  5
288
100
AcDbEntity
  8
0
100
AcDbEllipse
 62
7
  6
CONTINUOUS
 10
3.6442049557
 20
4.7314949572
 30
0.0
 11
0.1874623271
 21
0.0845968701
 31
0.0
 40
0.0549449437
 41
-2.1674769265
 42
-2.1197055383
  0
ELLIPSE
  5
289
100
AcDbEntity
  8
0
100
AcDbEllipse
 62
7
  6
CONTINUOUS
 10
3.5234764037
 20
4.6763360481
 30
0.0
 11
0.0689924566
 21
-0.0586123245
 31
0.0
 40
0.2168892597
 41
1.272662537
 42
1.3573757127
  0
ELLIPSE
  5
28A
100
AcDbEntity
  8
0
100
AcDbEllipse
 62
7
  6
CONTINUOUS
 10
3.6334649033
 20
4.7331384162
 30
0.0
 11
0.1793167072
 21
0.0825260034
 31
0.0
 40
0.1730990572
 41
-1.9953170383
 42
-1.9475456502
  0
ELLIPSE
  5
28B
100
AcDbEntity
  8
0
100
AcDbEllipse
 62
7
  6
CONTINUOUS
 10
3.5234764037
 20
4.6763360481
 30
0.0
 11
0.0690019638
 21
-0.0529798586
 31
0.0
 40
0.365809989
 41
1.024197395
 42
1.0465220114
  0
ELLIPSE
  5
28C
100
AcDbEntity
  8
0
100
AcDbEllipse
 62
7
  6
CONTINUOUS
 10
3.6130361097
 20
4.7362644609
 30
0.0
 11
0.1644723628
 21
0.0776795084
 31
0.0
 40
0.3175215947
 41
-1.8116761715
 42
-1.7639047834
  0
ELLIPSE
  5
28D
100
AcDbEntity
  8
0
100
AcDbEllipse
 62
7
  6
CONTINUOUS
 10
3.5234764037
 20
4.6763360481
 30
0.0
 11
0.0843436499
 21
0.037723837
 31
0.0
 40
0.0717446904
 41
1.5567605419
 42
1.6414737176
  0
ELLIPSE
  5
28E
100
AcDbEntity
  8
0
100
AcDbEllipse
 62
7
  6
CONTINUOUS
 10
3.5849182874
 20
4.7405670923
 30
0.0
 11
0.1461550835
 21
0.0678067833
 31
0.0
 40
0.5099348041
 41
-1.5970917109
 42
-1.5493203228
  0
ELLIPSE
  5
28F
100
AcDbEntity
  8
0
100
AcDbEllipse
 62
7
  6
CONTINUOUS
 10
3.4247671145
 20
4.7650736655
 30
0.0
 11
0.1535861976
 21
-0.1367846279
 31
0.0
 40
0.0549449437
 41
-1.0218871153
 42
-0.9741157271
  0
ELLIPSE
  5
290
100
AcDbEntity
  8
0
100
AcDbEllipse
 62
7
  6
CONTINUOUS
 10
3.5518638049
 20
4.7456251389
 30
0.0
 11
0.1330714671
 21
0.0386502137
 31
0.0
 40
0.7641869673
 41
-1.226898569
 42
-1.1791271808
  0
ELLIPSE
  5
291
100
AcDbEntity
  8
0
100
AcDbEllipse
 62
7
  6
CONTINUOUS
 10
3.5234764037
 20
4.6763360481
 30
0.0
 11
0.0833628604
 21
0.0352986848
 31
0.0
 40
0.2168892597
 41
1.7842169409
 42
1.8689301166
  0
ELLIPSE
  5
292
100
AcDbEntity
  8
0
100
AcDbEllipse
 62
7
  6
CONTINUOUS
 10
3.4355071669
 20
4.7634302065
 30
0.0
 11
0.1464325921
 21
-0.1323726508
 31
0.0
 40
0.1730990572
 41
-1.1940470034
 42
-1.1462756153
  0
ELLIPSE
  5
293
100
AcDbEntity
  8
0
100
AcDbEllipse
 62
7
  6
CONTINUOUS
 10
3.5234764037
 20
4.6763360481
 30
0.0
 11
0.0816875955
 21
0.0299211158
 31
0.0
 40
0.365809989
 41
2.0950706422
 42
2.1173952585
  0
ELLIPSE
  5
294
100
AcDbEntity
  8
0
100
AcDbEllipse
 62
7
  6
CONTINUOUS
 10
3.4559359605
 20
4.7603041618
 30
0.0
 11
0.1337168198
 21
-0.1233088653
 31
0.0
 40
0.3175215947
 41
-1.3776878702
 42
-1.3299164821
  0
ELLIPSE
  5
295
100
AcDbEntity
  8
0
100
AcDbEllipse
 62
7
  6
CONTINUOUS
 10
3.4840537828
 20
4.7560015304
 30
0.0
 11
-0.1191900807
 21
0.1084102991
 31
0.0
 40
0.5099348041
 41
1.5493203228
 42
1.5970917109
  0
ELLIPSE
  5
296
100
AcDbEntity
  8
0
100
AcDbEllipse
 62
7
  6
CONTINUOUS
 10
3.5171082653
 20
4.7509434838
 30
0.0
 11
-0.1154241699
 21
0.0766753896
 31
0.0
 40
0.7641869673
 41
1.1791271808
 42
1.226898569
  0
ELLIPSE
  5
297
100
AcDbEntity
  8
0
100
AcDbEllipse
 62
7
  6
CONTINUOUS
 10
3.5249170105
 20
4.6857504558
 30
0.0
 11
0.0055629539
 21
-0.0049212057
 31
0.0
 40
0.0717446904
 41
-0.7493985717
 42
0.5276553529
  0
ELLIPSE
  5
298
100
AcDbEntity
  8
0
100
AcDbEllipse
 62
7
  6
CONTINUOUS
 10
3.4247671145
 20
4.7650736655
 30
0.0
 11
0.1535861976
 21
-0.1367846279
 31
0.0
 40
0.0549449437
 41
0.8052278119
 42
0.8529992
  0
ELLIPSE
  5
299
100
AcDbEntity
  8
0
100
AcDbEllipse
 62
7
  6
CONTINUOUS
 10
3.4355071669
 20
4.7634302065
 30
0.0
 11
0.1464325921
 21
-0.1323726508
 31
0.0
 40
0.1730990572
 41
0.6330679237
 42
0.6808393119
  0
ELLIPSE
  5
29A
100
AcDbEntity
  8
0
100
AcDbEllipse
 62
7
  6
CONTINUOUS
 10
3.5536303831
 20
4.6813566923
 30
0.0
 11
0.0055460174
 21
-0.0047116016
 31
0.0
 40
0.2168892597
 41
5.3063303365
 42
6.5833842611
  0
ELLIPSE
  5
29B
100
AcDbEntity
  8
0
100
AcDbEllipse
 62
7
  6
CONTINUOUS
 10
3.4559359605
 20
4.7603041618
 30
0.0
 11
0.1337168198
 21
-0.1233088653
 31
0.0
 40
0.3175215947
 41
0.449427057
 42
0.4971984451
  0
ELLIPSE
  5
29C
100
AcDbEntity
  8
0
100
AcDbEllipse
 62
7
  6
CONTINUOUS
 10
3.5795330906
 20
4.6773930211
 30
0.0
 11
0.0055467817
 21
-0.0042588311
 31
0.0
 40
0.365809989
 41
5.1407372327
 42
6.3349191192
  0
ELLIPSE
  5
29D
100
AcDbEntity
  8
0
100
AcDbEllipse
 62
7
  6
CONTINUOUS
 10
3.5249170105
 20
4.6857504558
 30
0.0
 11
0.0067800362
 21
0.0030324628
 31
0.0
 40
0.0717446904
 41
8.8971226174
 42
10.1741765075
  0
ELLIPSE
  5
29E
100
AcDbEntity
  8
0
100
AcDbEllipse
 62
7
  6
CONTINUOUS
 10
3.4840537828
 20
4.7560015304
 30
0.0
 11
-0.1191900807
 21
0.1084102991
 31
0.0
 40
0.5099348041
 41
-2.9067500572
 42
-2.8589786691
  0
ELLIPSE
  5
29F
100
AcDbEntity
  8
0
100
AcDbEllipse
 62
7
  6
CONTINUOUS
 10
3.6442049557
 20
4.7314949572
 30
0.0
 11
0.1874623271
 21
0.0845968701
 31
0.0
 40
0.0549449437
 41
2.2885934535
 42
2.3363648417
  0
ELLIPSE
  5
2A0
100
AcDbEntity
  8
0
100
AcDbEllipse
 62
7
  6
CONTINUOUS
 10
3.5171082653
 20
4.7509434838
 30
0.0
 11
-0.1154241699
 21
0.0766753896
 31
0.0
 40
0.7641869673
 41
-3.2769431992
 42
-3.2291718111
  0
ELLIPSE
  5
2A1
100
AcDbEntity
  8
0
100
AcDbEllipse
 62
7
  6
CONTINUOUS
 10
3.496203638
 20
4.6901442192
 30
0.0
 11
0.0067011946
 21
0.0028375149
 31
0.0
 40
0.2168892597
 41
2.8413937092
 42
4.1184475993
  0
ELLIPSE
  5
2A2
100
AcDbEntity
  8
0
100
AcDbEllipse
 62
7
  6
CONTINUOUS
 10
3.6334649033
 20
4.7331384162
 30
0.0
 11
0.1793167072
 21
0.0825260034
 31
0.0
 40
0.1730990572
 41
2.4607533417
 42
2.5085247298
  0
ELLIPSE
  5
2A3
100
AcDbEntity
  8
0
100
AcDbEllipse
 62
7
  6
CONTINUOUS
 10
3.6130361097
 20
4.7362644609
 30
0.0
 11
0.1644723628
 21
0.0776795084
 31
0.0
 40
0.3175215947
 41
2.6443942085
 42
2.6921655966
  0
ELLIPSE
  5
2A4
100
AcDbEntity
  8
0
100
AcDbEllipse
 62
7
  6
CONTINUOUS
 10
3.5849182874
 20
4.7405670923
 30
0.0
 11
0.1461550835
 21
0.0678067833
 31
0.0
 40
0.5099348041
 41
2.8589786691
 42
2.9067500572
  0
ELLIPSE
  5
2A5
100
AcDbEntity
  8
0
100
AcDbEllipse
 62
7
  6
CONTINUOUS
 10
3.5518638049
 20
4.7456251389
 30
0.0
 11
0.1330714671
 21
0.0386502137
 31
0.0
 40
0.7641869673
 41
-3.0540134961
 42
-3.006242108
  0
ELLIPSE
  5
2A6
100
AcDbEntity
  8
0
100
AcDbEllipse
 62
7
  6
CONTINUOUS
 10
3.4703009304
 20
4.6941078904
 30
0.0
 11
0.006566527
 21
0.0024052344
 31
0.0
 40
0.365809989
 41
3.0898588511
 42
4.2840407341
  0
ENDSEC
  0
SECTION
  2
OBJECTS
  0
DICTIONARY
  5
C
100
AcDbDictionary
280
0
281
1
  3
ACAD_GROUP
350
D
  3
ACAD_MLINESTYLE
350
17
  3
ACAD_LAYOUT
350
1A
  3
ACAD_PLOTSETTINGS
350
19
  3
ACAD_PLOTSTYLENAME
350
E
  0
DICTIONARY
  5
D
102
{ACAD_REACTORS
330
C
102
}
100
AcDbDictionary
280
0
281
1
  0
ACDBDICTIONARYWDFLT
  5
E
102
{ACAD_REACTORS
330
C
102
}
100
AcDbDictionary
281
1
  3
Normal
350
F
100
AcDbDictionaryWithDefault
340
F
  0
DICTIONARY
  5
17
102
{ACAD_REACTORS
330
C
102
}
100
AcDbDictionary
280
0
281
1
  3
Standard
350
18
  0
DICTIONARY
  5
19
102
{ACAD_REACTORS
330
C
102
}
100
AcDbDictionary
281
1
  0
DICTIONARY
  5
1A
102
{ACAD_REACTORS
330
C
102
}
100
AcDbDictionary
281
1
  3
Model
350
2A7
  3
Layout1
350
2A8
  0
ACDBPLACEHOLDER
  5
F
102
{ACAD_REACTORS
330
E
102
}
  0
MLINESTYLE
  5
18
102
{ACAD_REACTORS
330
17
102
}
100
AcDbMlineStyle
  2
STANDARD
 70
0
  3

 62
256
 51
90.0
 52
90.0
 71
2
 49
0.5
 62
256
  6
BYLAYER
 49
-0.5
 62
256
  6
BYLAYER
  0
LAYOUT
  5
2A7
102
{ACAD_REACTORS
330
1A
102
}
100
AcDbPlotSettings
  1

  2
none_device
  4
ANSI_A_(11.00_x_8.50_Inches)
  6

 40
0.0
 41
0.0
 42
0.0
 43
0.0
 44
279.4
 45
215.9
 46
0.0
 47
0.0
 48
0.0
 49
0.0
140
0.0
141
0.0
142
1.0
143
1.0
 70
1024
 72
0
 73
0
 74
0
  7

 75
0
147
1.0
148
0.0
149
0.0
100
AcDbLayout
  1
Model
 70
0
 71
0
 10
0.0
 20
0.0
 11
11.0
 21
8.5
 12
0.0
 22
0.0
 32
0.0
 14
0.0
 24
0.0
 34
0.0
 15
0.0
 25
0.0
 35
0.0
146
0.0
 13
0.0
 23
0.0
 33
0.0
 16
1.0
 26
0.0
 36
0.0
 17
0.0
 27
1.0
 37
0.0
 76
0
330
202
345
0
346
0
  0
LAYOUT
  5
2A8
102
{ACAD_REACTORS
330
1A
102
}
100
AcDbPlotSettings
  1

  2
none_device
  4
ANSI_A_(11.00_x_8.50_Inches)
  6

 40
0.0
 41
0.0
 42
0.0
 43
0.0
 44
279.4
 45
215.9
 46
0.0
 47
0.0
 48
0.0
 49
0.0
140
0.0
141
0.0
142
1.0
143
1.0
 70
0
 72
0
 73
0
 74
0
  7

 75
0
147
1.0
148
0.0
149
0.0
100
AcDbLayout
  1
Layout1
 70
0
 71
1
 10
0.0
 20
0.0
 11
11.0
 21
8.5
 12
0.0
 22
0.0
 32
0.0
 14
0.0
 24
0.0
 34
0.0
 15
0.0
 25
0.0
 35
0.0
146
0.0
 13
0.0
 23
0.0
 33
0.0
 16
1.0
 26
0.0
 36
0.0
 17
0.0
 27
1.0
 37
0.0
 76
0
330
203
345
0
346
0
  0
ENDSEC
  0
EOF
