999
DXF file: E:\BT Custom\CADOUTPUT\_FRONT.dxf
999
Pro/ENGINEER 2018400 by Parametric Technology Corporation
  0
SECTION
  2
HEADER
  9
$ACADVER
  1
AC1018
  9
$DWGCODEPAGE
  3
ANSI_1252
  9
$EXTMAX
 10
22.0
 20
17.0
 30
0.0
  9
$EXTMIN
 10
0.0
 20
0.0
 30
0.0
  9
$LIMMIN
 10
0.0
 20
0.0
  9
$LIMMAX
 10
22.0
 20
17.0
  9
$VIEWCTR
 10
11.0
 20
8.5
  9
$VIEWSIZE
 40
17.0
  9
$CLAYER
  8
0
  9
$LTSCALE
 40
1.21
  9
$CELTYPE
  6
BYLAYER
  9
$DIMSCALE
 40
1.0
  9
$DIMASZ
 40
0.1
  9
$DIMEXO
 40
0.0625
  9
$DIMDLI
 40
0.836
  9
$DIMEXE
 40
0.125
  9
$DIMCEN
 40
0.198
  9
$DIMLFAC
 40
1.0
  9
$DIMBLK
  1
_FILLED
  9
$DIMALT
 70
1
  9
$DIMALTD
 70
2
  9
$DIMALTTD
 70
2
  9
$DIMALTF
 40
25.4
  9
$DIMTXT
 40
0.08
  9
$DIMTOL
 70
1
  9
$DIMLIM
 70
0
  9
$DIMTFAC
 40
1.0
  9
$DIMTP
 40
0.001
  9
$DIMTM
 40
0.001
  9
$DIMGAP
 40
0.09
  9
$DIMDSEP
 70
46
  9
$AUNITS
 70
0
  9
$PDMODE
 70
3
  9
$PDSIZE
 40
0.06
  9
$HANDSEED
  5
7C2
  9
$TILEMODE
 70
1
  9
$MEASUREMENT
 70
0
  9
$INSUNITS
 70
1
  0
ENDSEC
  0
SECTION
  2
CLASSES
  0
CLASS
  1
ACDBDICTIONARYWDFLT
  2
AcDbDictionaryWithDefault
  3
AutoCAD 2000
 90
0
 91
1
280
0
281
0
  0
CLASS
  1
ACDBPLACEHOLDER
  2
AcDbPlaceHolder
  3
AutoCAD 2000
 90
0
 91
1
280
0
281
0
  0
CLASS
  1
LAYOUT
  2
AcDbLayout
  3
AutoCAD 2000
 90
0
 91
0
280
0
281
0
  0
ENDSEC
  0
SECTION
  2
TABLES
  0
TABLE
  2
VPORT
  5
8
100
AcDbSymbolTable
 70
2
  0
VPORT
  5
1F4
100
AcDbSymbolTableRecord
100
AcDbViewportTableRecord
  2
*ACTIVE
 70
0
 10
0.0
 20
0.0
 11
1.0
 21
1.0
 12
11.0
 22
8.5
 13
0.0
 23
0.0
 14
1.0
 24
1.0
 15
0.0
 25
0.0
 16
0.0
 26
0.0
 36
1.0
 17
0.0
 27
0.0
 37
0.0
 40
17.0
 41
1.2941176471
 42
50.0
 43
0.0
 44
0.0
 50
0.0
 51
0.0
 71
0
 72
100
 73
1
 74
1
 75
0
 76
0
 77
0
 78
0
  0
ENDTAB
  0
TABLE
  2
LTYPE
  5
5
100
AcDbSymbolTable
 70
6
  0
LTYPE
  5
14
100
AcDbSymbolTableRecord
100
AcDbLinetypeTableRecord
  2
BYBLOCK
 70
0
  3

 72
65
 73
0
 40
0.0
  0
LTYPE
  5
15
100
AcDbSymbolTableRecord
100
AcDbLinetypeTableRecord
  2
BYLAYER
 70
0
  3

 72
65
 73
0
 40
0.0
  0
LTYPE
  5
16
100
AcDbSymbolTableRecord
100
AcDbLinetypeTableRecord
  2
CONTINUOUS
 70
64
  3
Solid line
 72
65
 73
0
 40
0.0
  0
LTYPE
  5
1F5
100
AcDbSymbolTableRecord
100
AcDbLinetypeTableRecord
  2
CENTER
 70
64
  3
____ _ ____ _ ____ _ ____ _ ____ _ ____ _ ____
 72
65
 73
4
 40
0.6
 49
0.375
 74
0
 49
-0.075
 74
0
 49
0.075
 74
0
 49
-0.075
 74
0
  0
LTYPE
  5
1F6
100
AcDbSymbolTableRecord
100
AcDbLinetypeTableRecord
  2
HIDDEN
 70
64
  3
- - - - - - - - - - - - - - - - - - - -
 72
65
 73
2
 40
0.2
 49
0.1
 74
0
 49
-0.1
 74
0
  0
LTYPE
  5
1F7
100
AcDbSymbolTableRecord
100
AcDbLinetypeTableRecord
  2
PHANTOM
 70
64
  3
_____ _ _ _____ _ _ _____ _ _ _____
 72
65
 73
6
 40
0.8
 49
0.45
 74
0
 49
-0.05
 74
0
 49
0.1
 74
0
 49
-0.05
 74
0
 49
0.1
 74
0
 49
-0.05
 74
0
  0
LTYPE
  5
1F8
100
AcDbSymbolTableRecord
100
AcDbLinetypeTableRecord
  2
DOT
 70
64
  3
. . . . . . . . . . . . . . . . . . . .
 72
65
 73
2
 40
0.2
 49
0.1
 74
0
 49
-0.1
 74
0
  0
LTYPE
  5
1F9
100
AcDbSymbolTableRecord
100
AcDbLinetypeTableRecord
  2
DASHED
 70
64
  3
- - - - - - - - - - - - - - - - - - - -
 72
65
 73
2
 40
0.2
 49
0.1
 74
0
 49
-0.1
 74
0
  0
ENDTAB
  0
TABLE
  2
LAYER
  5
2
100
AcDbSymbolTable
 70
36
  0
LAYER
  5
10
100
AcDbSymbolTableRecord
100
AcDbLayerTableRecord
  2
0
 70
0
 62
7
  6
CONTINUOUS
370
-3
390
F
  0
LAYER
  5
1FA
100
AcDbSymbolTableRecord
100
AcDbLayerTableRecord
  2
DEFAULT_1
 70
0
 62
7
  6
CENTER
370
-3
390
F
  0
LAYER
  5
1FB
100
AcDbSymbolTableRecord
100
AcDbLayerTableRecord
  2
DEFAULT_2
 70
0
 62
8
  6
HIDDEN
370
-3
390
F
  0
LAYER
  5
1FC
100
AcDbSymbolTableRecord
100
AcDbLayerTableRecord
  2
DEFAULT_3
 70
0
 62
7
  6
PHANTOM
370
-3
390
F
  0
LAYER
  5
1FD
100
AcDbSymbolTableRecord
100
AcDbLayerTableRecord
  2
ALL_FEATURES
 70
0
 62
7
  6
CONTINUOUS
370
-3
390
F
  0
LAYER
  5
1FE
100
AcDbSymbolTableRecord
100
AcDbLayerTableRecord
  2
AXES_FEATURES
 70
0
 62
7
  6
CONTINUOUS
370
-3
390
F
  0
LAYER
  5
1FF
100
AcDbSymbolTableRecord
100
AcDbLayerTableRecord
  2
DEFAULT_COORDINATE_SYSTEM
 70
0
 62
7
  6
CONTINUOUS
370
-3
390
F
  0
LAYER
  5
200
100
AcDbSymbolTableRecord
100
AcDbLayerTableRecord
  2
DEFAULT_DATUM_AXES
 70
0
 62
7
  6
CONTINUOUS
370
-3
390
F
  0
LAYER
  5
201
100
AcDbSymbolTableRecord
100
AcDbLayerTableRecord
  2
DEFAULT_DATUM_PLANES
 70
0
 62
7
  6
CONTINUOUS
370
-3
390
F
  0
LAYER
  5
202
100
AcDbSymbolTableRecord
100
AcDbLayerTableRecord
  2
DIMENSIONS
 70
0
 62
7
  6
CONTINUOUS
370
-3
390
F
  0
ENDTAB
  0
TABLE
  2
STYLE
  5
3
100
AcDbSymbolTable
 70
1
  0
STYLE
  5
11
100
AcDbSymbolTableRecord
100
AcDbTextStyleTableRecord
  2
STANDARD
 70
0
 40
0.0
 41
0.8
 50
0.0
 71
0
 42
0.2
  3
txt
  4

  0
STYLE
  5
203
100
AcDbSymbolTableRecord
100
AcDbTextStyleTableRecord
  2
TEXTSTYLE_1
 70
0
 40
0.0
 41
0.8
 50
0.0
 71
0
 42
0.2
  3
gdt
  4

  0
ENDTAB
  0
TABLE
  2
VIEW
  5
6
100
AcDbSymbolTable
 70
0
  0
ENDTAB
  0
TABLE
  2
UCS
  5
7
100
AcDbSymbolTable
 70
0
  0
ENDTAB
  0
TABLE
  2
APPID
  5
9
100
AcDbSymbolTable
 70
1
  0
APPID
  5
204
100
AcDbSymbolTableRecord
100
AcDbRegAppTableRecord
  2
ACAD
 70
0
  0
ENDTAB
  0
TABLE
  2
BLOCK_RECORD
  5
1
100
AcDbSymbolTable
 70
0
  0
BLOCK_RECORD
  5
205
100
AcDbSymbolTableRecord
100
AcDbBlockTableRecord
  2
*Model_Space
  0
BLOCK_RECORD
  5
206
100
AcDbSymbolTableRecord
100
AcDbBlockTableRecord
  2
*Paper_Space
  0
BLOCK_RECORD
  5
207
100
AcDbSymbolTableRecord
100
AcDbBlockTableRecord
  2
_FILLED
  0
ENDTAB
  0
TABLE
  2
DIMSTYLE
  5
A
100
AcDbSymbolTable
 70
1
100
AcDbDimStyleTable
 71
0
  0
DIMSTYLE
105
208
100
AcDbSymbolTableRecord
100
AcDbDimStyleTableRecord
  2
STANDARD
 70
0
  3

  4

 40
1.0
 41
0.1
 42
0.0625
 43
0.38
 44
0.125
 45
0.0
 46
0.0
 47
0.001
 48
0.001
140
0.08
141
0.09
142
0.0
143
25.4
144
1.0
145
0.0
146
1.0
147
0.09
 71
1.0
 72
0.0
 73
1
 74
1
 75
0
 76
0
 77
0
 78
4
 79
1
170
1
171
2
172
0
173
0
174
0
175
0
176
0
177
0
178
0
270
2
179
3
271
3
272
3
273
2
274
2
275
0
280
0
281
0
282
0
283
1
284
4
285
0
286
0
287
3
288
0
340
11
278
46
341
207
342
207
343
207
344
207
  0
ENDTAB
  0
ENDSEC
  0
SECTION
  2
BLOCKS
  0
BLOCK
  5
20
100
AcDbEntity
  8
0
100
AcDbBlockBegin
  2
*Model_Space
 70
0
 10
0.0
 20
0.0
 30
0.0
  3
*Model_Space
  1

  0
ENDBLK
  5
21
100
AcDbEntity
  8
0
100
AcDbBlockEnd
  0
BLOCK
  5
1C
100
AcDbEntity
  8
0
100
AcDbBlockBegin
  2
*Paper_Space
 70
0
 10
0.0
 20
0.0
 30
0.0
  3
*Paper_Space
  1

  0
ENDBLK
  5
1D
100
AcDbEntity
  8
0
100
AcDbBlockEnd
  0
BLOCK
  5
209
100
AcDbEntity
  8
0
100
AcDbBlockBegin
  2
_FILLED
 70
64
 10
0.0
 20
0.0
  3
_FILLED
  1

  0
SOLID
  5
20A
100
AcDbEntity
  8
0
  6
BYBLOCK
 62
0
100
AcDbTrace
 10
0.0
 20
0.0
 11
-1.0
 21
0.2
 12
-1.0
 22
-0.2
 13
-1.0
 23
-0.2
  0
ENDBLK
  5
20B
100
AcDbEntity
  8
0
  6
BYBLOCK
 62
0
100
AcDbBlockEnd
  0
ENDSEC
  0
SECTION
  2
ENTITIES
  0
LINE
  5
20C
100
AcDbEntity
  8
0
100
AcDbLine
 62
7
  6
CONTINUOUS
 10
-10.9945838542
 20
8.0925690415
 11
-10.9968012378
 21
8.1136660368
  0
LINE
  5
20D
100
AcDbEntity
  8
0
100
AcDbLine
 62
7
  6
CONTINUOUS
 10
-11.2163111226
 20
10.2021630826
 11
-11.2185285062
 21
10.2232600779
  0
LINE
  5
20E
100
AcDbEntity
  8
0
100
AcDbLine
 62
7
  6
CONTINUOUS
 10
-11.0350263514
 20
8.125820851
 11
-11.0365061097
 21
8.1469823801
  0
LINE
  5
20F
100
AcDbEntity
  8
0
100
AcDbLine
 62
7
  6
CONTINUOUS
 10
-11.1829947793
 20
10.2418679545
 11
-11.1844745375
 21
10.2630294837
  0
LINE
  5
210
100
AcDbEntity
  8
0
100
AcDbLine
 62
7
  6
CONTINUOUS
 10
-11.0742837407
 20
8.1604638272
 11
-11.0750240708
 21
8.1816641081
  0
LINE
  5
211
100
AcDbEntity
  8
0
100
AcDbLine
 62
7
  6
CONTINUOUS
 10
-11.1483130513
 20
10.2803859157
 11
-11.1490533814
 21
10.3015861966
  0
LINE
  5
212
100
AcDbEntity
  8
0
100
AcDbLine
 62
7
  6
CONTINUOUS
 10
-11.112308193
 20
8.196455763
 11
-11.112308193
 21
8.2176689664
  0
LINE
  5
213
100
AcDbEntity
  8
0
100
AcDbLine
 62
7
  6
CONTINUOUS
 10
-11.112308193
 20
10.3176700379
 11
-11.112308193
 21
10.3388832413
  0
LINE
  5
214
100
AcDbEntity
  8
0
100
AcDbLine
 62
7
  6
CONTINUOUS
 10
-11.1490533814
 20
8.2337528077
 11
-11.1483130513
 21
8.2549530886
  0
LINE
  5
215
100
AcDbEntity
  8
0
100
AcDbLine
 62
7
  6
CONTINUOUS
 10
-11.0750240708
 20
10.3536748961
 11
-11.0742837407
 21
10.3748751771
  0
LINE
  5
216
100
AcDbEntity
  8
0
100
AcDbLine
 62
7
  6
CONTINUOUS
 10
-11.1844745375
 20
8.2723095206
 11
-11.1829947793
 21
8.2934710497
  0
LINE
  5
217
100
AcDbEntity
  8
0
100
AcDbLine
 62
7
  6
CONTINUOUS
 10
-11.0365061097
 20
10.3883566241
 11
-11.0350263514
 21
10.4095181533
  0
LINE
  5
218
100
AcDbEntity
  8
0
100
AcDbLine
 62
7
  6
CONTINUOUS
 10
-11.2185285062
 20
8.3120789264
 11
-11.2163111226
 21
8.3331759216
  0
LINE
  5
219
100
AcDbEntity
  8
0
100
AcDbLine
 62
7
  6
CONTINUOUS
 10
-10.9968012378
 20
10.4216729675
 11
-10.9945838542
 21
10.4427699628
  0
LINE
  5
21A
100
AcDbEntity
  8
0
100
AcDbLine
 62
7
  6
CONTINUOUS
 10
-11.2511737978
 20
8.353012572
 11
-11.2482214905
 21
8.37401933
  0
LINE
  5
21B
100
AcDbEntity
  8
0
100
AcDbLine
 62
7
  6
CONTINUOUS
 10
-10.9559578294
 20
10.4535833354
 11
-10.9530055221
 21
10.4745900934
  0
LINE
  5
21C
100
AcDbEntity
  8
0
100
AcDbLine
 62
7
  6
CONTINUOUS
 10
-11.2823706392
 20
8.3950605863
 11
-11.2786870051
 21
8.4159515135
  0
LINE
  5
21D
100
AcDbEntity
  8
0
100
AcDbLine
 62
7
  6
CONTINUOUS
 10
-10.9140256459
 20
10.48404885
 11
-10.9103420118
 21
10.5049397772
  0
LINE
  5
21E
100
AcDbEntity
  8
0
100
AcDbLine
 62
7
  6
CONTINUOUS
 10
-11.3120810218
 20
8.4381717401
 11
-11.3076705488
 21
8.4589213841
  0
LINE
  5
21F
100
AcDbEntity
  8
0
100
AcDbLine
 62
7
  6
CONTINUOUS
 10
-10.8710557753
 20
10.5130323937
 11
-10.8666453023
 21
10.5337820377
  0
LINE
  5
220
100
AcDbEntity
  8
0
100
AcDbLine
 62
7
  6
CONTINUOUS
 10
-11.340268748
 20
8.4822935091
 11
-11.3351368097
 21
8.5028765897
  0
LINE
  5
221
100
AcDbEntity
  8
0
100
AcDbLine
 62
7
  6
CONTINUOUS
 10
-10.8271005697
 20
10.5404986545
 11
-10.8219686313
 21
10.5610817352
  0
LINE
  5
222
100
AcDbEntity
  8
0
100
AcDbLine
 62
7
  6
CONTINUOUS
 10
-11.3668994755
 20
8.5273721378
 11
-11.3610523242
 21
8.5477635777
  0
LINE
  5
223
100
AcDbEntity
  8
0
100
AcDbLine
 62
7
  6
CONTINUOUS
 10
-10.7822135817
 20
10.5664141691
 11
-10.7763664304
 21
10.586805609
  0
LINE
  5
224
100
AcDbEntity
  8
0
100
AcDbLine
 62
7
  6
CONTINUOUS
 10
-11.3919407589
 20
8.5733527048
 11
-11.3853855185
 21
8.5935276602
  0
LINE
  5
225
100
AcDbEntity
  8
0
100
AcDbLine
 62
7
  6
CONTINUOUS
 10
-10.7364494992
 20
10.5907473634
 11
-10.7298942589
 21
10.6109223188
  0
LINE
  5
226
100
AcDbEntity
  8
0
100
AcDbLine
 62
7
  6
CONTINUOUS
 10
-10.7298942589
 20
7.9244166855
 11
-10.7364494992
 21
7.9445916409
  0
LINE
  5
227
100
AcDbEntity
  8
0
100
AcDbLine
 62
7
  6
CONTINUOUS
 10
-11.3853855185
 20
9.9418113441
 11
-11.3919407589
 21
9.9619862995
  0
LINE
  5
228
100
AcDbEntity
  8
0
100
AcDbLine
 62
7
  6
CONTINUOUS
 10
-10.7763664304
 20
7.9485333952
 11
-10.7822135817
 21
7.9689248352
  0
LINE
  5
229
100
AcDbEntity
  8
0
100
AcDbLine
 62
7
  6
CONTINUOUS
 10
-11.3610523242
 20
9.9875754266
 11
-11.3668994755
 21
10.0079668665
  0
LINE
  5
22A
100
AcDbEntity
  8
0
100
AcDbLine
 62
7
  6
CONTINUOUS
 10
-10.8219686313
 20
7.9742572691
 11
-10.8271005697
 21
7.9948403498
  0
LINE
  5
22B
100
AcDbEntity
  8
0
100
AcDbLine
 62
7
  6
CONTINUOUS
 10
-11.3351368097
 20
10.0324624146
 11
-11.340268748
 21
10.0530454952
  0
LINE
  5
22C
100
AcDbEntity
  8
0
100
AcDbLine
 62
7
  6
CONTINUOUS
 10
-10.8666453023
 20
8.0015569666
 11
-10.8710557753
 21
8.0223066106
  0
LINE
  5
22D
100
AcDbEntity
  8
0
100
AcDbLine
 62
7
  6
CONTINUOUS
 10
-11.3076705488
 20
10.0764176202
 11
-11.3120810218
 21
10.0971672642
  0
LINE
  5
22E
100
AcDbEntity
  8
0
100
AcDbLine
 62
7
  6
CONTINUOUS
 10
-10.9103420118
 20
8.0303992271
 11
-10.9140256459
 21
8.0512901543
  0
LINE
  5
22F
100
AcDbEntity
  8
0
100
AcDbLine
 62
7
  6
CONTINUOUS
 10
-11.2786870051
 20
10.1193874908
 11
-11.2823706392
 21
10.140278418
  0
LINE
  5
230
100
AcDbEntity
  8
0
100
AcDbLine
 62
7
  6
CONTINUOUS
 10
-10.9530055221
 20
8.0607489109
 11
-10.9559578294
 21
8.0817556689
  0
LINE
  5
231
100
AcDbEntity
  8
0
100
AcDbLine
 62
7
  6
CONTINUOUS
 10
-11.2482214905
 20
10.1613196743
 11
-11.2511737978
 21
10.1823264323
  0
LINE
  5
232
100
AcDbEntity
  8
0
100
AcDbLine
 62
7
  6
CONTINUOUS
 10
-9.1300314603
 20
10.4427699628
 11
-9.1278140768
 21
10.4216729675
  0
LINE
  5
233
100
AcDbEntity
  8
0
100
AcDbLine
 62
7
  6
CONTINUOUS
 10
-8.9083041919
 20
8.3331759216
 11
-8.9060868083
 21
8.3120789264
  0
LINE
  5
234
100
AcDbEntity
  8
0
100
AcDbLine
 62
7
  6
CONTINUOUS
 10
-9.0895889631
 20
10.4095181533
 11
-9.0881092049
 21
10.3883566241
  0
LINE
  5
235
100
AcDbEntity
  8
0
100
AcDbLine
 62
7
  6
CONTINUOUS
 10
-8.9416205353
 20
8.2934710497
 11
-8.940140777
 21
8.2723095206
  0
LINE
  5
236
100
AcDbEntity
  8
0
100
AcDbLine
 62
7
  6
CONTINUOUS
 10
-9.0503315738
 20
10.3748751771
 11
-9.0495912437
 21
10.3536748961
  0
LINE
  5
237
100
AcDbEntity
  8
0
100
AcDbLine
 62
7
  6
CONTINUOUS
 10
-8.9763022633
 20
8.2549530886
 11
-8.9755619331
 21
8.2337528077
  0
LINE
  5
238
100
AcDbEntity
  8
0
100
AcDbLine
 62
7
  6
CONTINUOUS
 10
-9.0123071215
 20
10.3388832413
 11
-9.0123071215
 21
10.3176700379
  0
LINE
  5
239
100
AcDbEntity
  8
0
100
AcDbLine
 62
7
  6
CONTINUOUS
 10
-9.0123071215
 20
8.2176689664
 11
-9.0123071215
 21
8.196455763
  0
LINE
  5
23A
100
AcDbEntity
  8
0
100
AcDbLine
 62
9
  6
CONTINUOUS
 10
-8.4373076573
 20
9.8926695021
 11
-8.4373076573
 21
8.6426695021
  0
LINE
  5
23B
100
AcDbEntity
  8
0
100
AcDbLine
 62
7
  6
CONTINUOUS
 10
-8.9755619331
 20
10.3015861966
 11
-8.9763022633
 21
10.2803859157
  0
LINE
  5
23C
100
AcDbEntity
  8
0
100
AcDbLine
 62
7
  6
CONTINUOUS
 10
-9.0495912437
 20
8.1816641081
 11
-9.0503315738
 21
8.1604638272
  0
LINE
  5
23D
100
AcDbEntity
  8
0
100
AcDbLine
 62
7
  6
CONTINUOUS
 10
-8.940140777
 20
10.2630294837
 11
-8.9416205353
 21
10.2418679545
  0
LINE
  5
23E
100
AcDbEntity
  8
0
100
AcDbLine
 62
7
  6
CONTINUOUS
 10
-9.0881092049
 20
8.1469823801
 11
-9.0895889631
 21
8.125820851
  0
LINE
  5
23F
100
AcDbEntity
  8
0
100
AcDbLine
 62
7
  6
CONTINUOUS
 10
-8.9060868083
 20
10.2232600779
 11
-8.9083041919
 21
10.2021630826
  0
LINE
  5
240
100
AcDbEntity
  8
0
100
AcDbLine
 62
7
  6
CONTINUOUS
 10
-9.1278140768
 20
8.1136660368
 11
-9.1300314603
 21
8.0925690415
  0
LINE
  5
241
100
AcDbEntity
  8
0
100
AcDbLine
 62
7
  6
CONTINUOUS
 10
-8.8734415167
 20
10.1823264323
 11
-8.876393824
 21
10.1613196743
  0
LINE
  5
242
100
AcDbEntity
  8
0
100
AcDbLine
 62
7
  6
CONTINUOUS
 10
-9.1686574851
 20
8.0817556689
 11
-9.1716097924
 21
8.0607489109
  0
LINE
  5
243
100
AcDbEntity
  8
0
100
AcDbLine
 62
7
  6
CONTINUOUS
 10
-8.8422446753
 20
10.140278418
 11
-8.8459283094
 21
10.1193874908
  0
LINE
  5
244
100
AcDbEntity
  8
0
100
AcDbLine
 62
7
  6
CONTINUOUS
 10
-9.2105896686
 20
8.0512901543
 11
-9.2142733027
 21
8.0303992271
  0
LINE
  5
245
100
AcDbEntity
  8
0
100
AcDbLine
 62
7
  6
CONTINUOUS
 10
-8.8125342927
 20
10.0971672642
 11
-8.8169447657
 21
10.0764176202
  0
LINE
  5
246
100
AcDbEntity
  8
0
100
AcDbLine
 62
7
  6
CONTINUOUS
 10
-9.2535595392
 20
8.0223066106
 11
-9.2579700122
 21
8.0015569666
  0
LINE
  5
247
100
AcDbEntity
  8
0
100
AcDbLine
 62
7
  6
CONTINUOUS
 10
-11.4153620891
 20
8.6201791899
 11
-11.4081067462
 21
8.6401130806
  0
LINE
  5
248
100
AcDbEntity
  8
0
100
AcDbLine
 62
7
  6
CONTINUOUS
 10
-10.6898640788
 20
10.6134685911
 11
-10.6826087359
 21
10.6334024818
  0
LINE
  5
249
100
AcDbEntity
  8
0
100
AcDbLine
 62
7
  6
CONTINUOUS
 10
-11.4371349309
 20
8.6677945422
 11
-11.429188325
 21
8.6874630819
  0
LINE
  5
24A
100
AcDbEntity
  8
0
100
AcDbLine
 62
7
  6
CONTINUOUS
 10
-10.6425140775
 20
10.6345501699
 11
-10.6345674716
 21
10.6542187097
  0
LINE
  5
24B
100
AcDbEntity
  8
0
100
AcDbLine
 62
7
  6
CONTINUOUS
 10
-11.4572327575
 20
8.7161407497
 11
-11.4486045703
 21
8.7355199753
  0
LINE
  5
24C
100
AcDbEntity
  8
0
100
AcDbLine
 62
7
  6
CONTINUOUS
 10
-10.5944571841
 20
10.6539664152
 11
-10.5858289969
 21
10.6733456408
  0
LINE
  5
24D
100
AcDbEntity
  8
0
100
AcDbLine
 62
7
  6
CONTINUOUS
 10
-11.4756310827
 20
8.76515891
 11
-11.4663318264
 21
8.784225211
  0
LINE
  5
24E
100
AcDbEntity
  8
0
100
AcDbLine
 62
7
  6
CONTINUOUS
 10
-10.5457519484
 20
10.6716936712
 11
-10.5364526921
 21
10.6907599722
  0
LINE
  5
24F
100
AcDbEntity
  8
0
100
AcDbLine
 62
7
  6
CONTINUOUS
 10
-11.492307491
 20
8.8147893021
 11
-11.4823484952
 21
8.8335194491
  0
LINE
  5
250
100
AcDbEntity
  8
0
100
AcDbLine
 62
7
  6
CONTINUOUS
 10
-10.4964577103
 20
10.6877103401
 11
-10.4864987146
 21
10.706440487
  0
LINE
  5
251
100
AcDbEntity
  8
0
100
AcDbLine
 62
7
  6
CONTINUOUS
 10
-10.4864987146
 20
7.8288985173
 11
-10.4964577103
 21
7.8476286642
  0
LINE
  5
252
100
AcDbEntity
  8
0
100
AcDbLine
 62
7
  6
CONTINUOUS
 10
-11.4823484952
 20
9.7018195552
 11
-11.492307491
 21
9.7205497021
  0
LINE
  5
253
100
AcDbEntity
  8
0
100
AcDbLine
 62
7
  6
CONTINUOUS
 10
-10.5364526921
 20
7.8445790321
 11
-10.5457519484
 21
7.863645333
  0
LINE
  5
254
100
AcDbEntity
  8
0
100
AcDbLine
 62
7
  6
CONTINUOUS
 10
-11.4663318264
 20
9.7511137933
 11
-11.4756310827
 21
9.7701800942
  0
LINE
  5
255
100
AcDbEntity
  8
0
100
AcDbLine
 62
7
  6
CONTINUOUS
 10
-10.5858289969
 20
7.8619933634
 11
-10.5944571841
 21
7.8813725891
  0
LINE
  5
256
100
AcDbEntity
  8
0
100
AcDbLine
 62
7
  6
CONTINUOUS
 10
-11.4486045703
 20
9.7998190289
 11
-11.4572327575
 21
9.8191982546
  0
LINE
  5
257
100
AcDbEntity
  8
0
100
AcDbLine
 62
7
  6
CONTINUOUS
 10
-10.6345674716
 20
7.8811202946
 11
-10.6425140775
 21
7.9007888344
  0
LINE
  5
258
100
AcDbEntity
  8
0
100
AcDbLine
 62
7
  6
CONTINUOUS
 10
-11.429188325
 20
9.8478759224
 11
-11.4371349309
 21
9.8675444621
  0
LINE
  5
259
100
AcDbEntity
  8
0
100
AcDbLine
 62
7
  6
CONTINUOUS
 10
-10.6826087359
 20
7.9019365224
 11
-10.6898640788
 21
7.9218704132
  0
LINE
  5
25A
100
AcDbEntity
  8
0
100
AcDbLine
 62
7
  6
CONTINUOUS
 10
-11.4081067462
 20
9.8952259237
 11
-11.4153620891
 21
9.9151598144
  0
LINE
  5
25B
100
AcDbEntity
  8
0
100
AcDbLine
 62
7
  6
CONTINUOUS
 10
-9.2579700122
 20
10.5337820377
 11
-9.2535595392
 21
10.5130323937
  0
LINE
  5
25C
100
AcDbEntity
  8
0
100
AcDbLine
 62
7
  6
CONTINUOUS
 10
-8.8169447657
 20
8.4589213841
 11
-8.8125342927
 21
8.4381717401
  0
LINE
  5
25D
100
AcDbEntity
  8
0
100
AcDbLine
 62
7
  6
CONTINUOUS
 10
-9.2142733027
 20
10.5049397772
 11
-9.2105896686
 21
10.48404885
  0
LINE
  5
25E
100
AcDbEntity
  8
0
100
AcDbLine
 62
7
  6
CONTINUOUS
 10
-8.8459283094
 20
8.4159515135
 11
-8.8422446753
 21
8.3950605863
  0
LINE
  5
25F
100
AcDbEntity
  8
0
100
AcDbLine
 62
7
  6
CONTINUOUS
 10
-9.1716097924
 20
10.4745900934
 11
-9.1686574851
 21
10.4535833354
  0
LINE
  5
260
100
AcDbEntity
  8
0
100
AcDbLine
 62
7
  6
CONTINUOUS
 10
-8.876393824
 20
8.37401933
 11
-8.8734415167
 21
8.353012572
  0
LINE
  5
261
100
AcDbEntity
  8
0
100
AcDbLine
 62
7
  6
CONTINUOUS
 10
-8.7843465665
 20
10.0530454952
 11
-8.7894785049
 21
10.0324624146
  0
LINE
  5
262
100
AcDbEntity
  8
0
100
AcDbLine
 62
7
  6
CONTINUOUS
 10
-9.2975147448
 20
7.9948403498
 11
-9.3026466832
 21
7.9742572691
  0
LINE
  5
263
100
AcDbEntity
  8
0
100
AcDbLine
 62
7
  6
CONTINUOUS
 10
-8.757715839
 20
10.0079668665
 11
-8.7635629903
 21
9.9875754266
  0
LINE
  5
264
100
AcDbEntity
  8
0
100
AcDbLine
 62
7
  6
CONTINUOUS
 10
-9.3424017328
 20
7.9689248352
 11
-9.3482488841
 21
7.9485333952
  0
LINE
  5
265
100
AcDbEntity
  8
0
100
AcDbLine
 62
7
  6
CONTINUOUS
 10
-8.7326745556
 20
9.9619862995
 11
-8.739229796
 21
9.9418113441
  0
LINE
  5
266
100
AcDbEntity
  8
0
100
AcDbLine
 62
7
  6
CONTINUOUS
 10
-9.3881658153
 20
7.9445916409
 11
-9.3947210557
 21
7.9244166855
  0
LINE
  5
267
100
AcDbEntity
  8
0
100
AcDbLine
 62
7
  6
CONTINUOUS
 10
-8.7092532254
 20
9.9151598144
 11
-8.7165085683
 21
9.8952259237
  0
LINE
  5
268
100
AcDbEntity
  8
0
100
AcDbLine
 62
7
  6
CONTINUOUS
 10
-9.4347512357
 20
7.9218704132
 11
-9.4420065786
 21
7.9019365224
  0
LINE
  5
269
100
AcDbEntity
  8
0
100
AcDbLine
 62
7
  6
CONTINUOUS
 10
-9.482101237
 20
7.9007888344
 11
-9.4900478429
 21
7.8811202946
  0
LINE
  5
26A
100
AcDbEntity
  8
0
100
AcDbLine
 62
7
  6
CONTINUOUS
 10
-9.5301581305
 20
7.8813725891
 11
-9.5387863176
 21
7.8619933634
  0
LINE
  5
26B
100
AcDbEntity
  8
0
100
AcDbLine
 62
7
  6
CONTINUOUS
 10
-11.5072416648
 20
8.864971459
 11
-11.4966350631
 21
8.8833426321
  0
LINE
  5
26C
100
AcDbEntity
  8
0
100
AcDbLine
 62
7
  6
CONTINUOUS
 10
-10.4466345273
 20
10.7019969079
 11
-10.4360279256
 21
10.720368081
  0
LINE
  5
26D
100
AcDbEntity
  8
0
100
AcDbLine
 62
7
  6
CONTINUOUS
 10
-11.520415409
 20
8.9156442414
 11
-11.5091741239
 21
8.9336340582
  0
LINE
  5
26E
100
AcDbEntity
  8
0
100
AcDbLine
 62
7
  6
CONTINUOUS
 10
-10.3963431012
 20
10.7145359688
 11
-10.3851018161
 21
10.7325257856
  0
LINE
  5
26F
100
AcDbEntity
  8
0
100
AcDbLine
 62
7
  6
CONTINUOUS
 10
-11.5318126736
 20
8.9667459124
 11
-11.5199504008
 21
8.984332455
  0
LINE
  5
270
100
AcDbEntity
  8
0
100
AcDbLine
 62
7
  6
CONTINUOUS
 10
-10.3456447044
 20
10.7253122457
 11
-10.3337824315
 21
10.7428987884
  0
LINE
  5
271
100
AcDbEntity
  8
0
100
AcDbLine
 62
7
  6
CONTINUOUS
 10
-11.5414195727
 20
9.0182142124
 11
-11.5289507646
 21
9.0353760544
  0
LINE
  5
272
100
AcDbEntity
  8
0
100
AcDbLine
 62
7
  6
CONTINUOUS
 10
-10.294601105
 20
10.7343126094
 11
-10.2821322968
 21
10.7514744515
  0
LINE
  5
273
100
AcDbEntity
  8
0
100
AcDbLine
 62
7
  6
CONTINUOUS
 10
-10.2821322968
 20
7.7838645528
 11
-10.294601105
 21
7.8010263948
  0
LINE
  5
274
100
AcDbEntity
  8
0
100
AcDbLine
 62
7
  6
CONTINUOUS
 10
-11.5289507646
 20
9.4999629498
 11
-11.5414195727
 21
9.5171247919
  0
LINE
  5
275
100
AcDbEntity
  8
0
100
AcDbLine
 62
7
  6
CONTINUOUS
 10
-10.3337824315
 20
7.7924402159
 11
-10.3456447044
 21
7.8100267586
  0
LINE
  5
276
100
AcDbEntity
  8
0
100
AcDbLine
 62
7
  6
CONTINUOUS
 10
-11.5199504008
 20
9.5510065492
 11
-11.5318126736
 21
9.5685930919
  0
LINE
  5
277
100
AcDbEntity
  8
0
100
AcDbLine
 62
7
  6
CONTINUOUS
 10
-10.3851018161
 20
7.8028132187
 11
-10.3963431012
 21
7.8208030355
  0
LINE
  5
278
100
AcDbEntity
  8
0
100
AcDbLine
 62
7
  6
CONTINUOUS
 10
-11.5091741239
 20
9.6017049461
 11
-11.520415409
 21
9.6196947629
  0
LINE
  5
279
100
AcDbEntity
  8
0
100
AcDbLine
 62
7
  6
CONTINUOUS
 10
-10.4360279256
 20
7.8149709233
 11
-10.4466345273
 21
7.8333420964
  0
LINE
  5
27A
100
AcDbEntity
  8
0
100
AcDbLine
 62
7
  6
CONTINUOUS
 10
-11.4966350631
 20
9.6519963722
 11
-11.5072416648
 21
9.6703675453
  0
LINE
  5
27B
100
AcDbEntity
  8
0
100
AcDbLine
 62
7
  6
CONTINUOUS
 10
-9.5387863176
 20
10.6733456408
 11
-9.5301581305
 21
10.6539664152
  0
LINE
  5
27C
100
AcDbEntity
  8
0
100
AcDbLine
 62
7
  6
CONTINUOUS
 10
-9.4900478429
 20
10.6542187097
 11
-9.482101237
 21
10.6345501699
  0
LINE
  5
27D
100
AcDbEntity
  8
0
100
AcDbLine
 62
7
  6
CONTINUOUS
 10
-9.4420065786
 20
10.6334024818
 11
-9.4347512357
 21
10.6134685911
  0
LINE
  5
27E
100
AcDbEntity
  8
0
100
AcDbLine
 62
7
  6
CONTINUOUS
 10
-8.7165085683
 20
8.6401130806
 11
-8.7092532254
 21
8.6201791899
  0
LINE
  5
27F
100
AcDbEntity
  8
0
100
AcDbLine
 62
7
  6
CONTINUOUS
 10
-9.3947210557
 20
10.6109223188
 11
-9.3881658153
 21
10.5907473634
  0
LINE
  5
280
100
AcDbEntity
  8
0
100
AcDbLine
 62
7
  6
CONTINUOUS
 10
-8.739229796
 20
8.5935276602
 11
-8.7326745556
 21
8.5733527048
  0
LINE
  5
281
100
AcDbEntity
  8
0
100
AcDbLine
 62
7
  6
CONTINUOUS
 10
-9.3482488841
 20
10.586805609
 11
-9.3424017328
 21
10.5664141691
  0
LINE
  5
282
100
AcDbEntity
  8
0
100
AcDbLine
 62
7
  6
CONTINUOUS
 10
-8.7635629903
 20
8.5477635777
 11
-8.757715839
 21
8.5273721378
  0
LINE
  5
283
100
AcDbEntity
  8
0
100
AcDbLine
 62
7
  6
CONTINUOUS
 10
-9.3026466832
 20
10.5610817352
 11
-9.2975147448
 21
10.5404986545
  0
LINE
  5
284
100
AcDbEntity
  8
0
100
AcDbLine
 62
7
  6
CONTINUOUS
 10
-8.7894785049
 20
8.5028765897
 11
-8.7843465665
 21
8.4822935091
  0
LINE
  5
285
100
AcDbEntity
  8
0
100
AcDbLine
 62
7
  6
CONTINUOUS
 10
-9.5788633661
 20
7.863645333
 11
-9.5881626224
 21
7.8445790321
  0
LINE
  5
286
100
AcDbEntity
  8
0
100
AcDbLine
 62
7
  6
CONTINUOUS
 10
-9.6281576042
 20
7.8476286642
 11
-9.6381165999
 21
7.8288985173
  0
LINE
  5
287
100
AcDbEntity
  8
0
100
AcDbLine
 62
7
  6
CONTINUOUS
 10
-9.6779807872
 20
7.8333420964
 11
-9.6885873889
 21
7.8149709233
  0
LINE
  5
288
100
AcDbEntity
  8
0
100
AcDbLine
 62
7
  6
CONTINUOUS
 10
-9.7282722133
 20
7.8208030355
 11
-9.7395134985
 21
7.8028132187
  0
LINE
  5
289
100
AcDbEntity
  8
0
100
AcDbLine
 62
7
  6
CONTINUOUS
 10
-9.7789706102
 20
7.8100267586
 11
-9.790832883
 21
7.7924402159
  0
LINE
  5
28A
100
AcDbEntity
  8
0
100
AcDbLine
 62
7
  6
CONTINUOUS
 10
-11.5492244018
 20
9.0699864352
 11
-11.5361642496
 21
9.0867026676
  0
LINE
  5
28B
100
AcDbEntity
  8
0
100
AcDbLine
 62
7
  6
CONTINUOUS
 10
-10.2432744918
 20
10.7415260945
 11
-10.2302143397
 21
10.7582423269
  0
LINE
  5
28C
100
AcDbEntity
  8
0
100
AcDbLine
 62
7
  6
CONTINUOUS
 10
-11.5552176518
 20
9.1219995044
 11
-11.5415820675
 21
9.138249761
  0
LINE
  5
28D
100
AcDbEntity
  8
0
100
AcDbLine
 62
7
  6
CONTINUOUS
 10
-10.1917273984
 20
10.7469439123
 11
-10.1780918141
 21
10.763194169
  0
LINE
  5
28E
100
AcDbEntity
  8
0
100
AcDbLine
 62
7
  6
CONTINUOUS
 10
-11.559392021
 20
9.1741900501
 11
-11.5451976173
 21
9.1899545324
  0
LINE
  5
28F
100
AcDbEntity
  8
0
100
AcDbLine
 62
7
  6
CONTINUOUS
 10
-10.140022627
 20
10.7505594622
 11
-10.1258282233
 21
10.7663239445
  0
LINE
  5
290
100
AcDbEntity
  8
0
100
AcDbLine
 62
7
  6
CONTINUOUS
 10
-10.1258282233
 20
7.7690150598
 11
-10.140022627
 21
7.7847795421
  0
LINE
  5
291
100
AcDbEntity
  8
0
100
AcDbLine
 62
7
  6
CONTINUOUS
 10
-11.5451976173
 20
9.3453844719
 11
-11.559392021
 21
9.3611489542
  0
LINE
  5
292
100
AcDbEntity
  8
0
100
AcDbLine
 62
7
  6
CONTINUOUS
 10
-10.1780918141
 20
7.7721448353
 11
-10.1917273984
 21
7.7883950919
  0
LINE
  5
293
100
AcDbEntity
  8
0
100
AcDbLine
 62
7
  6
CONTINUOUS
 10
-11.5415820675
 20
9.3970892433
 11
-11.5552176518
 21
9.4133394999
  0
LINE
  5
294
100
AcDbEntity
  8
0
100
AcDbLine
 62
7
  6
CONTINUOUS
 10
-10.2302143397
 20
7.7770966774
 11
-10.2432744918
 21
7.7938129098
  0
LINE
  5
295
100
AcDbEntity
  8
0
100
AcDbLine
 62
7
  6
CONTINUOUS
 10
-11.5361642496
 20
9.4486363367
 11
-11.5492244018
 21
9.4653525691
  0
LINE
  5
296
100
AcDbEntity
  8
0
100
AcDbLine
 62
7
  6
CONTINUOUS
 10
-9.790832883
 20
10.7428987884
 11
-9.7789706102
 21
10.7253122457
  0
LINE
  5
297
100
AcDbEntity
  8
0
100
AcDbLine
 62
7
  6
CONTINUOUS
 10
-9.7395134985
 20
10.7325257856
 11
-9.7282722133
 21
10.7145359688
  0
LINE
  5
298
100
AcDbEntity
  8
0
100
AcDbLine
 62
7
  6
CONTINUOUS
 10
-9.6885873889
 20
10.720368081
 11
-9.6779807872
 21
10.7019969079
  0
LINE
  5
299
100
AcDbEntity
  8
0
100
AcDbLine
 62
7
  6
CONTINUOUS
 10
-9.6381165999
 20
10.706440487
 11
-9.6281576042
 21
10.6877103401
  0
LINE
  5
29A
100
AcDbEntity
  8
0
100
AcDbLine
 62
7
  6
CONTINUOUS
 10
-9.5881626224
 20
10.6907599722
 11
-9.5788633661
 21
10.6716936712
  0
LINE
  5
29B
100
AcDbEntity
  8
0
100
AcDbLine
 62
7
  6
CONTINUOUS
 10
-9.8300142096
 20
7.8010263948
 11
-9.8424830177
 21
7.7838645528
  0
LINE
  5
29C
100
AcDbEntity
  8
0
100
AcDbLine
 62
7
  6
CONTINUOUS
 10
-9.8813408227
 20
7.7938129098
 11
-9.8944009749
 21
7.7770966774
  0
LINE
  5
29D
100
AcDbEntity
  8
0
100
AcDbLine
 62
7
  6
CONTINUOUS
 10
-9.9328879161
 20
7.7883950919
 11
-9.9465235005
 21
7.7721448353
  0
LINE
  5
29E
100
AcDbEntity
  8
0
100
AcDbLine
 62
7
  6
CONTINUOUS
 10
-11.5617424234
 20
9.226494486
 11
-11.5470064941
 21
9.2417539875
  0
LINE
  5
29F
100
AcDbEntity
  8
0
100
AcDbLine
 62
7
  6
CONTINUOUS
 10
-10.0882231719
 20
10.752368339
 11
-10.0734872425
 21
10.7676278405
  0
LINE
  5
2A0
100
AcDbEntity
  8
0
100
AcDbLine
 62
7
  6
CONTINUOUS
 10
-11.5622659956
 20
9.2788490874
 11
-11.5470064941
 21
9.2935850167
  0
LINE
  5
2A1
100
AcDbEntity
  8
0
100
AcDbLine
 62
7
  6
CONTINUOUS
 10
-10.0363921427
 20
10.752368339
 11
-10.0211326411
 21
10.7671042683
  0
LINE
  5
2A2
100
AcDbEntity
  8
0
100
AcDbLine
 62
7
  6
CONTINUOUS
 10
-11.5609620997
 20
9.3311900682
 11
-11.5451976173
 21
9.3453844719
  0
LINE
  5
2A3
100
AcDbEntity
  8
0
100
AcDbLine
 62
7
  6
CONTINUOUS
 10
-9.9845926875
 20
10.7505594622
 11
-9.9688282052
 21
10.7647538658
  0
LINE
  5
2A4
100
AcDbEntity
  8
0
100
AcDbLine
 62
7
  6
CONTINUOUS
 10
-9.9688282052
 20
7.7705851384
 11
-9.9845926875
 21
7.7847795421
  0
LINE
  5
2A5
100
AcDbEntity
  8
0
100
AcDbLine
 62
7
  6
CONTINUOUS
 10
-11.5451976173
 20
9.1899545324
 11
-11.5609620997
 21
9.2041489361
  0
LINE
  5
2A6
100
AcDbEntity
  8
0
100
AcDbLine
 62
7
  6
CONTINUOUS
 10
-10.0211326411
 20
7.768234736
 11
-10.0363921427
 21
7.7829706653
  0
LINE
  5
2A7
100
AcDbEntity
  8
0
100
AcDbLine
 62
7
  6
CONTINUOUS
 10
-11.5470064941
 20
9.2417539875
 11
-11.5622659956
 21
9.2564899169
  0
LINE
  5
2A8
100
AcDbEntity
  8
0
100
AcDbLine
 62
7
  6
CONTINUOUS
 10
-10.0734872425
 20
7.7677111638
 11
-10.0882231719
 21
7.7829706653
  0
LINE
  5
2A9
100
AcDbEntity
  8
0
100
AcDbLine
 62
7
  6
CONTINUOUS
 10
-11.5470064941
 20
9.2935850167
 11
-11.5617424234
 21
9.3088445183
  0
LINE
  5
2AA
100
AcDbEntity
  8
0
100
AcDbLine
 62
7
  6
CONTINUOUS
 10
-9.9465235005
 20
10.763194169
 11
-9.9328879161
 21
10.7469439123
  0
LINE
  5
2AB
100
AcDbEntity
  8
0
100
AcDbLine
 62
7
  6
CONTINUOUS
 10
-9.8944009749
 20
10.7582423269
 11
-9.8813408227
 21
10.7415260945
  0
LINE
  5
2AC
100
AcDbEntity
  8
0
100
AcDbLine
 62
7
  6
CONTINUOUS
 10
-9.8424830177
 20
10.7514744515
 11
-9.8300142096
 21
10.7343126094
  0
LINE
  5
2AD
100
AcDbEntity
  8
0
100
AcDbLine
 62
7
  6
CONTINUOUS
 10
-9.9845926875
 20
7.7847795421
 11
-9.9987870912
 21
7.7690150598
  0
LINE
  5
2AE
100
AcDbEntity
  8
0
100
AcDbLine
 62
7
  6
CONTINUOUS
 10
-10.0363921427
 20
7.7829706653
 11
-10.051128072
 21
7.7677111638
  0
LINE
  5
2AF
100
AcDbEntity
  8
0
100
AcDbLine
 62
7
  6
CONTINUOUS
 10
-10.0882231719
 20
7.7829706653
 11
-10.1034826734
 21
7.768234736
  0
LINE
  5
2B0
100
AcDbEntity
  8
0
100
AcDbLine
 62
7
  6
CONTINUOUS
 10
-11.5578323241
 20
9.3834536589
 11
-11.5415820675
 21
9.3970892433
  0
LINE
  5
2B1
100
AcDbEntity
  8
0
100
AcDbLine
 62
7
  6
CONTINUOUS
 10
-9.9328879161
 20
10.7469439123
 11
-9.9166376595
 21
10.7605794967
  0
LINE
  5
2B2
100
AcDbEntity
  8
0
100
AcDbLine
 62
7
  6
CONTINUOUS
 10
-11.5528804821
 20
9.4355761845
 11
-11.5361642496
 21
9.4486363367
  0
LINE
  5
2B3
100
AcDbEntity
  8
0
100
AcDbLine
 62
7
  6
CONTINUOUS
 10
-9.8813408227
 20
10.7415260945
 11
-9.8646245903
 21
10.7545862466
  0
LINE
  5
2B4
100
AcDbEntity
  8
0
100
AcDbLine
 62
7
  6
CONTINUOUS
 10
-11.5461126067
 20
9.4874941417
 11
-11.5289507646
 21
9.4999629498
  0
LINE
  5
2B5
100
AcDbEntity
  8
0
100
AcDbLine
 62
7
  6
CONTINUOUS
 10
-9.8300142096
 20
10.7343126094
 11
-9.8128523675
 21
10.7467814176
  0
LINE
  5
2B6
100
AcDbEntity
  8
0
100
AcDbLine
 62
7
  6
CONTINUOUS
 10
-9.8128523675
 20
7.7885575867
 11
-9.8300142096
 21
7.8010263948
  0
LINE
  5
2B7
100
AcDbEntity
  8
0
100
AcDbLine
 62
7
  6
CONTINUOUS
 10
-11.5289507646
 20
9.0353760544
 11
-11.5461126067
 21
9.0478448626
  0
LINE
  5
2B8
100
AcDbEntity
  8
0
100
AcDbLine
 62
7
  6
CONTINUOUS
 10
-9.8646245903
 20
7.7807527577
 11
-9.8813408227
 21
7.7938129098
  0
LINE
  5
2B9
100
AcDbEntity
  8
0
100
AcDbLine
 62
7
  6
CONTINUOUS
 10
-11.5361642496
 20
9.0867026676
 11
-11.5528804821
 21
9.0997628197
  0
LINE
  5
2BA
100
AcDbEntity
  8
0
100
AcDbLine
 62
7
  6
CONTINUOUS
 10
-9.9166376595
 20
7.7747595076
 11
-9.9328879161
 21
7.7883950919
  0
LINE
  5
2BB
100
AcDbEntity
  8
0
100
AcDbLine
 62
7
  6
CONTINUOUS
 10
-11.5415820675
 20
9.138249761
 11
-11.5578323241
 21
9.1518853453
  0
LINE
  5
2BC
100
AcDbEntity
  8
0
100
AcDbLine
 62
7
  6
CONTINUOUS
 10
-10.1034826734
 20
10.7671042683
 11
-10.0882231719
 21
10.752368339
  0
LINE
  5
2BD
100
AcDbEntity
  8
0
100
AcDbLine
 62
7
  6
CONTINUOUS
 10
-10.051128072
 20
10.7676278405
 11
-10.0363921427
 21
10.752368339
  0
LINE
  5
2BE
100
AcDbEntity
  8
0
100
AcDbLine
 62
7
  6
CONTINUOUS
 10
-9.9987870912
 20
10.7663239445
 11
-9.9845926875
 21
10.7505594622
  0
LINE
  5
2BF
100
AcDbEntity
  8
0
100
AcDbLine
 62
7
  6
CONTINUOUS
 10
-10.140022627
 20
7.7847795421
 11
-10.1557871094
 21
7.7705851384
  0
LINE
  5
2C0
100
AcDbEntity
  8
0
100
AcDbLine
 62
7
  6
CONTINUOUS
 10
-10.1917273984
 20
7.7883950919
 11
-10.207977655
 21
7.7747595076
  0
LINE
  5
2C1
100
AcDbEntity
  8
0
100
AcDbLine
 62
7
  6
CONTINUOUS
 10
-10.2432744918
 20
7.7938129098
 11
-10.2599907242
 21
7.7807527577
  0
LINE
  5
2C2
100
AcDbEntity
  8
0
100
AcDbLine
 62
7
  6
CONTINUOUS
 10
-11.5375369435
 20
9.5391442764
 11
-11.5199504008
 21
9.5510065492
  0
LINE
  5
2C3
100
AcDbEntity
  8
0
100
AcDbLine
 62
7
  6
CONTINUOUS
 10
-9.7789706102
 20
10.7253122457
 11
-9.7613840675
 21
10.7371745185
  0
LINE
  5
2C4
100
AcDbEntity
  8
0
100
AcDbLine
 62
7
  6
CONTINUOUS
 10
-11.5271639407
 20
9.5904636609
 11
-11.5091741239
 21
9.6017049461
  0
LINE
  5
2C5
100
AcDbEntity
  8
0
100
AcDbLine
 62
7
  6
CONTINUOUS
 10
-9.7282722133
 20
10.7145359688
 11
-9.7102823965
 21
10.7257772539
  0
LINE
  5
2C6
100
AcDbEntity
  8
0
100
AcDbLine
 62
7
  6
CONTINUOUS
 10
-9.7102823965
 20
7.8095617504
 11
-9.7282722133
 21
7.8208030355
  0
LINE
  5
2C7
100
AcDbEntity
  8
0
100
AcDbLine
 62
7
  6
CONTINUOUS
 10
-11.5091741239
 20
8.9336340582
 11
-11.5271639407
 21
8.9448753433
  0
LINE
  5
2C8
100
AcDbEntity
  8
0
100
AcDbLine
 62
7
  6
CONTINUOUS
 10
-9.7613840675
 20
7.7981644858
 11
-9.7789706102
 21
7.8100267586
  0
LINE
  5
2C9
100
AcDbEntity
  8
0
100
AcDbLine
 62
7
  6
CONTINUOUS
 10
-11.5199504008
 20
8.984332455
 11
-11.5375369435
 21
8.9961947279
  0
LINE
  5
2CA
100
AcDbEntity
  8
0
100
AcDbLine
 62
7
  6
CONTINUOUS
 10
-10.2599907242
 20
10.7545862466
 11
-10.2432744918
 21
10.7415260945
  0
LINE
  5
2CB
100
AcDbEntity
  8
0
100
AcDbLine
 62
7
  6
CONTINUOUS
 10
-10.207977655
 20
10.7605794967
 11
-10.1917273984
 21
10.7469439123
  0
LINE
  5
2CC
100
AcDbEntity
  8
0
100
AcDbLine
 62
7
  6
CONTINUOUS
 10
-10.1557871094
 20
10.7647538658
 11
-10.140022627
 21
10.7505594622
  0
LINE
  5
2CD
100
AcDbEntity
  8
0
100
AcDbLine
 62
7
  6
CONTINUOUS
 10
-10.294601105
 20
7.8010263948
 11
-10.3117629471
 21
7.7885575867
  0
LINE
  5
2CE
100
AcDbEntity
  8
0
100
AcDbLine
 62
7
  6
CONTINUOUS
 10
-10.3456447044
 20
7.8100267586
 11
-10.363231247
 21
7.7981644858
  0
LINE
  5
2CF
100
AcDbEntity
  8
0
100
AcDbLine
 62
7
  6
CONTINUOUS
 10
-11.5150062361
 20
9.6413897705
 11
-11.4966350631
 21
9.6519963722
  0
LINE
  5
2D0
100
AcDbEntity
  8
0
100
AcDbLine
 62
7
  6
CONTINUOUS
 10
-9.6779807872
 20
10.7019969079
 11
-9.6596096141
 21
10.7126035097
  0
LINE
  5
2D1
100
AcDbEntity
  8
0
100
AcDbLine
 62
7
  6
CONTINUOUS
 10
-11.5010786421
 20
9.6918605595
 11
-11.4823484952
 21
9.7018195552
  0
LINE
  5
2D2
100
AcDbEntity
  8
0
100
AcDbLine
 62
7
  6
CONTINUOUS
 10
-9.6281576042
 20
10.6877103401
 11
-9.6094274573
 21
10.6976693359
  0
LINE
  5
2D3
100
AcDbEntity
  8
0
100
AcDbLine
 62
7
  6
CONTINUOUS
 10
-9.6094274573
 20
7.8376696684
 11
-9.6281576042
 21
7.8476286642
  0
LINE
  5
2D4
100
AcDbEntity
  8
0
100
AcDbLine
 62
7
  6
CONTINUOUS
 10
-11.4823484952
 20
8.8335194491
 11
-11.5010786421
 21
8.8434784448
  0
LINE
  5
2D5
100
AcDbEntity
  8
0
100
AcDbLine
 62
7
  6
CONTINUOUS
 10
-9.6596096141
 20
7.8227354946
 11
-9.6779807872
 21
7.8333420964
  0
LINE
  5
2D6
100
AcDbEntity
  8
0
100
AcDbLine
 62
7
  6
CONTINUOUS
 10
-11.4966350631
 20
8.8833426321
 11
-11.5150062361
 21
8.8939492338
  0
LINE
  5
2D7
100
AcDbEntity
  8
0
100
AcDbLine
 62
7
  6
CONTINUOUS
 10
-10.363231247
 20
10.7371745185
 11
-10.3456447044
 21
10.7253122457
  0
LINE
  5
2D8
100
AcDbEntity
  8
0
100
AcDbLine
 62
7
  6
CONTINUOUS
 10
-10.3117629471
 20
10.7467814176
 11
-10.294601105
 21
10.7343126094
  0
LINE
  5
2D9
100
AcDbEntity
  8
0
100
AcDbLine
 62
7
  6
CONTINUOUS
 10
-10.3963431012
 20
7.8208030355
 11
-10.414332918
 21
7.8095617504
  0
LINE
  5
2DA
100
AcDbEntity
  8
0
100
AcDbLine
 62
7
  6
CONTINUOUS
 10
-10.4466345273
 20
7.8333420964
 11
-10.4650057004
 21
7.8227354946
  0
LINE
  5
2DB
100
AcDbEntity
  8
0
100
AcDbLine
 62
7
  6
CONTINUOUS
 10
-11.4853981273
 20
9.741814537
 11
-11.4663318264
 21
9.7511137933
  0
LINE
  5
2DC
100
AcDbEntity
  8
0
100
AcDbLine
 62
7
  6
CONTINUOUS
 10
-9.5788633661
 20
10.6716936712
 11
-9.5597970652
 21
10.6809929276
  0
LINE
  5
2DD
100
AcDbEntity
  8
0
100
AcDbLine
 62
7
  6
CONTINUOUS
 10
-11.467983796
 20
9.7911908418
 11
-11.4486045703
 21
9.7998190289
  0
LINE
  5
2DE
100
AcDbEntity
  8
0
100
AcDbLine
 62
7
  6
CONTINUOUS
 10
-9.5301581305
 20
10.6539664152
 11
-9.5107789048
 21
10.6625946024
  0
LINE
  5
2DF
100
AcDbEntity
  8
0
100
AcDbLine
 62
7
  6
CONTINUOUS
 10
-11.4488568648
 20
9.8399293165
 11
-11.429188325
 21
9.8478759224
  0
LINE
  5
2E0
100
AcDbEntity
  8
0
100
AcDbLine
 62
7
  6
CONTINUOUS
 10
-9.482101237
 20
10.6345501699
 11
-9.4624326973
 21
10.6424967758
  0
LINE
  5
2E1
100
AcDbEntity
  8
0
100
AcDbLine
 62
7
  6
CONTINUOUS
 10
-9.4624326973
 20
7.8928422285
 11
-9.482101237
 21
7.9007888344
  0
LINE
  5
2E2
100
AcDbEntity
  8
0
100
AcDbLine
 62
7
  6
CONTINUOUS
 10
-11.429188325
 20
8.6874630819
 11
-11.4488568648
 21
8.6954096878
  0
LINE
  5
2E3
100
AcDbEntity
  8
0
100
AcDbLine
 62
7
  6
CONTINUOUS
 10
-9.5107789048
 20
7.8727444019
 11
-9.5301581305
 21
7.8813725891
  0
LINE
  5
2E4
100
AcDbEntity
  8
0
100
AcDbLine
 62
7
  6
CONTINUOUS
 10
-11.4486045703
 20
8.7355199753
 11
-11.467983796
 21
8.7441481625
  0
LINE
  5
2E5
100
AcDbEntity
  8
0
100
AcDbLine
 62
7
  6
CONTINUOUS
 10
-9.5597970652
 20
7.8543460767
 11
-9.5788633661
 21
7.863645333
  0
LINE
  5
2E6
100
AcDbEntity
  8
0
100
AcDbLine
 62
7
  6
CONTINUOUS
 10
-11.4663318264
 20
8.784225211
 11
-11.4853981273
 21
8.7935244673
  0
LINE
  5
2E7
100
AcDbEntity
  8
0
100
AcDbLine
 62
7
  6
CONTINUOUS
 10
-10.4650057004
 20
10.7126035097
 11
-10.4466345273
 21
10.7019969079
  0
LINE
  5
2E8
100
AcDbEntity
  8
0
100
AcDbLine
 62
7
  6
CONTINUOUS
 10
-10.414332918
 20
10.7257772539
 11
-10.3963431012
 21
10.7145359688
  0
LINE
  5
2E9
100
AcDbEntity
  8
0
100
AcDbLine
 62
7
  6
CONTINUOUS
 10
-10.4964577103
 20
7.8476286642
 11
-10.5151878573
 21
7.8376696684
  0
LINE
  5
2EA
100
AcDbEntity
  8
0
100
AcDbLine
 62
7
  6
CONTINUOUS
 10
-10.5457519484
 20
7.863645333
 11
-10.5648182494
 21
7.8543460767
  0
LINE
  5
2EB
100
AcDbEntity
  8
0
100
AcDbLine
 62
7
  6
CONTINUOUS
 10
-10.5944571841
 20
7.8813725891
 11
-10.6138364097
 21
7.8727444019
  0
LINE
  5
2EC
100
AcDbEntity
  8
0
100
AcDbLine
 62
7
  6
CONTINUOUS
 10
-11.428040637
 20
9.8879705808
 11
-11.4081067462
 21
9.8952259237
  0
LINE
  5
2ED
100
AcDbEntity
  8
0
100
AcDbLine
 62
7
  6
CONTINUOUS
 10
-9.4347512357
 20
10.6134685911
 11
-9.414817345
 21
10.620723934
  0
LINE
  5
2EE
100
AcDbEntity
  8
0
100
AcDbLine
 62
7
  6
CONTINUOUS
 10
-11.4055604739
 20
9.9352561038
 11
-11.3853855185
 21
9.9418113441
  0
LINE
  5
2EF
100
AcDbEntity
  8
0
100
AcDbLine
 62
7
  6
CONTINUOUS
 10
-9.3881658153
 20
10.5907473634
 11
-9.3679908599
 21
10.5973026038
  0
LINE
  5
2F0
100
AcDbEntity
  8
0
100
AcDbLine
 62
7
  6
CONTINUOUS
 10
-9.3679908599
 20
7.9380364005
 11
-9.3881658153
 21
7.9445916409
  0
LINE
  5
2F1
100
AcDbEntity
  8
0
100
AcDbLine
 62
7
  6
CONTINUOUS
 10
-11.3853855185
 20
8.5935276602
 11
-11.4055604739
 21
8.6000829005
  0
LINE
  5
2F2
100
AcDbEntity
  8
0
100
AcDbLine
 62
7
  6
CONTINUOUS
 10
-9.414817345
 20
7.9146150703
 11
-9.4347512357
 21
7.9218704132
  0
LINE
  5
2F3
100
AcDbEntity
  8
0
100
AcDbLine
 62
7
  6
CONTINUOUS
 10
-11.4081067462
 20
8.6401130806
 11
-11.428040637
 21
8.6473684235
  0
LINE
  5
2F4
100
AcDbEntity
  8
0
100
AcDbLine
 62
7
  6
CONTINUOUS
 10
-10.6138364097
 20
10.6625946024
 11
-10.5944571841
 21
10.6539664152
  0
LINE
  5
2F5
100
AcDbEntity
  8
0
100
AcDbLine
 62
7
  6
CONTINUOUS
 10
-10.5648182494
 20
10.6809929276
 11
-10.5457519484
 21
10.6716936712
  0
LINE
  5
2F6
100
AcDbEntity
  8
0
100
AcDbLine
 62
7
  6
CONTINUOUS
 10
-10.5151878573
 20
10.6976693359
 11
-10.4964577103
 21
10.6877103401
  0
LINE
  5
2F7
100
AcDbEntity
  8
0
100
AcDbLine
 62
7
  6
CONTINUOUS
 10
-10.6425140775
 20
7.9007888344
 11
-10.6621826172
 21
7.8928422285
  0
LINE
  5
2F8
100
AcDbEntity
  8
0
100
AcDbLine
 62
7
  6
CONTINUOUS
 10
-8.7094848579
 20
8.6426695021
 11
-8.7165085683
 21
8.6401130806
  0
LINE
  5
2F9
100
AcDbEntity
  8
0
100
AcDbLine
 62
7
  6
CONTINUOUS
 10
-10.6898640788
 20
7.9218704132
 11
-10.7097979695
 21
7.9146150703
  0
LINE
  5
2FA
100
AcDbEntity
  8
0
100
AcDbLine
 62
7
  6
CONTINUOUS
 10
-11.3814437642
 20
9.9817282753
 11
-11.3610523242
 21
9.9875754266
  0
LINE
  5
2FB
100
AcDbEntity
  8
0
100
AcDbLine
 62
7
  6
CONTINUOUS
 10
-9.3424017328
 20
10.5664141691
 11
-9.3220102929
 21
10.5722613204
  0
LINE
  5
2FC
100
AcDbEntity
  8
0
100
AcDbLine
 62
7
  6
CONTINUOUS
 10
33.2311045758
 20
8.5080085281
 11
33.2105214951
 21
8.5028765897
  0
LINE
  5
2FD
100
AcDbEntity
  8
0
100
AcDbLine
 62
7
  6
CONTINUOUS
 10
31.1728994303
 20
7.9948403498
 11
31.1523163497
 21
7.9897084114
  0
LINE
  5
2FE
100
AcDbEntity
  8
0
100
AcDbLine
 62
7
  6
CONTINUOUS
 10
-9.2769316642
 20
7.9897084114
 11
-9.2975147448
 21
7.9948403498
  0
LINE
  5
2FF
100
AcDbEntity
  8
0
100
AcDbLine
 62
7
  6
CONTINUOUS
 10
-11.3351368097
 20
8.5028765897
 11
-11.3557198903
 21
8.5080085281
  0
LINE
  5
300
100
AcDbEntity
  8
0
100
AcDbLine
 62
7
  6
CONTINUOUS
 10
-9.3220102929
 20
7.9630776839
 11
-9.3424017328
 21
7.9689248352
  0
LINE
  5
301
100
AcDbEntity
  8
0
100
AcDbLine
 62
7
  6
CONTINUOUS
 10
-11.3610523242
 20
8.5477635777
 11
-11.3814437642
 21
8.553610729
  0
LINE
  5
302
100
AcDbEntity
  8
0
100
AcDbLine
 62
7
  6
CONTINUOUS
 10
-10.7097979695
 20
10.620723934
 11
-10.6898640788
 21
10.6134685911
  0
LINE
  5
303
100
AcDbEntity
  8
0
100
AcDbLine
 62
7
  6
CONTINUOUS
 10
-8.7165085683
 20
9.8952259237
 11
-8.7094848579
 21
9.8926695021
  0
LINE
  5
304
100
AcDbEntity
  8
0
100
AcDbLine
 62
7
  6
CONTINUOUS
 10
-10.6621826172
 20
10.6424967758
 11
-10.6425140775
 21
10.6345501699
  0
LINE
  5
305
100
AcDbEntity
  8
0
100
AcDbLine
 62
7
  6
CONTINUOUS
 10
-8.7190548406
 20
8.6000829005
 11
-8.739229796
 21
8.5935276602
  0
LINE
  5
306
100
AcDbEntity
  8
0
100
AcDbLine
 62
7
  6
CONTINUOUS
 10
-10.7364494992
 20
7.9445916409
 11
-10.7566244546
 21
7.9380364005
  0
LINE
  5
307
100
AcDbEntity
  8
0
100
AcDbLine
 62
7
  6
CONTINUOUS
 10
-8.7431715504
 20
8.553610729
 11
-8.7635629903
 21
8.5477635777
  0
LINE
  5
308
100
AcDbEntity
  8
0
100
AcDbLine
 62
7
  6
CONTINUOUS
 10
-10.7822135817
 20
7.9689248352
 11
-10.8026050216
 21
7.9630776839
  0
LINE
  5
309
100
AcDbEntity
  8
0
100
AcDbLine
 62
7
  6
CONTINUOUS
 10
33.2038048783
 20
8.4633318571
 11
33.1830552343
 21
8.4589213841
  0
LINE
  5
30A
100
AcDbEntity
  8
0
100
AcDbLine
 62
7
  6
CONTINUOUS
 10
31.1289442247
 20
8.0223066106
 11
31.1081945806
 21
8.0178961376
  0
LINE
  5
30B
100
AcDbEntity
  8
0
100
AcDbLine
 62
7
  6
CONTINUOUS
 10
33.1749626178
 20
8.4196351476
 11
33.1540716906
 21
8.4159515135
  0
LINE
  5
30C
100
AcDbEntity
  8
0
100
AcDbLine
 62
7
  6
CONTINUOUS
 10
31.0859743541
 20
8.0512901543
 11
31.0650834269
 21
8.0476065202
  0
LINE
  5
30D
100
AcDbEntity
  8
0
100
AcDbLine
 62
7
  6
CONTINUOUS
 10
-9.1896987414
 20
8.0476065202
 11
-9.2105896686
 21
8.0512901543
  0
LINE
  5
30E
100
AcDbEntity
  8
0
100
AcDbLine
 62
7
  6
CONTINUOUS
 10
-11.2786870051
 20
8.4159515135
 11
-11.2995779323
 21
8.4196351476
  0
LINE
  5
30F
100
AcDbEntity
  8
0
100
AcDbLine
 62
7
  6
CONTINUOUS
 10
-9.2328098952
 20
8.0178961376
 11
-9.2535595392
 21
8.0223066106
  0
LINE
  5
310
100
AcDbEntity
  8
0
100
AcDbLine
 62
7
  6
CONTINUOUS
 10
-11.3076705488
 20
8.4589213841
 11
-11.3284201928
 21
8.4633318571
  0
LINE
  5
311
100
AcDbEntity
  8
0
100
AcDbLine
 62
7
  6
CONTINUOUS
 10
-10.8026050216
 20
10.5722613204
 11
-10.7822135817
 21
10.5664141691
  0
LINE
  5
312
100
AcDbEntity
  8
0
100
AcDbLine
 62
7
  6
CONTINUOUS
 10
-8.7635629903
 20
9.9875754266
 11
-8.7431715504
 21
9.9817282753
  0
LINE
  5
313
100
AcDbEntity
  8
0
100
AcDbLine
 62
7
  6
CONTINUOUS
 10
-10.7566244546
 20
10.5973026038
 11
-10.7364494992
 21
10.5907473634
  0
LINE
  5
314
100
AcDbEntity
  8
0
100
AcDbLine
 62
7
  6
CONTINUOUS
 10
-8.739229796
 20
9.9418113441
 11
-8.7190548406
 21
9.9352561038
  0
LINE
  5
315
100
AcDbEntity
  8
0
100
AcDbLine
 62
7
  6
CONTINUOUS
 10
30.6442801097
 20
10.0273304762
 11
30.6648631903
 21
10.0324624146
  0
LINE
  5
316
100
AcDbEntity
  8
0
100
AcDbLine
 62
7
  6
CONTINUOUS
 10
32.7024852552
 20
10.5404986545
 11
32.7230683358
 21
10.5456305929
  0
LINE
  5
317
100
AcDbEntity
  8
0
100
AcDbLine
 62
7
  6
CONTINUOUS
 10
30.6715798072
 20
10.0720071472
 11
30.6923294512
 21
10.0764176202
  0
LINE
  5
318
100
AcDbEntity
  8
0
100
AcDbLine
 62
7
  6
CONTINUOUS
 10
32.7464404608
 20
10.5130323937
 11
32.7671901048
 21
10.5174428667
  0
LINE
  5
319
100
AcDbEntity
  8
0
100
AcDbLine
 62
7
  6
CONTINUOUS
 10
33.144612934
 20
8.3769716373
 11
33.123606176
 21
8.37401933
  0
LINE
  5
31A
100
AcDbEntity
  8
0
100
AcDbLine
 62
7
  6
CONTINUOUS
 10
31.0440421706
 20
8.0817556689
 11
31.0230354126
 21
8.0788033616
  0
LINE
  5
31B
100
AcDbEntity
  8
0
100
AcDbLine
 62
7
  6
CONTINUOUS
 10
33.1127928034
 20
8.3353933052
 11
33.0916958081
 21
8.3331759216
  0
LINE
  5
31C
100
AcDbEntity
  8
0
100
AcDbLine
 62
7
  6
CONTINUOUS
 10
31.0031987622
 20
8.1136660368
 11
30.982101767
 21
8.1114486532
  0
LINE
  5
31D
100
AcDbEntity
  8
0
100
AcDbLine
 62
7
  6
CONTINUOUS
 10
-9.1067170815
 20
8.1114486532
 11
-9.1278140768
 21
8.1136660368
  0
LINE
  5
31E
100
AcDbEntity
  8
0
100
AcDbLine
 62
7
  6
CONTINUOUS
 10
-11.2163111226
 20
8.3331759216
 11
-11.2374081179
 21
8.3353933052
  0
LINE
  5
31F
100
AcDbEntity
  8
0
100
AcDbLine
 62
7
  6
CONTINUOUS
 10
-9.1476507271
 20
8.0788033616
 11
-9.1686574851
 21
8.0817556689
  0
LINE
  5
320
100
AcDbEntity
  8
0
100
AcDbLine
 62
7
  6
CONTINUOUS
 10
-11.2482214905
 20
8.37401933
 11
-11.2692282485
 21
8.3769716373
  0
LINE
  5
321
100
AcDbEntity
  8
0
100
AcDbLine
 62
7
  6
CONTINUOUS
 10
-10.8918054194
 20
10.5174428667
 11
-10.8710557753
 21
10.5130323937
  0
LINE
  5
322
100
AcDbEntity
  8
0
100
AcDbLine
 62
7
  6
CONTINUOUS
 10
-8.8169447657
 20
10.0764176202
 11
-8.7961951217
 21
10.0720071472
  0
LINE
  5
323
100
AcDbEntity
  8
0
100
AcDbLine
 62
7
  6
CONTINUOUS
 10
-10.8476836503
 20
10.5456305929
 11
-10.8271005697
 21
10.5404986545
  0
LINE
  5
324
100
AcDbEntity
  8
0
100
AcDbLine
 62
7
  6
CONTINUOUS
 10
-8.7894785049
 20
10.0324624146
 11
-8.7688954242
 21
10.0273304762
  0
LINE
  5
325
100
AcDbEntity
  8
0
100
AcDbLine
 62
7
  6
CONTINUOUS
 10
30.7004220677
 20
10.1157038567
 11
30.7213129949
 21
10.1193874908
  0
LINE
  5
326
100
AcDbEntity
  8
0
100
AcDbLine
 62
7
  6
CONTINUOUS
 10
32.7894103314
 20
10.48404885
 11
32.8103012586
 21
10.4877324841
  0
LINE
  5
327
100
AcDbEntity
  8
0
100
AcDbLine
 62
7
  6
CONTINUOUS
 10
30.7307717515
 20
10.158367367
 11
30.7517785095
 21
10.1613196743
  0
LINE
  5
328
100
AcDbEntity
  8
0
100
AcDbLine
 62
7
  6
CONTINUOUS
 10
32.8313425149
 20
10.4535833354
 11
32.8523492729
 21
10.4565356427
  0
LINE
  5
329
100
AcDbEntity
  8
0
100
AcDbLine
 62
7
  6
CONTINUOUS
 10
33.0795409939
 20
8.294950808
 11
33.0583794647
 21
8.2934710497
  0
LINE
  5
32A
100
AcDbEntity
  8
0
100
AcDbLine
 62
7
  6
CONTINUOUS
 10
30.9634938903
 20
8.1469823801
 11
30.9423323612
 21
8.1455026219
  0
LINE
  5
32B
100
AcDbEntity
  8
0
100
AcDbLine
 62
7
  6
CONTINUOUS
 10
33.0448980177
 20
8.2556934187
 11
33.0236977367
 21
8.2549530886
  0
LINE
  5
32C
100
AcDbEntity
  8
0
100
AcDbLine
 62
7
  6
CONTINUOUS
 10
30.9249759292
 20
8.1816641081
 11
30.9037756483
 21
8.180923778
  0
LINE
  5
32D
100
AcDbEntity
  8
0
100
AcDbLine
 62
7
  6
CONTINUOUS
 10
-9.0283909628
 20
8.180923778
 11
-9.0495912437
 21
8.1816641081
  0
LINE
  5
32E
100
AcDbEntity
  8
0
100
AcDbLine
 62
7
  6
CONTINUOUS
 10
-11.1483130513
 20
8.2549530886
 11
-11.1695133322
 21
8.2556934187
  0
LINE
  5
32F
100
AcDbEntity
  8
0
100
AcDbLine
 62
7
  6
CONTINUOUS
 10
-9.0669476757
 20
8.1455026219
 11
-9.0881092049
 21
8.1469823801
  0
LINE
  5
330
100
AcDbEntity
  8
0
100
AcDbLine
 62
7
  6
CONTINUOUS
 10
-11.1829947793
 20
8.2934710497
 11
-11.2041563084
 21
8.294950808
  0
LINE
  5
331
100
AcDbEntity
  8
0
100
AcDbLine
 62
7
  6
CONTINUOUS
 10
-10.9769645874
 20
10.4565356427
 11
-10.9559578294
 21
10.4535833354
  0
LINE
  5
332
100
AcDbEntity
  8
0
100
AcDbLine
 62
7
  6
CONTINUOUS
 10
-8.876393824
 20
10.1613196743
 11
-8.855387066
 21
10.158367367
  0
LINE
  5
333
100
AcDbEntity
  8
0
100
AcDbLine
 62
7
  6
CONTINUOUS
 10
-10.9349165731
 20
10.4877324841
 11
-10.9140256459
 21
10.48404885
  0
LINE
  5
334
100
AcDbEntity
  8
0
100
AcDbLine
 62
7
  6
CONTINUOUS
 10
-8.8459283094
 20
10.1193874908
 11
-8.8250373822
 21
10.1157038567
  0
LINE
  5
335
100
AcDbEntity
  8
0
100
AcDbLine
 62
7
  6
CONTINUOUS
 10
10.0054161458
 20
8.0925690415
 11
10.0031987622
 21
8.1136660368
  0
LINE
  5
336
100
AcDbEntity
  8
0
100
AcDbLine
 62
7
  6
CONTINUOUS
 10
9.7836888774
 20
10.2021630826
 11
9.7814714938
 21
10.2232600779
  0
LINE
  5
337
100
AcDbEntity
  8
0
100
AcDbLine
 62
7
  6
CONTINUOUS
 10
9.9649736486
 20
8.125820851
 11
9.9634938903
 21
8.1469823801
  0
LINE
  5
338
100
AcDbEntity
  8
0
100
AcDbLine
 62
7
  6
CONTINUOUS
 10
9.8170052207
 20
10.2418679545
 11
9.8155254625
 21
10.2630294837
  0
LINE
  5
339
100
AcDbEntity
  8
0
100
AcDbLine
 62
7
  6
CONTINUOUS
 10
9.9257162593
 20
8.1604638272
 11
9.9249759292
 21
8.1816641081
  0
LINE
  5
33A
100
AcDbEntity
  8
0
100
AcDbLine
 62
7
  6
CONTINUOUS
 10
9.8516869487
 20
10.2803859157
 11
9.8509466186
 21
10.3015861966
  0
LINE
  5
33B
100
AcDbEntity
  8
0
100
AcDbLine
 62
7
  6
CONTINUOUS
 10
9.887691807
 20
8.196455763
 11
9.887691807
 21
8.2176689664
  0
LINE
  5
33C
100
AcDbEntity
  8
0
100
AcDbLine
 62
7
  6
CONTINUOUS
 10
9.887691807
 20
10.3176700379
 11
9.887691807
 21
10.3388832413
  0
LINE
  5
33D
100
AcDbEntity
  8
0
100
AcDbLine
 62
7
  6
CONTINUOUS
 10
9.8509466186
 20
8.2337528077
 11
9.8516869487
 21
8.2549530886
  0
LINE
  5
33E
100
AcDbEntity
  8
0
100
AcDbLine
 62
7
  6
CONTINUOUS
 10
9.9249759292
 20
10.3536748961
 11
9.9257162593
 21
10.3748751771
  0
LINE
  5
33F
100
AcDbEntity
  8
0
100
AcDbLine
 62
7
  6
CONTINUOUS
 10
9.8155254625
 20
8.2723095206
 11
9.8170052207
 21
8.2934710497
  0
LINE
  5
340
100
AcDbEntity
  8
0
100
AcDbLine
 62
7
  6
CONTINUOUS
 10
9.9634938903
 20
10.3883566241
 11
9.9649736486
 21
10.4095181533
  0
LINE
  5
341
100
AcDbEntity
  8
0
100
AcDbLine
 62
7
  6
CONTINUOUS
 10
9.7814714938
 20
8.3120789264
 11
9.7836888774
 21
8.3331759216
  0
LINE
  5
342
100
AcDbEntity
  8
0
100
AcDbLine
 62
7
  6
CONTINUOUS
 10
10.0031987622
 20
10.4216729675
 11
10.0054161458
 21
10.4427699628
  0
LINE
  5
343
100
AcDbEntity
  8
0
100
AcDbLine
 62
7
  6
CONTINUOUS
 10
9.7488262022
 20
8.353012572
 11
9.7517785095
 21
8.37401933
  0
LINE
  5
344
100
AcDbEntity
  8
0
100
AcDbLine
 62
7
  6
CONTINUOUS
 10
10.0440421706
 20
10.4535833354
 11
10.0469944779
 21
10.4745900934
  0
LINE
  5
345
100
AcDbEntity
  8
0
100
AcDbLine
 62
7
  6
CONTINUOUS
 10
9.7176293608
 20
8.3950605863
 11
9.7213129949
 21
8.4159515135
  0
LINE
  5
346
100
AcDbEntity
  8
0
100
AcDbLine
 62
7
  6
CONTINUOUS
 10
10.0859743541
 20
10.48404885
 11
10.0896579882
 21
10.5049397772
  0
LINE
  5
347
100
AcDbEntity
  8
0
100
AcDbLine
 62
7
  6
CONTINUOUS
 10
9.6879189782
 20
8.4381717401
 11
9.6923294512
 21
8.4589213841
  0
LINE
  5
348
100
AcDbEntity
  8
0
100
AcDbLine
 62
7
  6
CONTINUOUS
 10
10.1289442247
 20
10.5130323937
 11
10.1333546977
 21
10.5337820377
  0
LINE
  5
349
100
AcDbEntity
  8
0
100
AcDbLine
 62
7
  6
CONTINUOUS
 10
9.659731252
 20
8.4822935091
 11
9.6648631903
 21
8.5028765897
  0
LINE
  5
34A
100
AcDbEntity
  8
0
100
AcDbLine
 62
7
  6
CONTINUOUS
 10
10.1728994303
 20
10.5404986545
 11
10.1780313687
 21
10.5610817352
  0
LINE
  5
34B
100
AcDbEntity
  8
0
100
AcDbLine
 62
7
  6
CONTINUOUS
 10
9.6331005245
 20
8.5273721378
 11
9.6389476758
 21
8.5477635777
  0
LINE
  5
34C
100
AcDbEntity
  8
0
100
AcDbLine
 62
7
  6
CONTINUOUS
 10
10.2177864183
 20
10.5664141691
 11
10.2236335696
 21
10.586805609
  0
LINE
  5
34D
100
AcDbEntity
  8
0
100
AcDbLine
 62
7
  6
CONTINUOUS
 10
9.6080592411
 20
8.5733527048
 11
9.6146144815
 21
8.5935276602
  0
LINE
  5
34E
100
AcDbEntity
  8
0
100
AcDbLine
 62
7
  6
CONTINUOUS
 10
10.2635505008
 20
10.5907473634
 11
10.2701057411
 21
10.6109223188
  0
LINE
  5
34F
100
AcDbEntity
  8
0
100
AcDbLine
 62
7
  6
CONTINUOUS
 10
9.5846379109
 20
8.6201791899
 11
9.5918932538
 21
8.6401130806
  0
LINE
  5
350
100
AcDbEntity
  8
0
100
AcDbLine
 62
7
  6
CONTINUOUS
 10
10.3101359212
 20
10.6134685911
 11
10.3173912641
 21
10.6334024818
  0
LINE
  5
351
100
AcDbEntity
  8
0
100
AcDbLine
 62
7
  6
CONTINUOUS
 10
10.3574859225
 20
10.6345501699
 11
10.3654325284
 21
10.6542187097
  0
LINE
  5
352
100
AcDbEntity
  8
0
100
AcDbLine
 62
7
  6
CONTINUOUS
 10
10.4055428159
 20
10.6539664152
 11
10.4141710031
 21
10.6733456408
  0
LINE
  5
353
100
AcDbEntity
  8
0
100
AcDbLine
 62
7
  6
CONTINUOUS
 10
10.4542480516
 20
10.6716936712
 11
10.4635473079
 21
10.6907599722
  0
LINE
  5
354
100
AcDbEntity
  8
0
100
AcDbLine
 62
7
  6
CONTINUOUS
 10
10.5035422897
 20
10.6877103401
 11
10.5135012854
 21
10.706440487
  0
LINE
  5
355
100
AcDbEntity
  8
0
100
AcDbLine
 62
7
  6
CONTINUOUS
 10
10.5533654727
 20
10.7019969079
 11
10.5639720744
 21
10.720368081
  0
LINE
  5
356
100
AcDbEntity
  8
0
100
AcDbLine
 62
7
  6
CONTINUOUS
 10
10.6036568988
 20
10.7145359688
 11
10.6148981839
 21
10.7325257856
  0
LINE
  5
357
100
AcDbEntity
  8
0
100
AcDbLine
 62
7
  6
CONTINUOUS
 10
10.6543552956
 20
10.7253122457
 11
10.6662175685
 21
10.7428987884
  0
LINE
  5
358
100
AcDbEntity
  8
0
100
AcDbLine
 62
7
  6
CONTINUOUS
 10
10.705398895
 20
10.7343126094
 11
10.7178677032
 21
10.7514744515
  0
LINE
  5
359
100
AcDbEntity
  8
0
100
AcDbLine
 62
7
  6
CONTINUOUS
 10
10.7567255082
 20
10.7415260945
 11
10.7697856603
 21
10.7582423269
  0
LINE
  5
35A
100
AcDbEntity
  8
0
100
AcDbLine
 62
7
  6
CONTINUOUS
 10
10.8082726016
 20
10.7469439123
 11
10.8219081859
 21
10.763194169
  0
LINE
  5
35B
100
AcDbEntity
  8
0
100
AcDbLine
 62
7
  6
CONTINUOUS
 10
10.859977373
 20
10.7505594622
 11
10.8741717767
 21
10.7663239445
  0
LINE
  5
35C
100
AcDbEntity
  8
0
100
AcDbLine
 62
7
  6
CONTINUOUS
 10
10.9117768281
 20
10.752368339
 11
10.9265127575
 21
10.7676278405
  0
LINE
  5
35D
100
AcDbEntity
  8
0
100
AcDbLine
 62
7
  6
CONTINUOUS
 10
10.9636078573
 20
10.752368339
 11
10.9788673589
 21
10.7671042683
  0
LINE
  5
35E
100
AcDbEntity
  8
0
100
AcDbLine
 62
7
  6
CONTINUOUS
 10
11.0154073125
 20
10.7505594622
 11
11.0311717948
 21
10.7647538658
  0
LINE
  5
35F
100
AcDbEntity
  8
0
100
AcDbLine
 62
7
  6
CONTINUOUS
 10
11.0671120839
 20
10.7469439123
 11
11.0833623405
 21
10.7605794967
  0
LINE
  5
360
100
AcDbEntity
  8
0
100
AcDbLine
 62
7
  6
CONTINUOUS
 10
11.1186591773
 20
10.7415260945
 11
11.1353754097
 21
10.7545862466
  0
LINE
  5
361
100
AcDbEntity
  8
0
100
AcDbLine
 62
7
  6
CONTINUOUS
 10
11.1699857904
 20
10.7343126094
 11
11.1871476325
 21
10.7467814176
  0
LINE
  5
362
100
AcDbEntity
  8
0
100
AcDbLine
 62
7
  6
CONTINUOUS
 10
11.2210293898
 20
10.7253122457
 11
11.2386159325
 21
10.7371745185
  0
LINE
  5
363
100
AcDbEntity
  8
0
100
AcDbLine
 62
7
  6
CONTINUOUS
 10
11.2717277867
 20
10.7145359688
 11
11.2897176035
 21
10.7257772539
  0
LINE
  5
364
100
AcDbEntity
  8
0
100
AcDbLine
 62
7
  6
CONTINUOUS
 10
11.3220192128
 20
10.7019969079
 11
11.3403903859
 21
10.7126035097
  0
LINE
  5
365
100
AcDbEntity
  8
0
100
AcDbLine
 62
7
  6
CONTINUOUS
 10
11.3718423958
 20
10.6877103401
 11
11.3905725427
 21
10.6976693359
  0
LINE
  5
366
100
AcDbEntity
  8
0
100
AcDbLine
 62
7
  6
CONTINUOUS
 10
11.4211366339
 20
10.6716936712
 11
11.4402029348
 21
10.6809929276
  0
LINE
  5
367
100
AcDbEntity
  8
0
100
AcDbLine
 62
7
  6
CONTINUOUS
 10
11.4698418695
 20
10.6539664152
 11
11.4892210952
 21
10.6625946024
  0
LINE
  5
368
100
AcDbEntity
  8
0
100
AcDbLine
 62
7
  6
CONTINUOUS
 10
11.517898763
 20
10.6345501699
 11
11.5375673027
 21
10.6424967758
  0
LINE
  5
369
100
AcDbEntity
  8
0
100
AcDbLine
 62
7
  6
CONTINUOUS
 10
9.5848695434
 20
9.8926695021
 11
9.5918932538
 21
9.8952259237
  0
LINE
  5
36A
100
AcDbEntity
  8
0
100
AcDbLine
 62
7
  6
CONTINUOUS
 10
11.5652487643
 20
10.6134685911
 11
11.585182655
 21
10.620723934
  0
LINE
  5
36B
100
AcDbEntity
  8
0
100
AcDbLine
 62
7
  6
CONTINUOUS
 10
9.5944395261
 20
9.9352561038
 11
9.6146144815
 21
9.9418113441
  0
LINE
  5
36C
100
AcDbEntity
  8
0
100
AcDbLine
 62
7
  6
CONTINUOUS
 10
11.6118341847
 20
10.5907473634
 11
11.6320091401
 21
10.5973026038
  0
LINE
  5
36D
100
AcDbEntity
  8
0
100
AcDbLine
 62
7
  6
CONTINUOUS
 10
9.6185562358
 20
9.9817282753
 11
9.6389476758
 21
9.9875754266
  0
LINE
  5
36E
100
AcDbEntity
  8
0
100
AcDbLine
 62
7
  6
CONTINUOUS
 10
11.6575982672
 20
10.5664141691
 11
11.6779897071
 21
10.5722613204
  0
LINE
  5
36F
100
AcDbEntity
  8
0
100
AcDbLine
 62
7
  6
CONTINUOUS
 10
12.2311045758
 20
8.5080085281
 11
12.2105214951
 21
8.5028765897
  0
LINE
  5
370
100
AcDbEntity
  8
0
100
AcDbLine
 62
7
  6
CONTINUOUS
 10
10.1728994303
 20
7.9948403498
 11
10.1523163497
 21
7.9897084114
  0
LINE
  5
371
100
AcDbEntity
  8
0
100
AcDbLine
 62
7
  6
CONTINUOUS
 10
12.2038048783
 20
8.4633318571
 11
12.1830552343
 21
8.4589213841
  0
LINE
  5
372
100
AcDbEntity
  8
0
100
AcDbLine
 62
7
  6
CONTINUOUS
 10
10.1289442247
 20
8.0223066106
 11
10.1081945806
 21
8.0178961376
  0
LINE
  5
373
100
AcDbEntity
  8
0
100
AcDbLine
 62
7
  6
CONTINUOUS
 10
12.1749626178
 20
8.4196351476
 11
12.1540716906
 21
8.4159515135
  0
LINE
  5
374
100
AcDbEntity
  8
0
100
AcDbLine
 62
7
  6
CONTINUOUS
 10
10.0859743541
 20
8.0512901543
 11
10.0650834269
 21
8.0476065202
  0
LINE
  5
375
100
AcDbEntity
  8
0
100
AcDbLine
 62
7
  6
CONTINUOUS
 10
12.144612934
 20
8.3769716373
 11
12.123606176
 21
8.37401933
  0
LINE
  5
376
100
AcDbEntity
  8
0
100
AcDbLine
 62
7
  6
CONTINUOUS
 10
10.0440421706
 20
8.0817556689
 11
10.0230354126
 21
8.0788033616
  0
LINE
  5
377
100
AcDbEntity
  8
0
100
AcDbLine
 62
7
  6
CONTINUOUS
 10
30.7625918821
 20
10.1999456991
 11
30.7836888774
 21
10.2021630826
  0
LINE
  5
378
100
AcDbEntity
  8
0
100
AcDbLine
 62
7
  6
CONTINUOUS
 10
32.8721859232
 20
10.4216729675
 11
32.8932829185
 21
10.4238903511
  0
LINE
  5
379
100
AcDbEntity
  8
0
100
AcDbLine
 62
7
  6
CONTINUOUS
 10
12.1127928034
 20
8.3353933052
 11
12.0916958081
 21
8.3331759216
  0
LINE
  5
37A
100
AcDbEntity
  8
0
100
AcDbLine
 62
7
  6
CONTINUOUS
 10
10.0031987622
 20
8.1136660368
 11
9.982101767
 21
8.1114486532
  0
LINE
  5
37B
100
AcDbEntity
  8
0
100
AcDbLine
 62
7
  6
CONTINUOUS
 10
12.0795409939
 20
8.294950808
 11
12.0583794647
 21
8.2934710497
  0
LINE
  5
37C
100
AcDbEntity
  8
0
100
AcDbLine
 62
7
  6
CONTINUOUS
 10
9.9634938903
 20
8.1469823801
 11
9.9423323612
 21
8.1455026219
  0
LINE
  5
37D
100
AcDbEntity
  8
0
100
AcDbLine
 62
7
  6
CONTINUOUS
 10
30.7958436916
 20
10.2403881963
 11
30.8170052207
 21
10.2418679545
  0
LINE
  5
37E
100
AcDbEntity
  8
0
100
AcDbLine
 62
7
  6
CONTINUOUS
 10
32.9118907951
 20
10.3883566241
 11
32.9330523243
 21
10.3898363824
  0
LINE
  5
37F
100
AcDbEntity
  8
0
100
AcDbLine
 62
7
  6
CONTINUOUS
 10
12.0448980177
 20
8.2556934187
 11
12.0236977367
 21
8.2549530886
  0
LINE
  5
380
100
AcDbEntity
  8
0
100
AcDbLine
 62
7
  6
CONTINUOUS
 10
9.9249759292
 20
8.1816641081
 11
9.9037756483
 21
8.180923778
  0
LINE
  5
381
100
AcDbEntity
  8
0
100
AcDbLine
 62
7
  6
CONTINUOUS
 10
-8.9551019823
 20
8.2556934187
 11
-8.9763022633
 21
8.2549530886
  0
LINE
  5
382
100
AcDbEntity
  8
0
100
AcDbLine
 62
7
  6
CONTINUOUS
 10
-11.0750240708
 20
8.1816641081
 11
-11.0962243517
 21
8.180923778
  0
LINE
  5
383
100
AcDbEntity
  8
0
100
AcDbLine
 62
7
  6
CONTINUOUS
 10
33.0089060819
 20
8.2176689664
 11
32.9876928785
 21
8.2176689664
  0
LINE
  5
384
100
AcDbEntity
  8
0
100
AcDbLine
 62
7
  6
CONTINUOUS
 10
30.887691807
 20
8.2176689664
 11
30.8664786036
 21
8.2176689664
  0
LINE
  5
385
100
AcDbEntity
  8
0
100
AcDbLine
 62
7
  6
CONTINUOUS
 10
12.0089060819
 20
8.2176689664
 11
11.9876928785
 21
8.2176689664
  0
LINE
  5
386
100
AcDbEntity
  8
0
100
AcDbLine
 62
7
  6
CONTINUOUS
 10
9.887691807
 20
8.2176689664
 11
9.8664786036
 21
8.2176689664
  0
LINE
  5
387
100
AcDbEntity
  8
0
100
AcDbLine
 62
7
  6
CONTINUOUS
 10
-8.9910939181
 20
8.2176689664
 11
-9.0123071215
 21
8.2176689664
  0
LINE
  5
388
100
AcDbEntity
  8
0
100
AcDbLine
 62
7
  6
CONTINUOUS
 10
-11.112308193
 20
8.2176689664
 11
-11.1335213964
 21
8.2176689664
  0
LINE
  5
389
100
AcDbEntity
  8
0
100
AcDbLine
 62
7
  6
CONTINUOUS
 10
-10.0592278156
 20
8.6426695021
 11
31.9346125011
 21
8.6426695021
  0
LINE
  5
38A
100
AcDbEntity
  8
0
100
AcDbLine
 62
7
  6
CONTINUOUS
 10
11.9716090372
 20
8.180923778
 11
11.9504087563
 21
8.1816641081
  0
LINE
  5
38B
100
AcDbEntity
  8
0
100
AcDbLine
 62
7
  6
CONTINUOUS
 10
9.8516869487
 20
8.2549530886
 11
9.8304866678
 21
8.2556934187
  0
LINE
  5
38C
100
AcDbEntity
  8
0
100
AcDbLine
 62
7
  6
CONTINUOUS
 10
32.9716090372
 20
8.180923778
 11
32.9504087563
 21
8.1816641081
  0
LINE
  5
38D
100
AcDbEntity
  8
0
100
AcDbLine
 62
7
  6
CONTINUOUS
 10
30.8516869487
 20
8.2549530886
 11
30.8304866678
 21
8.2556934187
  0
LINE
  5
38E
100
AcDbEntity
  8
0
100
AcDbLine
 62
7
  6
CONTINUOUS
 10
11.9330523243
 20
8.1455026219
 11
11.9118907951
 21
8.1469823801
  0
LINE
  5
38F
100
AcDbEntity
  8
0
100
AcDbLine
 62
7
  6
CONTINUOUS
 10
9.8170052207
 20
8.2934710497
 11
9.7958436916
 21
8.294950808
  0
LINE
  5
390
100
AcDbEntity
  8
0
100
AcDbLine
 62
7
  6
CONTINUOUS
 10
-11.0576676388
 20
10.3898363824
 11
-11.0365061097
 21
10.3883566241
  0
LINE
  5
391
100
AcDbEntity
  8
0
100
AcDbLine
 62
7
  6
CONTINUOUS
 10
-8.9416205353
 20
10.2418679545
 11
-8.9204590061
 21
10.2403881963
  0
LINE
  5
392
100
AcDbEntity
  8
0
100
AcDbLine
 62
7
  6
CONTINUOUS
 10
-11.017898233
 20
10.4238903511
 11
-10.9968012378
 21
10.4216729675
  0
LINE
  5
393
100
AcDbEntity
  8
0
100
AcDbLine
 62
7
  6
CONTINUOUS
 10
-8.9083041919
 20
10.2021630826
 11
-8.8872071966
 21
10.1999456991
  0
LINE
  5
394
100
AcDbEntity
  8
0
100
AcDbLine
 62
7
  6
CONTINUOUS
 10
11.8932829185
 20
8.1114486532
 11
11.8721859232
 21
8.1136660368
  0
LINE
  5
395
100
AcDbEntity
  8
0
100
AcDbLine
 62
7
  6
CONTINUOUS
 10
9.7836888774
 20
8.3331759216
 11
9.7625918821
 21
8.3353933052
  0
LINE
  5
396
100
AcDbEntity
  8
0
100
AcDbLine
 62
7
  6
CONTINUOUS
 10
11.8523492729
 20
8.0788033616
 11
11.8313425149
 21
8.0817556689
  0
LINE
  5
397
100
AcDbEntity
  8
0
100
AcDbLine
 62
7
  6
CONTINUOUS
 10
9.7517785095
 20
8.37401933
 11
9.7307717515
 21
8.3769716373
  0
LINE
  5
398
100
AcDbEntity
  8
0
100
AcDbLine
 62
7
  6
CONTINUOUS
 10
11.8103012586
 20
8.0476065202
 11
11.7894103314
 21
8.0512901543
  0
LINE
  5
399
100
AcDbEntity
  8
0
100
AcDbLine
 62
7
  6
CONTINUOUS
 10
9.7213129949
 20
8.4159515135
 11
9.7004220677
 21
8.4196351476
  0
LINE
  5
39A
100
AcDbEntity
  8
0
100
AcDbLine
 62
7
  6
CONTINUOUS
 10
11.7671901048
 20
8.0178961376
 11
11.7464404608
 21
8.0223066106
  0
LINE
  5
39B
100
AcDbEntity
  8
0
100
AcDbLine
 62
7
  6
CONTINUOUS
 10
9.6923294512
 20
8.4589213841
 11
9.6715798072
 21
8.4633318571
  0
LINE
  5
39C
100
AcDbEntity
  8
0
100
AcDbLine
 62
7
  6
CONTINUOUS
 10
11.7230683358
 20
7.9897084114
 11
11.7024852552
 21
7.9948403498
  0
LINE
  5
39D
100
AcDbEntity
  8
0
100
AcDbLine
 62
7
  6
CONTINUOUS
 10
9.6648631903
 20
8.5028765897
 11
9.6442801097
 21
8.5080085281
  0
LINE
  5
39E
100
AcDbEntity
  8
0
100
AcDbLine
 62
7
  6
CONTINUOUS
 10
11.6779897071
 20
7.9630776839
 11
11.6575982672
 21
7.9689248352
  0
LINE
  5
39F
100
AcDbEntity
  8
0
100
AcDbLine
 62
7
  6
CONTINUOUS
 10
9.6389476758
 20
8.5477635777
 11
9.6185562358
 21
8.553610729
  0
LINE
  5
3A0
100
AcDbEntity
  8
0
100
AcDbLine
 62
7
  6
CONTINUOUS
 10
11.6320091401
 20
7.9380364005
 11
11.6118341847
 21
7.9445916409
  0
LINE
  5
3A1
100
AcDbEntity
  8
0
100
AcDbLine
 62
7
  6
CONTINUOUS
 10
9.6146144815
 20
8.5935276602
 11
9.5944395261
 21
8.6000829005
  0
LINE
  5
3A2
100
AcDbEntity
  8
0
100
AcDbLine
 62
7
  6
CONTINUOUS
 10
11.585182655
 20
7.9146150703
 11
11.5652487643
 21
7.9218704132
  0
LINE
  5
3A3
100
AcDbEntity
  8
0
100
AcDbLine
 62
7
  6
CONTINUOUS
 10
9.5918932538
 20
8.6401130806
 11
9.5848695434
 21
8.6426695021
  0
LINE
  5
3A4
100
AcDbEntity
  8
0
100
AcDbLine
 62
7
  6
CONTINUOUS
 10
11.5375673027
 20
7.8928422285
 11
11.517898763
 21
7.9007888344
  0
LINE
  5
3A5
100
AcDbEntity
  8
0
100
AcDbLine
 62
7
  6
CONTINUOUS
 10
11.4892210952
 20
7.8727444019
 11
11.4698418695
 21
7.8813725891
  0
LINE
  5
3A6
100
AcDbEntity
  8
0
100
AcDbLine
 62
7
  6
CONTINUOUS
 10
11.4402029348
 20
7.8543460767
 11
11.4211366339
 21
7.863645333
  0
LINE
  5
3A7
100
AcDbEntity
  8
0
100
AcDbLine
 62
7
  6
CONTINUOUS
 10
11.3905725427
 20
7.8376696684
 11
11.3718423958
 21
7.8476286642
  0
LINE
  5
3A8
100
AcDbEntity
  8
0
100
AcDbLine
 62
7
  6
CONTINUOUS
 10
11.3403903859
 20
7.8227354946
 11
11.3220192128
 21
7.8333420964
  0
LINE
  5
3A9
100
AcDbEntity
  8
0
100
AcDbLine
 62
7
  6
CONTINUOUS
 10
11.2897176035
 20
7.8095617504
 11
11.2717277867
 21
7.8208030355
  0
LINE
  5
3AA
100
AcDbEntity
  8
0
100
AcDbLine
 62
7
  6
CONTINUOUS
 10
11.2386159325
 20
7.7981644858
 11
11.2210293898
 21
7.8100267586
  0
LINE
  5
3AB
100
AcDbEntity
  8
0
100
AcDbLine
 62
7
  6
CONTINUOUS
 10
11.1871476325
 20
7.7885575867
 11
11.1699857904
 21
7.8010263948
  0
LINE
  5
3AC
100
AcDbEntity
  8
0
100
AcDbLine
 62
7
  6
CONTINUOUS
 10
11.1353754097
 20
7.7807527577
 11
11.1186591773
 21
7.7938129098
  0
LINE
  5
3AD
100
AcDbEntity
  8
0
100
AcDbLine
 62
7
  6
CONTINUOUS
 10
11.0833623405
 20
7.7747595076
 11
11.0671120839
 21
7.7883950919
  0
LINE
  5
3AE
100
AcDbEntity
  8
0
100
AcDbLine
 62
7
  6
CONTINUOUS
 10
11.0311717948
 20
7.7705851384
 11
11.0154073125
 21
7.7847795421
  0
LINE
  5
3AF
100
AcDbEntity
  8
0
100
AcDbLine
 62
7
  6
CONTINUOUS
 10
10.9788673589
 20
7.768234736
 11
10.9636078573
 21
7.7829706653
  0
LINE
  5
3B0
100
AcDbEntity
  8
0
100
AcDbLine
 62
7
  6
CONTINUOUS
 10
10.9265127575
 20
7.7677111638
 11
10.9117768281
 21
7.7829706653
  0
LINE
  5
3B1
100
AcDbEntity
  8
0
100
AcDbLine
 62
7
  6
CONTINUOUS
 10
10.8741717767
 20
7.7690150598
 11
10.859977373
 21
7.7847795421
  0
LINE
  5
3B2
100
AcDbEntity
  8
0
100
AcDbLine
 62
7
  6
CONTINUOUS
 10
10.8219081859
 20
7.7721448353
 11
10.8082726016
 21
7.7883950919
  0
LINE
  5
3B3
100
AcDbEntity
  8
0
100
AcDbLine
 62
7
  6
CONTINUOUS
 10
10.7697856603
 20
7.7770966774
 11
10.7567255082
 21
7.7938129098
  0
LINE
  5
3B4
100
AcDbEntity
  8
0
100
AcDbLine
 62
7
  6
CONTINUOUS
 10
10.7178677032
 20
7.7838645528
 11
10.705398895
 21
7.8010263948
  0
LINE
  5
3B5
100
AcDbEntity
  8
0
100
AcDbLine
 62
7
  6
CONTINUOUS
 10
10.6662175685
 20
7.7924402159
 11
10.6543552956
 21
7.8100267586
  0
LINE
  5
3B6
100
AcDbEntity
  8
0
100
AcDbLine
 62
7
  6
CONTINUOUS
 10
10.6148981839
 20
7.8028132187
 11
10.6036568988
 21
7.8208030355
  0
LINE
  5
3B7
100
AcDbEntity
  8
0
100
AcDbLine
 62
7
  6
CONTINUOUS
 10
10.5639720744
 20
7.8149709233
 11
10.5533654727
 21
7.8333420964
  0
LINE
  5
3B8
100
AcDbEntity
  8
0
100
AcDbLine
 62
7
  6
CONTINUOUS
 10
10.5135012854
 20
7.8288985173
 11
10.5035422897
 21
7.8476286642
  0
LINE
  5
3B9
100
AcDbEntity
  8
0
100
AcDbLine
 62
7
  6
CONTINUOUS
 10
10.4635473079
 20
7.8445790321
 11
10.4542480516
 21
7.863645333
  0
LINE
  5
3BA
100
AcDbEntity
  8
0
100
AcDbLine
 62
7
  6
CONTINUOUS
 10
10.4141710031
 20
7.8619933634
 11
10.4055428159
 21
7.8813725891
  0
LINE
  5
3BB
100
AcDbEntity
  8
0
100
AcDbLine
 62
7
  6
CONTINUOUS
 10
10.3654325284
 20
7.8811202946
 11
10.3574859225
 21
7.9007888344
  0
LINE
  5
3BC
100
AcDbEntity
  8
0
100
AcDbLine
 62
7
  6
CONTINUOUS
 10
10.3173912641
 20
7.9019365224
 11
10.3101359212
 21
7.9218704132
  0
LINE
  5
3BD
100
AcDbEntity
  8
0
100
AcDbLine
 62
7
  6
CONTINUOUS
 10
9.5918932538
 20
9.8952259237
 11
9.5846379109
 21
9.9151598144
  0
LINE
  5
3BE
100
AcDbEntity
  8
0
100
AcDbLine
 62
7
  6
CONTINUOUS
 10
10.2701057411
 20
7.9244166855
 11
10.2635505008
 21
7.9445916409
  0
LINE
  5
3BF
100
AcDbEntity
  8
0
100
AcDbLine
 62
7
  6
CONTINUOUS
 10
9.6146144815
 20
9.9418113441
 11
9.6080592411
 21
9.9619862995
  0
LINE
  5
3C0
100
AcDbEntity
  8
0
100
AcDbLine
 62
7
  6
CONTINUOUS
 10
10.2236335696
 20
7.9485333952
 11
10.2177864183
 21
7.9689248352
  0
LINE
  5
3C1
100
AcDbEntity
  8
0
100
AcDbLine
 62
7
  6
CONTINUOUS
 10
9.6389476758
 20
9.9875754266
 11
9.6331005245
 21
10.0079668665
  0
LINE
  5
3C2
100
AcDbEntity
  8
0
100
AcDbLine
 62
7
  6
CONTINUOUS
 10
10.1780313687
 20
7.9742572691
 11
10.1728994303
 21
7.9948403498
  0
LINE
  5
3C3
100
AcDbEntity
  8
0
100
AcDbLine
 62
7
  6
CONTINUOUS
 10
9.6648631903
 20
10.0324624146
 11
9.659731252
 21
10.0530454952
  0
LINE
  5
3C4
100
AcDbEntity
  8
0
100
AcDbLine
 62
7
  6
CONTINUOUS
 10
10.1333546977
 20
8.0015569666
 11
10.1289442247
 21
8.0223066106
  0
LINE
  5
3C5
100
AcDbEntity
  8
0
100
AcDbLine
 62
7
  6
CONTINUOUS
 10
9.6923294512
 20
10.0764176202
 11
9.6879189782
 21
10.0971672642
  0
LINE
  5
3C6
100
AcDbEntity
  8
0
100
AcDbLine
 62
7
  6
CONTINUOUS
 10
10.0896579882
 20
8.0303992271
 11
10.0859743541
 21
8.0512901543
  0
LINE
  5
3C7
100
AcDbEntity
  8
0
100
AcDbLine
 62
7
  6
CONTINUOUS
 10
9.7213129949
 20
10.1193874908
 11
9.7176293608
 21
10.140278418
  0
LINE
  5
3C8
100
AcDbEntity
  8
0
100
AcDbLine
 62
7
  6
CONTINUOUS
 10
10.0469944779
 20
8.0607489109
 11
10.0440421706
 21
8.0817556689
  0
LINE
  5
3C9
100
AcDbEntity
  8
0
100
AcDbLine
 62
7
  6
CONTINUOUS
 10
9.7517785095
 20
10.1613196743
 11
9.7488262022
 21
10.1823264323
  0
LINE
  5
3CA
100
AcDbEntity
  8
0
100
AcDbLine
 62
7
  6
CONTINUOUS
 10
11.8699685397
 20
10.4427699628
 11
11.8721859232
 21
10.4216729675
  0
LINE
  5
3CB
100
AcDbEntity
  8
0
100
AcDbLine
 62
7
  6
CONTINUOUS
 10
12.0916958081
 20
8.3331759216
 11
12.0939131917
 21
8.3120789264
  0
LINE
  5
3CC
100
AcDbEntity
  8
0
100
AcDbLine
 62
7
  6
CONTINUOUS
 10
11.9104110369
 20
10.4095181533
 11
11.9118907951
 21
10.3883566241
  0
LINE
  5
3CD
100
AcDbEntity
  8
0
100
AcDbLine
 62
7
  6
CONTINUOUS
 10
12.0583794647
 20
8.2934710497
 11
12.059859223
 21
8.2723095206
  0
LINE
  5
3CE
100
AcDbEntity
  8
0
100
AcDbLine
 62
7
  6
CONTINUOUS
 10
11.9496684262
 20
10.3748751771
 11
11.9504087563
 21
10.3536748961
  0
LINE
  5
3CF
100
AcDbEntity
  8
0
100
AcDbLine
 62
7
  6
CONTINUOUS
 10
12.0236977367
 20
8.2549530886
 11
12.0244380669
 21
8.2337528077
  0
LINE
  5
3D0
100
AcDbEntity
  8
0
100
AcDbLine
 62
7
  6
CONTINUOUS
 10
11.9876928785
 20
10.3388832413
 11
11.9876928785
 21
10.3176700379
  0
LINE
  5
3D1
100
AcDbEntity
  8
0
100
AcDbLine
 62
7
  6
CONTINUOUS
 10
11.9876928785
 20
8.2176689664
 11
11.9876928785
 21
8.196455763
  0
LINE
  5
3D2
100
AcDbEntity
  8
0
100
AcDbLine
 62
7
  6
CONTINUOUS
 10
12.0244380669
 20
10.3015861966
 11
12.0236977367
 21
10.2803859157
  0
LINE
  5
3D3
100
AcDbEntity
  8
0
100
AcDbLine
 62
7
  6
CONTINUOUS
 10
11.9504087563
 20
8.1816641081
 11
11.9496684262
 21
8.1604638272
  0
LINE
  5
3D4
100
AcDbEntity
  8
0
100
AcDbLine
 62
7
  6
CONTINUOUS
 10
12.059859223
 20
10.2630294837
 11
12.0583794647
 21
10.2418679545
  0
LINE
  5
3D5
100
AcDbEntity
  8
0
100
AcDbLine
 62
7
  6
CONTINUOUS
 10
11.9118907951
 20
8.1469823801
 11
11.9104110369
 21
8.125820851
  0
LINE
  5
3D6
100
AcDbEntity
  8
0
100
AcDbLine
 62
7
  6
CONTINUOUS
 10
12.0939131917
 20
10.2232600779
 11
12.0916958081
 21
10.2021630826
  0
LINE
  5
3D7
100
AcDbEntity
  8
0
100
AcDbLine
 62
7
  6
CONTINUOUS
 10
11.8721859232
 20
8.1136660368
 11
11.8699685397
 21
8.0925690415
  0
LINE
  5
3D8
100
AcDbEntity
  8
0
100
AcDbLine
 62
7
  6
CONTINUOUS
 10
12.1265584833
 20
10.1823264323
 11
12.123606176
 21
10.1613196743
  0
LINE
  5
3D9
100
AcDbEntity
  8
0
100
AcDbLine
 62
7
  6
CONTINUOUS
 10
11.8313425149
 20
8.0817556689
 11
11.8283902076
 21
8.0607489109
  0
LINE
  5
3DA
100
AcDbEntity
  8
0
100
AcDbLine
 62
7
  6
CONTINUOUS
 10
12.1577553247
 20
10.140278418
 11
12.1540716906
 21
10.1193874908
  0
LINE
  5
3DB
100
AcDbEntity
  8
0
100
AcDbLine
 62
7
  6
CONTINUOUS
 10
11.7894103314
 20
8.0512901543
 11
11.7857266973
 21
8.0303992271
  0
LINE
  5
3DC
100
AcDbEntity
  8
0
100
AcDbLine
 62
7
  6
CONTINUOUS
 10
12.1874657073
 20
10.0971672642
 11
12.1830552343
 21
10.0764176202
  0
LINE
  5
3DD
100
AcDbEntity
  8
0
100
AcDbLine
 62
7
  6
CONTINUOUS
 10
11.7464404608
 20
8.0223066106
 11
11.7420299878
 21
8.0015569666
  0
LINE
  5
3DE
100
AcDbEntity
  8
0
100
AcDbLine
 62
7
  6
CONTINUOUS
 10
12.2156534335
 20
10.0530454952
 11
12.2105214951
 21
10.0324624146
  0
LINE
  5
3DF
100
AcDbEntity
  8
0
100
AcDbLine
 62
7
  6
CONTINUOUS
 10
11.7024852552
 20
7.9948403498
 11
11.6973533168
 21
7.9742572691
  0
LINE
  5
3E0
100
AcDbEntity
  8
0
100
AcDbLine
 62
7
  6
CONTINUOUS
 10
12.242284161
 20
10.0079668665
 11
12.2364370097
 21
9.9875754266
  0
LINE
  5
3E1
100
AcDbEntity
  8
0
100
AcDbLine
 62
7
  6
CONTINUOUS
 10
11.6575982672
 20
7.9689248352
 11
11.6517511159
 21
7.9485333952
  0
LINE
  5
3E2
100
AcDbEntity
  8
0
100
AcDbLine
 62
7
  6
CONTINUOUS
 10
12.2673254444
 20
9.9619862995
 11
12.260770204
 21
9.9418113441
  0
LINE
  5
3E3
100
AcDbEntity
  8
0
100
AcDbLine
 62
7
  6
CONTINUOUS
 10
11.6118341847
 20
7.9445916409
 11
11.6052789443
 21
7.9244166855
  0
LINE
  5
3E4
100
AcDbEntity
  8
0
100
AcDbLine
 62
7
  6
CONTINUOUS
 10
12.2907467746
 20
9.9151598144
 11
12.2834914317
 21
9.8952259237
  0
LINE
  5
3E5
100
AcDbEntity
  8
0
100
AcDbLine
 62
7
  6
CONTINUOUS
 10
11.5652487643
 20
7.9218704132
 11
11.5579934214
 21
7.9019365224
  0
LINE
  5
3E6
100
AcDbEntity
  8
0
100
AcDbLine
 62
7
  6
CONTINUOUS
 10
11.517898763
 20
7.9007888344
 11
11.5099521571
 21
7.8811202946
  0
LINE
  5
3E7
100
AcDbEntity
  8
0
100
AcDbLine
 62
7
  6
CONTINUOUS
 10
11.4698418695
 20
7.8813725891
 11
11.4612136824
 21
7.8619933634
  0
LINE
  5
3E8
100
AcDbEntity
  8
0
100
AcDbLine
 62
7
  6
CONTINUOUS
 10
11.4211366339
 20
7.863645333
 11
11.4118373776
 21
7.8445790321
  0
LINE
  5
3E9
100
AcDbEntity
  8
0
100
AcDbLine
 62
7
  6
CONTINUOUS
 10
11.3718423958
 20
7.8476286642
 11
11.3618834001
 21
7.8288985173
  0
LINE
  5
3EA
100
AcDbEntity
  8
0
100
AcDbLine
 62
7
  6
CONTINUOUS
 10
11.3220192128
 20
7.8333420964
 11
11.3114126111
 21
7.8149709233
  0
LINE
  5
3EB
100
AcDbEntity
  8
0
100
AcDbLine
 62
7
  6
CONTINUOUS
 10
11.2717277867
 20
7.8208030355
 11
11.2604865015
 21
7.8028132187
  0
LINE
  5
3EC
100
AcDbEntity
  8
0
100
AcDbLine
 62
7
  6
CONTINUOUS
 10
11.2210293898
 20
7.8100267586
 11
11.209167117
 21
7.7924402159
  0
LINE
  5
3ED
100
AcDbEntity
  8
0
100
AcDbLine
 62
7
  6
CONTINUOUS
 10
11.1699857904
 20
7.8010263948
 11
11.1575169823
 21
7.7838645528
  0
LINE
  5
3EE
100
AcDbEntity
  8
0
100
AcDbLine
 62
7
  6
CONTINUOUS
 10
11.1186591773
 20
7.7938129098
 11
11.1055990251
 21
7.7770966774
  0
LINE
  5
3EF
100
AcDbEntity
  8
0
100
AcDbLine
 62
7
  6
CONTINUOUS
 10
11.0671120839
 20
7.7883950919
 11
11.0534764995
 21
7.7721448353
  0
LINE
  5
3F0
100
AcDbEntity
  8
0
100
AcDbLine
 62
7
  6
CONTINUOUS
 10
11.0154073125
 20
7.7847795421
 11
11.0012129088
 21
7.7690150598
  0
LINE
  5
3F1
100
AcDbEntity
  8
0
100
AcDbLine
 62
7
  6
CONTINUOUS
 10
10.9636078573
 20
7.7829706653
 11
10.948871928
 21
7.7677111638
  0
LINE
  5
3F2
100
AcDbEntity
  8
0
100
AcDbLine
 62
7
  6
CONTINUOUS
 10
10.9117768281
 20
7.7829706653
 11
10.8965173266
 21
7.768234736
  0
LINE
  5
3F3
100
AcDbEntity
  8
0
100
AcDbLine
 62
7
  6
CONTINUOUS
 10
10.859977373
 20
7.7847795421
 11
10.8442128906
 21
7.7705851384
  0
LINE
  5
3F4
100
AcDbEntity
  8
0
100
AcDbLine
 62
7
  6
CONTINUOUS
 10
10.8082726016
 20
7.7883950919
 11
10.792022345
 21
7.7747595076
  0
LINE
  5
3F5
100
AcDbEntity
  8
0
100
AcDbLine
 62
7
  6
CONTINUOUS
 10
10.7567255082
 20
7.7938129098
 11
10.7400092758
 21
7.7807527577
  0
LINE
  5
3F6
100
AcDbEntity
  8
0
100
AcDbLine
 62
7
  6
CONTINUOUS
 10
10.705398895
 20
7.8010263948
 11
10.6882370529
 21
7.7885575867
  0
LINE
  5
3F7
100
AcDbEntity
  8
0
100
AcDbLine
 62
7
  6
CONTINUOUS
 10
10.6543552956
 20
7.8100267586
 11
10.636768753
 21
7.7981644858
  0
LINE
  5
3F8
100
AcDbEntity
  8
0
100
AcDbLine
 62
7
  6
CONTINUOUS
 10
10.6036568988
 20
7.8208030355
 11
10.585667082
 21
7.8095617504
  0
LINE
  5
3F9
100
AcDbEntity
  8
0
100
AcDbLine
 62
7
  6
CONTINUOUS
 10
10.5533654727
 20
7.8333420964
 11
10.5349942996
 21
7.8227354946
  0
LINE
  5
3FA
100
AcDbEntity
  8
0
100
AcDbLine
 62
7
  6
CONTINUOUS
 10
10.5035422897
 20
7.8476286642
 11
10.4848121427
 21
7.8376696684
  0
LINE
  5
3FB
100
AcDbEntity
  8
0
100
AcDbLine
 62
7
  6
CONTINUOUS
 10
10.4542480516
 20
7.863645333
 11
10.4351817506
 21
7.8543460767
  0
LINE
  5
3FC
100
AcDbEntity
  8
0
100
AcDbLine
 62
7
  6
CONTINUOUS
 10
10.4055428159
 20
7.8813725891
 11
10.3861635903
 21
7.8727444019
  0
LINE
  5
3FD
100
AcDbEntity
  8
0
100
AcDbLine
 62
7
  6
CONTINUOUS
 10
10.3574859225
 20
7.9007888344
 11
10.3378173828
 21
7.8928422285
  0
LINE
  5
3FE
100
AcDbEntity
  8
0
100
AcDbLine
 62
7
  6
CONTINUOUS
 10
12.2905151421
 20
8.6426695021
 11
12.2834914317
 21
8.6401130806
  0
LINE
  5
3FF
100
AcDbEntity
  8
0
100
AcDbLine
 62
7
  6
CONTINUOUS
 10
10.3101359212
 20
7.9218704132
 11
10.2902020305
 21
7.9146150703
  0
LINE
  5
400
100
AcDbEntity
  8
0
100
AcDbLine
 62
7
  6
CONTINUOUS
 10
12.2809451594
 20
8.6000829005
 11
12.260770204
 21
8.5935276602
  0
LINE
  5
401
100
AcDbEntity
  8
0
100
AcDbLine
 62
7
  6
CONTINUOUS
 10
10.2635505008
 20
7.9445916409
 11
10.2433755454
 21
7.9380364005
  0
LINE
  5
402
100
AcDbEntity
  8
0
100
AcDbLine
 62
7
  6
CONTINUOUS
 10
12.2568284496
 20
8.553610729
 11
12.2364370097
 21
8.5477635777
  0
LINE
  5
403
100
AcDbEntity
  8
0
100
AcDbLine
 62
7
  6
CONTINUOUS
 10
10.2177864183
 20
7.9689248352
 11
10.1973949784
 21
7.9630776839
  0
LINE
  5
404
100
AcDbEntity
  8
0
100
AcDbLine
 62
7
  6
CONTINUOUS
 10
9.6442801097
 20
10.0273304762
 11
9.6648631903
 21
10.0324624146
  0
LINE
  5
405
100
AcDbEntity
  8
0
100
AcDbLine
 62
7
  6
CONTINUOUS
 10
11.7024852552
 20
10.5404986545
 11
11.7230683358
 21
10.5456305929
  0
LINE
  5
406
100
AcDbEntity
  8
0
100
AcDbLine
 62
7
  6
CONTINUOUS
 10
9.6715798072
 20
10.0720071472
 11
9.6923294512
 21
10.0764176202
  0
LINE
  5
407
100
AcDbEntity
  8
0
100
AcDbLine
 62
7
  6
CONTINUOUS
 10
11.7464404608
 20
10.5130323937
 11
11.7671901048
 21
10.5174428667
  0
LINE
  5
408
100
AcDbEntity
  8
0
100
AcDbLine
 62
7
  6
CONTINUOUS
 10
9.7004220677
 20
10.1157038567
 11
9.7213129949
 21
10.1193874908
  0
LINE
  5
409
100
AcDbEntity
  8
0
100
AcDbLine
 62
7
  6
CONTINUOUS
 10
11.7894103314
 20
10.48404885
 11
11.8103012586
 21
10.4877324841
  0
LINE
  5
40A
100
AcDbEntity
  8
0
100
AcDbLine
 62
7
  6
CONTINUOUS
 10
9.7307717515
 20
10.158367367
 11
9.7517785095
 21
10.1613196743
  0
LINE
  5
40B
100
AcDbEntity
  8
0
100
AcDbLine
 62
7
  6
CONTINUOUS
 10
11.8313425149
 20
10.4535833354
 11
11.8523492729
 21
10.4565356427
  0
LINE
  5
40C
100
AcDbEntity
  8
0
100
AcDbLine
 62
7
  6
CONTINUOUS
 10
9.7625918821
 20
10.1999456991
 11
9.7836888774
 21
10.2021630826
  0
LINE
  5
40D
100
AcDbEntity
  8
0
100
AcDbLine
 62
7
  6
CONTINUOUS
 10
11.8721859232
 20
10.4216729675
 11
11.8932829185
 21
10.4238903511
  0
LINE
  5
40E
100
AcDbEntity
  8
0
100
AcDbLine
 62
7
  6
CONTINUOUS
 10
-8.8872071966
 20
8.3353933052
 11
-8.9083041919
 21
8.3331759216
  0
LINE
  5
40F
100
AcDbEntity
  8
0
100
AcDbLine
 62
7
  6
CONTINUOUS
 10
-10.9968012378
 20
8.1136660368
 11
-11.017898233
 21
8.1114486532
  0
LINE
  5
410
100
AcDbEntity
  8
0
100
AcDbLine
 62
7
  6
CONTINUOUS
 10
-8.9204590061
 20
8.294950808
 11
-8.9416205353
 21
8.2934710497
  0
LINE
  5
411
100
AcDbEntity
  8
0
100
AcDbLine
 62
7
  6
CONTINUOUS
 10
-11.0365061097
 20
8.1469823801
 11
-11.0576676388
 21
8.1455026219
  0
LINE
  5
412
100
AcDbEntity
  8
0
100
AcDbLine
 62
7
  6
CONTINUOUS
 10
9.7958436916
 20
10.2403881963
 11
9.8170052207
 21
10.2418679545
  0
LINE
  5
413
100
AcDbEntity
  8
0
100
AcDbLine
 62
7
  6
CONTINUOUS
 10
11.9118907951
 20
10.3883566241
 11
11.9330523243
 21
10.3898363824
  0
LINE
  5
414
100
AcDbEntity
  8
0
100
AcDbLine
 62
7
  6
CONTINUOUS
 10
30.8304866678
 20
10.2796455856
 11
30.8516869487
 21
10.2803859157
  0
LINE
  5
415
100
AcDbEntity
  8
0
100
AcDbLine
 62
7
  6
CONTINUOUS
 10
32.9504087563
 20
10.3536748961
 11
32.9716090372
 21
10.3544152263
  0
LINE
  5
416
100
AcDbEntity
  8
0
100
AcDbLine
 62
7
  6
CONTINUOUS
 10
9.8304866678
 20
10.2796455856
 11
9.8516869487
 21
10.2803859157
  0
LINE
  5
417
100
AcDbEntity
  8
0
100
AcDbLine
 62
7
  6
CONTINUOUS
 10
11.9504087563
 20
10.3536748961
 11
11.9716090372
 21
10.3544152263
  0
LINE
  5
418
100
AcDbEntity
  8
0
100
AcDbLine
 62
7
  6
CONTINUOUS
 10
-10.0592278156
 20
9.8926695021
 11
31.9346125011
 21
9.8926695021
  0
LINE
  5
419
100
AcDbEntity
  8
0
100
AcDbLine
 62
7
  6
CONTINUOUS
 10
-11.1335213964
 20
10.3176700379
 11
-11.112308193
 21
10.3176700379
  0
LINE
  5
41A
100
AcDbEntity
  8
0
100
AcDbLine
 62
7
  6
CONTINUOUS
 10
-9.0123071215
 20
10.3176700379
 11
-8.9910939181
 21
10.3176700379
  0
LINE
  5
41B
100
AcDbEntity
  8
0
100
AcDbLine
 62
7
  6
CONTINUOUS
 10
9.8664786036
 20
10.3176700379
 11
9.887691807
 21
10.3176700379
  0
LINE
  5
41C
100
AcDbEntity
  8
0
100
AcDbLine
 62
7
  6
CONTINUOUS
 10
11.9876928785
 20
10.3176700379
 11
12.0089060819
 21
10.3176700379
  0
LINE
  5
41D
100
AcDbEntity
  8
0
100
AcDbLine
 62
7
  6
CONTINUOUS
 10
30.8664786036
 20
10.3176700379
 11
30.887691807
 21
10.3176700379
  0
LINE
  5
41E
100
AcDbEntity
  8
0
100
AcDbLine
 62
7
  6
CONTINUOUS
 10
32.9876928785
 20
10.3176700379
 11
33.0089060819
 21
10.3176700379
  0
LINE
  5
41F
100
AcDbEntity
  8
0
100
AcDbLine
 62
7
  6
CONTINUOUS
 10
-11.0962243517
 20
10.3544152263
 11
-11.0750240708
 21
10.3536748961
  0
LINE
  5
420
100
AcDbEntity
  8
0
100
AcDbLine
 62
7
  6
CONTINUOUS
 10
-8.9763022633
 20
10.2803859157
 11
-8.9551019823
 21
10.2796455856
  0
LINE
  5
421
100
AcDbEntity
  8
0
100
AcDbLine
 62
7
  6
CONTINUOUS
 10
9.9037756483
 20
10.3544152263
 11
9.9249759292
 21
10.3536748961
  0
LINE
  5
422
100
AcDbEntity
  8
0
100
AcDbLine
 62
7
  6
CONTINUOUS
 10
12.0236977367
 20
10.2803859157
 11
12.0448980177
 21
10.2796455856
  0
LINE
  5
423
100
AcDbEntity
  8
0
100
AcDbLine
 62
7
  6
CONTINUOUS
 10
32.9330523243
 20
8.1455026219
 11
32.9118907951
 21
8.1469823801
  0
LINE
  5
424
100
AcDbEntity
  8
0
100
AcDbLine
 62
7
  6
CONTINUOUS
 10
30.8170052207
 20
8.2934710497
 11
30.7958436916
 21
8.294950808
  0
LINE
  5
425
100
AcDbEntity
  8
0
100
AcDbLine
 62
7
  6
CONTINUOUS
 10
9.9423323612
 20
10.3898363824
 11
9.9634938903
 21
10.3883566241
  0
LINE
  5
426
100
AcDbEntity
  8
0
100
AcDbLine
 62
7
  6
CONTINUOUS
 10
12.0583794647
 20
10.2418679545
 11
12.0795409939
 21
10.2403881963
  0
LINE
  5
427
100
AcDbEntity
  8
0
100
AcDbLine
 62
7
  6
CONTINUOUS
 10
9.982101767
 20
10.4238903511
 11
10.0031987622
 21
10.4216729675
  0
LINE
  5
428
100
AcDbEntity
  8
0
100
AcDbLine
 62
7
  6
CONTINUOUS
 10
12.0916958081
 20
10.2021630826
 11
12.1127928034
 21
10.1999456991
  0
LINE
  5
429
100
AcDbEntity
  8
0
100
AcDbLine
 62
7
  6
CONTINUOUS
 10
32.8932829185
 20
8.1114486532
 11
32.8721859232
 21
8.1136660368
  0
LINE
  5
42A
100
AcDbEntity
  8
0
100
AcDbLine
 62
7
  6
CONTINUOUS
 10
30.7836888774
 20
8.3331759216
 11
30.7625918821
 21
8.3353933052
  0
LINE
  5
42B
100
AcDbEntity
  8
0
100
AcDbLine
 62
7
  6
CONTINUOUS
 10
10.0230354126
 20
10.4565356427
 11
10.0440421706
 21
10.4535833354
  0
LINE
  5
42C
100
AcDbEntity
  8
0
100
AcDbLine
 62
7
  6
CONTINUOUS
 10
12.123606176
 20
10.1613196743
 11
12.144612934
 21
10.158367367
  0
LINE
  5
42D
100
AcDbEntity
  8
0
100
AcDbLine
 62
7
  6
CONTINUOUS
 10
10.0650834269
 20
10.4877324841
 11
10.0859743541
 21
10.48404885
  0
LINE
  5
42E
100
AcDbEntity
  8
0
100
AcDbLine
 62
7
  6
CONTINUOUS
 10
12.1540716906
 20
10.1193874908
 11
12.1749626178
 21
10.1157038567
  0
LINE
  5
42F
100
AcDbEntity
  8
0
100
AcDbLine
 62
7
  6
CONTINUOUS
 10
10.1081945806
 20
10.5174428667
 11
10.1289442247
 21
10.5130323937
  0
LINE
  5
430
100
AcDbEntity
  8
0
100
AcDbLine
 62
7
  6
CONTINUOUS
 10
12.1830552343
 20
10.0764176202
 11
12.2038048783
 21
10.0720071472
  0
LINE
  5
431
100
AcDbEntity
  8
0
100
AcDbLine
 62
7
  6
CONTINUOUS
 10
10.1523163497
 20
10.5456305929
 11
10.1728994303
 21
10.5404986545
  0
LINE
  5
432
100
AcDbEntity
  8
0
100
AcDbLine
 62
7
  6
CONTINUOUS
 10
12.2105214951
 20
10.0324624146
 11
12.2311045758
 21
10.0273304762
  0
LINE
  5
433
100
AcDbEntity
  8
0
100
AcDbLine
 62
7
  6
CONTINUOUS
 10
10.1973949784
 20
10.5722613204
 11
10.2177864183
 21
10.5664141691
  0
LINE
  5
434
100
AcDbEntity
  8
0
100
AcDbLine
 62
7
  6
CONTINUOUS
 10
12.2364370097
 20
9.9875754266
 11
12.2568284496
 21
9.9817282753
  0
LINE
  5
435
100
AcDbEntity
  8
0
100
AcDbLine
 62
7
  6
CONTINUOUS
 10
10.2433755454
 20
10.5973026038
 11
10.2635505008
 21
10.5907473634
  0
LINE
  5
436
100
AcDbEntity
  8
0
100
AcDbLine
 62
7
  6
CONTINUOUS
 10
12.260770204
 20
9.9418113441
 11
12.2809451594
 21
9.9352561038
  0
LINE
  5
437
100
AcDbEntity
  8
0
100
AcDbLine
 62
7
  6
CONTINUOUS
 10
10.2902020305
 20
10.620723934
 11
10.3101359212
 21
10.6134685911
  0
LINE
  5
438
100
AcDbEntity
  8
0
100
AcDbLine
 62
7
  6
CONTINUOUS
 10
12.2834914317
 20
9.8952259237
 11
12.2905151421
 21
9.8926695021
  0
LINE
  5
439
100
AcDbEntity
  8
0
100
AcDbLine
 62
7
  6
CONTINUOUS
 10
10.3378173828
 20
10.6424967758
 11
10.3574859225
 21
10.6345501699
  0
LINE
  5
43A
100
AcDbEntity
  8
0
100
AcDbLine
 62
7
  6
CONTINUOUS
 10
10.3861635903
 20
10.6625946024
 11
10.4055428159
 21
10.6539664152
  0
LINE
  5
43B
100
AcDbEntity
  8
0
100
AcDbLine
 62
7
  6
CONTINUOUS
 10
10.4351817506
 20
10.6809929276
 11
10.4542480516
 21
10.6716936712
  0
LINE
  5
43C
100
AcDbEntity
  8
0
100
AcDbLine
 62
7
  6
CONTINUOUS
 10
10.4848121427
 20
10.6976693359
 11
10.5035422897
 21
10.6877103401
  0
LINE
  5
43D
100
AcDbEntity
  8
0
100
AcDbLine
 62
7
  6
CONTINUOUS
 10
10.5349942996
 20
10.7126035097
 11
10.5533654727
 21
10.7019969079
  0
LINE
  5
43E
100
AcDbEntity
  8
0
100
AcDbLine
 62
7
  6
CONTINUOUS
 10
10.585667082
 20
10.7257772539
 11
10.6036568988
 21
10.7145359688
  0
LINE
  5
43F
100
AcDbEntity
  8
0
100
AcDbLine
 62
7
  6
CONTINUOUS
 10
10.636768753
 20
10.7371745185
 11
10.6543552956
 21
10.7253122457
  0
LINE
  5
440
100
AcDbEntity
  8
0
100
AcDbLine
 62
7
  6
CONTINUOUS
 10
10.6882370529
 20
10.7467814176
 11
10.705398895
 21
10.7343126094
  0
LINE
  5
441
100
AcDbEntity
  8
0
100
AcDbLine
 62
7
  6
CONTINUOUS
 10
10.7400092758
 20
10.7545862466
 11
10.7567255082
 21
10.7415260945
  0
LINE
  5
442
100
AcDbEntity
  8
0
100
AcDbLine
 62
7
  6
CONTINUOUS
 10
10.792022345
 20
10.7605794967
 11
10.8082726016
 21
10.7469439123
  0
LINE
  5
443
100
AcDbEntity
  8
0
100
AcDbLine
 62
7
  6
CONTINUOUS
 10
10.8442128906
 20
10.7647538658
 11
10.859977373
 21
10.7505594622
  0
LINE
  5
444
100
AcDbEntity
  8
0
100
AcDbLine
 62
7
  6
CONTINUOUS
 10
10.8965173266
 20
10.7671042683
 11
10.9117768281
 21
10.752368339
  0
LINE
  5
445
100
AcDbEntity
  8
0
100
AcDbLine
 62
7
  6
CONTINUOUS
 10
10.948871928
 20
10.7676278405
 11
10.9636078573
 21
10.752368339
  0
LINE
  5
446
100
AcDbEntity
  8
0
100
AcDbLine
 62
7
  6
CONTINUOUS
 10
11.0012129088
 20
10.7663239445
 11
11.0154073125
 21
10.7505594622
  0
LINE
  5
447
100
AcDbEntity
  8
0
100
AcDbLine
 62
7
  6
CONTINUOUS
 10
11.0534764995
 20
10.763194169
 11
11.0671120839
 21
10.7469439123
  0
LINE
  5
448
100
AcDbEntity
  8
0
100
AcDbLine
 62
7
  6
CONTINUOUS
 10
11.1055990251
 20
10.7582423269
 11
11.1186591773
 21
10.7415260945
  0
LINE
  5
449
100
AcDbEntity
  8
0
100
AcDbLine
 62
7
  6
CONTINUOUS
 10
11.1575169823
 20
10.7514744515
 11
11.1699857904
 21
10.7343126094
  0
LINE
  5
44A
100
AcDbEntity
  8
0
100
AcDbLine
 62
7
  6
CONTINUOUS
 10
11.209167117
 20
10.7428987884
 11
11.2210293898
 21
10.7253122457
  0
LINE
  5
44B
100
AcDbEntity
  8
0
100
AcDbLine
 62
7
  6
CONTINUOUS
 10
11.2604865015
 20
10.7325257856
 11
11.2717277867
 21
10.7145359688
  0
LINE
  5
44C
100
AcDbEntity
  8
0
100
AcDbLine
 62
7
  6
CONTINUOUS
 10
11.3114126111
 20
10.720368081
 11
11.3220192128
 21
10.7019969079
  0
LINE
  5
44D
100
AcDbEntity
  8
0
100
AcDbLine
 62
7
  6
CONTINUOUS
 10
11.3618834001
 20
10.706440487
 11
11.3718423958
 21
10.6877103401
  0
LINE
  5
44E
100
AcDbEntity
  8
0
100
AcDbLine
 62
7
  6
CONTINUOUS
 10
11.4118373776
 20
10.6907599722
 11
11.4211366339
 21
10.6716936712
  0
LINE
  5
44F
100
AcDbEntity
  8
0
100
AcDbLine
 62
7
  6
CONTINUOUS
 10
11.4612136824
 20
10.6733456408
 11
11.4698418695
 21
10.6539664152
  0
LINE
  5
450
100
AcDbEntity
  8
0
100
AcDbLine
 62
7
  6
CONTINUOUS
 10
11.5099521571
 20
10.6542187097
 11
11.517898763
 21
10.6345501699
  0
LINE
  5
451
100
AcDbEntity
  8
0
100
AcDbLine
 62
7
  6
CONTINUOUS
 10
11.5579934214
 20
10.6334024818
 11
11.5652487643
 21
10.6134685911
  0
LINE
  5
452
100
AcDbEntity
  8
0
100
AcDbLine
 62
7
  6
CONTINUOUS
 10
12.2834914317
 20
8.6401130806
 11
12.2907467746
 21
8.6201791899
  0
LINE
  5
453
100
AcDbEntity
  8
0
100
AcDbLine
 62
7
  6
CONTINUOUS
 10
11.6052789443
 20
10.6109223188
 11
11.6118341847
 21
10.5907473634
  0
LINE
  5
454
100
AcDbEntity
  8
0
100
AcDbLine
 62
7
  6
CONTINUOUS
 10
12.260770204
 20
8.5935276602
 11
12.2673254444
 21
8.5733527048
  0
LINE
  5
455
100
AcDbEntity
  8
0
100
AcDbLine
 62
7
  6
CONTINUOUS
 10
11.6517511159
 20
10.586805609
 11
11.6575982672
 21
10.5664141691
  0
LINE
  5
456
100
AcDbEntity
  8
0
100
AcDbLine
 62
7
  6
CONTINUOUS
 10
12.2364370097
 20
8.5477635777
 11
12.242284161
 21
8.5273721378
  0
LINE
  5
457
100
AcDbEntity
  8
0
100
AcDbLine
 62
7
  6
CONTINUOUS
 10
11.6973533168
 20
10.5610817352
 11
11.7024852552
 21
10.5404986545
  0
LINE
  5
458
100
AcDbEntity
  8
0
100
AcDbLine
 62
7
  6
CONTINUOUS
 10
12.2105214951
 20
8.5028765897
 11
12.2156534335
 21
8.4822935091
  0
LINE
  5
459
100
AcDbEntity
  8
0
100
AcDbLine
 62
7
  6
CONTINUOUS
 10
11.7420299878
 20
10.5337820377
 11
11.7464404608
 21
10.5130323937
  0
LINE
  5
45A
100
AcDbEntity
  8
0
100
AcDbLine
 62
7
  6
CONTINUOUS
 10
12.1830552343
 20
8.4589213841
 11
12.1874657073
 21
8.4381717401
  0
LINE
  5
45B
100
AcDbEntity
  8
0
100
AcDbLine
 62
7
  6
CONTINUOUS
 10
11.7857266973
 20
10.5049397772
 11
11.7894103314
 21
10.48404885
  0
LINE
  5
45C
100
AcDbEntity
  8
0
100
AcDbLine
 62
7
  6
CONTINUOUS
 10
12.1540716906
 20
8.4159515135
 11
12.1577553247
 21
8.3950605863
  0
LINE
  5
45D
100
AcDbEntity
  8
0
100
AcDbLine
 62
7
  6
CONTINUOUS
 10
11.8283902076
 20
10.4745900934
 11
11.8313425149
 21
10.4535833354
  0
LINE
  5
45E
100
AcDbEntity
  8
0
100
AcDbLine
 62
7
  6
CONTINUOUS
 10
12.123606176
 20
8.37401933
 11
12.1265584833
 21
8.353012572
  0
LINE
  5
45F
100
AcDbEntity
  8
0
100
AcDbLine
 62
7
  6
CONTINUOUS
 10
-8.8250373822
 20
8.4196351476
 11
-8.8459283094
 21
8.4159515135
  0
LINE
  5
460
100
AcDbEntity
  8
0
100
AcDbLine
 62
7
  6
CONTINUOUS
 10
-10.9140256459
 20
8.0512901543
 11
-10.9349165731
 21
8.0476065202
  0
LINE
  5
461
100
AcDbEntity
  8
0
100
AcDbLine
 62
7
  6
CONTINUOUS
 10
-8.855387066
 20
8.3769716373
 11
-8.876393824
 21
8.37401933
  0
LINE
  5
462
100
AcDbEntity
  8
0
100
AcDbLine
 62
7
  6
CONTINUOUS
 10
-10.9559578294
 20
8.0817556689
 11
-10.9769645874
 21
8.0788033616
  0
LINE
  5
463
100
AcDbEntity
  8
0
100
AcDbLine
 62
7
  6
CONTINUOUS
 10
-11.2041563084
 20
10.2403881963
 11
-11.1829947793
 21
10.2418679545
  0
LINE
  5
464
100
AcDbEntity
  8
0
100
AcDbLine
 62
7
  6
CONTINUOUS
 10
-9.0881092049
 20
10.3883566241
 11
-9.0669476757
 21
10.3898363824
  0
LINE
  5
465
100
AcDbEntity
  8
0
100
AcDbLine
 62
7
  6
CONTINUOUS
 10
-11.1695133322
 20
10.2796455856
 11
-11.1483130513
 21
10.2803859157
  0
LINE
  5
466
100
AcDbEntity
  8
0
100
AcDbLine
 62
7
  6
CONTINUOUS
 10
-9.0495912437
 20
10.3536748961
 11
-9.0283909628
 21
10.3544152263
  0
LINE
  5
467
100
AcDbEntity
  8
0
100
AcDbLine
 62
7
  6
CONTINUOUS
 10
30.9037756483
 20
10.3544152263
 11
30.9249759292
 21
10.3536748961
  0
LINE
  5
468
100
AcDbEntity
  8
0
100
AcDbLine
 62
7
  6
CONTINUOUS
 10
33.0236977367
 20
10.2803859157
 11
33.0448980177
 21
10.2796455856
  0
LINE
  5
469
100
AcDbEntity
  8
0
100
AcDbLine
 62
7
  6
CONTINUOUS
 10
30.9423323612
 20
10.3898363824
 11
30.9634938903
 21
10.3883566241
  0
LINE
  5
46A
100
AcDbEntity
  8
0
100
AcDbLine
 62
7
  6
CONTINUOUS
 10
33.0583794647
 20
10.2418679545
 11
33.0795409939
 21
10.2403881963
  0
LINE
  5
46B
100
AcDbEntity
  8
0
100
AcDbLine
 62
7
  6
CONTINUOUS
 10
32.8523492729
 20
8.0788033616
 11
32.8313425149
 21
8.0817556689
  0
LINE
  5
46C
100
AcDbEntity
  8
0
100
AcDbLine
 62
7
  6
CONTINUOUS
 10
30.7517785095
 20
8.37401933
 11
30.7307717515
 21
8.3769716373
  0
LINE
  5
46D
100
AcDbEntity
  8
0
100
AcDbLine
 62
7
  6
CONTINUOUS
 10
32.8103012586
 20
8.0476065202
 11
32.7894103314
 21
8.0512901543
  0
LINE
  5
46E
100
AcDbEntity
  8
0
100
AcDbLine
 62
7
  6
CONTINUOUS
 10
30.7213129949
 20
8.4159515135
 11
30.7004220677
 21
8.4196351476
  0
LINE
  5
46F
100
AcDbEntity
  8
0
100
AcDbLine
 62
7
  6
CONTINUOUS
 10
-8.7688954242
 20
8.5080085281
 11
-8.7894785049
 21
8.5028765897
  0
LINE
  5
470
100
AcDbEntity
  8
0
100
AcDbLine
 62
7
  6
CONTINUOUS
 10
-10.8271005697
 20
7.9948403498
 11
-10.8476836503
 21
7.9897084114
  0
LINE
  5
471
100
AcDbEntity
  8
0
100
AcDbLine
 62
7
  6
CONTINUOUS
 10
-8.7961951217
 20
8.4633318571
 11
-8.8169447657
 21
8.4589213841
  0
LINE
  5
472
100
AcDbEntity
  8
0
100
AcDbLine
 62
7
  6
CONTINUOUS
 10
-10.8710557753
 20
8.0223066106
 11
-10.8918054194
 21
8.0178961376
  0
LINE
  5
473
100
AcDbEntity
  8
0
100
AcDbLine
 62
7
  6
CONTINUOUS
 10
-11.2995779323
 20
10.1157038567
 11
-11.2786870051
 21
10.1193874908
  0
LINE
  5
474
100
AcDbEntity
  8
0
100
AcDbLine
 62
7
  6
CONTINUOUS
 10
-9.2105896686
 20
10.48404885
 11
-9.1896987414
 21
10.4877324841
  0
LINE
  5
475
100
AcDbEntity
  8
0
100
AcDbLine
 62
7
  6
CONTINUOUS
 10
-11.2692282485
 20
10.158367367
 11
-11.2482214905
 21
10.1613196743
  0
LINE
  5
476
100
AcDbEntity
  8
0
100
AcDbLine
 62
7
  6
CONTINUOUS
 10
-9.1686574851
 20
10.4535833354
 11
-9.1476507271
 21
10.4565356427
  0
LINE
  5
477
100
AcDbEntity
  8
0
100
AcDbLine
 62
7
  6
CONTINUOUS
 10
-11.2374081179
 20
10.1999456991
 11
-11.2163111226
 21
10.2021630826
  0
LINE
  5
478
100
AcDbEntity
  8
0
100
AcDbLine
 62
7
  6
CONTINUOUS
 10
-9.1278140768
 20
10.4216729675
 11
-9.1067170815
 21
10.4238903511
  0
LINE
  5
479
100
AcDbEntity
  8
0
100
AcDbLine
 62
7
  6
CONTINUOUS
 10
30.982101767
 20
10.4238903511
 11
31.0031987622
 21
10.4216729675
  0
LINE
  5
47A
100
AcDbEntity
  8
0
100
AcDbLine
 62
7
  6
CONTINUOUS
 10
33.0916958081
 20
10.2021630826
 11
33.1127928034
 21
10.1999456991
  0
LINE
  5
47B
100
AcDbEntity
  8
0
100
AcDbLine
 62
7
  6
CONTINUOUS
 10
31.0230354126
 20
10.4565356427
 11
31.0440421706
 21
10.4535833354
  0
LINE
  5
47C
100
AcDbEntity
  8
0
100
AcDbLine
 62
7
  6
CONTINUOUS
 10
33.123606176
 20
10.1613196743
 11
33.144612934
 21
10.158367367
  0
LINE
  5
47D
100
AcDbEntity
  8
0
100
AcDbLine
 62
7
  6
CONTINUOUS
 10
31.0650834269
 20
10.4877324841
 11
31.0859743541
 21
10.48404885
  0
LINE
  5
47E
100
AcDbEntity
  8
0
100
AcDbLine
 62
7
  6
CONTINUOUS
 10
33.1540716906
 20
10.1193874908
 11
33.1749626178
 21
10.1157038567
  0
LINE
  5
47F
100
AcDbEntity
  8
0
100
AcDbLine
 62
7
  6
CONTINUOUS
 10
32.7671901048
 20
8.0178961376
 11
32.7464404608
 21
8.0223066106
  0
LINE
  5
480
100
AcDbEntity
  8
0
100
AcDbLine
 62
7
  6
CONTINUOUS
 10
30.6923294512
 20
8.4589213841
 11
30.6715798072
 21
8.4633318571
  0
LINE
  5
481
100
AcDbEntity
  8
0
100
AcDbLine
 62
7
  6
CONTINUOUS
 10
32.7230683358
 20
7.9897084114
 11
32.7024852552
 21
7.9948403498
  0
LINE
  5
482
100
AcDbEntity
  8
0
100
AcDbLine
 62
7
  6
CONTINUOUS
 10
30.6648631903
 20
8.5028765897
 11
30.6442801097
 21
8.5080085281
  0
LINE
  5
483
100
AcDbEntity
  8
0
100
AcDbLine
 62
7
  6
CONTINUOUS
 10
30.5848695434
 20
9.8926695021
 11
30.5918932538
 21
9.8952259237
  0
LINE
  5
484
100
AcDbEntity
  8
0
100
AcDbLine
 62
7
  6
CONTINUOUS
 10
32.5652487643
 20
10.6134685911
 11
32.585182655
 21
10.620723934
  0
LINE
  5
485
100
AcDbEntity
  8
0
100
AcDbLine
 62
7
  6
CONTINUOUS
 10
30.5944395261
 20
9.9352561038
 11
30.6146144815
 21
9.9418113441
  0
LINE
  5
486
100
AcDbEntity
  8
0
100
AcDbLine
 62
7
  6
CONTINUOUS
 10
32.6118341847
 20
10.5907473634
 11
32.6320091401
 21
10.5973026038
  0
LINE
  5
487
100
AcDbEntity
  8
0
100
AcDbLine
 62
7
  6
CONTINUOUS
 10
30.6185562358
 20
9.9817282753
 11
30.6389476758
 21
9.9875754266
  0
LINE
  5
488
100
AcDbEntity
  8
0
100
AcDbLine
 62
7
  6
CONTINUOUS
 10
32.6575982672
 20
10.5664141691
 11
32.6779897071
 21
10.5722613204
  0
LINE
  5
489
100
AcDbEntity
  8
0
100
AcDbLine
 62
7
  6
CONTINUOUS
 10
-11.3557198903
 20
10.0273304762
 11
-11.3351368097
 21
10.0324624146
  0
LINE
  5
48A
100
AcDbEntity
  8
0
100
AcDbLine
 62
7
  6
CONTINUOUS
 10
-9.2975147448
 20
10.5404986545
 11
-9.2769316642
 21
10.5456305929
  0
LINE
  5
48B
100
AcDbEntity
  8
0
100
AcDbLine
 62
7
  6
CONTINUOUS
 10
-11.3284201928
 20
10.0720071472
 11
-11.3076705488
 21
10.0764176202
  0
LINE
  5
48C
100
AcDbEntity
  8
0
100
AcDbLine
 62
7
  6
CONTINUOUS
 10
-9.2535595392
 20
10.5130323937
 11
-9.2328098952
 21
10.5174428667
  0
LINE
  5
48D
100
AcDbEntity
  8
0
100
AcDbLine
 62
7
  6
CONTINUOUS
 10
31.1081945806
 20
10.5174428667
 11
31.1289442247
 21
10.5130323937
  0
LINE
  5
48E
100
AcDbEntity
  8
0
100
AcDbLine
 62
7
  6
CONTINUOUS
 10
33.1830552343
 20
10.0764176202
 11
33.2038048783
 21
10.0720071472
  0
LINE
  5
48F
100
AcDbEntity
  8
0
100
AcDbLine
 62
7
  6
CONTINUOUS
 10
31.1523163497
 20
10.5456305929
 11
31.1728994303
 21
10.5404986545
  0
LINE
  5
490
100
AcDbEntity
  8
0
100
AcDbLine
 62
7
  6
CONTINUOUS
 10
33.2105214951
 20
10.0324624146
 11
33.2311045758
 21
10.0273304762
  0
LINE
  5
491
100
AcDbEntity
  8
0
100
AcDbLine
 62
7
  6
CONTINUOUS
 10
32.6779897071
 20
7.9630776839
 11
32.6575982672
 21
7.9689248352
  0
LINE
  5
492
100
AcDbEntity
  8
0
100
AcDbLine
 62
7
  6
CONTINUOUS
 10
30.6389476758
 20
8.5477635777
 11
30.6185562358
 21
8.553610729
  0
LINE
  5
493
100
AcDbEntity
  8
0
100
AcDbLine
 62
7
  6
CONTINUOUS
 10
32.6320091401
 20
7.9380364005
 11
32.6118341847
 21
7.9445916409
  0
LINE
  5
494
100
AcDbEntity
  8
0
100
AcDbLine
 62
7
  6
CONTINUOUS
 10
30.6146144815
 20
8.5935276602
 11
30.5944395261
 21
8.6000829005
  0
LINE
  5
495
100
AcDbEntity
  8
0
100
AcDbLine
 62
7
  6
CONTINUOUS
 10
32.585182655
 20
7.9146150703
 11
32.5652487643
 21
7.9218704132
  0
LINE
  5
496
100
AcDbEntity
  8
0
100
AcDbLine
 62
7
  6
CONTINUOUS
 10
30.5918932538
 20
8.6401130806
 11
30.5848695434
 21
8.6426695021
  0
LINE
  5
497
100
AcDbEntity
  8
0
100
AcDbLine
 62
7
  6
CONTINUOUS
 10
32.4698418695
 20
10.6539664152
 11
32.4892210952
 21
10.6625946024
  0
LINE
  5
498
100
AcDbEntity
  8
0
100
AcDbLine
 62
7
  6
CONTINUOUS
 10
32.517898763
 20
10.6345501699
 11
32.5375673027
 21
10.6424967758
  0
LINE
  5
499
100
AcDbEntity
  8
0
100
AcDbLine
 62
7
  6
CONTINUOUS
 10
33.2809451594
 20
8.6000829005
 11
33.260770204
 21
8.5935276602
  0
LINE
  5
49A
100
AcDbEntity
  8
0
100
AcDbLine
 62
7
  6
CONTINUOUS
 10
31.2635505008
 20
7.9445916409
 11
31.2433755454
 21
7.9380364005
  0
LINE
  5
49B
100
AcDbEntity
  8
0
100
AcDbLine
 62
7
  6
CONTINUOUS
 10
33.2568284496
 20
8.553610729
 11
33.2364370097
 21
8.5477635777
  0
LINE
  5
49C
100
AcDbEntity
  8
0
100
AcDbLine
 62
7
  6
CONTINUOUS
 10
31.2177864183
 20
7.9689248352
 11
31.1973949784
 21
7.9630776839
  0
LINE
  5
49D
100
AcDbEntity
  8
0
100
AcDbLine
 62
7
  6
CONTINUOUS
 10
31.1973949784
 20
10.5722613204
 11
31.2177864183
 21
10.5664141691
  0
LINE
  5
49E
100
AcDbEntity
  8
0
100
AcDbLine
 62
7
  6
CONTINUOUS
 10
33.2364370097
 20
9.9875754266
 11
33.2568284496
 21
9.9817282753
  0
LINE
  5
49F
100
AcDbEntity
  8
0
100
AcDbLine
 62
7
  6
CONTINUOUS
 10
31.2433755454
 20
10.5973026038
 11
31.2635505008
 21
10.5907473634
  0
LINE
  5
4A0
100
AcDbEntity
  8
0
100
AcDbLine
 62
7
  6
CONTINUOUS
 10
33.260770204
 20
9.9418113441
 11
33.2809451594
 21
9.9352561038
  0
LINE
  5
4A1
100
AcDbEntity
  8
0
100
AcDbLine
 62
7
  6
CONTINUOUS
 10
32.5375673027
 20
7.8928422285
 11
32.517898763
 21
7.9007888344
  0
LINE
  5
4A2
100
AcDbEntity
  8
0
100
AcDbLine
 62
7
  6
CONTINUOUS
 10
32.4892210952
 20
7.8727444019
 11
32.4698418695
 21
7.8813725891
  0
LINE
  5
4A3
100
AcDbEntity
  8
0
100
AcDbLine
 62
7
  6
CONTINUOUS
 10
32.3718423958
 20
10.6877103401
 11
32.3905725427
 21
10.6976693359
  0
LINE
  5
4A4
100
AcDbEntity
  8
0
100
AcDbLine
 62
7
  6
CONTINUOUS
 10
32.4211366339
 20
10.6716936712
 11
32.4402029348
 21
10.6809929276
  0
LINE
  5
4A5
100
AcDbEntity
  8
0
100
AcDbLine
 62
7
  6
CONTINUOUS
 10
33.3242415503
 20
8.6954096878
 11
33.3045730105
 21
8.6874630819
  0
LINE
  5
4A6
100
AcDbEntity
  8
0
100
AcDbLine
 62
7
  6
CONTINUOUS
 10
31.3574859225
 20
7.9007888344
 11
31.3378173828
 21
7.8928422285
  0
LINE
  5
4A7
100
AcDbEntity
  8
0
100
AcDbLine
 62
7
  6
CONTINUOUS
 10
33.3034253224
 20
8.6473684235
 11
33.2834914317
 21
8.6401130806
  0
LINE
  5
4A8
100
AcDbEntity
  8
0
100
AcDbLine
 62
7
  6
CONTINUOUS
 10
31.3101359212
 20
7.9218704132
 11
31.2902020305
 21
7.9146150703
  0
LINE
  5
4A9
100
AcDbEntity
  8
0
100
AcDbLine
 62
7
  6
CONTINUOUS
 10
31.2902020305
 20
10.620723934
 11
31.3101359212
 21
10.6134685911
  0
LINE
  5
4AA
100
AcDbEntity
  8
0
100
AcDbLine
 62
7
  6
CONTINUOUS
 10
33.2834914317
 20
9.8952259237
 11
33.3034253224
 21
9.8879705808
  0
LINE
  5
4AB
100
AcDbEntity
  8
0
100
AcDbLine
 62
7
  6
CONTINUOUS
 10
31.3378173828
 20
10.6424967758
 11
31.3574859225
 21
10.6345501699
  0
LINE
  5
4AC
100
AcDbEntity
  8
0
100
AcDbLine
 62
7
  6
CONTINUOUS
 10
33.3045730105
 20
9.8478759224
 11
33.3242415503
 21
9.8399293165
  0
LINE
  5
4AD
100
AcDbEntity
  8
0
100
AcDbLine
 62
7
  6
CONTINUOUS
 10
32.4402029348
 20
7.8543460767
 11
32.4211366339
 21
7.863645333
  0
LINE
  5
4AE
100
AcDbEntity
  8
0
100
AcDbLine
 62
7
  6
CONTINUOUS
 10
32.3905725427
 20
7.8376696684
 11
32.3718423958
 21
7.8476286642
  0
LINE
  5
4AF
100
AcDbEntity
  8
0
100
AcDbLine
 62
7
  6
CONTINUOUS
 10
32.2210293898
 20
10.7253122457
 11
32.2386159325
 21
10.7371745185
  0
LINE
  5
4B0
100
AcDbEntity
  8
0
100
AcDbLine
 62
7
  6
CONTINUOUS
 10
32.2717277867
 20
10.7145359688
 11
32.2897176035
 21
10.7257772539
  0
LINE
  5
4B1
100
AcDbEntity
  8
0
100
AcDbLine
 62
7
  6
CONTINUOUS
 10
32.3220192128
 20
10.7019969079
 11
32.3403903859
 21
10.7126035097
  0
LINE
  5
4B2
100
AcDbEntity
  8
0
100
AcDbLine
 62
7
  6
CONTINUOUS
 10
33.3607828128
 20
8.7935244673
 11
33.3417165118
 21
8.784225211
  0
LINE
  5
4B3
100
AcDbEntity
  8
0
100
AcDbLine
 62
7
  6
CONTINUOUS
 10
31.4542480516
 20
7.863645333
 11
31.4351817506
 21
7.8543460767
  0
LINE
  5
4B4
100
AcDbEntity
  8
0
100
AcDbLine
 62
7
  6
CONTINUOUS
 10
33.3433684814
 20
8.7441481625
 11
33.3239892558
 21
8.7355199753
  0
LINE
  5
4B5
100
AcDbEntity
  8
0
100
AcDbLine
 62
7
  6
CONTINUOUS
 10
31.4055428159
 20
7.8813725891
 11
31.3861635903
 21
7.8727444019
  0
LINE
  5
4B6
100
AcDbEntity
  8
0
100
AcDbLine
 62
7
  6
CONTINUOUS
 10
31.3861635903
 20
10.6625946024
 11
31.4055428159
 21
10.6539664152
  0
LINE
  5
4B7
100
AcDbEntity
  8
0
100
AcDbLine
 62
7
  6
CONTINUOUS
 10
33.3239892558
 20
9.7998190289
 11
33.3433684814
 21
9.7911908418
  0
LINE
  5
4B8
100
AcDbEntity
  8
0
100
AcDbLine
 62
7
  6
CONTINUOUS
 10
31.4351817506
 20
10.6809929276
 11
31.4542480516
 21
10.6716936712
  0
LINE
  5
4B9
100
AcDbEntity
  8
0
100
AcDbLine
 62
7
  6
CONTINUOUS
 10
33.3417165118
 20
9.7511137933
 11
33.3607828128
 21
9.741814537
  0
LINE
  5
4BA
100
AcDbEntity
  8
0
100
AcDbLine
 62
7
  6
CONTINUOUS
 10
32.3403903859
 20
7.8227354946
 11
32.3220192128
 21
7.8333420964
  0
LINE
  5
4BB
100
AcDbEntity
  8
0
100
AcDbLine
 62
7
  6
CONTINUOUS
 10
32.2897176035
 20
7.8095617504
 11
32.2717277867
 21
7.8208030355
  0
LINE
  5
4BC
100
AcDbEntity
  8
0
100
AcDbLine
 62
7
  6
CONTINUOUS
 10
32.2386159325
 20
7.7981644858
 11
32.2210293898
 21
7.8100267586
  0
LINE
  5
4BD
100
AcDbEntity
  8
0
100
AcDbLine
 62
7
  6
CONTINUOUS
 10
32.1186591773
 20
10.7415260945
 11
32.1353754097
 21
10.7545862466
  0
LINE
  5
4BE
100
AcDbEntity
  8
0
100
AcDbLine
 62
7
  6
CONTINUOUS
 10
32.1699857904
 20
10.7343126094
 11
32.1871476325
 21
10.7467814176
  0
LINE
  5
4BF
100
AcDbEntity
  8
0
100
AcDbLine
 62
7
  6
CONTINUOUS
 10
33.4025486261
 20
8.9448753433
 11
33.3845588094
 21
8.9336340582
  0
LINE
  5
4C0
100
AcDbEntity
  8
0
100
AcDbLine
 62
7
  6
CONTINUOUS
 10
31.6036568988
 20
7.8208030355
 11
31.585667082
 21
7.8095617504
  0
LINE
  5
4C1
100
AcDbEntity
  8
0
100
AcDbLine
 62
7
  6
CONTINUOUS
 10
33.3903909216
 20
8.8939492338
 11
33.3720197485
 21
8.8833426321
  0
LINE
  5
4C2
100
AcDbEntity
  8
0
100
AcDbLine
 62
7
  6
CONTINUOUS
 10
31.5533654727
 20
7.8333420964
 11
31.5349942996
 21
7.8227354946
  0
LINE
  5
4C3
100
AcDbEntity
  8
0
100
AcDbLine
 62
7
  6
CONTINUOUS
 10
33.3764633276
 20
8.8434784448
 11
33.3577331807
 21
8.8335194491
  0
LINE
  5
4C4
100
AcDbEntity
  8
0
100
AcDbLine
 62
7
  6
CONTINUOUS
 10
31.5035422897
 20
7.8476286642
 11
31.4848121427
 21
7.8376696684
  0
LINE
  5
4C5
100
AcDbEntity
  8
0
100
AcDbLine
 62
7
  6
CONTINUOUS
 10
31.4848121427
 20
10.6976693359
 11
31.5035422897
 21
10.6877103401
  0
LINE
  5
4C6
100
AcDbEntity
  8
0
100
AcDbLine
 62
7
  6
CONTINUOUS
 10
33.3577331807
 20
9.7018195552
 11
33.3764633276
 21
9.6918605595
  0
LINE
  5
4C7
100
AcDbEntity
  8
0
100
AcDbLine
 62
7
  6
CONTINUOUS
 10
31.5349942996
 20
10.7126035097
 11
31.5533654727
 21
10.7019969079
  0
LINE
  5
4C8
100
AcDbEntity
  8
0
100
AcDbLine
 62
7
  6
CONTINUOUS
 10
33.3720197485
 20
9.6519963722
 11
33.3903909216
 21
9.6413897705
  0
LINE
  5
4C9
100
AcDbEntity
  8
0
100
AcDbLine
 62
7
  6
CONTINUOUS
 10
31.585667082
 20
10.7257772539
 11
31.6036568988
 21
10.7145359688
  0
LINE
  5
4CA
100
AcDbEntity
  8
0
100
AcDbLine
 62
7
  6
CONTINUOUS
 10
33.3845588094
 20
9.6017049461
 11
33.4025486261
 21
9.5904636609
  0
LINE
  5
4CB
100
AcDbEntity
  8
0
100
AcDbLine
 62
7
  6
CONTINUOUS
 10
32.1871476325
 20
7.7885575867
 11
32.1699857904
 21
7.8010263948
  0
LINE
  5
4CC
100
AcDbEntity
  8
0
100
AcDbLine
 62
7
  6
CONTINUOUS
 10
32.1353754097
 20
7.7807527577
 11
32.1186591773
 21
7.7938129098
  0
LINE
  5
4CD
100
AcDbEntity
  8
0
100
AcDbLine
 62
7
  6
CONTINUOUS
 10
31.9636078573
 20
10.752368339
 11
31.9788673589
 21
10.7671042683
  0
LINE
  5
4CE
100
AcDbEntity
  8
0
100
AcDbLine
 62
7
  6
CONTINUOUS
 10
32.0154073125
 20
10.7505594622
 11
32.0311717948
 21
10.7647538658
  0
LINE
  5
4CF
100
AcDbEntity
  8
0
100
AcDbLine
 62
7
  6
CONTINUOUS
 10
32.0671120839
 20
10.7469439123
 11
32.0833623405
 21
10.7605794967
  0
LINE
  5
4D0
100
AcDbEntity
  8
0
100
AcDbLine
 62
7
  6
CONTINUOUS
 10
33.4214972921
 20
9.0478448626
 11
33.40433545
 21
9.0353760544
  0
LINE
  5
4D1
100
AcDbEntity
  8
0
100
AcDbLine
 62
7
  6
CONTINUOUS
 10
31.705398895
 20
7.8010263948
 11
31.6882370529
 21
7.7885575867
  0
LINE
  5
4D2
100
AcDbEntity
  8
0
100
AcDbLine
 62
7
  6
CONTINUOUS
 10
33.412921629
 20
8.9961947279
 11
33.3953350863
 21
8.984332455
  0
LINE
  5
4D3
100
AcDbEntity
  8
0
100
AcDbLine
 62
7
  6
CONTINUOUS
 10
31.6543552956
 20
7.8100267586
 11
31.636768753
 21
7.7981644858
  0
LINE
  5
4D4
100
AcDbEntity
  8
0
100
AcDbLine
 62
7
  6
CONTINUOUS
 10
31.636768753
 20
10.7371745185
 11
31.6543552956
 21
10.7253122457
  0
LINE
  5
4D5
100
AcDbEntity
  8
0
100
AcDbLine
 62
7
  6
CONTINUOUS
 10
33.3953350863
 20
9.5510065492
 11
33.412921629
 21
9.5391442764
  0
LINE
  5
4D6
100
AcDbEntity
  8
0
100
AcDbLine
 62
7
  6
CONTINUOUS
 10
31.6882370529
 20
10.7467814176
 11
31.705398895
 21
10.7343126094
  0
LINE
  5
4D7
100
AcDbEntity
  8
0
100
AcDbLine
 62
7
  6
CONTINUOUS
 10
33.40433545
 20
9.4999629498
 11
33.4214972921
 21
9.4874941417
  0
LINE
  5
4D8
100
AcDbEntity
  8
0
100
AcDbLine
 62
7
  6
CONTINUOUS
 10
32.0833623405
 20
7.7747595076
 11
32.0671120839
 21
7.7883950919
  0
LINE
  5
4D9
100
AcDbEntity
  8
0
100
AcDbLine
 62
7
  6
CONTINUOUS
 10
32.0311717948
 20
7.7705851384
 11
32.0154073125
 21
7.7847795421
  0
LINE
  5
4DA
100
AcDbEntity
  8
0
100
AcDbLine
 62
7
  6
CONTINUOUS
 10
31.9788673589
 20
7.768234736
 11
31.9636078573
 21
7.7829706653
  0
LINE
  5
4DB
100
AcDbEntity
  8
0
100
AcDbLine
 62
7
  6
CONTINUOUS
 10
31.8082726016
 20
10.7469439123
 11
31.8219081859
 21
10.763194169
  0
LINE
  5
4DC
100
AcDbEntity
  8
0
100
AcDbLine
 62
7
  6
CONTINUOUS
 10
31.859977373
 20
10.7505594622
 11
31.8741717767
 21
10.7663239445
  0
LINE
  5
4DD
100
AcDbEntity
  8
0
100
AcDbLine
 62
7
  6
CONTINUOUS
 10
31.9117768281
 20
10.752368339
 11
31.9265127575
 21
10.7676278405
  0
LINE
  5
4DE
100
AcDbEntity
  8
0
100
AcDbLine
 62
7
  6
CONTINUOUS
 10
33.4363467851
 20
9.2041489361
 11
33.4205823028
 21
9.1899545324
  0
LINE
  5
4DF
100
AcDbEntity
  8
0
100
AcDbLine
 62
7
  6
CONTINUOUS
 10
31.859977373
 20
7.7847795421
 11
31.8442128906
 21
7.7705851384
  0
LINE
  5
4E0
100
AcDbEntity
  8
0
100
AcDbLine
 62
7
  6
CONTINUOUS
 10
33.4332170095
 20
9.1518853453
 11
33.4169667529
 21
9.138249761
  0
LINE
  5
4E1
100
AcDbEntity
  8
0
100
AcDbLine
 62
7
  6
CONTINUOUS
 10
31.8082726016
 20
7.7883950919
 11
31.792022345
 21
7.7747595076
  0
LINE
  5
4E2
100
AcDbEntity
  8
0
100
AcDbLine
 62
7
  6
CONTINUOUS
 10
33.4282651675
 20
9.0997628197
 11
33.4115489351
 21
9.0867026676
  0
LINE
  5
4E3
100
AcDbEntity
  8
0
100
AcDbLine
 62
7
  6
CONTINUOUS
 10
31.7567255082
 20
7.7938129098
 11
31.7400092758
 21
7.7807527577
  0
LINE
  5
4E4
100
AcDbEntity
  8
0
100
AcDbLine
 62
7
  6
CONTINUOUS
 10
31.7400092758
 20
10.7545862466
 11
31.7567255082
 21
10.7415260945
  0
LINE
  5
4E5
100
AcDbEntity
  8
0
100
AcDbLine
 62
7
  6
CONTINUOUS
 10
33.4115489351
 20
9.4486363367
 11
33.4282651675
 21
9.4355761845
  0
LINE
  5
4E6
100
AcDbEntity
  8
0
100
AcDbLine
 62
7
  6
CONTINUOUS
 10
31.792022345
 20
10.7605794967
 11
31.8082726016
 21
10.7469439123
  0
LINE
  5
4E7
100
AcDbEntity
  8
0
100
AcDbLine
 62
7
  6
CONTINUOUS
 10
33.4169667529
 20
9.3970892433
 11
33.4332170095
 21
9.3834536589
  0
LINE
  5
4E8
100
AcDbEntity
  8
0
100
AcDbLine
 62
7
  6
CONTINUOUS
 10
31.8442128906
 20
10.7647538658
 11
31.859977373
 21
10.7505594622
  0
LINE
  5
4E9
100
AcDbEntity
  8
0
100
AcDbLine
 62
7
  6
CONTINUOUS
 10
33.4205823028
 20
9.3453844719
 11
33.4363467851
 21
9.3311900682
  0
LINE
  5
4EA
100
AcDbEntity
  8
0
100
AcDbLine
 62
7
  6
CONTINUOUS
 10
31.9265127575
 20
7.7677111638
 11
31.9117768281
 21
7.7829706653
  0
LINE
  5
4EB
100
AcDbEntity
  8
0
100
AcDbLine
 62
7
  6
CONTINUOUS
 10
31.8741717767
 20
7.7690150598
 11
31.859977373
 21
7.7847795421
  0
LINE
  5
4EC
100
AcDbEntity
  8
0
100
AcDbLine
 62
7
  6
CONTINUOUS
 10
31.8219081859
 20
7.7721448353
 11
31.8082726016
 21
7.7883950919
  0
LINE
  5
4ED
100
AcDbEntity
  8
0
100
AcDbLine
 62
7
  6
CONTINUOUS
 10
31.6543552956
 20
10.7253122457
 11
31.6662175685
 21
10.7428987884
  0
LINE
  5
4EE
100
AcDbEntity
  8
0
100
AcDbLine
 62
7
  6
CONTINUOUS
 10
31.705398895
 20
10.7343126094
 11
31.7178677032
 21
10.7514744515
  0
LINE
  5
4EF
100
AcDbEntity
  8
0
100
AcDbLine
 62
7
  6
CONTINUOUS
 10
31.7567255082
 20
10.7415260945
 11
31.7697856603
 21
10.7582423269
  0
LINE
  5
4F0
100
AcDbEntity
  8
0
100
AcDbLine
 62
7
  6
CONTINUOUS
 10
33.4347767064
 20
9.3611489542
 11
33.4205823028
 21
9.3453844719
  0
LINE
  5
4F1
100
AcDbEntity
  8
0
100
AcDbLine
 62
7
  6
CONTINUOUS
 10
32.0154073125
 20
7.7847795421
 11
32.0012129088
 21
7.7690150598
  0
LINE
  5
4F2
100
AcDbEntity
  8
0
100
AcDbLine
 62
7
  6
CONTINUOUS
 10
33.4371271089
 20
9.3088445183
 11
33.4223911796
 21
9.2935850167
  0
LINE
  5
4F3
100
AcDbEntity
  8
0
100
AcDbLine
 62
7
  6
CONTINUOUS
 10
31.9636078573
 20
7.7829706653
 11
31.948871928
 21
7.7677111638
  0
LINE
  5
4F4
100
AcDbEntity
  8
0
100
AcDbLine
 62
7
  6
CONTINUOUS
 10
33.4376506811
 20
9.2564899169
 11
33.4223911796
 21
9.2417539875
  0
LINE
  5
4F5
100
AcDbEntity
  8
0
100
AcDbLine
 62
7
  6
CONTINUOUS
 10
31.9117768281
 20
7.7829706653
 11
31.8965173266
 21
7.768234736
  0
LINE
  5
4F6
100
AcDbEntity
  8
0
100
AcDbLine
 62
7
  6
CONTINUOUS
 10
31.8965173266
 20
10.7671042683
 11
31.9117768281
 21
10.752368339
  0
LINE
  5
4F7
100
AcDbEntity
  8
0
100
AcDbLine
 62
7
  6
CONTINUOUS
 10
33.4223911796
 20
9.2935850167
 11
33.4376506811
 21
9.2788490874
  0
LINE
  5
4F8
100
AcDbEntity
  8
0
100
AcDbLine
 62
7
  6
CONTINUOUS
 10
31.948871928
 20
10.7676278405
 11
31.9636078573
 21
10.752368339
  0
LINE
  5
4F9
100
AcDbEntity
  8
0
100
AcDbLine
 62
7
  6
CONTINUOUS
 10
33.4223911796
 20
9.2417539875
 11
33.4371271089
 21
9.226494486
  0
LINE
  5
4FA
100
AcDbEntity
  8
0
100
AcDbLine
 62
7
  6
CONTINUOUS
 10
32.0012129088
 20
10.7663239445
 11
32.0154073125
 21
10.7505594622
  0
LINE
  5
4FB
100
AcDbEntity
  8
0
100
AcDbLine
 62
7
  6
CONTINUOUS
 10
33.4205823028
 20
9.1899545324
 11
33.4347767064
 21
9.1741900501
  0
LINE
  5
4FC
100
AcDbEntity
  8
0
100
AcDbLine
 62
7
  6
CONTINUOUS
 10
31.7697856603
 20
7.7770966774
 11
31.7567255082
 21
7.7938129098
  0
LINE
  5
4FD
100
AcDbEntity
  8
0
100
AcDbLine
 62
7
  6
CONTINUOUS
 10
31.7178677032
 20
7.7838645528
 11
31.705398895
 21
7.8010263948
  0
LINE
  5
4FE
100
AcDbEntity
  8
0
100
AcDbLine
 62
7
  6
CONTINUOUS
 10
31.6662175685
 20
7.7924402159
 11
31.6543552956
 21
7.8100267586
  0
LINE
  5
4FF
100
AcDbEntity
  8
0
100
AcDbLine
 62
7
  6
CONTINUOUS
 10
31.4055428159
 20
10.6539664152
 11
31.4141710031
 21
10.6733456408
  0
LINE
  5
500
100
AcDbEntity
  8
0
100
AcDbLine
 62
7
  6
CONTINUOUS
 10
31.4542480516
 20
10.6716936712
 11
31.4635473079
 21
10.6907599722
  0
LINE
  5
501
100
AcDbEntity
  8
0
100
AcDbLine
 62
7
  6
CONTINUOUS
 10
31.5035422897
 20
10.6877103401
 11
31.5135012854
 21
10.706440487
  0
LINE
  5
502
100
AcDbEntity
  8
0
100
AcDbLine
 62
7
  6
CONTINUOUS
 10
31.5533654727
 20
10.7019969079
 11
31.5639720744
 21
10.720368081
  0
LINE
  5
503
100
AcDbEntity
  8
0
100
AcDbLine
 62
7
  6
CONTINUOUS
 10
31.6036568988
 20
10.7145359688
 11
31.6148981839
 21
10.7325257856
  0
LINE
  5
504
100
AcDbEntity
  8
0
100
AcDbLine
 62
7
  6
CONTINUOUS
 10
33.4168042582
 20
9.5171247919
 11
33.40433545
 21
9.4999629498
  0
LINE
  5
505
100
AcDbEntity
  8
0
100
AcDbLine
 62
7
  6
CONTINUOUS
 10
32.1699857904
 20
7.8010263948
 11
32.1575169823
 21
7.7838645528
  0
LINE
  5
506
100
AcDbEntity
  8
0
100
AcDbLine
 62
7
  6
CONTINUOUS
 10
33.4246090872
 20
9.4653525691
 11
33.4115489351
 21
9.4486363367
  0
LINE
  5
507
100
AcDbEntity
  8
0
100
AcDbLine
 62
7
  6
CONTINUOUS
 10
32.1186591773
 20
7.7938129098
 11
32.1055990251
 21
7.7770966774
  0
LINE
  5
508
100
AcDbEntity
  8
0
100
AcDbLine
 62
7
  6
CONTINUOUS
 10
33.4306023373
 20
9.4133394999
 11
33.4169667529
 21
9.3970892433
  0
LINE
  5
509
100
AcDbEntity
  8
0
100
AcDbLine
 62
7
  6
CONTINUOUS
 10
32.0671120839
 20
7.7883950919
 11
32.0534764995
 21
7.7721448353
  0
LINE
  5
50A
100
AcDbEntity
  8
0
100
AcDbLine
 62
7
  6
CONTINUOUS
 10
32.0534764995
 20
10.763194169
 11
32.0671120839
 21
10.7469439123
  0
LINE
  5
50B
100
AcDbEntity
  8
0
100
AcDbLine
 62
7
  6
CONTINUOUS
 10
33.4169667529
 20
9.138249761
 11
33.4306023373
 21
9.1219995044
  0
LINE
  5
50C
100
AcDbEntity
  8
0
100
AcDbLine
 62
7
  6
CONTINUOUS
 10
32.1055990251
 20
10.7582423269
 11
32.1186591773
 21
10.7415260945
  0
LINE
  5
50D
100
AcDbEntity
  8
0
100
AcDbLine
 62
7
  6
CONTINUOUS
 10
33.4115489351
 20
9.0867026676
 11
33.4246090872
 21
9.0699864352
  0
LINE
  5
50E
100
AcDbEntity
  8
0
100
AcDbLine
 62
7
  6
CONTINUOUS
 10
32.1575169823
 20
10.7514744515
 11
32.1699857904
 21
10.7343126094
  0
LINE
  5
50F
100
AcDbEntity
  8
0
100
AcDbLine
 62
7
  6
CONTINUOUS
 10
33.40433545
 20
9.0353760544
 11
33.4168042582
 21
9.0182142124
  0
LINE
  5
510
100
AcDbEntity
  8
0
100
AcDbLine
 62
7
  6
CONTINUOUS
 10
31.6148981839
 20
7.8028132187
 11
31.6036568988
 21
7.8208030355
  0
LINE
  5
511
100
AcDbEntity
  8
0
100
AcDbLine
 62
7
  6
CONTINUOUS
 10
31.5639720744
 20
7.8149709233
 11
31.5533654727
 21
7.8333420964
  0
LINE
  5
512
100
AcDbEntity
  8
0
100
AcDbLine
 62
7
  6
CONTINUOUS
 10
31.5135012854
 20
7.8288985173
 11
31.5035422897
 21
7.8476286642
  0
LINE
  5
513
100
AcDbEntity
  8
0
100
AcDbLine
 62
7
  6
CONTINUOUS
 10
31.4635473079
 20
7.8445790321
 11
31.4542480516
 21
7.863645333
  0
LINE
  5
514
100
AcDbEntity
  8
0
100
AcDbLine
 62
7
  6
CONTINUOUS
 10
31.4141710031
 20
7.8619933634
 11
31.4055428159
 21
7.8813725891
  0
LINE
  5
515
100
AcDbEntity
  8
0
100
AcDbLine
 62
9
  6
CONTINUOUS
 10
30.3126923427
 20
9.8926695021
 11
30.3126923427
 21
8.6426695021
  0
LINE
  5
516
100
AcDbEntity
  8
0
100
AcDbLine
 62
7
  6
CONTINUOUS
 10
30.7176293608
 20
8.3950605863
 11
30.7213129949
 21
8.4159515135
  0
LINE
  5
517
100
AcDbEntity
  8
0
100
AcDbLine
 62
7
  6
CONTINUOUS
 10
31.0859743541
 20
10.48404885
 11
31.0896579882
 21
10.5049397772
  0
LINE
  5
518
100
AcDbEntity
  8
0
100
AcDbLine
 62
7
  6
CONTINUOUS
 10
30.6879189782
 20
8.4381717401
 11
30.6923294512
 21
8.4589213841
  0
LINE
  5
519
100
AcDbEntity
  8
0
100
AcDbLine
 62
7
  6
CONTINUOUS
 10
31.1289442247
 20
10.5130323937
 11
31.1333546977
 21
10.5337820377
  0
LINE
  5
51A
100
AcDbEntity
  8
0
100
AcDbLine
 62
7
  6
CONTINUOUS
 10
30.659731252
 20
8.4822935091
 11
30.6648631903
 21
8.5028765897
  0
LINE
  5
51B
100
AcDbEntity
  8
0
100
AcDbLine
 62
7
  6
CONTINUOUS
 10
31.1728994303
 20
10.5404986545
 11
31.1780313687
 21
10.5610817352
  0
LINE
  5
51C
100
AcDbEntity
  8
0
100
AcDbLine
 62
7
  6
CONTINUOUS
 10
30.6331005245
 20
8.5273721378
 11
30.6389476758
 21
8.5477635777
  0
LINE
  5
51D
100
AcDbEntity
  8
0
100
AcDbLine
 62
7
  6
CONTINUOUS
 10
31.2177864183
 20
10.5664141691
 11
31.2236335696
 21
10.586805609
  0
LINE
  5
51E
100
AcDbEntity
  8
0
100
AcDbLine
 62
7
  6
CONTINUOUS
 10
30.6080592411
 20
8.5733527048
 11
30.6146144815
 21
8.5935276602
  0
LINE
  5
51F
100
AcDbEntity
  8
0
100
AcDbLine
 62
7
  6
CONTINUOUS
 10
31.2635505008
 20
10.5907473634
 11
31.2701057411
 21
10.6109223188
  0
LINE
  5
520
100
AcDbEntity
  8
0
100
AcDbLine
 62
7
  6
CONTINUOUS
 10
30.5846379109
 20
8.6201791899
 11
30.5918932538
 21
8.6401130806
  0
LINE
  5
521
100
AcDbEntity
  8
0
100
AcDbLine
 62
7
  6
CONTINUOUS
 10
31.3101359212
 20
10.6134685911
 11
31.3173912641
 21
10.6334024818
  0
LINE
  5
522
100
AcDbEntity
  8
0
100
AcDbLine
 62
7
  6
CONTINUOUS
 10
31.3574859225
 20
10.6345501699
 11
31.3654325284
 21
10.6542187097
  0
LINE
  5
523
100
AcDbEntity
  8
0
100
AcDbLine
 62
7
  6
CONTINUOUS
 10
33.3676921765
 20
9.7205497021
 11
33.3577331807
 21
9.7018195552
  0
LINE
  5
524
100
AcDbEntity
  8
0
100
AcDbLine
 62
7
  6
CONTINUOUS
 10
32.3718423958
 20
7.8476286642
 11
32.3618834001
 21
7.8288985173
  0
LINE
  5
525
100
AcDbEntity
  8
0
100
AcDbLine
 62
7
  6
CONTINUOUS
 10
33.3826263502
 20
9.6703675453
 11
33.3720197485
 21
9.6519963722
  0
LINE
  5
526
100
AcDbEntity
  8
0
100
AcDbLine
 62
7
  6
CONTINUOUS
 10
32.3220192128
 20
7.8333420964
 11
32.3114126111
 21
7.8149709233
  0
LINE
  5
527
100
AcDbEntity
  8
0
100
AcDbLine
 62
7
  6
CONTINUOUS
 10
33.3958000945
 20
9.6196947629
 11
33.3845588094
 21
9.6017049461
  0
LINE
  5
528
100
AcDbEntity
  8
0
100
AcDbLine
 62
7
  6
CONTINUOUS
 10
32.2717277867
 20
7.8208030355
 11
32.2604865015
 21
7.8028132187
  0
LINE
  5
529
100
AcDbEntity
  8
0
100
AcDbLine
 62
7
  6
CONTINUOUS
 10
33.4071973591
 20
9.5685930919
 11
33.3953350863
 21
9.5510065492
  0
LINE
  5
52A
100
AcDbEntity
  8
0
100
AcDbLine
 62
7
  6
CONTINUOUS
 10
32.2210293898
 20
7.8100267586
 11
32.209167117
 21
7.7924402159
  0
LINE
  5
52B
100
AcDbEntity
  8
0
100
AcDbLine
 62
7
  6
CONTINUOUS
 10
32.209167117
 20
10.7428987884
 11
32.2210293898
 21
10.7253122457
  0
LINE
  5
52C
100
AcDbEntity
  8
0
100
AcDbLine
 62
7
  6
CONTINUOUS
 10
33.3953350863
 20
8.984332455
 11
33.4071973591
 21
8.9667459124
  0
LINE
  5
52D
100
AcDbEntity
  8
0
100
AcDbLine
 62
7
  6
CONTINUOUS
 10
32.2604865015
 20
10.7325257856
 11
32.2717277867
 21
10.7145359688
  0
LINE
  5
52E
100
AcDbEntity
  8
0
100
AcDbLine
 62
7
  6
CONTINUOUS
 10
33.3845588094
 20
8.9336340582
 11
33.3958000945
 21
8.9156442414
  0
LINE
  5
52F
100
AcDbEntity
  8
0
100
AcDbLine
 62
7
  6
CONTINUOUS
 10
32.3114126111
 20
10.720368081
 11
32.3220192128
 21
10.7019969079
  0
LINE
  5
530
100
AcDbEntity
  8
0
100
AcDbLine
 62
7
  6
CONTINUOUS
 10
33.3720197485
 20
8.8833426321
 11
33.3826263502
 21
8.864971459
  0
LINE
  5
531
100
AcDbEntity
  8
0
100
AcDbLine
 62
7
  6
CONTINUOUS
 10
32.3618834001
 20
10.706440487
 11
32.3718423958
 21
10.6877103401
  0
LINE
  5
532
100
AcDbEntity
  8
0
100
AcDbLine
 62
7
  6
CONTINUOUS
 10
33.3577331807
 20
8.8335194491
 11
33.3676921765
 21
8.8147893021
  0
LINE
  5
533
100
AcDbEntity
  8
0
100
AcDbLine
 62
7
  6
CONTINUOUS
 10
31.3654325284
 20
7.8811202946
 11
31.3574859225
 21
7.9007888344
  0
LINE
  5
534
100
AcDbEntity
  8
0
100
AcDbLine
 62
7
  6
CONTINUOUS
 10
31.3173912641
 20
7.9019365224
 11
31.3101359212
 21
7.9218704132
  0
LINE
  5
535
100
AcDbEntity
  8
0
100
AcDbLine
 62
7
  6
CONTINUOUS
 10
30.5918932538
 20
9.8952259237
 11
30.5846379109
 21
9.9151598144
  0
LINE
  5
536
100
AcDbEntity
  8
0
100
AcDbLine
 62
7
  6
CONTINUOUS
 10
31.2701057411
 20
7.9244166855
 11
31.2635505008
 21
7.9445916409
  0
LINE
  5
537
100
AcDbEntity
  8
0
100
AcDbLine
 62
7
  6
CONTINUOUS
 10
30.6146144815
 20
9.9418113441
 11
30.6080592411
 21
9.9619862995
  0
LINE
  5
538
100
AcDbEntity
  8
0
100
AcDbLine
 62
7
  6
CONTINUOUS
 10
31.2236335696
 20
7.9485333952
 11
31.2177864183
 21
7.9689248352
  0
LINE
  5
539
100
AcDbEntity
  8
0
100
AcDbLine
 62
7
  6
CONTINUOUS
 10
30.6389476758
 20
9.9875754266
 11
30.6331005245
 21
10.0079668665
  0
LINE
  5
53A
100
AcDbEntity
  8
0
100
AcDbLine
 62
7
  6
CONTINUOUS
 10
31.1780313687
 20
7.9742572691
 11
31.1728994303
 21
7.9948403498
  0
LINE
  5
53B
100
AcDbEntity
  8
0
100
AcDbLine
 62
7
  6
CONTINUOUS
 10
30.6648631903
 20
10.0324624146
 11
30.659731252
 21
10.0530454952
  0
LINE
  5
53C
100
AcDbEntity
  8
0
100
AcDbLine
 62
7
  6
CONTINUOUS
 10
31.1333546977
 20
8.0015569666
 11
31.1289442247
 21
8.0223066106
  0
LINE
  5
53D
100
AcDbEntity
  8
0
100
AcDbLine
 62
7
  6
CONTINUOUS
 10
30.6923294512
 20
10.0764176202
 11
30.6879189782
 21
10.0971672642
  0
LINE
  5
53E
100
AcDbEntity
  8
0
100
AcDbLine
 62
7
  6
CONTINUOUS
 10
31.0896579882
 20
8.0303992271
 11
31.0859743541
 21
8.0512901543
  0
LINE
  5
53F
100
AcDbEntity
  8
0
100
AcDbLine
 62
7
  6
CONTINUOUS
 10
30.7213129949
 20
10.1193874908
 11
30.7176293608
 21
10.140278418
  0
LINE
  5
540
100
AcDbEntity
  8
0
100
AcDbLine
 62
7
  6
CONTINUOUS
 10
31.0054161458
 20
8.0925690415
 11
31.0031987622
 21
8.1136660368
  0
LINE
  5
541
100
AcDbEntity
  8
0
100
AcDbLine
 62
7
  6
CONTINUOUS
 10
30.7836888774
 20
10.2021630826
 11
30.7814714938
 21
10.2232600779
  0
LINE
  5
542
100
AcDbEntity
  8
0
100
AcDbLine
 62
7
  6
CONTINUOUS
 10
32.8699685397
 20
10.4427699628
 11
32.8721859232
 21
10.4216729675
  0
LINE
  5
543
100
AcDbEntity
  8
0
100
AcDbLine
 62
7
  6
CONTINUOUS
 10
33.0916958081
 20
8.3331759216
 11
33.0939131917
 21
8.3120789264
  0
LINE
  5
544
100
AcDbEntity
  8
0
100
AcDbLine
 62
7
  6
CONTINUOUS
 10
30.9649736486
 20
8.125820851
 11
30.9634938903
 21
8.1469823801
  0
LINE
  5
545
100
AcDbEntity
  8
0
100
AcDbLine
 62
7
  6
CONTINUOUS
 10
30.8170052207
 20
10.2418679545
 11
30.8155254625
 21
10.2630294837
  0
LINE
  5
546
100
AcDbEntity
  8
0
100
AcDbLine
 62
7
  6
CONTINUOUS
 10
32.9104110369
 20
10.4095181533
 11
32.9118907951
 21
10.3883566241
  0
LINE
  5
547
100
AcDbEntity
  8
0
100
AcDbLine
 62
7
  6
CONTINUOUS
 10
33.0583794647
 20
8.2934710497
 11
33.059859223
 21
8.2723095206
  0
LINE
  5
548
100
AcDbEntity
  8
0
100
AcDbLine
 62
7
  6
CONTINUOUS
 10
30.9257162593
 20
8.1604638272
 11
30.9249759292
 21
8.1816641081
  0
LINE
  5
549
100
AcDbEntity
  8
0
100
AcDbLine
 62
7
  6
CONTINUOUS
 10
30.8516869487
 20
10.2803859157
 11
30.8509466186
 21
10.3015861966
  0
LINE
  5
54A
100
AcDbEntity
  8
0
100
AcDbLine
 62
7
  6
CONTINUOUS
 10
32.9496684262
 20
10.3748751771
 11
32.9504087563
 21
10.3536748961
  0
LINE
  5
54B
100
AcDbEntity
  8
0
100
AcDbLine
 62
7
  6
CONTINUOUS
 10
33.0236977367
 20
8.2549530886
 11
33.0244380669
 21
8.2337528077
  0
LINE
  5
54C
100
AcDbEntity
  8
0
100
AcDbLine
 62
7
  6
CONTINUOUS
 10
30.887691807
 20
8.196455763
 11
30.887691807
 21
8.2176689664
  0
LINE
  5
54D
100
AcDbEntity
  8
0
100
AcDbLine
 62
7
  6
CONTINUOUS
 10
30.887691807
 20
10.3176700379
 11
30.887691807
 21
10.3388832413
  0
LINE
  5
54E
100
AcDbEntity
  8
0
100
AcDbLine
 62
7
  6
CONTINUOUS
 10
32.9876928785
 20
10.3388832413
 11
32.9876928785
 21
10.3176700379
  0
LINE
  5
54F
100
AcDbEntity
  8
0
100
AcDbLine
 62
7
  6
CONTINUOUS
 10
32.9876928785
 20
8.2176689664
 11
32.9876928785
 21
8.196455763
  0
LINE
  5
550
100
AcDbEntity
  8
0
100
AcDbLine
 62
7
  6
CONTINUOUS
 10
30.8509466186
 20
8.2337528077
 11
30.8516869487
 21
8.2549530886
  0
LINE
  5
551
100
AcDbEntity
  8
0
100
AcDbLine
 62
7
  6
CONTINUOUS
 10
30.9249759292
 20
10.3536748961
 11
30.9257162593
 21
10.3748751771
  0
LINE
  5
552
100
AcDbEntity
  8
0
100
AcDbLine
 62
7
  6
CONTINUOUS
 10
33.0244380669
 20
10.3015861966
 11
33.0236977367
 21
10.2803859157
  0
LINE
  5
553
100
AcDbEntity
  8
0
100
AcDbLine
 62
7
  6
CONTINUOUS
 10
32.9504087563
 20
8.1816641081
 11
32.9496684262
 21
8.1604638272
  0
LINE
  5
554
100
AcDbEntity
  8
0
100
AcDbLine
 62
7
  6
CONTINUOUS
 10
30.8155254625
 20
8.2723095206
 11
30.8170052207
 21
8.2934710497
  0
LINE
  5
555
100
AcDbEntity
  8
0
100
AcDbLine
 62
7
  6
CONTINUOUS
 10
30.9634938903
 20
10.3883566241
 11
30.9649736486
 21
10.4095181533
  0
LINE
  5
556
100
AcDbEntity
  8
0
100
AcDbLine
 62
7
  6
CONTINUOUS
 10
33.059859223
 20
10.2630294837
 11
33.0583794647
 21
10.2418679545
  0
LINE
  5
557
100
AcDbEntity
  8
0
100
AcDbLine
 62
7
  6
CONTINUOUS
 10
32.9118907951
 20
8.1469823801
 11
32.9104110369
 21
8.125820851
  0
LINE
  5
558
100
AcDbEntity
  8
0
100
AcDbLine
 62
7
  6
CONTINUOUS
 10
30.7814714938
 20
8.3120789264
 11
30.7836888774
 21
8.3331759216
  0
LINE
  5
559
100
AcDbEntity
  8
0
100
AcDbLine
 62
7
  6
CONTINUOUS
 10
31.0031987622
 20
10.4216729675
 11
31.0054161458
 21
10.4427699628
  0
LINE
  5
55A
100
AcDbEntity
  8
0
100
AcDbLine
 62
7
  6
CONTINUOUS
 10
33.0939131917
 20
10.2232600779
 11
33.0916958081
 21
10.2021630826
  0
LINE
  5
55B
100
AcDbEntity
  8
0
100
AcDbLine
 62
7
  6
CONTINUOUS
 10
32.8721859232
 20
8.1136660368
 11
32.8699685397
 21
8.0925690415
  0
LINE
  5
55C
100
AcDbEntity
  8
0
100
AcDbLine
 62
7
  6
CONTINUOUS
 10
30.7488262022
 20
8.353012572
 11
30.7517785095
 21
8.37401933
  0
LINE
  5
55D
100
AcDbEntity
  8
0
100
AcDbLine
 62
7
  6
CONTINUOUS
 10
31.0440421706
 20
10.4535833354
 11
31.0469944779
 21
10.4745900934
  0
LINE
  5
55E
100
AcDbEntity
  8
0
100
AcDbLine
 62
7
  6
CONTINUOUS
 10
33.1265584833
 20
10.1823264323
 11
33.123606176
 21
10.1613196743
  0
LINE
  5
55F
100
AcDbEntity
  8
0
100
AcDbLine
 62
7
  6
CONTINUOUS
 10
32.8313425149
 20
8.0817556689
 11
32.8283902076
 21
8.0607489109
  0
LINE
  5
560
100
AcDbEntity
  8
0
100
AcDbLine
 62
7
  6
CONTINUOUS
 10
33.1577553247
 20
10.140278418
 11
33.1540716906
 21
10.1193874908
  0
LINE
  5
561
100
AcDbEntity
  8
0
100
AcDbLine
 62
7
  6
CONTINUOUS
 10
32.7894103314
 20
8.0512901543
 11
32.7857266973
 21
8.0303992271
  0
LINE
  5
562
100
AcDbEntity
  8
0
100
AcDbLine
 62
7
  6
CONTINUOUS
 10
33.1874657073
 20
10.0971672642
 11
33.1830552343
 21
10.0764176202
  0
LINE
  5
563
100
AcDbEntity
  8
0
100
AcDbLine
 62
7
  6
CONTINUOUS
 10
32.7464404608
 20
8.0223066106
 11
32.7420299878
 21
8.0015569666
  0
LINE
  5
564
100
AcDbEntity
  8
0
100
AcDbLine
 62
7
  6
CONTINUOUS
 10
33.2156534335
 20
10.0530454952
 11
33.2105214951
 21
10.0324624146
  0
LINE
  5
565
100
AcDbEntity
  8
0
100
AcDbLine
 62
7
  6
CONTINUOUS
 10
32.7024852552
 20
7.9948403498
 11
32.6973533168
 21
7.9742572691
  0
LINE
  5
566
100
AcDbEntity
  8
0
100
AcDbLine
 62
7
  6
CONTINUOUS
 10
33.242284161
 20
10.0079668665
 11
33.2364370097
 21
9.9875754266
  0
LINE
  5
567
100
AcDbEntity
  8
0
100
AcDbLine
 62
7
  6
CONTINUOUS
 10
32.6575982672
 20
7.9689248352
 11
32.6517511159
 21
7.9485333952
  0
LINE
  5
568
100
AcDbEntity
  8
0
100
AcDbLine
 62
7
  6
CONTINUOUS
 10
33.2673254444
 20
9.9619862995
 11
33.260770204
 21
9.9418113441
  0
LINE
  5
569
100
AcDbEntity
  8
0
100
AcDbLine
 62
7
  6
CONTINUOUS
 10
32.6118341847
 20
7.9445916409
 11
32.6052789443
 21
7.9244166855
  0
LINE
  5
56A
100
AcDbEntity
  8
0
100
AcDbLine
 62
7
  6
CONTINUOUS
 10
33.2907467746
 20
9.9151598144
 11
33.2834914317
 21
9.8952259237
  0
LINE
  5
56B
100
AcDbEntity
  8
0
100
AcDbLine
 62
7
  6
CONTINUOUS
 10
32.5652487643
 20
7.9218704132
 11
32.5579934214
 21
7.9019365224
  0
LINE
  5
56C
100
AcDbEntity
  8
0
100
AcDbLine
 62
7
  6
CONTINUOUS
 10
33.3125196164
 20
9.8675444621
 11
33.3045730105
 21
9.8478759224
  0
LINE
  5
56D
100
AcDbEntity
  8
0
100
AcDbLine
 62
7
  6
CONTINUOUS
 10
32.517898763
 20
7.9007888344
 11
32.5099521571
 21
7.8811202946
  0
LINE
  5
56E
100
AcDbEntity
  8
0
100
AcDbLine
 62
7
  6
CONTINUOUS
 10
33.332617443
 20
9.8191982546
 11
33.3239892558
 21
9.7998190289
  0
LINE
  5
56F
100
AcDbEntity
  8
0
100
AcDbLine
 62
7
  6
CONTINUOUS
 10
32.4698418695
 20
7.8813725891
 11
32.4612136824
 21
7.8619933634
  0
LINE
  5
570
100
AcDbEntity
  8
0
100
AcDbLine
 62
7
  6
CONTINUOUS
 10
33.3510157682
 20
9.7701800942
 11
33.3417165118
 21
9.7511137933
  0
LINE
  5
571
100
AcDbEntity
  8
0
100
AcDbLine
 62
7
  6
CONTINUOUS
 10
32.4211366339
 20
7.863645333
 11
32.4118373776
 21
7.8445790321
  0
LINE
  5
572
100
AcDbEntity
  8
0
100
AcDbLine
 62
7
  6
CONTINUOUS
 10
32.4118373776
 20
10.6907599722
 11
32.4211366339
 21
10.6716936712
  0
LINE
  5
573
100
AcDbEntity
  8
0
100
AcDbLine
 62
7
  6
CONTINUOUS
 10
33.3417165118
 20
8.784225211
 11
33.3510157682
 21
8.76515891
  0
LINE
  5
574
100
AcDbEntity
  8
0
100
AcDbLine
 62
7
  6
CONTINUOUS
 10
32.4612136824
 20
10.6733456408
 11
32.4698418695
 21
10.6539664152
  0
LINE
  5
575
100
AcDbEntity
  8
0
100
AcDbLine
 62
7
  6
CONTINUOUS
 10
33.3239892558
 20
8.7355199753
 11
33.332617443
 21
8.7161407497
  0
LINE
  5
576
100
AcDbEntity
  8
0
100
AcDbLine
 62
7
  6
CONTINUOUS
 10
32.5099521571
 20
10.6542187097
 11
32.517898763
 21
10.6345501699
  0
LINE
  5
577
100
AcDbEntity
  8
0
100
AcDbLine
 62
7
  6
CONTINUOUS
 10
33.3045730105
 20
8.6874630819
 11
33.3125196164
 21
8.6677945422
  0
LINE
  5
578
100
AcDbEntity
  8
0
100
AcDbLine
 62
7
  6
CONTINUOUS
 10
32.5579934214
 20
10.6334024818
 11
32.5652487643
 21
10.6134685911
  0
LINE
  5
579
100
AcDbEntity
  8
0
100
AcDbLine
 62
7
  6
CONTINUOUS
 10
33.2834914317
 20
8.6401130806
 11
33.2907467746
 21
8.6201791899
  0
LINE
  5
57A
100
AcDbEntity
  8
0
100
AcDbLine
 62
7
  6
CONTINUOUS
 10
32.6052789443
 20
10.6109223188
 11
32.6118341847
 21
10.5907473634
  0
LINE
  5
57B
100
AcDbEntity
  8
0
100
AcDbLine
 62
7
  6
CONTINUOUS
 10
33.260770204
 20
8.5935276602
 11
33.2673254444
 21
8.5733527048
  0
LINE
  5
57C
100
AcDbEntity
  8
0
100
AcDbLine
 62
7
  6
CONTINUOUS
 10
32.6517511159
 20
10.586805609
 11
32.6575982672
 21
10.5664141691
  0
LINE
  5
57D
100
AcDbEntity
  8
0
100
AcDbLine
 62
7
  6
CONTINUOUS
 10
33.2364370097
 20
8.5477635777
 11
33.242284161
 21
8.5273721378
  0
LINE
  5
57E
100
AcDbEntity
  8
0
100
AcDbLine
 62
7
  6
CONTINUOUS
 10
32.6973533168
 20
10.5610817352
 11
32.7024852552
 21
10.5404986545
  0
LINE
  5
57F
100
AcDbEntity
  8
0
100
AcDbLine
 62
7
  6
CONTINUOUS
 10
33.2105214951
 20
8.5028765897
 11
33.2156534335
 21
8.4822935091
  0
LINE
  5
580
100
AcDbEntity
  8
0
100
AcDbLine
 62
7
  6
CONTINUOUS
 10
32.7420299878
 20
10.5337820377
 11
32.7464404608
 21
10.5130323937
  0
LINE
  5
581
100
AcDbEntity
  8
0
100
AcDbLine
 62
7
  6
CONTINUOUS
 10
33.1830552343
 20
8.4589213841
 11
33.1874657073
 21
8.4381717401
  0
LINE
  5
582
100
AcDbEntity
  8
0
100
AcDbLine
 62
7
  6
CONTINUOUS
 10
32.7857266973
 20
10.5049397772
 11
32.7894103314
 21
10.48404885
  0
LINE
  5
583
100
AcDbEntity
  8
0
100
AcDbLine
 62
7
  6
CONTINUOUS
 10
33.1540716906
 20
8.4159515135
 11
33.1577553247
 21
8.3950605863
  0
LINE
  5
584
100
AcDbEntity
  8
0
100
AcDbLine
 62
7
  6
CONTINUOUS
 10
31.0469944779
 20
8.0607489109
 11
31.0440421706
 21
8.0817556689
  0
LINE
  5
585
100
AcDbEntity
  8
0
100
AcDbLine
 62
7
  6
CONTINUOUS
 10
30.7517785095
 20
10.1613196743
 11
30.7488262022
 21
10.1823264323
  0
LINE
  5
586
100
AcDbEntity
  8
0
100
AcDbLine
 62
7
  6
CONTINUOUS
 10
32.8283902076
 20
10.4745900934
 11
32.8313425149
 21
10.4535833354
  0
LINE
  5
587
100
AcDbEntity
  8
0
100
AcDbLine
 62
7
  6
CONTINUOUS
 10
33.123606176
 20
8.37401933
 11
33.1265584833
 21
8.353012572
  0
ARC
  5
588
100
AcDbEntity
  8
0
100
AcDbCircle
 62
7
  6
CONTINUOUS
 10
10.9376923427
 20
9.2676695021
 40
1.5
100
AcDbArc
 50
39.5729673449
 51
40.4270326551
  0
ARC
  5
589
100
AcDbEntity
  8
0
100
AcDbCircle
 62
7
  6
CONTINUOUS
 10
10.9376923427
 20
9.2676695021
 40
1.5
100
AcDbArc
 50
29.5729673449
 51
30.4270326551
  0
ARC
  5
58A
100
AcDbEntity
  8
0
100
AcDbCircle
 62
7
  6
CONTINUOUS
 10
10.9376923427
 20
9.2676695021
 40
1.5
100
AcDbArc
 50
329.5729673449
 51
330.4270326551
  0
ARC
  5
58B
100
AcDbEntity
  8
0
100
AcDbCircle
 62
7
  6
CONTINUOUS
 10
10.9376923427
 20
9.2676695021
 40
1.5
100
AcDbArc
 50
319.5729673449
 51
320.4270326551
  0
ARC
  5
58C
100
AcDbEntity
  8
0
100
AcDbCircle
 62
7
  6
CONTINUOUS
 10
10.9376923427
 20
9.2676695021
 40
1.5
100
AcDbArc
 50
309.5729673449
 51
310.4270326551
  0
ARC
  5
58D
100
AcDbEntity
  8
0
100
AcDbCircle
 62
7
  6
CONTINUOUS
 10
10.9376923427
 20
9.2676695021
 40
1.5
100
AcDbArc
 50
299.5729673449
 51
300.4270326551
  0
ARC
  5
58E
100
AcDbEntity
  8
0
100
AcDbCircle
 62
7
  6
CONTINUOUS
 10
10.9376923427
 20
9.2676695021
 40
1.5
100
AcDbArc
 50
289.5729673449
 51
290.4270326551
  0
ARC
  5
58F
100
AcDbEntity
  8
0
100
AcDbCircle
 62
7
  6
CONTINUOUS
 10
10.9376923427
 20
9.2676695021
 40
1.5
100
AcDbArc
 50
279.5729673449
 51
280.4270326551
  0
ARC
  5
590
100
AcDbEntity
  8
0
100
AcDbCircle
 62
7
  6
CONTINUOUS
 10
10.9376923427
 20
9.2676695021
 40
1.5
100
AcDbArc
 50
269.5729673449
 51
270.4270326551
  0
ARC
  5
591
100
AcDbEntity
  8
0
100
AcDbCircle
 62
7
  6
CONTINUOUS
 10
10.9376923427
 20
9.2676695021
 40
1.5
100
AcDbArc
 50
259.5729673449
 51
260.4270326551
  0
ARC
  5
592
100
AcDbEntity
  8
0
100
AcDbCircle
 62
7
  6
CONTINUOUS
 10
10.9376923427
 20
9.2676695021
 40
1.5
100
AcDbArc
 50
249.5729673449
 51
250.4270326551
  0
ARC
  5
593
100
AcDbEntity
  8
0
100
AcDbCircle
 62
7
  6
CONTINUOUS
 10
10.9376923427
 20
9.2676695021
 40
1.5
100
AcDbArc
 50
239.5729673449
 51
240.4270326551
  0
ARC
  5
594
100
AcDbEntity
  8
0
100
AcDbCircle
 62
7
  6
CONTINUOUS
 10
10.9376923427
 20
9.2676695021
 40
1.5
100
AcDbArc
 50
229.5729673449
 51
230.4270326551
  0
ARC
  5
595
100
AcDbEntity
  8
0
100
AcDbCircle
 62
7
  6
CONTINUOUS
 10
10.9376923427
 20
9.2676695021
 40
1.5
100
AcDbArc
 50
219.5729673449
 51
220.4270326551
  0
ARC
  5
596
100
AcDbEntity
  8
0
100
AcDbCircle
 62
7
  6
CONTINUOUS
 10
10.9376923427
 20
9.2676695021
 40
1.5
100
AcDbArc
 50
209.5729673449
 51
210.4270326551
  0
ARC
  5
597
100
AcDbEntity
  8
0
100
AcDbCircle
 62
7
  6
CONTINUOUS
 10
10.9376923427
 20
9.2676695021
 40
1.5
100
AcDbArc
 50
149.5729673449
 51
150.4270326551
  0
ARC
  5
598
100
AcDbEntity
  8
0
100
AcDbCircle
 62
7
  6
CONTINUOUS
 10
10.9376923427
 20
9.2676695021
 40
1.5
100
AcDbArc
 50
139.5729673449
 51
140.4270326551
  0
ARC
  5
599
100
AcDbEntity
  8
0
100
AcDbCircle
 62
7
  6
CONTINUOUS
 10
10.9376923427
 20
9.2676695021
 40
1.5
100
AcDbArc
 50
129.5729673449
 51
130.4270326551
  0
ARC
  5
59A
100
AcDbEntity
  8
0
100
AcDbCircle
 62
7
  6
CONTINUOUS
 10
10.9376923427
 20
9.2676695021
 40
1.5
100
AcDbArc
 50
119.5729673449
 51
120.4270326551
  0
ARC
  5
59B
100
AcDbEntity
  8
0
100
AcDbCircle
 62
7
  6
CONTINUOUS
 10
10.9376923427
 20
9.2676695021
 40
1.5
100
AcDbArc
 50
109.5729673449
 51
110.4270326551
  0
ARC
  5
59C
100
AcDbEntity
  8
0
100
AcDbCircle
 62
7
  6
CONTINUOUS
 10
10.9376923427
 20
9.2676695021
 40
1.5
100
AcDbArc
 50
99.5729673449
 51
100.4270326551
  0
ARC
  5
59D
100
AcDbEntity
  8
0
100
AcDbCircle
 62
7
  6
CONTINUOUS
 10
10.9376923427
 20
9.2676695021
 40
1.5
100
AcDbArc
 50
89.5729673449
 51
90.4270326551
  0
ARC
  5
59E
100
AcDbEntity
  8
0
100
AcDbCircle
 62
7
  6
CONTINUOUS
 10
10.9376923427
 20
9.2676695021
 40
1.5
100
AcDbArc
 50
79.5729673449
 51
80.4270326551
  0
ARC
  5
59F
100
AcDbEntity
  8
0
100
AcDbCircle
 62
7
  6
CONTINUOUS
 10
10.9376923427
 20
9.2676695021
 40
1.5
100
AcDbArc
 50
69.5729673449
 51
70.4270326551
  0
ARC
  5
5A0
100
AcDbEntity
  8
0
100
AcDbCircle
 62
7
  6
CONTINUOUS
 10
10.9376923427
 20
9.2676695021
 40
1.5
100
AcDbArc
 50
59.5729673449
 51
60.4270326551
  0
ARC
  5
5A1
100
AcDbEntity
  8
0
100
AcDbCircle
 62
7
  6
CONTINUOUS
 10
10.9376923427
 20
9.2676695021
 40
1.5
100
AcDbArc
 50
49.5729673449
 51
50.4270326551
  0
ARC
  5
5A2
100
AcDbEntity
  8
0
100
AcDbCircle
 62
7
  6
CONTINUOUS
 10
31.9376923427
 20
9.2676695021
 40
1.5
100
AcDbArc
 50
39.5729673449
 51
40.4270326551
  0
ARC
  5
5A3
100
AcDbEntity
  8
0
100
AcDbCircle
 62
7
  6
CONTINUOUS
 10
31.9376923427
 20
9.2676695021
 40
1.5
100
AcDbArc
 50
29.5729673449
 51
30.4270326551
  0
ARC
  5
5A4
100
AcDbEntity
  8
0
100
AcDbCircle
 62
7
  6
CONTINUOUS
 10
31.9376923427
 20
9.2676695021
 40
1.5
100
AcDbArc
 50
19.5729673449
 51
20.4270326551
  0
ARC
  5
5A5
100
AcDbEntity
  8
0
100
AcDbCircle
 62
7
  6
CONTINUOUS
 10
31.9376923427
 20
9.2676695021
 40
1.5
100
AcDbArc
 50
9.5729673449
 51
10.4270326551
  0
ARC
  5
5A6
100
AcDbEntity
  8
0
100
AcDbCircle
 62
7
  6
CONTINUOUS
 10
31.9376923427
 20
9.2676695021
 40
1.5
100
AcDbArc
 50
359.5729673449
 51
0.4270326551
  0
ARC
  5
5A7
100
AcDbEntity
  8
0
100
AcDbCircle
 62
7
  6
CONTINUOUS
 10
31.9376923427
 20
9.2676695021
 40
1.5
100
AcDbArc
 50
349.5729673449
 51
350.4270326551
  0
ARC
  5
5A8
100
AcDbEntity
  8
0
100
AcDbCircle
 62
7
  6
CONTINUOUS
 10
31.9376923427
 20
9.2676695021
 40
1.5
100
AcDbArc
 50
339.5729673449
 51
340.4270326551
  0
ARC
  5
5A9
100
AcDbEntity
  8
0
100
AcDbCircle
 62
7
  6
CONTINUOUS
 10
31.9376923427
 20
9.2676695021
 40
1.5
100
AcDbArc
 50
329.5729673449
 51
330.4270326551
  0
ARC
  5
5AA
100
AcDbEntity
  8
0
100
AcDbCircle
 62
7
  6
CONTINUOUS
 10
31.9376923427
 20
9.2676695021
 40
1.5
100
AcDbArc
 50
319.5729673449
 51
320.4270326551
  0
ARC
  5
5AB
100
AcDbEntity
  8
0
100
AcDbCircle
 62
7
  6
CONTINUOUS
 10
31.9376923427
 20
9.2676695021
 40
1.5
100
AcDbArc
 50
309.5729673449
 51
310.4270326551
  0
ARC
  5
5AC
100
AcDbEntity
  8
0
100
AcDbCircle
 62
7
  6
CONTINUOUS
 10
31.9376923427
 20
9.2676695021
 40
1.5
100
AcDbArc
 50
299.5729673449
 51
300.4270326551
  0
ARC
  5
5AD
100
AcDbEntity
  8
0
100
AcDbCircle
 62
7
  6
CONTINUOUS
 10
31.9376923427
 20
9.2676695021
 40
1.5
100
AcDbArc
 50
289.5729673449
 51
290.4270326551
  0
ARC
  5
5AE
100
AcDbEntity
  8
0
100
AcDbCircle
 62
7
  6
CONTINUOUS
 10
31.9376923427
 20
9.2676695021
 40
1.5
100
AcDbArc
 50
279.5729673449
 51
280.4270326551
  0
ARC
  5
5AF
100
AcDbEntity
  8
0
100
AcDbCircle
 62
7
  6
CONTINUOUS
 10
31.9376923427
 20
9.2676695021
 40
1.5
100
AcDbArc
 50
269.5729673449
 51
270.4270326551
  0
ARC
  5
5B0
100
AcDbEntity
  8
0
100
AcDbCircle
 62
7
  6
CONTINUOUS
 10
31.9376923427
 20
9.2676695021
 40
1.5
100
AcDbArc
 50
259.5729673449
 51
260.4270326551
  0
ARC
  5
5B1
100
AcDbEntity
  8
0
100
AcDbCircle
 62
7
  6
CONTINUOUS
 10
31.9376923427
 20
9.2676695021
 40
1.5
100
AcDbArc
 50
249.5729673449
 51
250.4270326551
  0
ARC
  5
5B2
100
AcDbEntity
  8
0
100
AcDbCircle
 62
7
  6
CONTINUOUS
 10
31.9376923427
 20
9.2676695021
 40
1.5
100
AcDbArc
 50
239.5729673449
 51
240.4270326551
  0
ARC
  5
5B3
100
AcDbEntity
  8
0
100
AcDbCircle
 62
7
  6
CONTINUOUS
 10
31.9376923427
 20
9.2676695021
 40
1.5
100
AcDbArc
 50
229.5729673449
 51
230.4270326551
  0
ARC
  5
5B4
100
AcDbEntity
  8
0
100
AcDbCircle
 62
7
  6
CONTINUOUS
 10
31.9376923427
 20
9.2676695021
 40
1.5
100
AcDbArc
 50
219.5729673449
 51
220.4270326551
  0
ARC
  5
5B5
100
AcDbEntity
  8
0
100
AcDbCircle
 62
7
  6
CONTINUOUS
 10
31.9376923427
 20
9.2676695021
 40
1.5
100
AcDbArc
 50
209.5729673449
 51
210.4270326551
  0
ARC
  5
5B6
100
AcDbEntity
  8
0
100
AcDbCircle
 62
7
  6
CONTINUOUS
 10
31.9376923427
 20
9.2676695021
 40
1.5
100
AcDbArc
 50
149.5729673449
 51
150.4270326551
  0
ARC
  5
5B7
100
AcDbEntity
  8
0
100
AcDbCircle
 62
7
  6
CONTINUOUS
 10
31.9376923427
 20
9.2676695021
 40
1.5
100
AcDbArc
 50
139.5729673449
 51
140.4270326551
  0
ARC
  5
5B8
100
AcDbEntity
  8
0
100
AcDbCircle
 62
7
  6
CONTINUOUS
 10
31.9376923427
 20
9.2676695021
 40
1.5
100
AcDbArc
 50
129.5729673449
 51
130.4270326551
  0
ARC
  5
5B9
100
AcDbEntity
  8
0
100
AcDbCircle
 62
7
  6
CONTINUOUS
 10
31.9376923427
 20
9.2676695021
 40
1.5
100
AcDbArc
 50
119.5729673449
 51
120.4270326551
  0
ARC
  5
5BA
100
AcDbEntity
  8
0
100
AcDbCircle
 62
7
  6
CONTINUOUS
 10
31.9376923427
 20
9.2676695021
 40
1.5
100
AcDbArc
 50
109.5729673449
 51
110.4270326551
  0
ARC
  5
5BB
100
AcDbEntity
  8
0
100
AcDbCircle
 62
7
  6
CONTINUOUS
 10
31.9376923427
 20
9.2676695021
 40
1.5
100
AcDbArc
 50
99.5729673449
 51
100.4270326551
  0
ARC
  5
5BC
100
AcDbEntity
  8
0
100
AcDbCircle
 62
7
  6
CONTINUOUS
 10
31.9376923427
 20
9.2676695021
 40
1.5
100
AcDbArc
 50
89.5729673449
 51
90.4270326551
  0
ARC
  5
5BD
100
AcDbEntity
  8
0
100
AcDbCircle
 62
7
  6
CONTINUOUS
 10
31.9376923427
 20
9.2676695021
 40
1.5
100
AcDbArc
 50
79.5729673449
 51
80.4270326551
  0
ARC
  5
5BE
100
AcDbEntity
  8
0
100
AcDbCircle
 62
7
  6
CONTINUOUS
 10
31.9376923427
 20
9.2676695021
 40
1.5
100
AcDbArc
 50
69.5729673449
 51
70.4270326551
  0
ARC
  5
5BF
100
AcDbEntity
  8
0
100
AcDbCircle
 62
7
  6
CONTINUOUS
 10
31.9376923427
 20
9.2676695021
 40
1.5
100
AcDbArc
 50
59.5729673449
 51
60.4270326551
  0
ARC
  5
5C0
100
AcDbEntity
  8
0
100
AcDbCircle
 62
7
  6
CONTINUOUS
 10
31.9376923427
 20
9.2676695021
 40
1.5
100
AcDbArc
 50
49.5729673449
 51
50.4270326551
  0
ARC
  5
5C1
100
AcDbEntity
  8
0
100
AcDbCircle
 62
7
  6
CONTINUOUS
 10
-10.0623076573
 20
9.2676695021
 40
1.5
100
AcDbArc
 50
39.5729673449
 51
40.4270326551
  0
ARC
  5
5C2
100
AcDbEntity
  8
0
100
AcDbCircle
 62
7
  6
CONTINUOUS
 10
-10.0623076573
 20
9.2676695021
 40
1.5
100
AcDbArc
 50
29.5729673449
 51
30.4270326551
  0
ARC
  5
5C3
100
AcDbEntity
  8
0
100
AcDbCircle
 62
7
  6
CONTINUOUS
 10
31.9376923427
 20
9.2676695021
 40
1.5
100
AcDbArc
 50
204.6349692421
 51
205.5516378475
  0
ARC
  5
5C4
100
AcDbEntity
  8
0
100
AcDbCircle
 62
7
  6
CONTINUOUS
 10
31.9376923427
 20
9.2676695021
 40
1.5
100
AcDbArc
 50
205.5729673449
 51
207.5545571737
  0
ARC
  5
5C5
100
AcDbEntity
  8
0
100
AcDbCircle
 62
7
  6
CONTINUOUS
 10
31.9376923427
 20
9.2676695021
 40
1.5
100
AcDbArc
 50
207.5729673449
 51
209.5619792609
  0
ARC
  5
5C6
100
AcDbEntity
  8
0
100
AcDbCircle
 62
7
  6
CONTINUOUS
 10
31.9376923427
 20
9.2676695021
 40
1.5
100
AcDbArc
 50
210.4380567827
 51
212.4270326551
  0
ARC
  5
5C7
100
AcDbEntity
  8
0
100
AcDbCircle
 62
7
  6
CONTINUOUS
 10
31.9376923427
 20
9.2676695021
 40
1.5
100
AcDbArc
 50
212.4454085995
 51
214.4270326551
  0
ARC
  5
5C8
100
AcDbEntity
  8
0
100
AcDbCircle
 62
7
  6
CONTINUOUS
 10
31.9376923427
 20
9.2676695021
 40
1.5
100
AcDbArc
 50
214.4483127169
 51
215.5516609154
  0
ARC
  5
5C9
100
AcDbEntity
  8
0
100
AcDbCircle
 62
7
  6
CONTINUOUS
 10
31.9376923427
 20
9.2676695021
 40
1.5
100
AcDbArc
 50
215.5729673449
 51
217.5545892139
  0
ARC
  5
5CA
100
AcDbEntity
  8
0
100
AcDbCircle
 62
7
  6
CONTINUOUS
 10
31.9376923427
 20
9.2676695021
 40
1.5
100
AcDbArc
 50
217.5729673449
 51
219.5619696934
  0
ARC
  5
5CB
100
AcDbEntity
  8
0
100
AcDbCircle
 62
7
  6
CONTINUOUS
 10
31.9376923427
 20
9.2676695021
 40
1.5
100
AcDbArc
 50
220.4380425126
 51
222.4270326551
  0
ARC
  5
5CC
100
AcDbEntity
  8
0
100
AcDbCircle
 62
7
  6
CONTINUOUS
 10
31.9376923427
 20
9.2676695021
 40
1.5
100
AcDbArc
 50
222.4453989355
 51
224.4270326551
  0
ARC
  5
5CD
100
AcDbEntity
  8
0
100
AcDbCircle
 62
7
  6
CONTINUOUS
 10
31.9376923427
 20
9.2676695021
 40
1.5
100
AcDbArc
 50
224.448322036
 51
225.551677964
  0
ARC
  5
5CE
100
AcDbEntity
  8
0
100
AcDbCircle
 62
7
  6
CONTINUOUS
 10
31.9376923427
 20
9.2676695021
 40
1.5
100
AcDbArc
 50
225.5729673449
 51
227.5546010645
  0
ARC
  5
5CF
100
AcDbEntity
  8
0
100
AcDbCircle
 62
7
  6
CONTINUOUS
 10
31.9376923427
 20
9.2676695021
 40
1.5
100
AcDbArc
 50
227.5729673449
 51
229.5619574874
  0
ARC
  5
5D0
100
AcDbEntity
  8
0
100
AcDbCircle
 62
7
  6
CONTINUOUS
 10
31.9376923427
 20
9.2676695021
 40
1.5
100
AcDbArc
 50
230.4380303066
 51
232.4270326551
  0
ARC
  5
5D1
100
AcDbEntity
  8
0
100
AcDbCircle
 62
7
  6
CONTINUOUS
 10
31.9376923427
 20
9.2676695021
 40
1.5
100
AcDbArc
 50
232.4454107861
 51
234.4270326551
  0
ARC
  5
5D2
100
AcDbEntity
  8
0
100
AcDbCircle
 62
7
  6
CONTINUOUS
 10
31.9376923427
 20
9.2676695021
 40
1.5
100
AcDbArc
 50
234.4483390846
 51
235.5516872831
  0
ARC
  5
5D3
100
AcDbEntity
  8
0
100
AcDbCircle
 62
7
  6
CONTINUOUS
 10
31.9376923427
 20
9.2676695021
 40
1.5
100
AcDbArc
 50
235.5729673449
 51
237.5545914005
  0
ARC
  5
5D4
100
AcDbEntity
  8
0
100
AcDbCircle
 62
7
  6
CONTINUOUS
 10
31.9376923427
 20
9.2676695021
 40
1.5
100
AcDbArc
 50
237.5729673449
 51
239.5619432173
  0
ARC
  5
5D5
100
AcDbEntity
  8
0
100
AcDbCircle
 62
7
  6
CONTINUOUS
 10
31.9376923427
 20
9.2676695021
 40
1.5
100
AcDbArc
 50
240.4380207391
 51
242.4270326551
  0
ARC
  5
5D6
100
AcDbEntity
  8
0
100
AcDbCircle
 62
7
  6
CONTINUOUS
 10
31.9376923427
 20
9.2676695021
 40
1.5
100
AcDbArc
 50
242.4454428263
 51
244.4270326551
  0
ARC
  5
5D7
100
AcDbEntity
  8
0
100
AcDbCircle
 62
7
  6
CONTINUOUS
 10
31.9376923427
 20
9.2676695021
 40
1.5
100
AcDbArc
 50
244.4483621525
 51
245.5516884241
  0
ARC
  5
5D8
100
AcDbEntity
  8
0
100
AcDbCircle
 62
7
  6
CONTINUOUS
 10
31.9376923427
 20
9.2676695021
 40
1.5
100
AcDbArc
 50
245.5729673449
 51
247.5545669853
  0
ARC
  5
5D9
100
AcDbEntity
  8
0
100
AcDbCircle
 62
7
  6
CONTINUOUS
 10
31.9376923427
 20
9.2676695021
 40
1.5
100
AcDbArc
 50
247.5729673449
 51
249.5619363135
  0
ARC
  5
5DA
100
AcDbEntity
  8
0
100
AcDbCircle
 62
7
  6
CONTINUOUS
 10
31.9376923427
 20
9.2676695021
 40
1.5
100
AcDbArc
 50
250.4380193113
 51
252.4270326551
  0
ARC
  5
5DB
100
AcDbEntity
  8
0
100
AcDbCircle
 62
7
  6
CONTINUOUS
 10
31.9376923427
 20
9.2676695021
 40
1.5
100
AcDbArc
 50
252.445467682
 51
254.4270326551
  0
ARC
  5
5DC
100
AcDbEntity
  8
0
100
AcDbCircle
 62
7
  6
CONTINUOUS
 10
31.9376923427
 20
9.2676695021
 40
1.5
100
AcDbArc
 50
254.4483724686
 51
255.5516790359
  0
ARC
  5
5DD
100
AcDbEntity
  8
0
100
AcDbCircle
 62
7
  6
CONTINUOUS
 10
31.9376923427
 20
9.2676695021
 40
1.5
100
AcDbArc
 50
255.5729673449
 51
257.5545442875
  0
ARC
  5
5DE
100
AcDbEntity
  8
0
100
AcDbCircle
 62
7
  6
CONTINUOUS
 10
31.9376923427
 20
9.2676695021
 40
1.5
100
AcDbArc
 50
257.5729673449
 51
259.5619406824
  0
ARC
  5
5DF
100
AcDbEntity
  8
0
100
AcDbCircle
 62
7
  6
CONTINUOUS
 10
31.9376923427
 20
9.2676695021
 40
1.5
100
AcDbArc
 50
260.4380272508
 51
262.4270326551
  0
ARC
  5
5E0
100
AcDbEntity
  8
0
100
AcDbCircle
 62
7
  6
CONTINUOUS
 10
31.9376923427
 20
9.2676695021
 40
1.5
100
AcDbArc
 50
262.4454772151
 51
264.4270326551
  0
ARC
  5
5E1
100
AcDbEntity
  8
0
100
AcDbCircle
 62
7
  6
CONTINUOUS
 10
31.9376923427
 20
9.2676695021
 40
1.5
100
AcDbArc
 50
264.4483640524
 51
265.5516581951
  0
ARC
  5
5E2
100
AcDbEntity
  8
0
100
AcDbCircle
 62
7
  6
CONTINUOUS
 10
31.9376923427
 20
9.2676695021
 40
1.5
100
AcDbArc
 50
265.5729673449
 51
267.5545281643
  0
ARC
  5
5E3
100
AcDbEntity
  8
0
100
AcDbCircle
 62
7
  6
CONTINUOUS
 10
31.9376923427
 20
9.2676695021
 40
1.5
100
AcDbArc
 50
267.5729673449
 51
269.5619561183
  0
ARC
  5
5E4
100
AcDbEntity
  8
0
100
AcDbCircle
 62
7
  6
CONTINUOUS
 10
31.9376923427
 20
9.2676695021
 40
1.5
100
AcDbArc
 50
270.4380438817
 51
272.4270326551
  0
ARC
  5
5E5
100
AcDbEntity
  8
0
100
AcDbCircle
 62
7
  6
CONTINUOUS
 10
31.9376923427
 20
9.2676695021
 40
1.5
100
AcDbArc
 50
272.4454718357
 51
274.4270326551
  0
ARC
  5
5E6
100
AcDbEntity
  8
0
100
AcDbCircle
 62
7
  6
CONTINUOUS
 10
31.9376923427
 20
9.2676695021
 40
1.5
100
AcDbArc
 50
274.4483418049
 51
275.5516359476
  0
ARC
  5
5E7
100
AcDbEntity
  8
0
100
AcDbCircle
 62
7
  6
CONTINUOUS
 10
31.9376923427
 20
9.2676695021
 40
1.5
100
AcDbArc
 50
275.5729673449
 51
277.5545227849
  0
ARC
  5
5E8
100
AcDbEntity
  8
0
100
AcDbCircle
 62
7
  6
CONTINUOUS
 10
31.9376923427
 20
9.2676695021
 40
1.5
100
AcDbArc
 50
277.5729673449
 51
279.5619727492
  0
ARC
  5
5E9
100
AcDbEntity
  8
0
100
AcDbCircle
 62
7
  6
CONTINUOUS
 10
31.9376923427
 20
9.2676695021
 40
1.5
100
AcDbArc
 50
280.4380593176
 51
282.4270326551
  0
ARC
  5
5EA
100
AcDbEntity
  8
0
100
AcDbCircle
 62
7
  6
CONTINUOUS
 10
31.9376923427
 20
9.2676695021
 40
1.5
100
AcDbArc
 50
282.4454557125
 51
284.4270326551
  0
ARC
  5
5EB
100
AcDbEntity
  8
0
100
AcDbCircle
 62
7
  6
CONTINUOUS
 10
31.9376923427
 20
9.2676695021
 40
1.5
100
AcDbArc
 50
284.4483209641
 51
285.5516275314
  0
ARC
  5
5EC
100
AcDbEntity
  8
0
100
AcDbCircle
 62
7
  6
CONTINUOUS
 10
31.9376923427
 20
9.2676695021
 40
1.5
100
AcDbArc
 50
285.5729673449
 51
287.554532318
  0
ARC
  5
5ED
100
AcDbEntity
  8
0
100
AcDbCircle
 62
7
  6
CONTINUOUS
 10
31.9376923427
 20
9.2676695021
 40
1.5
100
AcDbArc
 50
287.5729673449
 51
289.5619806887
  0
ARC
  5
5EE
100
AcDbEntity
  8
0
100
AcDbCircle
 62
7
  6
CONTINUOUS
 10
31.9376923427
 20
9.2676695021
 40
1.5
100
AcDbArc
 50
290.4380636865
 51
292.4270326551
  0
ARC
  5
5EF
100
AcDbEntity
  8
0
100
AcDbCircle
 62
7
  6
CONTINUOUS
 10
31.9376923427
 20
9.2676695021
 40
1.5
100
AcDbArc
 50
292.4454330147
 51
294.4270326551
  0
ARC
  5
5F0
100
AcDbEntity
  8
0
100
AcDbCircle
 62
7
  6
CONTINUOUS
 10
31.9376923427
 20
9.2676695021
 40
1.5
100
AcDbArc
 50
294.4483115759
 51
295.5516378475
  0
ARC
  5
5F1
100
AcDbEntity
  8
0
100
AcDbCircle
 62
7
  6
CONTINUOUS
 10
31.9376923427
 20
9.2676695021
 40
1.5
100
AcDbArc
 50
295.5729673449
 51
297.5545571737
  0
ARC
  5
5F2
100
AcDbEntity
  8
0
100
AcDbCircle
 62
7
  6
CONTINUOUS
 10
31.9376923427
 20
9.2676695021
 40
1.5
100
AcDbArc
 50
297.5729673449
 51
299.5619792609
  0
ARC
  5
5F3
100
AcDbEntity
  8
0
100
AcDbCircle
 62
7
  6
CONTINUOUS
 10
31.9376923427
 20
9.2676695021
 40
1.5
100
AcDbArc
 50
300.4380567827
 51
302.4270326551
  0
ARC
  5
5F4
100
AcDbEntity
  8
0
100
AcDbCircle
 62
7
  6
CONTINUOUS
 10
31.9376923427
 20
9.2676695021
 40
1.5
100
AcDbArc
 50
302.4454085995
 51
304.4270326551
  0
ARC
  5
5F5
100
AcDbEntity
  8
0
100
AcDbCircle
 62
7
  6
CONTINUOUS
 10
31.9376923427
 20
9.2676695021
 40
1.5
100
AcDbArc
 50
304.4483127169
 51
305.5516609154
  0
ARC
  5
5F6
100
AcDbEntity
  8
0
100
AcDbCircle
 62
7
  6
CONTINUOUS
 10
31.9376923427
 20
9.2676695021
 40
1.5
100
AcDbArc
 50
305.5729673449
 51
307.5545892139
  0
ARC
  5
5F7
100
AcDbEntity
  8
0
100
AcDbCircle
 62
7
  6
CONTINUOUS
 10
31.9376923427
 20
9.2676695021
 40
1.5
100
AcDbArc
 50
307.5729673449
 51
309.5619696934
  0
ARC
  5
5F8
100
AcDbEntity
  8
0
100
AcDbCircle
 62
7
  6
CONTINUOUS
 10
31.9376923427
 20
9.2676695021
 40
1.5
100
AcDbArc
 50
310.4380425126
 51
312.4270326551
  0
ARC
  5
5F9
100
AcDbEntity
  8
0
100
AcDbCircle
 62
7
  6
CONTINUOUS
 10
31.9376923427
 20
9.2676695021
 40
1.5
100
AcDbArc
 50
312.4453989355
 51
314.4270326551
  0
ARC
  5
5FA
100
AcDbEntity
  8
0
100
AcDbCircle
 62
7
  6
CONTINUOUS
 10
31.9376923427
 20
9.2676695021
 40
1.5
100
AcDbArc
 50
314.448322036
 51
315.551677964
  0
ARC
  5
5FB
100
AcDbEntity
  8
0
100
AcDbCircle
 62
7
  6
CONTINUOUS
 10
31.9376923427
 20
9.2676695021
 40
1.5
100
AcDbArc
 50
315.5729673449
 51
317.5546010645
  0
ARC
  5
5FC
100
AcDbEntity
  8
0
100
AcDbCircle
 62
7
  6
CONTINUOUS
 10
31.9376923427
 20
9.2676695021
 40
1.5
100
AcDbArc
 50
317.5729673449
 51
319.5619574874
  0
ARC
  5
5FD
100
AcDbEntity
  8
0
100
AcDbCircle
 62
7
  6
CONTINUOUS
 10
31.9376923427
 20
9.2676695021
 40
1.5
100
AcDbArc
 50
320.4380303066
 51
322.4270326551
  0
ARC
  5
5FE
100
AcDbEntity
  8
0
100
AcDbCircle
 62
7
  6
CONTINUOUS
 10
31.9376923427
 20
9.2676695021
 40
1.5
100
AcDbArc
 50
322.4454107861
 51
324.4270326551
  0
ARC
  5
5FF
100
AcDbEntity
  8
0
100
AcDbCircle
 62
7
  6
CONTINUOUS
 10
31.9376923427
 20
9.2676695021
 40
1.5
100
AcDbArc
 50
324.4483390846
 51
325.5516872831
  0
ARC
  5
600
100
AcDbEntity
  8
0
100
AcDbCircle
 62
7
  6
CONTINUOUS
 10
31.9376923427
 20
9.2676695021
 40
1.5
100
AcDbArc
 50
325.5729673449
 51
327.5545914005
  0
ARC
  5
601
100
AcDbEntity
  8
0
100
AcDbCircle
 62
7
  6
CONTINUOUS
 10
31.9376923427
 20
9.2676695021
 40
1.5
100
AcDbArc
 50
327.5729673449
 51
329.5619432173
  0
ARC
  5
602
100
AcDbEntity
  8
0
100
AcDbCircle
 62
7
  6
CONTINUOUS
 10
31.9376923427
 20
9.2676695021
 40
1.5
100
AcDbArc
 50
330.4380207391
 51
332.4270326551
  0
ARC
  5
603
100
AcDbEntity
  8
0
100
AcDbCircle
 62
7
  6
CONTINUOUS
 10
31.9376923427
 20
9.2676695021
 40
1.5
100
AcDbArc
 50
332.4454428263
 51
334.4270326551
  0
ARC
  5
604
100
AcDbEntity
  8
0
100
AcDbCircle
 62
7
  6
CONTINUOUS
 10
31.9376923427
 20
9.2676695021
 40
1.5
100
AcDbArc
 50
334.4483621525
 51
335.5516884241
  0
ARC
  5
605
100
AcDbEntity
  8
0
100
AcDbCircle
 62
7
  6
CONTINUOUS
 10
31.9376923427
 20
9.2676695021
 40
1.5
100
AcDbArc
 50
335.5729673449
 51
337.5545669853
  0
ARC
  5
606
100
AcDbEntity
  8
0
100
AcDbCircle
 62
7
  6
CONTINUOUS
 10
31.9376923427
 20
9.2676695021
 40
1.5
100
AcDbArc
 50
337.5729673449
 51
339.5619363135
  0
ARC
  5
607
100
AcDbEntity
  8
0
100
AcDbCircle
 62
7
  6
CONTINUOUS
 10
31.9376923427
 20
9.2676695021
 40
1.5
100
AcDbArc
 50
340.4380193113
 51
342.4270326551
  0
ARC
  5
608
100
AcDbEntity
  8
0
100
AcDbCircle
 62
7
  6
CONTINUOUS
 10
31.9376923427
 20
9.2676695021
 40
1.5
100
AcDbArc
 50
342.445467682
 51
344.4270326551
  0
ARC
  5
609
100
AcDbEntity
  8
0
100
AcDbCircle
 62
7
  6
CONTINUOUS
 10
31.9376923427
 20
9.2676695021
 40
1.5
100
AcDbArc
 50
344.4483724686
 51
345.5516790359
  0
ARC
  5
60A
100
AcDbEntity
  8
0
100
AcDbCircle
 62
7
  6
CONTINUOUS
 10
31.9376923427
 20
9.2676695021
 40
1.5
100
AcDbArc
 50
345.5729673449
 51
347.5545442875
  0
ARC
  5
60B
100
AcDbEntity
  8
0
100
AcDbCircle
 62
7
  6
CONTINUOUS
 10
31.9376923427
 20
9.2676695021
 40
1.5
100
AcDbArc
 50
347.5729673449
 51
349.5619406824
  0
ARC
  5
60C
100
AcDbEntity
  8
0
100
AcDbCircle
 62
7
  6
CONTINUOUS
 10
31.9376923427
 20
9.2676695021
 40
1.5
100
AcDbArc
 50
350.4380272508
 51
352.4270326551
  0
ARC
  5
60D
100
AcDbEntity
  8
0
100
AcDbCircle
 62
7
  6
CONTINUOUS
 10
31.9376923427
 20
9.2676695021
 40
1.5
100
AcDbArc
 50
352.4454772151
 51
354.4270326551
  0
ARC
  5
60E
100
AcDbEntity
  8
0
100
AcDbCircle
 62
7
  6
CONTINUOUS
 10
31.9376923427
 20
9.2676695021
 40
1.5
100
AcDbArc
 50
354.4483640524
 51
355.5516581951
  0
ARC
  5
60F
100
AcDbEntity
  8
0
100
AcDbCircle
 62
7
  6
CONTINUOUS
 10
31.9376923427
 20
9.2676695021
 40
1.5
100
AcDbArc
 50
355.5729673449
 51
357.5545177047
  0
ARC
  5
610
100
AcDbEntity
  8
0
100
AcDbCircle
 62
7
  6
CONTINUOUS
 10
31.9376923427
 20
9.2676695021
 40
1.5
100
AcDbArc
 50
357.5729673449
 51
359.5619361997
  0
ARC
  5
611
100
AcDbEntity
  8
0
100
AcDbCircle
 62
7
  6
CONTINUOUS
 10
31.9376923427
 20
9.2676695021
 40
1.5
100
AcDbArc
 50
154.4483621525
 51
155.3650307579
  0
ARC
  5
612
100
AcDbEntity
  8
0
100
AcDbCircle
 62
7
  6
CONTINUOUS
 10
31.9376923427
 20
9.2676695021
 40
1.5
100
AcDbArc
 50
152.4454428263
 51
154.4270326551
  0
ARC
  5
613
100
AcDbEntity
  8
0
100
AcDbCircle
 62
7
  6
CONTINUOUS
 10
31.9376923427
 20
9.2676695021
 40
1.5
100
AcDbArc
 50
150.4380207391
 51
152.4270326551
  0
ARC
  5
614
100
AcDbEntity
  8
0
100
AcDbCircle
 62
7
  6
CONTINUOUS
 10
31.9376923427
 20
9.2676695021
 40
1.5
100
AcDbArc
 50
147.5729673449
 51
149.5619432173
  0
ARC
  5
615
100
AcDbEntity
  8
0
100
AcDbCircle
 62
7
  6
CONTINUOUS
 10
31.9376923427
 20
9.2676695021
 40
1.5
100
AcDbArc
 50
145.5729673449
 51
147.5545914005
  0
ARC
  5
616
100
AcDbEntity
  8
0
100
AcDbCircle
 62
7
  6
CONTINUOUS
 10
31.9376923427
 20
9.2676695021
 40
1.5
100
AcDbArc
 50
144.4483390846
 51
145.5516872831
  0
ARC
  5
617
100
AcDbEntity
  8
0
100
AcDbCircle
 62
7
  6
CONTINUOUS
 10
31.9376923427
 20
9.2676695021
 40
1.5
100
AcDbArc
 50
142.4454107861
 51
144.4270326551
  0
ARC
  5
618
100
AcDbEntity
  8
0
100
AcDbCircle
 62
7
  6
CONTINUOUS
 10
31.9376923427
 20
9.2676695021
 40
1.5
100
AcDbArc
 50
140.4380303066
 51
142.4270326551
  0
ARC
  5
619
100
AcDbEntity
  8
0
100
AcDbCircle
 62
7
  6
CONTINUOUS
 10
31.9376923427
 20
9.2676695021
 40
1.5
100
AcDbArc
 50
137.5729673449
 51
139.5619574874
  0
ARC
  5
61A
100
AcDbEntity
  8
0
100
AcDbCircle
 62
7
  6
CONTINUOUS
 10
31.9376923427
 20
9.2676695021
 40
1.5
100
AcDbArc
 50
135.5729673449
 51
137.5546010645
  0
ARC
  5
61B
100
AcDbEntity
  8
0
100
AcDbCircle
 62
7
  6
CONTINUOUS
 10
31.9376923427
 20
9.2676695021
 40
1.5
100
AcDbArc
 50
134.448322036
 51
135.551677964
  0
ARC
  5
61C
100
AcDbEntity
  8
0
100
AcDbCircle
 62
7
  6
CONTINUOUS
 10
31.9376923427
 20
9.2676695021
 40
1.5
100
AcDbArc
 50
132.4453989355
 51
134.4270326551
  0
ARC
  5
61D
100
AcDbEntity
  8
0
100
AcDbCircle
 62
7
  6
CONTINUOUS
 10
31.9376923427
 20
9.2676695021
 40
1.5
100
AcDbArc
 50
130.4380425126
 51
132.4270326551
  0
ARC
  5
61E
100
AcDbEntity
  8
0
100
AcDbCircle
 62
7
  6
CONTINUOUS
 10
31.9376923427
 20
9.2676695021
 40
1.5
100
AcDbArc
 50
127.5729673449
 51
129.5619696934
  0
ARC
  5
61F
100
AcDbEntity
  8
0
100
AcDbCircle
 62
7
  6
CONTINUOUS
 10
31.9376923427
 20
9.2676695021
 40
1.5
100
AcDbArc
 50
125.5729673449
 51
127.5545892139
  0
ARC
  5
620
100
AcDbEntity
  8
0
100
AcDbCircle
 62
7
  6
CONTINUOUS
 10
31.9376923427
 20
9.2676695021
 40
1.5
100
AcDbArc
 50
124.4483127169
 51
125.5516609154
  0
ARC
  5
621
100
AcDbEntity
  8
0
100
AcDbCircle
 62
7
  6
CONTINUOUS
 10
31.9376923427
 20
9.2676695021
 40
1.5
100
AcDbArc
 50
122.4454085995
 51
124.4270326551
  0
ARC
  5
622
100
AcDbEntity
  8
0
100
AcDbCircle
 62
7
  6
CONTINUOUS
 10
31.9376923427
 20
9.2676695021
 40
1.5
100
AcDbArc
 50
120.4380567827
 51
122.4270326551
  0
ARC
  5
623
100
AcDbEntity
  8
0
100
AcDbCircle
 62
7
  6
CONTINUOUS
 10
31.9376923427
 20
9.2676695021
 40
1.5
100
AcDbArc
 50
117.5729673449
 51
119.5619792609
  0
ARC
  5
624
100
AcDbEntity
  8
0
100
AcDbCircle
 62
7
  6
CONTINUOUS
 10
31.9376923427
 20
9.2676695021
 40
1.5
100
AcDbArc
 50
115.5729673449
 51
117.5545571737
  0
ARC
  5
625
100
AcDbEntity
  8
0
100
AcDbCircle
 62
7
  6
CONTINUOUS
 10
31.9376923427
 20
9.2676695021
 40
1.5
100
AcDbArc
 50
114.4483115759
 51
115.5516378475
  0
ARC
  5
626
100
AcDbEntity
  8
0
100
AcDbCircle
 62
7
  6
CONTINUOUS
 10
31.9376923427
 20
9.2676695021
 40
1.5
100
AcDbArc
 50
112.4454330147
 51
114.4270326551
  0
ARC
  5
627
100
AcDbEntity
  8
0
100
AcDbCircle
 62
7
  6
CONTINUOUS
 10
31.9376923427
 20
9.2676695021
 40
1.5
100
AcDbArc
 50
110.4380636865
 51
112.4270326551
  0
ARC
  5
628
100
AcDbEntity
  8
0
100
AcDbCircle
 62
7
  6
CONTINUOUS
 10
31.9376923427
 20
9.2676695021
 40
1.5
100
AcDbArc
 50
107.5729673449
 51
109.5619806887
  0
ARC
  5
629
100
AcDbEntity
  8
0
100
AcDbCircle
 62
7
  6
CONTINUOUS
 10
31.9376923427
 20
9.2676695021
 40
1.5
100
AcDbArc
 50
105.5729673449
 51
107.554532318
  0
ARC
  5
62A
100
AcDbEntity
  8
0
100
AcDbCircle
 62
7
  6
CONTINUOUS
 10
31.9376923427
 20
9.2676695021
 40
1.5
100
AcDbArc
 50
104.4483209641
 51
105.5516275314
  0
ARC
  5
62B
100
AcDbEntity
  8
0
100
AcDbCircle
 62
7
  6
CONTINUOUS
 10
31.9376923427
 20
9.2676695021
 40
1.5
100
AcDbArc
 50
102.4454557125
 51
104.4270326551
  0
ARC
  5
62C
100
AcDbEntity
  8
0
100
AcDbCircle
 62
7
  6
CONTINUOUS
 10
31.9376923427
 20
9.2676695021
 40
1.5
100
AcDbArc
 50
100.4380593176
 51
102.4270326551
  0
ARC
  5
62D
100
AcDbEntity
  8
0
100
AcDbCircle
 62
7
  6
CONTINUOUS
 10
31.9376923427
 20
9.2676695021
 40
1.5
100
AcDbArc
 50
97.5729673449
 51
99.5619727492
  0
ARC
  5
62E
100
AcDbEntity
  8
0
100
AcDbCircle
 62
7
  6
CONTINUOUS
 10
31.9376923427
 20
9.2676695021
 40
1.5
100
AcDbArc
 50
95.5729673449
 51
97.5545227849
  0
ARC
  5
62F
100
AcDbEntity
  8
0
100
AcDbCircle
 62
7
  6
CONTINUOUS
 10
31.9376923427
 20
9.2676695021
 40
1.5
100
AcDbArc
 50
94.4483418049
 51
95.5516359476
  0
ARC
  5
630
100
AcDbEntity
  8
0
100
AcDbCircle
 62
7
  6
CONTINUOUS
 10
31.9376923427
 20
9.2676695021
 40
1.5
100
AcDbArc
 50
92.4454718357
 51
94.4270326551
  0
ARC
  5
631
100
AcDbEntity
  8
0
100
AcDbCircle
 62
7
  6
CONTINUOUS
 10
31.9376923427
 20
9.2676695021
 40
1.5
100
AcDbArc
 50
90.4380438817
 51
92.4270326551
  0
ARC
  5
632
100
AcDbEntity
  8
0
100
AcDbCircle
 62
7
  6
CONTINUOUS
 10
31.9376923427
 20
9.2676695021
 40
1.5
100
AcDbArc
 50
87.5729673449
 51
89.5619561183
  0
ARC
  5
633
100
AcDbEntity
  8
0
100
AcDbCircle
 62
7
  6
CONTINUOUS
 10
31.9376923427
 20
9.2676695021
 40
1.5
100
AcDbArc
 50
85.5729673449
 51
87.5545281643
  0
ARC
  5
634
100
AcDbEntity
  8
0
100
AcDbCircle
 62
7
  6
CONTINUOUS
 10
31.9376923427
 20
9.2676695021
 40
1.5
100
AcDbArc
 50
84.4483640524
 51
85.5516581951
  0
ARC
  5
635
100
AcDbEntity
  8
0
100
AcDbCircle
 62
7
  6
CONTINUOUS
 10
31.9376923427
 20
9.2676695021
 40
1.5
100
AcDbArc
 50
82.4454772151
 51
84.4270326551
  0
ARC
  5
636
100
AcDbEntity
  8
0
100
AcDbCircle
 62
7
  6
CONTINUOUS
 10
31.9376923427
 20
9.2676695021
 40
1.5
100
AcDbArc
 50
80.4380272508
 51
82.4270326551
  0
ARC
  5
637
100
AcDbEntity
  8
0
100
AcDbCircle
 62
7
  6
CONTINUOUS
 10
31.9376923427
 20
9.2676695021
 40
1.5
100
AcDbArc
 50
77.5729673449
 51
79.5619406824
  0
ARC
  5
638
100
AcDbEntity
  8
0
100
AcDbCircle
 62
7
  6
CONTINUOUS
 10
31.9376923427
 20
9.2676695021
 40
1.5
100
AcDbArc
 50
75.5729673449
 51
77.5545442875
  0
ARC
  5
639
100
AcDbEntity
  8
0
100
AcDbCircle
 62
7
  6
CONTINUOUS
 10
31.9376923427
 20
9.2676695021
 40
1.5
100
AcDbArc
 50
74.4483724686
 51
75.5516790359
  0
ARC
  5
63A
100
AcDbEntity
  8
0
100
AcDbCircle
 62
7
  6
CONTINUOUS
 10
31.9376923427
 20
9.2676695021
 40
1.5
100
AcDbArc
 50
72.445467682
 51
74.4270326551
  0
ARC
  5
63B
100
AcDbEntity
  8
0
100
AcDbCircle
 62
7
  6
CONTINUOUS
 10
31.9376923427
 20
9.2676695021
 40
1.5
100
AcDbArc
 50
70.4380193113
 51
72.4270326551
  0
ARC
  5
63C
100
AcDbEntity
  8
0
100
AcDbCircle
 62
7
  6
CONTINUOUS
 10
31.9376923427
 20
9.2676695021
 40
1.5
100
AcDbArc
 50
67.5729673449
 51
69.5619363135
  0
ARC
  5
63D
100
AcDbEntity
  8
0
100
AcDbCircle
 62
7
  6
CONTINUOUS
 10
31.9376923427
 20
9.2676695021
 40
1.5
100
AcDbArc
 50
65.5729673449
 51
67.5545669853
  0
ARC
  5
63E
100
AcDbEntity
  8
0
100
AcDbCircle
 62
7
  6
CONTINUOUS
 10
31.9376923427
 20
9.2676695021
 40
1.5
100
AcDbArc
 50
64.4483621525
 51
65.5516884241
  0
ARC
  5
63F
100
AcDbEntity
  8
0
100
AcDbCircle
 62
7
  6
CONTINUOUS
 10
31.9376923427
 20
9.2676695021
 40
1.5
100
AcDbArc
 50
62.4454428263
 51
64.4270326551
  0
ARC
  5
640
100
AcDbEntity
  8
0
100
AcDbCircle
 62
7
  6
CONTINUOUS
 10
31.9376923427
 20
9.2676695021
 40
1.5
100
AcDbArc
 50
60.4380207391
 51
62.4270326551
  0
ARC
  5
641
100
AcDbEntity
  8
0
100
AcDbCircle
 62
7
  6
CONTINUOUS
 10
31.9376923427
 20
9.2676695021
 40
1.5
100
AcDbArc
 50
57.5729673449
 51
59.5619432173
  0
ARC
  5
642
100
AcDbEntity
  8
0
100
AcDbCircle
 62
7
  6
CONTINUOUS
 10
31.9376923427
 20
9.2676695021
 40
1.5
100
AcDbArc
 50
55.5729673449
 51
57.5545914005
  0
ARC
  5
643
100
AcDbEntity
  8
0
100
AcDbCircle
 62
7
  6
CONTINUOUS
 10
31.9376923427
 20
9.2676695021
 40
1.5
100
AcDbArc
 50
54.4483390846
 51
55.5516872831
  0
ARC
  5
644
100
AcDbEntity
  8
0
100
AcDbCircle
 62
7
  6
CONTINUOUS
 10
31.9376923427
 20
9.2676695021
 40
1.5
100
AcDbArc
 50
52.4454107861
 51
54.4270326551
  0
ARC
  5
645
100
AcDbEntity
  8
0
100
AcDbCircle
 62
7
  6
CONTINUOUS
 10
31.9376923427
 20
9.2676695021
 40
1.5
100
AcDbArc
 50
50.4380303066
 51
52.4270326551
  0
ARC
  5
646
100
AcDbEntity
  8
0
100
AcDbCircle
 62
7
  6
CONTINUOUS
 10
31.9376923427
 20
9.2676695021
 40
1.5
100
AcDbArc
 50
47.5729673449
 51
49.5619574874
  0
ARC
  5
647
100
AcDbEntity
  8
0
100
AcDbCircle
 62
7
  6
CONTINUOUS
 10
31.9376923427
 20
9.2676695021
 40
1.5
100
AcDbArc
 50
45.5729673449
 51
47.5546010645
  0
ARC
  5
648
100
AcDbEntity
  8
0
100
AcDbCircle
 62
7
  6
CONTINUOUS
 10
31.9376923427
 20
9.2676695021
 40
1.5
100
AcDbArc
 50
44.448322036
 51
45.551677964
  0
ARC
  5
649
100
AcDbEntity
  8
0
100
AcDbCircle
 62
7
  6
CONTINUOUS
 10
31.9376923427
 20
9.2676695021
 40
1.5
100
AcDbArc
 50
42.4453989355
 51
44.4270326551
  0
ARC
  5
64A
100
AcDbEntity
  8
0
100
AcDbCircle
 62
7
  6
CONTINUOUS
 10
31.9376923427
 20
9.2676695021
 40
1.5
100
AcDbArc
 50
40.4380425126
 51
42.4270326551
  0
ARC
  5
64B
100
AcDbEntity
  8
0
100
AcDbCircle
 62
7
  6
CONTINUOUS
 10
31.9376923427
 20
9.2676695021
 40
1.5
100
AcDbArc
 50
37.5729673449
 51
39.5619696934
  0
ARC
  5
64C
100
AcDbEntity
  8
0
100
AcDbCircle
 62
7
  6
CONTINUOUS
 10
31.9376923427
 20
9.2676695021
 40
1.5
100
AcDbArc
 50
35.5729673449
 51
37.5545892139
  0
ARC
  5
64D
100
AcDbEntity
  8
0
100
AcDbCircle
 62
7
  6
CONTINUOUS
 10
31.9376923427
 20
9.2676695021
 40
1.5
100
AcDbArc
 50
34.4483127169
 51
35.5516609154
  0
ARC
  5
64E
100
AcDbEntity
  8
0
100
AcDbCircle
 62
7
  6
CONTINUOUS
 10
31.9376923427
 20
9.2676695021
 40
1.5
100
AcDbArc
 50
32.4454085995
 51
34.4270326551
  0
ARC
  5
64F
100
AcDbEntity
  8
0
100
AcDbCircle
 62
7
  6
CONTINUOUS
 10
31.9376923427
 20
9.2676695021
 40
1.5
100
AcDbArc
 50
30.4380567827
 51
32.4270326551
  0
ARC
  5
650
100
AcDbEntity
  8
0
100
AcDbCircle
 62
7
  6
CONTINUOUS
 10
31.9376923427
 20
9.2676695021
 40
1.5
100
AcDbArc
 50
27.5729673449
 51
29.5619792609
  0
ARC
  5
651
100
AcDbEntity
  8
0
100
AcDbCircle
 62
7
  6
CONTINUOUS
 10
31.9376923427
 20
9.2676695021
 40
1.5
100
AcDbArc
 50
25.5729673449
 51
27.5545571737
  0
ARC
  5
652
100
AcDbEntity
  8
0
100
AcDbCircle
 62
7
  6
CONTINUOUS
 10
31.9376923427
 20
9.2676695021
 40
1.5
100
AcDbArc
 50
24.4483115759
 51
25.5516378475
  0
ARC
  5
653
100
AcDbEntity
  8
0
100
AcDbCircle
 62
7
  6
CONTINUOUS
 10
31.9376923427
 20
9.2676695021
 40
1.5
100
AcDbArc
 50
22.4454330147
 51
24.4270326551
  0
ARC
  5
654
100
AcDbEntity
  8
0
100
AcDbCircle
 62
7
  6
CONTINUOUS
 10
31.9376923427
 20
9.2676695021
 40
1.5
100
AcDbArc
 50
20.4380636865
 51
22.4270326551
  0
ARC
  5
655
100
AcDbEntity
  8
0
100
AcDbCircle
 62
7
  6
CONTINUOUS
 10
31.9376923427
 20
9.2676695021
 40
1.5
100
AcDbArc
 50
17.5729673449
 51
19.5619806887
  0
ARC
  5
656
100
AcDbEntity
  8
0
100
AcDbCircle
 62
7
  6
CONTINUOUS
 10
31.9376923427
 20
9.2676695021
 40
1.5
100
AcDbArc
 50
15.5729673449
 51
17.554532318
  0
ARC
  5
657
100
AcDbEntity
  8
0
100
AcDbCircle
 62
7
  6
CONTINUOUS
 10
31.9376923427
 20
9.2676695021
 40
1.5
100
AcDbArc
 50
14.4483209641
 51
15.5516275314
  0
ARC
  5
658
100
AcDbEntity
  8
0
100
AcDbCircle
 62
7
  6
CONTINUOUS
 10
31.9376923427
 20
9.2676695021
 40
1.5
100
AcDbArc
 50
12.4454557125
 51
14.4270326551
  0
ARC
  5
659
100
AcDbEntity
  8
0
100
AcDbCircle
 62
7
  6
CONTINUOUS
 10
31.9376923427
 20
9.2676695021
 40
1.5
100
AcDbArc
 50
10.4380593176
 51
12.4270326551
  0
ARC
  5
65A
100
AcDbEntity
  8
0
100
AcDbCircle
 62
7
  6
CONTINUOUS
 10
31.9376923427
 20
9.2676695021
 40
1.5
100
AcDbArc
 50
7.5729673449
 51
9.5619727492
  0
ARC
  5
65B
100
AcDbEntity
  8
0
100
AcDbCircle
 62
7
  6
CONTINUOUS
 10
31.9376923427
 20
9.2676695021
 40
1.5
100
AcDbArc
 50
5.5729673449
 51
7.5545227849
  0
ARC
  5
65C
100
AcDbEntity
  8
0
100
AcDbCircle
 62
7
  6
CONTINUOUS
 10
31.9376923427
 20
9.2676695021
 40
1.5
100
AcDbArc
 50
4.4483418049
 51
5.5516359476
  0
ARC
  5
65D
100
AcDbEntity
  8
0
100
AcDbCircle
 62
7
  6
CONTINUOUS
 10
31.9376923427
 20
9.2676695021
 40
1.5
100
AcDbArc
 50
2.4454822953
 51
4.4270326551
  0
ARC
  5
65E
100
AcDbEntity
  8
0
100
AcDbCircle
 62
7
  6
CONTINUOUS
 10
31.9376923427
 20
9.2676695021
 40
1.5
100
AcDbArc
 50
0.4380638003
 51
2.4270326551
  0
ARC
  5
65F
100
AcDbEntity
  8
0
100
AcDbCircle
 62
7
  6
CONTINUOUS
 10
-10.0623076573
 20
9.2676695021
 40
1.5
100
AcDbArc
 50
329.5729673449
 51
330.4270326551
  0
ARC
  5
660
100
AcDbEntity
  8
0
100
AcDbCircle
 62
7
  6
CONTINUOUS
 10
-10.0623076573
 20
9.2676695021
 40
1.5
100
AcDbArc
 50
319.5729673449
 51
320.4270326551
  0
ARC
  5
661
100
AcDbEntity
  8
0
100
AcDbCircle
 62
7
  6
CONTINUOUS
 10
-10.0623076573
 20
9.2676695021
 40
1.5
100
AcDbArc
 50
309.5729673449
 51
310.4270326551
  0
ARC
  5
662
100
AcDbEntity
  8
0
100
AcDbCircle
 62
7
  6
CONTINUOUS
 10
-10.0623076573
 20
9.2676695021
 40
1.5
100
AcDbArc
 50
299.5729673449
 51
300.4270326551
  0
ARC
  5
663
100
AcDbEntity
  8
0
100
AcDbCircle
 62
7
  6
CONTINUOUS
 10
-10.0623076573
 20
9.2676695021
 40
1.5
100
AcDbArc
 50
289.5729673449
 51
290.4270326551
  0
ARC
  5
664
100
AcDbEntity
  8
0
100
AcDbCircle
 62
7
  6
CONTINUOUS
 10
-10.0623076573
 20
9.2676695021
 40
1.5
100
AcDbArc
 50
279.5729673449
 51
280.4270326551
  0
ARC
  5
665
100
AcDbEntity
  8
0
100
AcDbCircle
 62
7
  6
CONTINUOUS
 10
-10.0623076573
 20
9.2676695021
 40
1.5
100
AcDbArc
 50
269.5729673449
 51
270.4270326551
  0
ARC
  5
666
100
AcDbEntity
  8
0
100
AcDbCircle
 62
7
  6
CONTINUOUS
 10
-10.0623076573
 20
9.2676695021
 40
1.5
100
AcDbArc
 50
259.5729673449
 51
260.4270326551
  0
ARC
  5
667
100
AcDbEntity
  8
0
100
AcDbCircle
 62
7
  6
CONTINUOUS
 10
-10.0623076573
 20
9.2676695021
 40
1.5
100
AcDbArc
 50
249.5729673449
 51
250.4270326551
  0
ARC
  5
668
100
AcDbEntity
  8
0
100
AcDbCircle
 62
7
  6
CONTINUOUS
 10
-10.0623076573
 20
9.2676695021
 40
1.5
100
AcDbArc
 50
239.5729673449
 51
240.4270326551
  0
ARC
  5
669
100
AcDbEntity
  8
0
100
AcDbCircle
 62
7
  6
CONTINUOUS
 10
-10.0623076573
 20
9.2676695021
 40
1.5
100
AcDbArc
 50
229.5729673449
 51
230.4270326551
  0
ARC
  5
66A
100
AcDbEntity
  8
0
100
AcDbCircle
 62
7
  6
CONTINUOUS
 10
-10.0623076573
 20
9.2676695021
 40
1.5
100
AcDbArc
 50
219.5729673449
 51
220.4270326551
  0
ARC
  5
66B
100
AcDbEntity
  8
0
100
AcDbCircle
 62
7
  6
CONTINUOUS
 10
-10.0623076573
 20
9.2676695021
 40
1.5
100
AcDbArc
 50
209.5729673449
 51
210.4270326551
  0
ARC
  5
66C
100
AcDbEntity
  8
0
100
AcDbCircle
 62
7
  6
CONTINUOUS
 10
-10.0623076573
 20
9.2676695021
 40
1.5
100
AcDbArc
 50
199.5729673449
 51
200.4270326551
  0
ARC
  5
66D
100
AcDbEntity
  8
0
100
AcDbCircle
 62
7
  6
CONTINUOUS
 10
-10.0623076573
 20
9.2676695021
 40
1.5
100
AcDbArc
 50
189.5729673449
 51
190.4270326551
  0
ARC
  5
66E
100
AcDbEntity
  8
0
100
AcDbCircle
 62
7
  6
CONTINUOUS
 10
-10.0623076573
 20
9.2676695021
 40
1.5
100
AcDbArc
 50
179.5729673449
 51
180.4270326551
  0
ARC
  5
66F
100
AcDbEntity
  8
0
100
AcDbCircle
 62
7
  6
CONTINUOUS
 10
-10.0623076573
 20
9.2676695021
 40
1.5
100
AcDbArc
 50
169.5729673449
 51
170.4270326551
  0
ARC
  5
670
100
AcDbEntity
  8
0
100
AcDbCircle
 62
7
  6
CONTINUOUS
 10
-10.0623076573
 20
9.2676695021
 40
1.5
100
AcDbArc
 50
159.5729673449
 51
160.4270326551
  0
ARC
  5
671
100
AcDbEntity
  8
0
100
AcDbCircle
 62
7
  6
CONTINUOUS
 10
-10.0623076573
 20
9.2676695021
 40
1.5
100
AcDbArc
 50
149.5729673449
 51
150.4270326551
  0
ARC
  5
672
100
AcDbEntity
  8
0
100
AcDbCircle
 62
7
  6
CONTINUOUS
 10
-10.0623076573
 20
9.2676695021
 40
1.5
100
AcDbArc
 50
139.5729673449
 51
140.4270326551
  0
ARC
  5
673
100
AcDbEntity
  8
0
100
AcDbCircle
 62
7
  6
CONTINUOUS
 10
-10.0623076573
 20
9.2676695021
 40
1.5
100
AcDbArc
 50
129.5729673449
 51
130.4270326551
  0
ARC
  5
674
100
AcDbEntity
  8
0
100
AcDbCircle
 62
7
  6
CONTINUOUS
 10
-10.0623076573
 20
9.2676695021
 40
1.5
100
AcDbArc
 50
119.5729673449
 51
120.4270326551
  0
ARC
  5
675
100
AcDbEntity
  8
0
100
AcDbCircle
 62
7
  6
CONTINUOUS
 10
-10.0623076573
 20
9.2676695021
 40
1.5
100
AcDbArc
 50
109.5729673449
 51
110.4270326551
  0
ARC
  5
676
100
AcDbEntity
  8
0
100
AcDbCircle
 62
7
  6
CONTINUOUS
 10
-10.0623076573
 20
9.2676695021
 40
1.5
100
AcDbArc
 50
99.5729673449
 51
100.4270326551
  0
ARC
  5
677
100
AcDbEntity
  8
0
100
AcDbCircle
 62
7
  6
CONTINUOUS
 10
-10.0623076573
 20
9.2676695021
 40
1.5
100
AcDbArc
 50
89.5729673449
 51
90.4270326551
  0
ARC
  5
678
100
AcDbEntity
  8
0
100
AcDbCircle
 62
7
  6
CONTINUOUS
 10
-10.0623076573
 20
9.2676695021
 40
1.5
100
AcDbArc
 50
79.5729673449
 51
80.4270326551
  0
ARC
  5
679
100
AcDbEntity
  8
0
100
AcDbCircle
 62
7
  6
CONTINUOUS
 10
-10.0623076573
 20
9.2676695021
 40
1.5
100
AcDbArc
 50
69.5729673449
 51
70.4270326551
  0
ARC
  5
67A
100
AcDbEntity
  8
0
100
AcDbCircle
 62
7
  6
CONTINUOUS
 10
-10.0623076573
 20
9.2676695021
 40
1.5
100
AcDbArc
 50
59.5729673449
 51
60.4270326551
  0
ARC
  5
67B
100
AcDbEntity
  8
0
100
AcDbCircle
 62
7
  6
CONTINUOUS
 10
-10.0623076573
 20
9.2676695021
 40
1.5
100
AcDbArc
 50
49.5729673449
 51
50.4270326551
  0
ARC
  5
67C
100
AcDbEntity
  8
0
100
AcDbCircle
 62
7
  6
CONTINUOUS
 10
-10.0623076573
 20
9.2676695021
 40
1.5
100
AcDbArc
 50
177.5729673449
 51
179.5619361997
  0
ARC
  5
67D
100
AcDbEntity
  8
0
100
AcDbCircle
 62
7
  6
CONTINUOUS
 10
-10.0623076573
 20
9.2676695021
 40
1.5
100
AcDbArc
 50
175.5729673449
 51
177.5545177047
  0
ARC
  5
67E
100
AcDbEntity
  8
0
100
AcDbCircle
 62
7
  6
CONTINUOUS
 10
-10.0623076573
 20
9.2676695021
 40
1.5
100
AcDbArc
 50
174.4483640524
 51
175.5516581951
  0
ARC
  5
67F
100
AcDbEntity
  8
0
100
AcDbCircle
 62
7
  6
CONTINUOUS
 10
-10.0623076573
 20
9.2676695021
 40
1.5
100
AcDbArc
 50
172.4454772151
 51
174.4270326551
  0
ARC
  5
680
100
AcDbEntity
  8
0
100
AcDbCircle
 62
7
  6
CONTINUOUS
 10
-10.0623076573
 20
9.2676695021
 40
1.5
100
AcDbArc
 50
170.4380272508
 51
172.4270326551
  0
ARC
  5
681
100
AcDbEntity
  8
0
100
AcDbCircle
 62
7
  6
CONTINUOUS
 10
-10.0623076573
 20
9.2676695021
 40
1.5
100
AcDbArc
 50
167.5729673449
 51
169.5619406824
  0
ARC
  5
682
100
AcDbEntity
  8
0
100
AcDbCircle
 62
7
  6
CONTINUOUS
 10
-10.0623076573
 20
9.2676695021
 40
1.5
100
AcDbArc
 50
165.5729673449
 51
167.5545442875
  0
ARC
  5
683
100
AcDbEntity
  8
0
100
AcDbCircle
 62
7
  6
CONTINUOUS
 10
-10.0623076573
 20
9.2676695021
 40
1.5
100
AcDbArc
 50
164.4483724686
 51
165.5516790359
  0
ARC
  5
684
100
AcDbEntity
  8
0
100
AcDbCircle
 62
7
  6
CONTINUOUS
 10
-10.0623076573
 20
9.2676695021
 40
1.5
100
AcDbArc
 50
162.445467682
 51
164.4270326551
  0
ARC
  5
685
100
AcDbEntity
  8
0
100
AcDbCircle
 62
7
  6
CONTINUOUS
 10
-10.0623076573
 20
9.2676695021
 40
1.5
100
AcDbArc
 50
160.4380193113
 51
162.4270326551
  0
ARC
  5
686
100
AcDbEntity
  8
0
100
AcDbCircle
 62
7
  6
CONTINUOUS
 10
-10.0623076573
 20
9.2676695021
 40
1.5
100
AcDbArc
 50
157.5729673449
 51
159.5619363135
  0
ARC
  5
687
100
AcDbEntity
  8
0
100
AcDbCircle
 62
7
  6
CONTINUOUS
 10
-10.0623076573
 20
9.2676695021
 40
1.5
100
AcDbArc
 50
155.5729673449
 51
157.5545669853
  0
ARC
  5
688
100
AcDbEntity
  8
0
100
AcDbCircle
 62
7
  6
CONTINUOUS
 10
-10.0623076573
 20
9.2676695021
 40
1.5
100
AcDbArc
 50
154.4483621525
 51
155.5516884241
  0
ARC
  5
689
100
AcDbEntity
  8
0
100
AcDbCircle
 62
7
  6
CONTINUOUS
 10
-10.0623076573
 20
9.2676695021
 40
1.5
100
AcDbArc
 50
152.4454428263
 51
154.4270326551
  0
ARC
  5
68A
100
AcDbEntity
  8
0
100
AcDbCircle
 62
7
  6
CONTINUOUS
 10
-10.0623076573
 20
9.2676695021
 40
1.5
100
AcDbArc
 50
150.4380207391
 51
152.4270326551
  0
ARC
  5
68B
100
AcDbEntity
  8
0
100
AcDbCircle
 62
7
  6
CONTINUOUS
 10
-10.0623076573
 20
9.2676695021
 40
1.5
100
AcDbArc
 50
147.5729673449
 51
149.5619432173
  0
ARC
  5
68C
100
AcDbEntity
  8
0
100
AcDbCircle
 62
7
  6
CONTINUOUS
 10
-10.0623076573
 20
9.2676695021
 40
1.5
100
AcDbArc
 50
145.5729673449
 51
147.5545914005
  0
ARC
  5
68D
100
AcDbEntity
  8
0
100
AcDbCircle
 62
7
  6
CONTINUOUS
 10
-10.0623076573
 20
9.2676695021
 40
1.5
100
AcDbArc
 50
144.4483390846
 51
145.5516872831
  0
ARC
  5
68E
100
AcDbEntity
  8
0
100
AcDbCircle
 62
7
  6
CONTINUOUS
 10
-10.0623076573
 20
9.2676695021
 40
1.5
100
AcDbArc
 50
142.4454107861
 51
144.4270326551
  0
ARC
  5
68F
100
AcDbEntity
  8
0
100
AcDbCircle
 62
7
  6
CONTINUOUS
 10
-10.0623076573
 20
9.2676695021
 40
1.5
100
AcDbArc
 50
140.4380303066
 51
142.4270326551
  0
ARC
  5
690
100
AcDbEntity
  8
0
100
AcDbCircle
 62
7
  6
CONTINUOUS
 10
-10.0623076573
 20
9.2676695021
 40
1.5
100
AcDbArc
 50
137.5729673449
 51
139.5619574874
  0
ARC
  5
691
100
AcDbEntity
  8
0
100
AcDbCircle
 62
7
  6
CONTINUOUS
 10
-10.0623076573
 20
9.2676695021
 40
1.5
100
AcDbArc
 50
135.5729673449
 51
137.5546010645
  0
ARC
  5
692
100
AcDbEntity
  8
0
100
AcDbCircle
 62
7
  6
CONTINUOUS
 10
-10.0623076573
 20
9.2676695021
 40
1.5
100
AcDbArc
 50
134.448322036
 51
135.551677964
  0
ARC
  5
693
100
AcDbEntity
  8
0
100
AcDbCircle
 62
7
  6
CONTINUOUS
 10
-10.0623076573
 20
9.2676695021
 40
1.5
100
AcDbArc
 50
132.4453989355
 51
134.4270326551
  0
ARC
  5
694
100
AcDbEntity
  8
0
100
AcDbCircle
 62
7
  6
CONTINUOUS
 10
-10.0623076573
 20
9.2676695021
 40
1.5
100
AcDbArc
 50
130.4380425126
 51
132.4270326551
  0
ARC
  5
695
100
AcDbEntity
  8
0
100
AcDbCircle
 62
7
  6
CONTINUOUS
 10
-10.0623076573
 20
9.2676695021
 40
1.5
100
AcDbArc
 50
127.5729673449
 51
129.5619696934
  0
ARC
  5
696
100
AcDbEntity
  8
0
100
AcDbCircle
 62
7
  6
CONTINUOUS
 10
-10.0623076573
 20
9.2676695021
 40
1.5
100
AcDbArc
 50
125.5729673449
 51
127.5545892139
  0
ARC
  5
697
100
AcDbEntity
  8
0
100
AcDbCircle
 62
7
  6
CONTINUOUS
 10
-10.0623076573
 20
9.2676695021
 40
1.5
100
AcDbArc
 50
124.4483127169
 51
125.5516609154
  0
ARC
  5
698
100
AcDbEntity
  8
0
100
AcDbCircle
 62
7
  6
CONTINUOUS
 10
-10.0623076573
 20
9.2676695021
 40
1.5
100
AcDbArc
 50
122.4454085995
 51
124.4270326551
  0
ARC
  5
699
100
AcDbEntity
  8
0
100
AcDbCircle
 62
7
  6
CONTINUOUS
 10
-10.0623076573
 20
9.2676695021
 40
1.5
100
AcDbArc
 50
120.4380567827
 51
122.4270326551
  0
ARC
  5
69A
100
AcDbEntity
  8
0
100
AcDbCircle
 62
7
  6
CONTINUOUS
 10
-10.0623076573
 20
9.2676695021
 40
1.5
100
AcDbArc
 50
117.5729673449
 51
119.5619792609
  0
ARC
  5
69B
100
AcDbEntity
  8
0
100
AcDbCircle
 62
7
  6
CONTINUOUS
 10
-10.0623076573
 20
9.2676695021
 40
1.5
100
AcDbArc
 50
115.5729673449
 51
117.5545571737
  0
ARC
  5
69C
100
AcDbEntity
  8
0
100
AcDbCircle
 62
7
  6
CONTINUOUS
 10
-10.0623076573
 20
9.2676695021
 40
1.5
100
AcDbArc
 50
114.4483115759
 51
115.5516378475
  0
ARC
  5
69D
100
AcDbEntity
  8
0
100
AcDbCircle
 62
7
  6
CONTINUOUS
 10
-10.0623076573
 20
9.2676695021
 40
1.5
100
AcDbArc
 50
112.4454330147
 51
114.4270326551
  0
ARC
  5
69E
100
AcDbEntity
  8
0
100
AcDbCircle
 62
7
  6
CONTINUOUS
 10
-10.0623076573
 20
9.2676695021
 40
1.5
100
AcDbArc
 50
110.4380636865
 51
112.4270326551
  0
ARC
  5
69F
100
AcDbEntity
  8
0
100
AcDbCircle
 62
7
  6
CONTINUOUS
 10
-10.0623076573
 20
9.2676695021
 40
1.5
100
AcDbArc
 50
107.5729673449
 51
109.5619806887
  0
ARC
  5
6A0
100
AcDbEntity
  8
0
100
AcDbCircle
 62
7
  6
CONTINUOUS
 10
-10.0623076573
 20
9.2676695021
 40
1.5
100
AcDbArc
 50
105.5729673449
 51
107.554532318
  0
ARC
  5
6A1
100
AcDbEntity
  8
0
100
AcDbCircle
 62
7
  6
CONTINUOUS
 10
-10.0623076573
 20
9.2676695021
 40
1.5
100
AcDbArc
 50
104.4483209641
 51
105.5516275314
  0
ARC
  5
6A2
100
AcDbEntity
  8
0
100
AcDbCircle
 62
7
  6
CONTINUOUS
 10
-10.0623076573
 20
9.2676695021
 40
1.5
100
AcDbArc
 50
102.4454557125
 51
104.4270326551
  0
ARC
  5
6A3
100
AcDbEntity
  8
0
100
AcDbCircle
 62
7
  6
CONTINUOUS
 10
-10.0623076573
 20
9.2676695021
 40
1.5
100
AcDbArc
 50
100.4380593176
 51
102.4270326551
  0
ARC
  5
6A4
100
AcDbEntity
  8
0
100
AcDbCircle
 62
7
  6
CONTINUOUS
 10
-10.0623076573
 20
9.2676695021
 40
1.5
100
AcDbArc
 50
97.5729673449
 51
99.5619727492
  0
ARC
  5
6A5
100
AcDbEntity
  8
0
100
AcDbCircle
 62
7
  6
CONTINUOUS
 10
-10.0623076573
 20
9.2676695021
 40
1.5
100
AcDbArc
 50
95.5729673449
 51
97.5545227849
  0
ARC
  5
6A6
100
AcDbEntity
  8
0
100
AcDbCircle
 62
7
  6
CONTINUOUS
 10
-10.0623076573
 20
9.2676695021
 40
1.5
100
AcDbArc
 50
94.4483418049
 51
95.5516359476
  0
ARC
  5
6A7
100
AcDbEntity
  8
0
100
AcDbCircle
 62
7
  6
CONTINUOUS
 10
-10.0623076573
 20
9.2676695021
 40
1.5
100
AcDbArc
 50
92.4454718357
 51
94.4270326551
  0
ARC
  5
6A8
100
AcDbEntity
  8
0
100
AcDbCircle
 62
7
  6
CONTINUOUS
 10
-10.0623076573
 20
9.2676695021
 40
1.5
100
AcDbArc
 50
90.4380438817
 51
92.4270326551
  0
ARC
  5
6A9
100
AcDbEntity
  8
0
100
AcDbCircle
 62
7
  6
CONTINUOUS
 10
-10.0623076573
 20
9.2676695021
 40
1.5
100
AcDbArc
 50
87.5729673449
 51
89.5619561183
  0
ARC
  5
6AA
100
AcDbEntity
  8
0
100
AcDbCircle
 62
7
  6
CONTINUOUS
 10
-10.0623076573
 20
9.2676695021
 40
1.5
100
AcDbArc
 50
85.5729673449
 51
87.5545281643
  0
ARC
  5
6AB
100
AcDbEntity
  8
0
100
AcDbCircle
 62
7
  6
CONTINUOUS
 10
-10.0623076573
 20
9.2676695021
 40
1.5
100
AcDbArc
 50
84.4483640524
 51
85.5516581951
  0
ARC
  5
6AC
100
AcDbEntity
  8
0
100
AcDbCircle
 62
7
  6
CONTINUOUS
 10
-10.0623076573
 20
9.2676695021
 40
1.5
100
AcDbArc
 50
82.4454772151
 51
84.4270326551
  0
ARC
  5
6AD
100
AcDbEntity
  8
0
100
AcDbCircle
 62
7
  6
CONTINUOUS
 10
-10.0623076573
 20
9.2676695021
 40
1.5
100
AcDbArc
 50
80.4380272508
 51
82.4270326551
  0
ARC
  5
6AE
100
AcDbEntity
  8
0
100
AcDbCircle
 62
7
  6
CONTINUOUS
 10
-10.0623076573
 20
9.2676695021
 40
1.5
100
AcDbArc
 50
77.5729673449
 51
79.5619406824
  0
ARC
  5
6AF
100
AcDbEntity
  8
0
100
AcDbCircle
 62
7
  6
CONTINUOUS
 10
-10.0623076573
 20
9.2676695021
 40
1.5
100
AcDbArc
 50
75.5729673449
 51
77.5545442875
  0
ARC
  5
6B0
100
AcDbEntity
  8
0
100
AcDbCircle
 62
7
  6
CONTINUOUS
 10
-10.0623076573
 20
9.2676695021
 40
1.5
100
AcDbArc
 50
74.4483724686
 51
75.5516790359
  0
ARC
  5
6B1
100
AcDbEntity
  8
0
100
AcDbCircle
 62
7
  6
CONTINUOUS
 10
-10.0623076573
 20
9.2676695021
 40
1.5
100
AcDbArc
 50
72.445467682
 51
74.4270326551
  0
ARC
  5
6B2
100
AcDbEntity
  8
0
100
AcDbCircle
 62
7
  6
CONTINUOUS
 10
-10.0623076573
 20
9.2676695021
 40
1.5
100
AcDbArc
 50
70.4380193113
 51
72.4270326551
  0
ARC
  5
6B3
100
AcDbEntity
  8
0
100
AcDbCircle
 62
7
  6
CONTINUOUS
 10
-10.0623076573
 20
9.2676695021
 40
1.5
100
AcDbArc
 50
67.5729673449
 51
69.5619363135
  0
ARC
  5
6B4
100
AcDbEntity
  8
0
100
AcDbCircle
 62
7
  6
CONTINUOUS
 10
-10.0623076573
 20
9.2676695021
 40
1.5
100
AcDbArc
 50
65.5729673449
 51
67.5545669853
  0
ARC
  5
6B5
100
AcDbEntity
  8
0
100
AcDbCircle
 62
7
  6
CONTINUOUS
 10
-10.0623076573
 20
9.2676695021
 40
1.5
100
AcDbArc
 50
64.4483621525
 51
65.5516884241
  0
ARC
  5
6B6
100
AcDbEntity
  8
0
100
AcDbCircle
 62
7
  6
CONTINUOUS
 10
-10.0623076573
 20
9.2676695021
 40
1.5
100
AcDbArc
 50
62.4454428263
 51
64.4270326551
  0
ARC
  5
6B7
100
AcDbEntity
  8
0
100
AcDbCircle
 62
7
  6
CONTINUOUS
 10
-10.0623076573
 20
9.2676695021
 40
1.5
100
AcDbArc
 50
60.4380207391
 51
62.4270326551
  0
ARC
  5
6B8
100
AcDbEntity
  8
0
100
AcDbCircle
 62
7
  6
CONTINUOUS
 10
-10.0623076573
 20
9.2676695021
 40
1.5
100
AcDbArc
 50
57.5729673449
 51
59.5619432173
  0
ARC
  5
6B9
100
AcDbEntity
  8
0
100
AcDbCircle
 62
7
  6
CONTINUOUS
 10
-10.0623076573
 20
9.2676695021
 40
1.5
100
AcDbArc
 50
55.5729673449
 51
57.5545914005
  0
ARC
  5
6BA
100
AcDbEntity
  8
0
100
AcDbCircle
 62
7
  6
CONTINUOUS
 10
-10.0623076573
 20
9.2676695021
 40
1.5
100
AcDbArc
 50
54.4483390846
 51
55.5516872831
  0
ARC
  5
6BB
100
AcDbEntity
  8
0
100
AcDbCircle
 62
7
  6
CONTINUOUS
 10
-10.0623076573
 20
9.2676695021
 40
1.5
100
AcDbArc
 50
52.4454107861
 51
54.4270326551
  0
ARC
  5
6BC
100
AcDbEntity
  8
0
100
AcDbCircle
 62
7
  6
CONTINUOUS
 10
-10.0623076573
 20
9.2676695021
 40
1.5
100
AcDbArc
 50
50.4380303066
 51
52.4270326551
  0
ARC
  5
6BD
100
AcDbEntity
  8
0
100
AcDbCircle
 62
7
  6
CONTINUOUS
 10
-10.0623076573
 20
9.2676695021
 40
1.5
100
AcDbArc
 50
47.5729673449
 51
49.5619574874
  0
ARC
  5
6BE
100
AcDbEntity
  8
0
100
AcDbCircle
 62
7
  6
CONTINUOUS
 10
-10.0623076573
 20
9.2676695021
 40
1.5
100
AcDbArc
 50
44.448322036
 51
45.551677964
  0
ARC
  5
6BF
100
AcDbEntity
  8
0
100
AcDbCircle
 62
7
  6
CONTINUOUS
 10
-10.0623076573
 20
9.2676695021
 40
1.5
100
AcDbArc
 50
42.4453989355
 51
44.4270326551
  0
ARC
  5
6C0
100
AcDbEntity
  8
0
100
AcDbCircle
 62
7
  6
CONTINUOUS
 10
-10.0623076573
 20
9.2676695021
 40
1.5
100
AcDbArc
 50
40.4380425126
 51
42.4270326551
  0
ARC
  5
6C1
100
AcDbEntity
  8
0
100
AcDbCircle
 62
7
  6
CONTINUOUS
 10
-10.0623076573
 20
9.2676695021
 40
1.5
100
AcDbArc
 50
37.5729673449
 51
39.5619696934
  0
ARC
  5
6C2
100
AcDbEntity
  8
0
100
AcDbCircle
 62
7
  6
CONTINUOUS
 10
-10.0623076573
 20
9.2676695021
 40
1.5
100
AcDbArc
 50
35.5729673449
 51
37.5545892139
  0
ARC
  5
6C3
100
AcDbEntity
  8
0
100
AcDbCircle
 62
7
  6
CONTINUOUS
 10
-10.0623076573
 20
9.2676695021
 40
1.5
100
AcDbArc
 50
34.4483127169
 51
35.5516609154
  0
ARC
  5
6C4
100
AcDbEntity
  8
0
100
AcDbCircle
 62
7
  6
CONTINUOUS
 10
-10.0623076573
 20
9.2676695021
 40
1.5
100
AcDbArc
 50
32.4454085995
 51
34.4270326551
  0
ARC
  5
6C5
100
AcDbEntity
  8
0
100
AcDbCircle
 62
7
  6
CONTINUOUS
 10
-10.0623076573
 20
9.2676695021
 40
1.5
100
AcDbArc
 50
30.4380567827
 51
32.4270326551
  0
ARC
  5
6C6
100
AcDbEntity
  8
0
100
AcDbCircle
 62
7
  6
CONTINUOUS
 10
-10.0623076573
 20
9.2676695021
 40
1.5
100
AcDbArc
 50
27.5729673449
 51
29.5619792609
  0
ARC
  5
6C7
100
AcDbEntity
  8
0
100
AcDbCircle
 62
7
  6
CONTINUOUS
 10
-10.0623076573
 20
9.2676695021
 40
1.5
100
AcDbArc
 50
25.5729673449
 51
27.5545571737
  0
ARC
  5
6C8
100
AcDbEntity
  8
0
100
AcDbCircle
 62
7
  6
CONTINUOUS
 10
-10.0623076573
 20
9.2676695021
 40
1.5
100
AcDbArc
 50
24.6349692421
 51
25.5516378475
  0
ARC
  5
6C9
100
AcDbEntity
  8
0
100
AcDbCircle
 62
7
  6
CONTINUOUS
 10
-10.0623076573
 20
9.2676695021
 40
1.5
100
AcDbArc
 50
180.4380638003
 51
182.4270326551
  0
ARC
  5
6CA
100
AcDbEntity
  8
0
100
AcDbCircle
 62
7
  6
CONTINUOUS
 10
-10.0623076573
 20
9.2676695021
 40
1.5
100
AcDbArc
 50
182.4454822953
 51
184.4270326551
  0
ARC
  5
6CB
100
AcDbEntity
  8
0
100
AcDbCircle
 62
7
  6
CONTINUOUS
 10
-10.0623076573
 20
9.2676695021
 40
1.5
100
AcDbArc
 50
184.4483418049
 51
185.5516359476
  0
ARC
  5
6CC
100
AcDbEntity
  8
0
100
AcDbCircle
 62
7
  6
CONTINUOUS
 10
-10.0623076573
 20
9.2676695021
 40
1.5
100
AcDbArc
 50
185.5729673449
 51
187.5545227849
  0
ARC
  5
6CD
100
AcDbEntity
  8
0
100
AcDbCircle
 62
7
  6
CONTINUOUS
 10
-10.0623076573
 20
9.2676695021
 40
1.5
100
AcDbArc
 50
187.5729673449
 51
189.5619727492
  0
ARC
  5
6CE
100
AcDbEntity
  8
0
100
AcDbCircle
 62
7
  6
CONTINUOUS
 10
-10.0623076573
 20
9.2676695021
 40
1.5
100
AcDbArc
 50
190.4380593176
 51
192.4270326551
  0
ARC
  5
6CF
100
AcDbEntity
  8
0
100
AcDbCircle
 62
7
  6
CONTINUOUS
 10
-10.0623076573
 20
9.2676695021
 40
1.5
100
AcDbArc
 50
192.4454557125
 51
194.4270326551
  0
ARC
  5
6D0
100
AcDbEntity
  8
0
100
AcDbCircle
 62
7
  6
CONTINUOUS
 10
-10.0623076573
 20
9.2676695021
 40
1.5
100
AcDbArc
 50
194.4483209641
 51
195.5516275314
  0
ARC
  5
6D1
100
AcDbEntity
  8
0
100
AcDbCircle
 62
7
  6
CONTINUOUS
 10
-10.0623076573
 20
9.2676695021
 40
1.5
100
AcDbArc
 50
195.5729673449
 51
197.554532318
  0
ARC
  5
6D2
100
AcDbEntity
  8
0
100
AcDbCircle
 62
7
  6
CONTINUOUS
 10
-10.0623076573
 20
9.2676695021
 40
1.5
100
AcDbArc
 50
197.5729673449
 51
199.5619806887
  0
ARC
  5
6D3
100
AcDbEntity
  8
0
100
AcDbCircle
 62
7
  6
CONTINUOUS
 10
-10.0623076573
 20
9.2676695021
 40
1.5
100
AcDbArc
 50
200.4380636865
 51
202.4270326551
  0
ARC
  5
6D4
100
AcDbEntity
  8
0
100
AcDbCircle
 62
7
  6
CONTINUOUS
 10
-10.0623076573
 20
9.2676695021
 40
1.5
100
AcDbArc
 50
202.4454330147
 51
204.4270326551
  0
ARC
  5
6D5
100
AcDbEntity
  8
0
100
AcDbCircle
 62
7
  6
CONTINUOUS
 10
-10.0623076573
 20
9.2676695021
 40
1.5
100
AcDbArc
 50
204.4483115759
 51
205.5516378475
  0
ARC
  5
6D6
100
AcDbEntity
  8
0
100
AcDbCircle
 62
7
  6
CONTINUOUS
 10
-10.0623076573
 20
9.2676695021
 40
1.5
100
AcDbArc
 50
205.5729673449
 51
207.5545571737
  0
ARC
  5
6D7
100
AcDbEntity
  8
0
100
AcDbCircle
 62
7
  6
CONTINUOUS
 10
-10.0623076573
 20
9.2676695021
 40
1.5
100
AcDbArc
 50
207.5729673449
 51
209.5619792609
  0
ARC
  5
6D8
100
AcDbEntity
  8
0
100
AcDbCircle
 62
7
  6
CONTINUOUS
 10
-10.0623076573
 20
9.2676695021
 40
1.5
100
AcDbArc
 50
210.4380567827
 51
212.4270326551
  0
ARC
  5
6D9
100
AcDbEntity
  8
0
100
AcDbCircle
 62
7
  6
CONTINUOUS
 10
-10.0623076573
 20
9.2676695021
 40
1.5
100
AcDbArc
 50
212.4454085995
 51
214.4270326551
  0
ARC
  5
6DA
100
AcDbEntity
  8
0
100
AcDbCircle
 62
7
  6
CONTINUOUS
 10
-10.0623076573
 20
9.2676695021
 40
1.5
100
AcDbArc
 50
214.4483127169
 51
215.5516609154
  0
ARC
  5
6DB
100
AcDbEntity
  8
0
100
AcDbCircle
 62
7
  6
CONTINUOUS
 10
-10.0623076573
 20
9.2676695021
 40
1.5
100
AcDbArc
 50
215.5729673449
 51
217.5545892139
  0
ARC
  5
6DC
100
AcDbEntity
  8
0
100
AcDbCircle
 62
7
  6
CONTINUOUS
 10
-10.0623076573
 20
9.2676695021
 40
1.5
100
AcDbArc
 50
217.5729673449
 51
219.5619696934
  0
ARC
  5
6DD
100
AcDbEntity
  8
0
100
AcDbCircle
 62
7
  6
CONTINUOUS
 10
-10.0623076573
 20
9.2676695021
 40
1.5
100
AcDbArc
 50
220.4380425126
 51
222.4270326551
  0
ARC
  5
6DE
100
AcDbEntity
  8
0
100
AcDbCircle
 62
7
  6
CONTINUOUS
 10
-10.0623076573
 20
9.2676695021
 40
1.5
100
AcDbArc
 50
222.4453989355
 51
224.4270326551
  0
ARC
  5
6DF
100
AcDbEntity
  8
0
100
AcDbCircle
 62
7
  6
CONTINUOUS
 10
-10.0623076573
 20
9.2676695021
 40
1.5
100
AcDbArc
 50
224.448322036
 51
225.551677964
  0
ARC
  5
6E0
100
AcDbEntity
  8
0
100
AcDbCircle
 62
7
  6
CONTINUOUS
 10
-10.0623076573
 20
9.2676695021
 40
1.5
100
AcDbArc
 50
225.5729673449
 51
227.5546010645
  0
ARC
  5
6E1
100
AcDbEntity
  8
0
100
AcDbCircle
 62
7
  6
CONTINUOUS
 10
-10.0623076573
 20
9.2676695021
 40
1.5
100
AcDbArc
 50
227.5729673449
 51
229.5619574874
  0
ARC
  5
6E2
100
AcDbEntity
  8
0
100
AcDbCircle
 62
7
  6
CONTINUOUS
 10
-10.0623076573
 20
9.2676695021
 40
1.5
100
AcDbArc
 50
230.4380303066
 51
232.4270326551
  0
ARC
  5
6E3
100
AcDbEntity
  8
0
100
AcDbCircle
 62
7
  6
CONTINUOUS
 10
-10.0623076573
 20
9.2676695021
 40
1.5
100
AcDbArc
 50
232.4454107861
 51
234.4270326551
  0
ARC
  5
6E4
100
AcDbEntity
  8
0
100
AcDbCircle
 62
7
  6
CONTINUOUS
 10
-10.0623076573
 20
9.2676695021
 40
1.5
100
AcDbArc
 50
234.4483390846
 51
235.5516872831
  0
ARC
  5
6E5
100
AcDbEntity
  8
0
100
AcDbCircle
 62
7
  6
CONTINUOUS
 10
-10.0623076573
 20
9.2676695021
 40
1.5
100
AcDbArc
 50
235.5729673449
 51
237.5545914005
  0
ARC
  5
6E6
100
AcDbEntity
  8
0
100
AcDbCircle
 62
7
  6
CONTINUOUS
 10
-10.0623076573
 20
9.2676695021
 40
1.5
100
AcDbArc
 50
237.5729673449
 51
239.5619432173
  0
ARC
  5
6E7
100
AcDbEntity
  8
0
100
AcDbCircle
 62
7
  6
CONTINUOUS
 10
-10.0623076573
 20
9.2676695021
 40
1.5
100
AcDbArc
 50
240.4380207391
 51
242.4270326551
  0
ARC
  5
6E8
100
AcDbEntity
  8
0
100
AcDbCircle
 62
7
  6
CONTINUOUS
 10
-10.0623076573
 20
9.2676695021
 40
1.5
100
AcDbArc
 50
242.4454428263
 51
244.4270326551
  0
ARC
  5
6E9
100
AcDbEntity
  8
0
100
AcDbCircle
 62
7
  6
CONTINUOUS
 10
-10.0623076573
 20
9.2676695021
 40
1.5
100
AcDbArc
 50
244.4483621525
 51
245.5516884241
  0
ARC
  5
6EA
100
AcDbEntity
  8
0
100
AcDbCircle
 62
7
  6
CONTINUOUS
 10
-10.0623076573
 20
9.2676695021
 40
1.5
100
AcDbArc
 50
245.5729673449
 51
247.5545669853
  0
ARC
  5
6EB
100
AcDbEntity
  8
0
100
AcDbCircle
 62
7
  6
CONTINUOUS
 10
-10.0623076573
 20
9.2676695021
 40
1.5
100
AcDbArc
 50
247.5729673449
 51
249.5619363135
  0
ARC
  5
6EC
100
AcDbEntity
  8
0
100
AcDbCircle
 62
7
  6
CONTINUOUS
 10
-10.0623076573
 20
9.2676695021
 40
1.5
100
AcDbArc
 50
250.4380193113
 51
252.4270326551
  0
ARC
  5
6ED
100
AcDbEntity
  8
0
100
AcDbCircle
 62
7
  6
CONTINUOUS
 10
-10.0623076573
 20
9.2676695021
 40
1.5
100
AcDbArc
 50
252.445467682
 51
254.4270326551
  0
ARC
  5
6EE
100
AcDbEntity
  8
0
100
AcDbCircle
 62
7
  6
CONTINUOUS
 10
-10.0623076573
 20
9.2676695021
 40
1.5
100
AcDbArc
 50
254.4483724686
 51
255.5516790359
  0
ARC
  5
6EF
100
AcDbEntity
  8
0
100
AcDbCircle
 62
7
  6
CONTINUOUS
 10
-10.0623076573
 20
9.2676695021
 40
1.5
100
AcDbArc
 50
255.5729673449
 51
257.5545442875
  0
ARC
  5
6F0
100
AcDbEntity
  8
0
100
AcDbCircle
 62
7
  6
CONTINUOUS
 10
-10.0623076573
 20
9.2676695021
 40
1.5
100
AcDbArc
 50
257.5729673449
 51
259.5619406824
  0
ARC
  5
6F1
100
AcDbEntity
  8
0
100
AcDbCircle
 62
7
  6
CONTINUOUS
 10
-10.0623076573
 20
9.2676695021
 40
1.5
100
AcDbArc
 50
260.4380272508
 51
262.4270326551
  0
ARC
  5
6F2
100
AcDbEntity
  8
0
100
AcDbCircle
 62
7
  6
CONTINUOUS
 10
-10.0623076573
 20
9.2676695021
 40
1.5
100
AcDbArc
 50
262.4454772151
 51
264.4270326551
  0
ARC
  5
6F3
100
AcDbEntity
  8
0
100
AcDbCircle
 62
7
  6
CONTINUOUS
 10
-10.0623076573
 20
9.2676695021
 40
1.5
100
AcDbArc
 50
264.4483640524
 51
265.5516581951
  0
ARC
  5
6F4
100
AcDbEntity
  8
0
100
AcDbCircle
 62
7
  6
CONTINUOUS
 10
-10.0623076573
 20
9.2676695021
 40
1.5
100
AcDbArc
 50
265.5729673449
 51
267.5545281643
  0
ARC
  5
6F5
100
AcDbEntity
  8
0
100
AcDbCircle
 62
7
  6
CONTINUOUS
 10
-10.0623076573
 20
9.2676695021
 40
1.5
100
AcDbArc
 50
267.5729673449
 51
269.5619561183
  0
ARC
  5
6F6
100
AcDbEntity
  8
0
100
AcDbCircle
 62
7
  6
CONTINUOUS
 10
-10.0623076573
 20
9.2676695021
 40
1.5
100
AcDbArc
 50
270.4380438817
 51
272.4270326551
  0
ARC
  5
6F7
100
AcDbEntity
  8
0
100
AcDbCircle
 62
7
  6
CONTINUOUS
 10
-10.0623076573
 20
9.2676695021
 40
1.5
100
AcDbArc
 50
272.4454718357
 51
274.4270326551
  0
ARC
  5
6F8
100
AcDbEntity
  8
0
100
AcDbCircle
 62
7
  6
CONTINUOUS
 10
-10.0623076573
 20
9.2676695021
 40
1.5
100
AcDbArc
 50
274.4483418049
 51
275.5516359476
  0
ARC
  5
6F9
100
AcDbEntity
  8
0
100
AcDbCircle
 62
7
  6
CONTINUOUS
 10
-10.0623076573
 20
9.2676695021
 40
1.5
100
AcDbArc
 50
275.5729673449
 51
277.5545227849
  0
ARC
  5
6FA
100
AcDbEntity
  8
0
100
AcDbCircle
 62
7
  6
CONTINUOUS
 10
-10.0623076573
 20
9.2676695021
 40
1.5
100
AcDbArc
 50
277.5729673449
 51
279.5619727492
  0
ARC
  5
6FB
100
AcDbEntity
  8
0
100
AcDbCircle
 62
7
  6
CONTINUOUS
 10
-10.0623076573
 20
9.2676695021
 40
1.5
100
AcDbArc
 50
280.4380593176
 51
282.4270326551
  0
ARC
  5
6FC
100
AcDbEntity
  8
0
100
AcDbCircle
 62
7
  6
CONTINUOUS
 10
-10.0623076573
 20
9.2676695021
 40
1.5
100
AcDbArc
 50
282.4454557125
 51
284.4270326551
  0
ARC
  5
6FD
100
AcDbEntity
  8
0
100
AcDbCircle
 62
7
  6
CONTINUOUS
 10
-10.0623076573
 20
9.2676695021
 40
1.5
100
AcDbArc
 50
284.4483209641
 51
285.5516275314
  0
ARC
  5
6FE
100
AcDbEntity
  8
0
100
AcDbCircle
 62
7
  6
CONTINUOUS
 10
-10.0623076573
 20
9.2676695021
 40
1.5
100
AcDbArc
 50
285.5729673449
 51
287.554532318
  0
ARC
  5
6FF
100
AcDbEntity
  8
0
100
AcDbCircle
 62
7
  6
CONTINUOUS
 10
-10.0623076573
 20
9.2676695021
 40
1.5
100
AcDbArc
 50
287.5729673449
 51
289.5619806887
  0
ARC
  5
700
100
AcDbEntity
  8
0
100
AcDbCircle
 62
7
  6
CONTINUOUS
 10
-10.0623076573
 20
9.2676695021
 40
1.5
100
AcDbArc
 50
290.4380636865
 51
292.4270326551
  0
ARC
  5
701
100
AcDbEntity
  8
0
100
AcDbCircle
 62
7
  6
CONTINUOUS
 10
-10.0623076573
 20
9.2676695021
 40
1.5
100
AcDbArc
 50
292.4454330147
 51
294.4270326551
  0
ARC
  5
702
100
AcDbEntity
  8
0
100
AcDbCircle
 62
7
  6
CONTINUOUS
 10
-10.0623076573
 20
9.2676695021
 40
1.5
100
AcDbArc
 50
294.4483115759
 51
295.5516378475
  0
ARC
  5
703
100
AcDbEntity
  8
0
100
AcDbCircle
 62
7
  6
CONTINUOUS
 10
-10.0623076573
 20
9.2676695021
 40
1.5
100
AcDbArc
 50
295.5729673449
 51
297.5545571737
  0
ARC
  5
704
100
AcDbEntity
  8
0
100
AcDbCircle
 62
7
  6
CONTINUOUS
 10
-10.0623076573
 20
9.2676695021
 40
1.5
100
AcDbArc
 50
297.5729673449
 51
299.5619792609
  0
ARC
  5
705
100
AcDbEntity
  8
0
100
AcDbCircle
 62
7
  6
CONTINUOUS
 10
-10.0623076573
 20
9.2676695021
 40
1.5
100
AcDbArc
 50
300.4380567827
 51
302.4270326551
  0
ARC
  5
706
100
AcDbEntity
  8
0
100
AcDbCircle
 62
7
  6
CONTINUOUS
 10
-10.0623076573
 20
9.2676695021
 40
1.5
100
AcDbArc
 50
302.4454085995
 51
304.4270326551
  0
ARC
  5
707
100
AcDbEntity
  8
0
100
AcDbCircle
 62
7
  6
CONTINUOUS
 10
-10.0623076573
 20
9.2676695021
 40
1.5
100
AcDbArc
 50
304.4483127169
 51
305.5516609154
  0
ARC
  5
708
100
AcDbEntity
  8
0
100
AcDbCircle
 62
7
  6
CONTINUOUS
 10
-10.0623076573
 20
9.2676695021
 40
1.5
100
AcDbArc
 50
305.5729673449
 51
307.5545892139
  0
ARC
  5
709
100
AcDbEntity
  8
0
100
AcDbCircle
 62
7
  6
CONTINUOUS
 10
-10.0623076573
 20
9.2676695021
 40
1.5
100
AcDbArc
 50
307.5729673449
 51
309.5619696934
  0
ARC
  5
70A
100
AcDbEntity
  8
0
100
AcDbCircle
 62
7
  6
CONTINUOUS
 10
-10.0623076573
 20
9.2676695021
 40
1.5
100
AcDbArc
 50
310.4380425126
 51
312.4270326551
  0
ARC
  5
70B
100
AcDbEntity
  8
0
100
AcDbCircle
 62
7
  6
CONTINUOUS
 10
-10.0623076573
 20
9.2676695021
 40
1.5
100
AcDbArc
 50
312.4453989355
 51
314.4270326551
  0
ARC
  5
70C
100
AcDbEntity
  8
0
100
AcDbCircle
 62
7
  6
CONTINUOUS
 10
-10.0623076573
 20
9.2676695021
 40
1.5
100
AcDbArc
 50
314.448322036
 51
315.551677964
  0
ARC
  5
70D
100
AcDbEntity
  8
0
100
AcDbCircle
 62
7
  6
CONTINUOUS
 10
-10.0623076573
 20
9.2676695021
 40
1.5
100
AcDbArc
 50
315.5729673449
 51
317.5546010645
  0
ARC
  5
70E
100
AcDbEntity
  8
0
100
AcDbCircle
 62
7
  6
CONTINUOUS
 10
-10.0623076573
 20
9.2676695021
 40
1.5
100
AcDbArc
 50
317.5729673449
 51
319.5619574874
  0
ARC
  5
70F
100
AcDbEntity
  8
0
100
AcDbCircle
 62
7
  6
CONTINUOUS
 10
-10.0623076573
 20
9.2676695021
 40
1.5
100
AcDbArc
 50
320.4380303066
 51
322.4270326551
  0
ARC
  5
710
100
AcDbEntity
  8
0
100
AcDbCircle
 62
7
  6
CONTINUOUS
 10
-10.0623076573
 20
9.2676695021
 40
1.5
100
AcDbArc
 50
322.4454107861
 51
324.4270326551
  0
ARC
  5
711
100
AcDbEntity
  8
0
100
AcDbCircle
 62
7
  6
CONTINUOUS
 10
-10.0623076573
 20
9.2676695021
 40
1.5
100
AcDbArc
 50
324.4483390846
 51
325.5516872831
  0
ARC
  5
712
100
AcDbEntity
  8
0
100
AcDbCircle
 62
7
  6
CONTINUOUS
 10
-10.0623076573
 20
9.2676695021
 40
1.5
100
AcDbArc
 50
325.5729673449
 51
327.5545914005
  0
ARC
  5
713
100
AcDbEntity
  8
0
100
AcDbCircle
 62
7
  6
CONTINUOUS
 10
-10.0623076573
 20
9.2676695021
 40
1.5
100
AcDbArc
 50
327.5729673449
 51
329.5619432173
  0
ARC
  5
714
100
AcDbEntity
  8
0
100
AcDbCircle
 62
7
  6
CONTINUOUS
 10
-10.0623076573
 20
9.2676695021
 40
1.5
100
AcDbArc
 50
330.4380207391
 51
332.4270326551
  0
ARC
  5
715
100
AcDbEntity
  8
0
100
AcDbCircle
 62
7
  6
CONTINUOUS
 10
-10.0623076573
 20
9.2676695021
 40
1.5
100
AcDbArc
 50
332.4454428263
 51
334.4270326551
  0
ARC
  5
716
100
AcDbEntity
  8
0
100
AcDbCircle
 62
7
  6
CONTINUOUS
 10
-10.0623076573
 20
9.2676695021
 40
1.5
100
AcDbArc
 50
334.4483621525
 51
335.3650307579
  0
ARC
  5
717
100
AcDbEntity
  8
0
100
AcDbCircle
 62
7
  6
CONTINUOUS
 10
-10.0623076573
 20
9.2676695021
 40
1.5
100
AcDbArc
 50
45.5729673449
 51
47.5546010645
  0
ARC
  5
718
100
AcDbEntity
  8
0
100
AcDbCircle
 62
7
  6
CONTINUOUS
 10
10.9376923427
 20
9.2676695021
 40
1.5
100
AcDbArc
 50
154.4483621525
 51
155.3650307579
  0
ARC
  5
719
100
AcDbEntity
  8
0
100
AcDbCircle
 62
7
  6
CONTINUOUS
 10
10.9376923427
 20
9.2676695021
 40
1.5
100
AcDbArc
 50
152.4454428263
 51
154.4270326551
  0
ARC
  5
71A
100
AcDbEntity
  8
0
100
AcDbCircle
 62
7
  6
CONTINUOUS
 10
10.9376923427
 20
9.2676695021
 40
1.5
100
AcDbArc
 50
150.4380207391
 51
152.4270326551
  0
ARC
  5
71B
100
AcDbEntity
  8
0
100
AcDbCircle
 62
7
  6
CONTINUOUS
 10
10.9376923427
 20
9.2676695021
 40
1.5
100
AcDbArc
 50
147.5729673449
 51
149.5619432173
  0
ARC
  5
71C
100
AcDbEntity
  8
0
100
AcDbCircle
 62
7
  6
CONTINUOUS
 10
10.9376923427
 20
9.2676695021
 40
1.5
100
AcDbArc
 50
145.5729673449
 51
147.5545914005
  0
ARC
  5
71D
100
AcDbEntity
  8
0
100
AcDbCircle
 62
7
  6
CONTINUOUS
 10
10.9376923427
 20
9.2676695021
 40
1.5
100
AcDbArc
 50
144.4483390846
 51
145.5516872831
  0
ARC
  5
71E
100
AcDbEntity
  8
0
100
AcDbCircle
 62
7
  6
CONTINUOUS
 10
10.9376923427
 20
9.2676695021
 40
1.5
100
AcDbArc
 50
142.4454107861
 51
144.4270326551
  0
ARC
  5
71F
100
AcDbEntity
  8
0
100
AcDbCircle
 62
7
  6
CONTINUOUS
 10
10.9376923427
 20
9.2676695021
 40
1.5
100
AcDbArc
 50
140.4380303066
 51
142.4270326551
  0
ARC
  5
720
100
AcDbEntity
  8
0
100
AcDbCircle
 62
7
  6
CONTINUOUS
 10
10.9376923427
 20
9.2676695021
 40
1.5
100
AcDbArc
 50
137.5729673449
 51
139.5619574874
  0
ARC
  5
721
100
AcDbEntity
  8
0
100
AcDbCircle
 62
7
  6
CONTINUOUS
 10
10.9376923427
 20
9.2676695021
 40
1.5
100
AcDbArc
 50
135.5729673449
 51
137.5546010645
  0
ARC
  5
722
100
AcDbEntity
  8
0
100
AcDbCircle
 62
7
  6
CONTINUOUS
 10
10.9376923427
 20
9.2676695021
 40
1.5
100
AcDbArc
 50
134.448322036
 51
135.551677964
  0
ARC
  5
723
100
AcDbEntity
  8
0
100
AcDbCircle
 62
7
  6
CONTINUOUS
 10
10.9376923427
 20
9.2676695021
 40
1.5
100
AcDbArc
 50
132.4453989355
 51
134.4270326551
  0
ARC
  5
724
100
AcDbEntity
  8
0
100
AcDbCircle
 62
7
  6
CONTINUOUS
 10
10.9376923427
 20
9.2676695021
 40
1.5
100
AcDbArc
 50
130.4380425126
 51
132.4270326551
  0
ARC
  5
725
100
AcDbEntity
  8
0
100
AcDbCircle
 62
7
  6
CONTINUOUS
 10
10.9376923427
 20
9.2676695021
 40
1.5
100
AcDbArc
 50
127.5729673449
 51
129.5619696934
  0
ARC
  5
726
100
AcDbEntity
  8
0
100
AcDbCircle
 62
7
  6
CONTINUOUS
 10
10.9376923427
 20
9.2676695021
 40
1.5
100
AcDbArc
 50
125.5729673449
 51
127.5545892139
  0
ARC
  5
727
100
AcDbEntity
  8
0
100
AcDbCircle
 62
7
  6
CONTINUOUS
 10
10.9376923427
 20
9.2676695021
 40
1.5
100
AcDbArc
 50
124.4483127169
 51
125.5516609154
  0
ARC
  5
728
100
AcDbEntity
  8
0
100
AcDbCircle
 62
7
  6
CONTINUOUS
 10
10.9376923427
 20
9.2676695021
 40
1.5
100
AcDbArc
 50
122.4454085995
 51
124.4270326551
  0
ARC
  5
729
100
AcDbEntity
  8
0
100
AcDbCircle
 62
7
  6
CONTINUOUS
 10
10.9376923427
 20
9.2676695021
 40
1.5
100
AcDbArc
 50
120.4380567827
 51
122.4270326551
  0
ARC
  5
72A
100
AcDbEntity
  8
0
100
AcDbCircle
 62
7
  6
CONTINUOUS
 10
10.9376923427
 20
9.2676695021
 40
1.5
100
AcDbArc
 50
117.5729673449
 51
119.5619792609
  0
ARC
  5
72B
100
AcDbEntity
  8
0
100
AcDbCircle
 62
7
  6
CONTINUOUS
 10
10.9376923427
 20
9.2676695021
 40
1.5
100
AcDbArc
 50
115.5729673449
 51
117.5545571737
  0
ARC
  5
72C
100
AcDbEntity
  8
0
100
AcDbCircle
 62
7
  6
CONTINUOUS
 10
10.9376923427
 20
9.2676695021
 40
1.5
100
AcDbArc
 50
114.4483115759
 51
115.5516378475
  0
ARC
  5
72D
100
AcDbEntity
  8
0
100
AcDbCircle
 62
7
  6
CONTINUOUS
 10
10.9376923427
 20
9.2676695021
 40
1.5
100
AcDbArc
 50
112.4454330147
 51
114.4270326551
  0
ARC
  5
72E
100
AcDbEntity
  8
0
100
AcDbCircle
 62
7
  6
CONTINUOUS
 10
10.9376923427
 20
9.2676695021
 40
1.5
100
AcDbArc
 50
110.4380636865
 51
112.4270326551
  0
ARC
  5
72F
100
AcDbEntity
  8
0
100
AcDbCircle
 62
7
  6
CONTINUOUS
 10
10.9376923427
 20
9.2676695021
 40
1.5
100
AcDbArc
 50
107.5729673449
 51
109.5619806887
  0
ARC
  5
730
100
AcDbEntity
  8
0
100
AcDbCircle
 62
7
  6
CONTINUOUS
 10
10.9376923427
 20
9.2676695021
 40
1.5
100
AcDbArc
 50
105.5729673449
 51
107.554532318
  0
ARC
  5
731
100
AcDbEntity
  8
0
100
AcDbCircle
 62
7
  6
CONTINUOUS
 10
10.9376923427
 20
9.2676695021
 40
1.5
100
AcDbArc
 50
104.4483209641
 51
105.5516275314
  0
ARC
  5
732
100
AcDbEntity
  8
0
100
AcDbCircle
 62
7
  6
CONTINUOUS
 10
10.9376923427
 20
9.2676695021
 40
1.5
100
AcDbArc
 50
102.4454557125
 51
104.4270326551
  0
ARC
  5
733
100
AcDbEntity
  8
0
100
AcDbCircle
 62
7
  6
CONTINUOUS
 10
10.9376923427
 20
9.2676695021
 40
1.5
100
AcDbArc
 50
100.4380593176
 51
102.4270326551
  0
ARC
  5
734
100
AcDbEntity
  8
0
100
AcDbCircle
 62
7
  6
CONTINUOUS
 10
10.9376923427
 20
9.2676695021
 40
1.5
100
AcDbArc
 50
97.5729673449
 51
99.5619727492
  0
ARC
  5
735
100
AcDbEntity
  8
0
100
AcDbCircle
 62
7
  6
CONTINUOUS
 10
10.9376923427
 20
9.2676695021
 40
1.5
100
AcDbArc
 50
95.5729673449
 51
97.5545227849
  0
ARC
  5
736
100
AcDbEntity
  8
0
100
AcDbCircle
 62
7
  6
CONTINUOUS
 10
10.9376923427
 20
9.2676695021
 40
1.5
100
AcDbArc
 50
94.4483418049
 51
95.5516359476
  0
ARC
  5
737
100
AcDbEntity
  8
0
100
AcDbCircle
 62
7
  6
CONTINUOUS
 10
10.9376923427
 20
9.2676695021
 40
1.5
100
AcDbArc
 50
92.4454718357
 51
94.4270326551
  0
ARC
  5
738
100
AcDbEntity
  8
0
100
AcDbCircle
 62
7
  6
CONTINUOUS
 10
10.9376923427
 20
9.2676695021
 40
1.5
100
AcDbArc
 50
90.4380438817
 51
92.4270326551
  0
ARC
  5
739
100
AcDbEntity
  8
0
100
AcDbCircle
 62
7
  6
CONTINUOUS
 10
10.9376923427
 20
9.2676695021
 40
1.5
100
AcDbArc
 50
87.5729673449
 51
89.5619561183
  0
ARC
  5
73A
100
AcDbEntity
  8
0
100
AcDbCircle
 62
7
  6
CONTINUOUS
 10
10.9376923427
 20
9.2676695021
 40
1.5
100
AcDbArc
 50
85.5729673449
 51
87.5545281643
  0
ARC
  5
73B
100
AcDbEntity
  8
0
100
AcDbCircle
 62
7
  6
CONTINUOUS
 10
10.9376923427
 20
9.2676695021
 40
1.5
100
AcDbArc
 50
84.4483640524
 51
85.5516581951
  0
ARC
  5
73C
100
AcDbEntity
  8
0
100
AcDbCircle
 62
7
  6
CONTINUOUS
 10
10.9376923427
 20
9.2676695021
 40
1.5
100
AcDbArc
 50
82.4454772151
 51
84.4270326551
  0
ARC
  5
73D
100
AcDbEntity
  8
0
100
AcDbCircle
 62
7
  6
CONTINUOUS
 10
10.9376923427
 20
9.2676695021
 40
1.5
100
AcDbArc
 50
80.4380272508
 51
82.4270326551
  0
ARC
  5
73E
100
AcDbEntity
  8
0
100
AcDbCircle
 62
7
  6
CONTINUOUS
 10
10.9376923427
 20
9.2676695021
 40
1.5
100
AcDbArc
 50
77.5729673449
 51
79.5619406824
  0
ARC
  5
73F
100
AcDbEntity
  8
0
100
AcDbCircle
 62
7
  6
CONTINUOUS
 10
10.9376923427
 20
9.2676695021
 40
1.5
100
AcDbArc
 50
75.5729673449
 51
77.5545442875
  0
ARC
  5
740
100
AcDbEntity
  8
0
100
AcDbCircle
 62
7
  6
CONTINUOUS
 10
10.9376923427
 20
9.2676695021
 40
1.5
100
AcDbArc
 50
74.4483724686
 51
75.5516790359
  0
ARC
  5
741
100
AcDbEntity
  8
0
100
AcDbCircle
 62
7
  6
CONTINUOUS
 10
10.9376923427
 20
9.2676695021
 40
1.5
100
AcDbArc
 50
72.445467682
 51
74.4270326551
  0
ARC
  5
742
100
AcDbEntity
  8
0
100
AcDbCircle
 62
7
  6
CONTINUOUS
 10
10.9376923427
 20
9.2676695021
 40
1.5
100
AcDbArc
 50
70.4380193113
 51
72.4270326551
  0
ARC
  5
743
100
AcDbEntity
  8
0
100
AcDbCircle
 62
7
  6
CONTINUOUS
 10
10.9376923427
 20
9.2676695021
 40
1.5
100
AcDbArc
 50
67.5729673449
 51
69.5619363135
  0
ARC
  5
744
100
AcDbEntity
  8
0
100
AcDbCircle
 62
7
  6
CONTINUOUS
 10
10.9376923427
 20
9.2676695021
 40
1.5
100
AcDbArc
 50
65.5729673449
 51
67.5545669853
  0
ARC
  5
745
100
AcDbEntity
  8
0
100
AcDbCircle
 62
7
  6
CONTINUOUS
 10
10.9376923427
 20
9.2676695021
 40
1.5
100
AcDbArc
 50
64.4483621525
 51
65.5516884241
  0
ARC
  5
746
100
AcDbEntity
  8
0
100
AcDbCircle
 62
7
  6
CONTINUOUS
 10
10.9376923427
 20
9.2676695021
 40
1.5
100
AcDbArc
 50
62.4454428263
 51
64.4270326551
  0
ARC
  5
747
100
AcDbEntity
  8
0
100
AcDbCircle
 62
7
  6
CONTINUOUS
 10
10.9376923427
 20
9.2676695021
 40
1.5
100
AcDbArc
 50
60.4380207391
 51
62.4270326551
  0
ARC
  5
748
100
AcDbEntity
  8
0
100
AcDbCircle
 62
7
  6
CONTINUOUS
 10
10.9376923427
 20
9.2676695021
 40
1.5
100
AcDbArc
 50
57.5729673449
 51
59.5619432173
  0
ARC
  5
749
100
AcDbEntity
  8
0
100
AcDbCircle
 62
7
  6
CONTINUOUS
 10
10.9376923427
 20
9.2676695021
 40
1.5
100
AcDbArc
 50
55.5729673449
 51
57.5545914005
  0
ARC
  5
74A
100
AcDbEntity
  8
0
100
AcDbCircle
 62
7
  6
CONTINUOUS
 10
10.9376923427
 20
9.2676695021
 40
1.5
100
AcDbArc
 50
54.4483390846
 51
55.5516872831
  0
ARC
  5
74B
100
AcDbEntity
  8
0
100
AcDbCircle
 62
7
  6
CONTINUOUS
 10
10.9376923427
 20
9.2676695021
 40
1.5
100
AcDbArc
 50
52.4454107861
 51
54.4270326551
  0
ARC
  5
74C
100
AcDbEntity
  8
0
100
AcDbCircle
 62
7
  6
CONTINUOUS
 10
10.9376923427
 20
9.2676695021
 40
1.5
100
AcDbArc
 50
50.4380303066
 51
52.4270326551
  0
ARC
  5
74D
100
AcDbEntity
  8
0
100
AcDbCircle
 62
7
  6
CONTINUOUS
 10
10.9376923427
 20
9.2676695021
 40
1.5
100
AcDbArc
 50
47.5729673449
 51
49.5619574874
  0
ARC
  5
74E
100
AcDbEntity
  8
0
100
AcDbCircle
 62
7
  6
CONTINUOUS
 10
10.9376923427
 20
9.2676695021
 40
1.5
100
AcDbArc
 50
45.5729673449
 51
47.5546010645
  0
ARC
  5
74F
100
AcDbEntity
  8
0
100
AcDbCircle
 62
7
  6
CONTINUOUS
 10
10.9376923427
 20
9.2676695021
 40
1.5
100
AcDbArc
 50
44.448322036
 51
45.551677964
  0
ARC
  5
750
100
AcDbEntity
  8
0
100
AcDbCircle
 62
7
  6
CONTINUOUS
 10
10.9376923427
 20
9.2676695021
 40
1.5
100
AcDbArc
 50
42.4453989355
 51
44.4270326551
  0
ARC
  5
751
100
AcDbEntity
  8
0
100
AcDbCircle
 62
7
  6
CONTINUOUS
 10
10.9376923427
 20
9.2676695021
 40
1.5
100
AcDbArc
 50
40.4380425126
 51
42.4270326551
  0
ARC
  5
752
100
AcDbEntity
  8
0
100
AcDbCircle
 62
7
  6
CONTINUOUS
 10
10.9376923427
 20
9.2676695021
 40
1.5
100
AcDbArc
 50
37.5729673449
 51
39.5619696934
  0
ARC
  5
753
100
AcDbEntity
  8
0
100
AcDbCircle
 62
7
  6
CONTINUOUS
 10
10.9376923427
 20
9.2676695021
 40
1.5
100
AcDbArc
 50
35.5729673449
 51
37.5545892139
  0
ARC
  5
754
100
AcDbEntity
  8
0
100
AcDbCircle
 62
7
  6
CONTINUOUS
 10
10.9376923427
 20
9.2676695021
 40
1.5
100
AcDbArc
 50
34.4483127169
 51
35.5516609154
  0
ARC
  5
755
100
AcDbEntity
  8
0
100
AcDbCircle
 62
7
  6
CONTINUOUS
 10
10.9376923427
 20
9.2676695021
 40
1.5
100
AcDbArc
 50
32.4454085995
 51
34.4270326551
  0
ARC
  5
756
100
AcDbEntity
  8
0
100
AcDbCircle
 62
7
  6
CONTINUOUS
 10
10.9376923427
 20
9.2676695021
 40
1.5
100
AcDbArc
 50
30.4380567827
 51
32.4270326551
  0
ARC
  5
757
100
AcDbEntity
  8
0
100
AcDbCircle
 62
7
  6
CONTINUOUS
 10
10.9376923427
 20
9.2676695021
 40
1.5
100
AcDbArc
 50
27.5729673449
 51
29.5619792609
  0
ARC
  5
758
100
AcDbEntity
  8
0
100
AcDbCircle
 62
7
  6
CONTINUOUS
 10
10.9376923427
 20
9.2676695021
 40
1.5
100
AcDbArc
 50
25.5729673449
 51
27.5545571737
  0
ARC
  5
759
100
AcDbEntity
  8
0
100
AcDbCircle
 62
7
  6
CONTINUOUS
 10
10.9376923427
 20
9.2676695021
 40
1.5
100
AcDbArc
 50
24.6349692421
 51
25.5516378475
  0
ARC
  5
75A
100
AcDbEntity
  8
0
100
AcDbCircle
 62
7
  6
CONTINUOUS
 10
10.9376923427
 20
9.2676695021
 40
1.5
100
AcDbArc
 50
204.6349692421
 51
205.5516378475
  0
ARC
  5
75B
100
AcDbEntity
  8
0
100
AcDbCircle
 62
7
  6
CONTINUOUS
 10
10.9376923427
 20
9.2676695021
 40
1.5
100
AcDbArc
 50
205.5729673449
 51
207.5545571737
  0
ARC
  5
75C
100
AcDbEntity
  8
0
100
AcDbCircle
 62
7
  6
CONTINUOUS
 10
10.9376923427
 20
9.2676695021
 40
1.5
100
AcDbArc
 50
207.5729673449
 51
209.5619792609
  0
ARC
  5
75D
100
AcDbEntity
  8
0
100
AcDbCircle
 62
7
  6
CONTINUOUS
 10
10.9376923427
 20
9.2676695021
 40
1.5
100
AcDbArc
 50
210.4380567827
 51
212.4270326551
  0
ARC
  5
75E
100
AcDbEntity
  8
0
100
AcDbCircle
 62
7
  6
CONTINUOUS
 10
10.9376923427
 20
9.2676695021
 40
1.5
100
AcDbArc
 50
212.4454085995
 51
214.4270326551
  0
ARC
  5
75F
100
AcDbEntity
  8
0
100
AcDbCircle
 62
7
  6
CONTINUOUS
 10
10.9376923427
 20
9.2676695021
 40
1.5
100
AcDbArc
 50
214.4483127169
 51
215.5516609154
  0
ARC
  5
760
100
AcDbEntity
  8
0
100
AcDbCircle
 62
7
  6
CONTINUOUS
 10
10.9376923427
 20
9.2676695021
 40
1.5
100
AcDbArc
 50
215.5729673449
 51
217.5545892139
  0
ARC
  5
761
100
AcDbEntity
  8
0
100
AcDbCircle
 62
7
  6
CONTINUOUS
 10
10.9376923427
 20
9.2676695021
 40
1.5
100
AcDbArc
 50
217.5729673449
 51
219.5619696934
  0
ARC
  5
762
100
AcDbEntity
  8
0
100
AcDbCircle
 62
7
  6
CONTINUOUS
 10
10.9376923427
 20
9.2676695021
 40
1.5
100
AcDbArc
 50
220.4380425126
 51
222.4270326551
  0
ARC
  5
763
100
AcDbEntity
  8
0
100
AcDbCircle
 62
7
  6
CONTINUOUS
 10
10.9376923427
 20
9.2676695021
 40
1.5
100
AcDbArc
 50
222.4453989355
 51
224.4270326551
  0
ARC
  5
764
100
AcDbEntity
  8
0
100
AcDbCircle
 62
7
  6
CONTINUOUS
 10
10.9376923427
 20
9.2676695021
 40
1.5
100
AcDbArc
 50
224.448322036
 51
225.551677964
  0
ARC
  5
765
100
AcDbEntity
  8
0
100
AcDbCircle
 62
7
  6
CONTINUOUS
 10
10.9376923427
 20
9.2676695021
 40
1.5
100
AcDbArc
 50
225.5729673449
 51
227.5546010645
  0
ARC
  5
766
100
AcDbEntity
  8
0
100
AcDbCircle
 62
7
  6
CONTINUOUS
 10
10.9376923427
 20
9.2676695021
 40
1.5
100
AcDbArc
 50
227.5729673449
 51
229.5619574874
  0
ARC
  5
767
100
AcDbEntity
  8
0
100
AcDbCircle
 62
7
  6
CONTINUOUS
 10
10.9376923427
 20
9.2676695021
 40
1.5
100
AcDbArc
 50
230.4380303066
 51
232.4270326551
  0
ARC
  5
768
100
AcDbEntity
  8
0
100
AcDbCircle
 62
7
  6
CONTINUOUS
 10
10.9376923427
 20
9.2676695021
 40
1.5
100
AcDbArc
 50
232.4454107861
 51
234.4270326551
  0
ARC
  5
769
100
AcDbEntity
  8
0
100
AcDbCircle
 62
7
  6
CONTINUOUS
 10
10.9376923427
 20
9.2676695021
 40
1.5
100
AcDbArc
 50
234.4483390846
 51
235.5516872831
  0
ARC
  5
76A
100
AcDbEntity
  8
0
100
AcDbCircle
 62
7
  6
CONTINUOUS
 10
10.9376923427
 20
9.2676695021
 40
1.5
100
AcDbArc
 50
235.5729673449
 51
237.5545914005
  0
ARC
  5
76B
100
AcDbEntity
  8
0
100
AcDbCircle
 62
7
  6
CONTINUOUS
 10
10.9376923427
 20
9.2676695021
 40
1.5
100
AcDbArc
 50
237.5729673449
 51
239.5619432173
  0
ARC
  5
76C
100
AcDbEntity
  8
0
100
AcDbCircle
 62
7
  6
CONTINUOUS
 10
10.9376923427
 20
9.2676695021
 40
1.5
100
AcDbArc
 50
240.4380207391
 51
242.4270326551
  0
ARC
  5
76D
100
AcDbEntity
  8
0
100
AcDbCircle
 62
7
  6
CONTINUOUS
 10
10.9376923427
 20
9.2676695021
 40
1.5
100
AcDbArc
 50
242.4454428263
 51
244.4270326551
  0
ARC
  5
76E
100
AcDbEntity
  8
0
100
AcDbCircle
 62
7
  6
CONTINUOUS
 10
10.9376923427
 20
9.2676695021
 40
1.5
100
AcDbArc
 50
244.4483621525
 51
245.5516884241
  0
ARC
  5
76F
100
AcDbEntity
  8
0
100
AcDbCircle
 62
7
  6
CONTINUOUS
 10
10.9376923427
 20
9.2676695021
 40
1.5
100
AcDbArc
 50
245.5729673449
 51
247.5545669853
  0
ARC
  5
770
100
AcDbEntity
  8
0
100
AcDbCircle
 62
7
  6
CONTINUOUS
 10
10.9376923427
 20
9.2676695021
 40
1.5
100
AcDbArc
 50
247.5729673449
 51
249.5619363135
  0
ARC
  5
771
100
AcDbEntity
  8
0
100
AcDbCircle
 62
7
  6
CONTINUOUS
 10
10.9376923427
 20
9.2676695021
 40
1.5
100
AcDbArc
 50
250.4380193113
 51
252.4270326551
  0
ARC
  5
772
100
AcDbEntity
  8
0
100
AcDbCircle
 62
7
  6
CONTINUOUS
 10
10.9376923427
 20
9.2676695021
 40
1.5
100
AcDbArc
 50
252.445467682
 51
254.4270326551
  0
ARC
  5
773
100
AcDbEntity
  8
0
100
AcDbCircle
 62
7
  6
CONTINUOUS
 10
10.9376923427
 20
9.2676695021
 40
1.5
100
AcDbArc
 50
254.4483724686
 51
255.5516790359
  0
ARC
  5
774
100
AcDbEntity
  8
0
100
AcDbCircle
 62
7
  6
CONTINUOUS
 10
10.9376923427
 20
9.2676695021
 40
1.5
100
AcDbArc
 50
255.5729673449
 51
257.5545442875
  0
ARC
  5
775
100
AcDbEntity
  8
0
100
AcDbCircle
 62
7
  6
CONTINUOUS
 10
10.9376923427
 20
9.2676695021
 40
1.5
100
AcDbArc
 50
257.5729673449
 51
259.5619406824
  0
ARC
  5
776
100
AcDbEntity
  8
0
100
AcDbCircle
 62
7
  6
CONTINUOUS
 10
10.9376923427
 20
9.2676695021
 40
1.5
100
AcDbArc
 50
260.4380272508
 51
262.4270326551
  0
ARC
  5
777
100
AcDbEntity
  8
0
100
AcDbCircle
 62
7
  6
CONTINUOUS
 10
10.9376923427
 20
9.2676695021
 40
1.5
100
AcDbArc
 50
262.4454772151
 51
264.4270326551
  0
ARC
  5
778
100
AcDbEntity
  8
0
100
AcDbCircle
 62
7
  6
CONTINUOUS
 10
10.9376923427
 20
9.2676695021
 40
1.5
100
AcDbArc
 50
264.4483640524
 51
265.5516581951
  0
ARC
  5
779
100
AcDbEntity
  8
0
100
AcDbCircle
 62
7
  6
CONTINUOUS
 10
10.9376923427
 20
9.2676695021
 40
1.5
100
AcDbArc
 50
265.5729673449
 51
267.5545281643
  0
ARC
  5
77A
100
AcDbEntity
  8
0
100
AcDbCircle
 62
7
  6
CONTINUOUS
 10
10.9376923427
 20
9.2676695021
 40
1.5
100
AcDbArc
 50
267.5729673449
 51
269.5619561183
  0
ARC
  5
77B
100
AcDbEntity
  8
0
100
AcDbCircle
 62
7
  6
CONTINUOUS
 10
10.9376923427
 20
9.2676695021
 40
1.5
100
AcDbArc
 50
270.4380438817
 51
272.4270326551
  0
ARC
  5
77C
100
AcDbEntity
  8
0
100
AcDbCircle
 62
7
  6
CONTINUOUS
 10
10.9376923427
 20
9.2676695021
 40
1.5
100
AcDbArc
 50
272.4454718357
 51
274.4270326551
  0
ARC
  5
77D
100
AcDbEntity
  8
0
100
AcDbCircle
 62
7
  6
CONTINUOUS
 10
10.9376923427
 20
9.2676695021
 40
1.5
100
AcDbArc
 50
274.4483418049
 51
275.5516359476
  0
ARC
  5
77E
100
AcDbEntity
  8
0
100
AcDbCircle
 62
7
  6
CONTINUOUS
 10
10.9376923427
 20
9.2676695021
 40
1.5
100
AcDbArc
 50
275.5729673449
 51
277.5545227849
  0
ARC
  5
77F
100
AcDbEntity
  8
0
100
AcDbCircle
 62
7
  6
CONTINUOUS
 10
10.9376923427
 20
9.2676695021
 40
1.5
100
AcDbArc
 50
277.5729673449
 51
279.5619727492
  0
ARC
  5
780
100
AcDbEntity
  8
0
100
AcDbCircle
 62
7
  6
CONTINUOUS
 10
10.9376923427
 20
9.2676695021
 40
1.5
100
AcDbArc
 50
280.4380593176
 51
282.4270326551
  0
ARC
  5
781
100
AcDbEntity
  8
0
100
AcDbCircle
 62
7
  6
CONTINUOUS
 10
10.9376923427
 20
9.2676695021
 40
1.5
100
AcDbArc
 50
282.4454557125
 51
284.4270326551
  0
ARC
  5
782
100
AcDbEntity
  8
0
100
AcDbCircle
 62
7
  6
CONTINUOUS
 10
10.9376923427
 20
9.2676695021
 40
1.5
100
AcDbArc
 50
284.4483209641
 51
285.5516275314
  0
ARC
  5
783
100
AcDbEntity
  8
0
100
AcDbCircle
 62
7
  6
CONTINUOUS
 10
10.9376923427
 20
9.2676695021
 40
1.5
100
AcDbArc
 50
285.5729673449
 51
287.554532318
  0
ARC
  5
784
100
AcDbEntity
  8
0
100
AcDbCircle
 62
7
  6
CONTINUOUS
 10
10.9376923427
 20
9.2676695021
 40
1.5
100
AcDbArc
 50
287.5729673449
 51
289.5619806887
  0
ARC
  5
785
100
AcDbEntity
  8
0
100
AcDbCircle
 62
7
  6
CONTINUOUS
 10
10.9376923427
 20
9.2676695021
 40
1.5
100
AcDbArc
 50
290.4380636865
 51
292.4270326551
  0
ARC
  5
786
100
AcDbEntity
  8
0
100
AcDbCircle
 62
7
  6
CONTINUOUS
 10
10.9376923427
 20
9.2676695021
 40
1.5
100
AcDbArc
 50
292.4454330147
 51
294.4270326551
  0
ARC
  5
787
100
AcDbEntity
  8
0
100
AcDbCircle
 62
7
  6
CONTINUOUS
 10
10.9376923427
 20
9.2676695021
 40
1.5
100
AcDbArc
 50
294.4483115759
 51
295.5516378475
  0
ARC
  5
788
100
AcDbEntity
  8
0
100
AcDbCircle
 62
7
  6
CONTINUOUS
 10
10.9376923427
 20
9.2676695021
 40
1.5
100
AcDbArc
 50
295.5729673449
 51
297.5545571737
  0
ARC
  5
789
100
AcDbEntity
  8
0
100
AcDbCircle
 62
7
  6
CONTINUOUS
 10
10.9376923427
 20
9.2676695021
 40
1.5
100
AcDbArc
 50
297.5729673449
 51
299.5619792609
  0
ARC
  5
78A
100
AcDbEntity
  8
0
100
AcDbCircle
 62
7
  6
CONTINUOUS
 10
10.9376923427
 20
9.2676695021
 40
1.5
100
AcDbArc
 50
300.4380567827
 51
302.4270326551
  0
ARC
  5
78B
100
AcDbEntity
  8
0
100
AcDbCircle
 62
7
  6
CONTINUOUS
 10
10.9376923427
 20
9.2676695021
 40
1.5
100
AcDbArc
 50
302.4454085995
 51
304.4270326551
  0
ARC
  5
78C
100
AcDbEntity
  8
0
100
AcDbCircle
 62
7
  6
CONTINUOUS
 10
10.9376923427
 20
9.2676695021
 40
1.5
100
AcDbArc
 50
304.4483127169
 51
305.5516609154
  0
ARC
  5
78D
100
AcDbEntity
  8
0
100
AcDbCircle
 62
7
  6
CONTINUOUS
 10
10.9376923427
 20
9.2676695021
 40
1.5
100
AcDbArc
 50
305.5729673449
 51
307.5545892139
  0
ARC
  5
78E
100
AcDbEntity
  8
0
100
AcDbCircle
 62
7
  6
CONTINUOUS
 10
10.9376923427
 20
9.2676695021
 40
1.5
100
AcDbArc
 50
307.5729673449
 51
309.5619696934
  0
ARC
  5
78F
100
AcDbEntity
  8
0
100
AcDbCircle
 62
7
  6
CONTINUOUS
 10
10.9376923427
 20
9.2676695021
 40
1.5
100
AcDbArc
 50
310.4380425126
 51
312.4270326551
  0
ARC
  5
790
100
AcDbEntity
  8
0
100
AcDbCircle
 62
7
  6
CONTINUOUS
 10
10.9376923427
 20
9.2676695021
 40
1.5
100
AcDbArc
 50
312.4453989355
 51
314.4270326551
  0
ARC
  5
791
100
AcDbEntity
  8
0
100
AcDbCircle
 62
7
  6
CONTINUOUS
 10
10.9376923427
 20
9.2676695021
 40
1.5
100
AcDbArc
 50
314.448322036
 51
315.551677964
  0
ARC
  5
792
100
AcDbEntity
  8
0
100
AcDbCircle
 62
7
  6
CONTINUOUS
 10
10.9376923427
 20
9.2676695021
 40
1.5
100
AcDbArc
 50
315.5729673449
 51
317.5546010645
  0
ARC
  5
793
100
AcDbEntity
  8
0
100
AcDbCircle
 62
7
  6
CONTINUOUS
 10
10.9376923427
 20
9.2676695021
 40
1.5
100
AcDbArc
 50
317.5729673449
 51
319.5619574874
  0
ARC
  5
794
100
AcDbEntity
  8
0
100
AcDbCircle
 62
7
  6
CONTINUOUS
 10
10.9376923427
 20
9.2676695021
 40
1.5
100
AcDbArc
 50
320.4380303066
 51
322.4270326551
  0
ARC
  5
795
100
AcDbEntity
  8
0
100
AcDbCircle
 62
7
  6
CONTINUOUS
 10
10.9376923427
 20
9.2676695021
 40
1.5
100
AcDbArc
 50
322.4454107861
 51
324.4270326551
  0
ARC
  5
796
100
AcDbEntity
  8
0
100
AcDbCircle
 62
7
  6
CONTINUOUS
 10
10.9376923427
 20
9.2676695021
 40
1.5
100
AcDbArc
 50
324.4483390846
 51
325.5516872831
  0
ARC
  5
797
100
AcDbEntity
  8
0
100
AcDbCircle
 62
7
  6
CONTINUOUS
 10
10.9376923427
 20
9.2676695021
 40
1.5
100
AcDbArc
 50
325.5729673449
 51
327.5545914005
  0
ARC
  5
798
100
AcDbEntity
  8
0
100
AcDbCircle
 62
7
  6
CONTINUOUS
 10
10.9376923427
 20
9.2676695021
 40
1.5
100
AcDbArc
 50
327.5729673449
 51
329.5619432173
  0
ARC
  5
799
100
AcDbEntity
  8
0
100
AcDbCircle
 62
7
  6
CONTINUOUS
 10
10.9376923427
 20
9.2676695021
 40
1.5
100
AcDbArc
 50
330.4380207391
 51
332.4270326551
  0
ARC
  5
79A
100
AcDbEntity
  8
0
100
AcDbCircle
 62
7
  6
CONTINUOUS
 10
10.9376923427
 20
9.2676695021
 40
1.5
100
AcDbArc
 50
332.4454428263
 51
334.4270326551
  0
ARC
  5
79B
100
AcDbEntity
  8
0
100
AcDbCircle
 62
7
  6
CONTINUOUS
 10
10.9376923427
 20
9.2676695021
 40
1.5
100
AcDbArc
 50
334.4483621525
 51
335.3650307579
  0
ARC
  5
79C
100
AcDbEntity
  8
0
100
AcDbCircle
 62
9
  6
CONTINUOUS
 10
-10.0623076573
 20
9.2676695021
 40
1.425
100
AcDbArc
 50
26.0253173646
 51
333.9746826354
  0
ARC
  5
79D
100
AcDbEntity
  8
0
100
AcDbCircle
 62
9
  6
CONTINUOUS
 10
10.9376923427
 20
9.2676695021
 40
1.425
100
AcDbArc
 50
206.0253173646
 51
333.9746826354
  0
ARC
  5
79E
100
AcDbEntity
  8
0
100
AcDbCircle
 62
9
  6
CONTINUOUS
 10
10.9376923427
 20
9.2676695021
 40
1.425
100
AcDbArc
 50
26.0253173646
 51
153.9746826354
  0
ARC
  5
79F
100
AcDbEntity
  8
0
100
AcDbCircle
 62
9
  6
CONTINUOUS
 10
31.9376923427
 20
9.2676695021
 40
1.425
100
AcDbArc
 50
206.0253173646
 51
153.9746826354
  0
ARC
  5
7A0
100
AcDbEntity
  8
0
100
AcDbCircle
 62
9
  6
CONTINUOUS
 10
-10.0623076573
 20
9.2676695021
 40
1.3263986703
100
AcDbArc
 50
28.1184677581
 51
331.8815322419
  0
ARC
  5
7A1
100
AcDbEntity
  8
0
100
AcDbCircle
 62
9
  6
CONTINUOUS
 10
31.9376923427
 20
9.2676695021
 40
1.3263986703
100
AcDbArc
 50
208.1184677581
 51
151.8815322419
  0
ARC
  5
7A2
100
AcDbEntity
  8
0
100
AcDbCircle
 62
9
  6
CONTINUOUS
 10
10.9376923427
 20
9.2676695021
 40
1.3263986703
100
AcDbArc
 50
28.1184677581
 51
151.8815322419
  0
ARC
  5
7A3
100
AcDbEntity
  8
0
100
AcDbCircle
 62
9
  6
CONTINUOUS
 10
10.9376923427
 20
9.2676695021
 40
1.3263986703
100
AcDbArc
 50
208.1184677581
 51
331.8815322419
  0
ARC
  5
7A4
100
AcDbEntity
  8
0
100
AcDbCircle
 62
9
  6
CONTINUOUS
 10
-10.0623076573
 20
9.2676695021
 40
1.3066784043
100
AcDbArc
 50
28.5862668779
 51
331.4137331228
  0
ARC
  5
7A5
100
AcDbEntity
  8
0
100
AcDbCircle
 62
9
  6
CONTINUOUS
 10
31.9376923427
 20
9.2676695021
 40
1.3066784043
100
AcDbArc
 50
208.5862668779
 51
151.4137331228
  0
ARC
  5
7A6
100
AcDbEntity
  8
0
100
AcDbCircle
 62
9
  6
CONTINUOUS
 10
10.9376923427
 20
9.2676695021
 40
1.3066784043
100
AcDbArc
 50
208.5862668779
 51
331.4137331228
  0
ARC
  5
7A7
100
AcDbEntity
  8
0
100
AcDbCircle
 62
9
  6
CONTINUOUS
 10
10.9376923427
 20
9.2676695021
 40
1.3066784043
100
AcDbArc
 50
28.5862668779
 51
151.4137331228
  0
ARC
  5
7A8
100
AcDbEntity
  8
0
100
AcDbCircle
 62
9
  6
CONTINUOUS
 10
-10.0623076573
 20
9.2676695021
 40
1.275
100
AcDbArc
 50
29.3681643831
 51
330.6318356169
  0
ARC
  5
7A9
100
AcDbEntity
  8
0
100
AcDbCircle
 62
9
  6
CONTINUOUS
 10
31.9376923427
 20
9.2676695021
 40
1.275
100
AcDbArc
 50
209.3681643831
 51
150.6318356169
  0
ARC
  5
7AA
100
AcDbEntity
  8
0
100
AcDbCircle
 62
9
  6
CONTINUOUS
 10
10.9376923427
 20
9.2676695021
 40
1.275
100
AcDbArc
 50
29.3681643831
 51
150.631835617
  0
ARC
  5
7AB
100
AcDbEntity
  8
0
100
AcDbCircle
 62
9
  6
CONTINUOUS
 10
10.9376923427
 20
9.2676695021
 40
1.275
100
AcDbArc
 50
209.3681643831
 51
330.6318356169
  0
ARC
  5
7AC
100
AcDbEntity
  8
0
100
AcDbCircle
 62
9
  6
CONTINUOUS
 10
-10.0623076573
 20
9.2676695021
 40
1.1763986703
100
AcDbArc
 50
32.0981340266
 51
327.9018659734
  0
ARC
  5
7AD
100
AcDbEntity
  8
0
100
AcDbCircle
 62
9
  6
CONTINUOUS
 10
31.9376923427
 20
9.2676695021
 40
1.1763986703
100
AcDbArc
 50
212.0981340266
 51
147.9018659734
  0
ARC
  5
7AE
100
AcDbEntity
  8
0
100
AcDbCircle
 62
9
  6
CONTINUOUS
 10
10.9376923427
 20
9.2676695021
 40
1.1763986703
100
AcDbArc
 50
32.0981340266
 51
147.9018659734
  0
ARC
  5
7AF
100
AcDbEntity
  8
0
100
AcDbCircle
 62
9
  6
CONTINUOUS
 10
10.9376923427
 20
9.2676695021
 40
1.1763986703
100
AcDbArc
 50
212.0981340266
 51
327.9018659734
  0
ARC
  5
7B0
100
AcDbEntity
  8
0
100
AcDbCircle
 62
9
  6
CONTINUOUS
 10
-10.0623076573
 20
9.2676695021
 40
1.1566784043
100
AcDbArc
 50
32.7129349814
 51
327.2870650186
  0
ARC
  5
7B1
100
AcDbEntity
  8
0
100
AcDbCircle
 62
9
  6
CONTINUOUS
 10
31.9376923427
 20
9.2676695021
 40
1.1566784043
100
AcDbArc
 50
212.7129349814
 51
147.2870650186
  0
ARC
  5
7B2
100
AcDbEntity
  8
0
100
AcDbCircle
 62
9
  6
CONTINUOUS
 10
10.9376923427
 20
9.2676695021
 40
1.1566784043
100
AcDbArc
 50
32.7129349814
 51
147.2870650186
  0
ARC
  5
7B3
100
AcDbEntity
  8
0
100
AcDbCircle
 62
9
  6
CONTINUOUS
 10
10.9376923427
 20
9.2676695021
 40
1.1566784043
100
AcDbArc
 50
212.7129349814
 51
327.2870650186
  0
ARC
  5
7B4
100
AcDbEntity
  8
0
100
AcDbCircle
 62
7
  6
CONTINUOUS
 10
31.9376923427
 20
9.2676695021
 40
0.875
100
AcDbArc
 50
225.6907249491
 51
134.3092750457
  0
ARC
  5
7B5
100
AcDbEntity
  8
0
100
AcDbCircle
 62
7
  6
CONTINUOUS
 10
10.9376923427
 20
9.2676695021
 40
0.875
100
AcDbArc
 50
225.6061109423
 51
314.3938890539
  0
ARC
  5
7B6
100
AcDbEntity
  8
0
100
AcDbCircle
 62
7
  6
CONTINUOUS
 10
10.9376923427
 20
9.2676695021
 40
0.875
100
AcDbArc
 50
45.6061109423
 51
134.3938890539
  0
ARC
  5
7B7
100
AcDbEntity
  8
0
100
AcDbCircle
 62
7
  6
CONTINUOUS
 10
-10.0623076573
 20
9.2676695021
 40
0.875
100
AcDbArc
 50
45.5956680294
 51
314.4043319727
  0
ARC
  5
7B8
100
AcDbEntity
  8
0
100
AcDbCircle
 62
9
  6
CONTINUOUS
 10
10.9376923427
 20
9.2676695021
 40
0.815
100
AcDbArc
 50
230.0987061414
 51
309.9012938693
  0
ARC
  5
7B9
100
AcDbEntity
  8
0
100
AcDbCircle
 62
9
  6
CONTINUOUS
 10
-10.0623076573
 20
9.2676695021
 40
0.815
100
AcDbArc
 50
50.0986392328
 51
309.9013607598
  0
ARC
  5
7BA
100
AcDbEntity
  8
0
100
AcDbCircle
 62
9
  6
CONTINUOUS
 10
10.9376923427
 20
9.2676695021
 40
0.815
100
AcDbArc
 50
50.0987061414
 51
129.9012938693
  0
ARC
  5
7BB
100
AcDbEntity
  8
0
100
AcDbCircle
 62
9
  6
CONTINUOUS
 10
31.9376923427
 20
9.2676695021
 40
0.815
100
AcDbArc
 50
230.0946256179
 51
129.9053743625
  0
SPLINE
  5
7BC
100
AcDbEntity
  8
0
100
AcDbSpline
 62
7
  6
CONTINUOUS
 70
0
 71
3
 72
31
 73
27
 74
0
 42
0.0000001
 43
0.0000001
 44
0.0000000001
 40
0.0
 40
0.0
 40
0.0
 40
0.0
 40
0.0312547103
 40
0.0625094351
 40
0.0937641461
 40
0.1250188549
 40
0.1875095316
 40
0.2500001844
 40
0.2812548953
 40
0.3125096016
 40
0.3437643147
 40
0.3750190264
 40
0.4375096191
 40
0.5000002034
 40
0.5624907702
 40
0.624981318
 40
0.656236029
 40
0.6874907335
 40
0.7187454328
 40
0.7500001406
 40
0.8124906666
 40
0.8749812674
 40
0.906235904
 40
0.9374901333
 40
0.9687464527
 40
1.0
 40
1.0
 40
1.0
 40
1.0
 10
-10.0592278156
 20
9.8926694565
 30
0.0
 10
-10.069460663
 20
9.8926694568
 30
0.0
 10
-10.0899299328
 20
9.892168576
 30
0.0
 10
-10.1205572754
 20
9.8899159986
 30
0.0
 10
-10.1510391023
 20
9.8861669402
 30
0.0
 10
-10.191378533
 20
9.8791869957
 30
0.0
 10
-10.2410902028
 20
9.8667688206
 30
0.0
 10
-10.2893474355
 20
9.8495436892
 30
0.0
 10
-10.3267885793
 20
9.8329858794
 30
0.0
 10
-10.3542334276
 20
9.819203274
 30
0.0
 10
-10.3809694268
 20
9.8040913292
 30
0.0
 10
-10.4155784742
 20
9.7822237167
 30
0.0
 10
-10.4567674994
 20
9.7517418052
 30
0.0
 10
-10.5023591556
 20
9.7105029102
 30
0.0
 10
-10.543688467
 20
9.6649931657
 30
0.0
 10
-10.5742497385
 20
9.6238627727
 30
0.0
 10
-10.5961803206
 20
9.5892935577
 30
0.0
 10
-10.6113389346
 20
9.5625839514
 30
0.0
 10
-10.6251668656
 20
9.5351618523
 30
0.0
 10
-10.6417819911
 20
9.4977460909
 30
0.0
 10
-10.6590724223
 20
9.4495117632
 30
0.0
 10
-10.6715416822
 20
9.399812324
 30
0.0
 10
-10.6785521005
 20
9.3594782794
 30
0.0
 10
-10.6823180628
 20
9.328998078
 30
0.0
 10
-10.6845808556
 20
9.2983714053
 30
0.0
 10
-10.6850843366
 20
9.2779019688
 30
0.0
 10
-10.6850843366
 20
9.2676695021
 30
0.0
  0
SPLINE
  5
7BD
100
AcDbEntity
  8
0
100
AcDbSpline
 62
7
  6
CONTINUOUS
 70
0
 71
3
 72
31
 73
27
 74
0
 42
0.0000001
 43
0.0000001
 44
0.0000000001
 40
0.0
 40
0.0
 40
0.0
 40
0.0
 40
0.0312535466
 40
0.0625098648
 40
0.0937640941
 40
0.1250187312
 40
0.1875093316
 40
0.2499998579
 40
0.2812545654
 40
0.3125092651
 40
0.3437639695
 40
0.3750186803
 40
0.4375092284
 40
0.4999997952
 40
0.5624903795
 40
0.6249809722
 40
0.656235684
 40
0.687490397
 40
0.7187451034
 40
0.7499998143
 40
0.8124904671
 40
0.8749811444
 40
0.9062358532
 40
0.9374905644
 40
0.9687452895
 40
1.0
 40
1.0
 40
1.0
 40
1.0
 10
-10.6850843366
 20
9.2676695021
 30
0.0
 10
-10.6850843366
 20
9.2574370358
 30
0.0
 10
-10.6845808557
 20
9.2369675998
 30
0.0
 10
-10.6823180629
 20
9.2063409278
 30
0.0
 10
-10.6785521007
 20
9.1758607266
 30
0.0
 10
-10.6715416826
 20
9.135526682
 30
0.0
 10
-10.6590724228
 20
9.0858272426
 30
0.0
 10
-10.6417819918
 20
9.037592915
 30
0.0
 10
-10.6251668662
 20
9.0001771534
 30
0.0
 10
-10.6113389353
 20
8.9727550543
 30
0.0
 10
-10.5961803214
 20
8.9460454479
 30
0.0
 10
-10.5742497393
 20
8.9114762328
 30
0.0
 10
-10.543688468
 20
8.8703458397
 30
0.0
 10
-10.5023591566
 20
8.8248360951
 30
0.0
 10
-10.4567675004
 20
8.7835971999
 30
0.0
 10
-10.4155784753
 20
8.7531152883
 30
0.0
 10
-10.3809694279
 20
8.7312476758
 30
0.0
 10
-10.3542334288
 20
8.7161357309
 30
0.0
 10
-10.3267885804
 20
8.7023531255
 30
0.0
 10
-10.2893474367
 20
8.6857953155
 30
0.0
 10
-10.2410902038
 20
8.668570184
 30
0.0
 10
-10.1913785338
 20
8.6561520088
 30
0.0
 10
-10.1510391029
 20
8.6491720641
 30
0.0
 10
-10.1205572759
 20
8.6454230057
 30
0.0
 10
-10.089929933
 20
8.6431704283
 30
0.0
 10
-10.069460663
 20
8.6426695474
 30
0.0
 10
-10.0592278156
 20
8.6426695478
 30
0.0
  0
SPLINE
  5
7BE
100
AcDbEntity
  8
0
100
AcDbSpline
 62
7
  6
CONTINUOUS
 70
0
 71
3
 72
31
 73
27
 74
0
 42
0.0000001
 43
0.0000001
 44
0.0000000001
 40
0.0
 40
0.0
 40
0.0
 40
0.0
 40
0.0312535473
 40
0.0625098667
 40
0.093764096
 40
0.1250187326
 40
0.1875093334
 40
0.2499998594
 40
0.2812545672
 40
0.3125092665
 40
0.343763971
 40
0.375018682
 40
0.4375092298
 40
0.4999997966
 40
0.5624903809
 40
0.6249809736
 40
0.6562356853
 40
0.6874903984
 40
0.7187451047
 40
0.7499998156
 40
0.8124904684
 40
0.8749811451
 40
0.9062358539
 40
0.9374905649
 40
0.9687452897
 40
1.0
 40
1.0
 40
1.0
 40
1.0
 10
32.560469022
 20
9.2676695021
 30
0.0
 10
32.560469022
 20
9.2779019688
 30
0.0
 10
32.559965541
 20
9.2983714053
 30
0.0
 10
32.5577027483
 20
9.328998078
 30
0.0
 10
32.553936786
 20
9.3594782794
 30
0.0
 10
32.5469263677
 20
9.399812324
 30
0.0
 10
32.5344571078
 20
9.4495117632
 30
0.0
 10
32.5171666766
 20
9.4977460909
 30
0.0
 10
32.5005515511
 20
9.5351618523
 30
0.0
 10
32.48672362
 20
9.5625839514
 30
0.0
 10
32.4715650061
 20
9.5892935577
 30
0.0
 10
32.449634424
 20
9.6238627727
 30
0.0
 10
32.4190731525
 20
9.6649931657
 30
0.0
 10
32.3777438411
 20
9.7105029102
 30
0.0
 10
32.3321521849
 20
9.7517418052
 30
0.0
 10
32.2909631597
 20
9.7822237167
 30
0.0
 10
32.2563541123
 20
9.8040913292
 30
0.0
 10
32.2296181131
 20
9.819203274
 30
0.0
 10
32.2021732648
 20
9.8329858794
 30
0.0
 10
32.164732121
 20
9.8495436892
 30
0.0
 10
32.1164748882
 20
9.8667688206
 30
0.0
 10
32.0667632184
 20
9.8791869957
 30
0.0
 10
32.0264237878
 20
9.8861669402
 30
0.0
 10
31.9959419609
 20
9.8899159986
 30
0.0
 10
31.9653146183
 20
9.892168576
 30
0.0
 10
31.9448453485
 20
9.8926694568
 30
0.0
 10
31.9346125011
 20
9.8926694565
 30
0.0
  0
SPLINE
  5
7BF
100
AcDbEntity
  8
0
100
AcDbSpline
 62
7
  6
CONTINUOUS
 70
0
 71
3
 72
31
 73
27
 74
0
 42
0.0000001
 43
0.0000001
 44
0.0000000001
 40
0.0
 40
0.0
 40
0.0
 40
0.0
 40
0.0312547105
 40
0.0625094356
 40
0.0937641468
 40
0.1250188556
 40
0.1875095329
 40
0.2500001857
 40
0.2812548966
 40
0.312509603
 40
0.343764316
 40
0.3750190278
 40
0.4375096205
 40
0.5000002048
 40
0.5624907716
 40
0.6249813197
 40
0.6562360305
 40
0.6874907349
 40
0.7187454346
 40
0.7500001421
 40
0.8124906684
 40
0.8749812688
 40
0.9062359059
 40
0.9374901352
 40
0.9687464534
 40
1.0
 40
1.0
 40
1.0
 40
1.0
 10
31.9346125011
 20
8.6426695478
 30
0.0
 10
31.9448453485
 20
8.6426695474
 30
0.0
 10
31.9653146185
 20
8.6431704283
 30
0.0
 10
31.9959419613
 20
8.6454230057
 30
0.0
 10
32.0264237884
 20
8.6491720641
 30
0.0
 10
32.0667632193
 20
8.6561520088
 30
0.0
 10
32.1164748893
 20
8.668570184
 30
0.0
 10
32.1647321222
 20
8.6857953155
 30
0.0
 10
32.2021732659
 20
8.7023531255
 30
0.0
 10
32.2296181143
 20
8.7161357309
 30
0.0
 10
32.2563541134
 20
8.7312476758
 30
0.0
 10
32.2909631608
 20
8.7531152883
 30
0.0
 10
32.3321521859
 20
8.7835971999
 30
0.0
 10
32.3777438421
 20
8.8248360951
 30
0.0
 10
32.4190731534
 20
8.8703458397
 30
0.0
 10
32.4496344248
 20
8.9114762328
 30
0.0
 10
32.4715650069
 20
8.9460454479
 30
0.0
 10
32.4867236207
 20
8.9727550543
 30
0.0
 10
32.5005515517
 20
9.0001771534
 30
0.0
 10
32.5171666773
 20
9.037592915
 30
0.0
 10
32.5344571082
 20
9.0858272426
 30
0.0
 10
32.5469263681
 20
9.135526682
 30
0.0
 10
32.5539367862
 20
9.1758607266
 30
0.0
 10
32.5577027484
 20
9.2063409278
 30
0.0
 10
32.5599655412
 20
9.2369675998
 30
0.0
 10
32.560469022
 20
9.2574370358
 30
0.0
 10
32.560469022
 20
9.2676695021
 30
0.0
  0
ENDSEC
  0
SECTION
  2
OBJECTS
  0
DICTIONARY
  5
C
100
AcDbDictionary
280
0
281
1
  3
ACAD_GROUP
350
D
  3
ACAD_MLINESTYLE
350
17
  3
ACAD_LAYOUT
350
1A
  3
ACAD_PLOTSETTINGS
350
19
  3
ACAD_PLOTSTYLENAME
350
E
  0
DICTIONARY
  5
D
102
{ACAD_REACTORS
330
C
102
}
100
AcDbDictionary
280
0
281
1
  0
ACDBDICTIONARYWDFLT
  5
E
102
{ACAD_REACTORS
330
C
102
}
100
AcDbDictionary
281
1
  3
Normal
350
F
100
AcDbDictionaryWithDefault
340
F
  0
DICTIONARY
  5
17
102
{ACAD_REACTORS
330
C
102
}
100
AcDbDictionary
280
0
281
1
  3
Standard
350
18
  0
DICTIONARY
  5
19
102
{ACAD_REACTORS
330
C
102
}
100
AcDbDictionary
281
1
  0
DICTIONARY
  5
1A
102
{ACAD_REACTORS
330
C
102
}
100
AcDbDictionary
281
1
  3
Model
350
7C0
  3
Layout1
350
7C1
  0
ACDBPLACEHOLDER
  5
F
102
{ACAD_REACTORS
330
E
102
}
  0
MLINESTYLE
  5
18
102
{ACAD_REACTORS
330
17
102
}
100
AcDbMlineStyle
  2
STANDARD
 70
0
  3

 62
256
 51
90.0
 52
90.0
 71
2
 49
0.5
 62
256
  6
BYLAYER
 49
-0.5
 62
256
  6
BYLAYER
  0
LAYOUT
  5
7C0
102
{ACAD_REACTORS
330
1A
102
}
100
AcDbPlotSettings
  1

  2
none_device
  4
ANSI_C_(22.00_x_17.00_Inches)
  6

 40
0.0
 41
0.0
 42
0.0
 43
0.0
 44
558.8
 45
431.8
 46
0.0
 47
0.0
 48
0.0
 49
0.0
140
0.0
141
0.0
142
1.0
143
1.0
 70
1024
 72
0
 73
0
 74
0
  7

 75
0
147
1.0
148
0.0
149
0.0
100
AcDbLayout
  1
Model
 70
0
 71
0
 10
0.0
 20
0.0
 11
22.0
 21
17.0
 12
0.0
 22
0.0
 32
0.0
 14
0.0
 24
0.0
 34
0.0
 15
0.0
 25
0.0
 35
0.0
146
0.0
 13
0.0
 23
0.0
 33
0.0
 16
1.0
 26
0.0
 36
0.0
 17
0.0
 27
1.0
 37
0.0
 76
0
330
205
345
0
346
0
  0
LAYOUT
  5
7C1
102
{ACAD_REACTORS
330
1A
102
}
100
AcDbPlotSettings
  1

  2
none_device
  4
ANSI_C_(22.00_x_17.00_Inches)
  6

 40
0.0
 41
0.0
 42
0.0
 43
0.0
 44
558.8
 45
431.8
 46
0.0
 47
0.0
 48
0.0
 49
0.0
140
0.0
141
0.0
142
1.0
143
1.0
 70
0
 72
0
 73
0
 74
0
  7

 75
0
147
1.0
148
0.0
149
0.0
100
AcDbLayout
  1
Layout1
 70
0
 71
1
 10
0.0
 20
0.0
 11
22.0
 21
17.0
 12
0.0
 22
0.0
 32
0.0
 14
0.0
 24
0.0
 34
0.0
 15
0.0
 25
0.0
 35
0.0
146
0.0
 13
0.0
 23
0.0
 33
0.0
 16
1.0
 26
0.0
 36
0.0
 17
0.0
 27
1.0
 37
0.0
 76
0
330
206
345
0
346
0
  0
ENDSEC
  0
EOF
