999
DXF file: E:\BT Custom\CADOUTPUT\_TOP.dxf
999
Pro/ENGINEER 2018400 by Parametric Technology Corporation
  0
SECTION
  2
HEADER
  9
$ACADVER
  1
AC1018
  9
$DWGCODEPAGE
  3
ANSI_1252
  9
$EXTMAX
 10
22.0
 20
17.0
 30
0.0
  9
$EXTMIN
 10
0.0
 20
0.0
 30
0.0
  9
$LIMMIN
 10
0.0
 20
0.0
  9
$LIMMAX
 10
22.0
 20
17.0
  9
$VIEWCTR
 10
11.0
 20
8.5
  9
$VIEWSIZE
 40
17.0
  9
$CLAYER
  8
0
  9
$LTSCALE
 40
1.21
  9
$CELTYPE
  6
BYLAYER
  9
$DIMSCALE
 40
1.0
  9
$DIMASZ
 40
0.1
  9
$DIMEXO
 40
0.0625
  9
$DIMDLI
 40
0.836
  9
$DIMEXE
 40
0.125
  9
$DIMCEN
 40
0.198
  9
$DIMLFAC
 40
1.0
  9
$DIMBLK
  1
_FILLED
  9
$DIMALT
 70
1
  9
$DIMALTD
 70
2
  9
$DIMALTTD
 70
2
  9
$DIMALTF
 40
25.4
  9
$DIMTXT
 40
0.08
  9
$DIMTOL
 70
1
  9
$DIMLIM
 70
0
  9
$DIMTFAC
 40
1.0
  9
$DIMTP
 40
0.001
  9
$DIMTM
 40
0.001
  9
$DIMGAP
 40
0.09
  9
$DIMDSEP
 70
46
  9
$AUNITS
 70
0
  9
$PDMODE
 70
3
  9
$PDSIZE
 40
0.06
  9
$HANDSEED
  5
514
  9
$TILEMODE
 70
1
  9
$MEASUREMENT
 70
0
  9
$INSUNITS
 70
1
  0
ENDSEC
  0
SECTION
  2
CLASSES
  0
CLASS
  1
ACDBDICTIONARYWDFLT
  2
AcDbDictionaryWithDefault
  3
AutoCAD 2000
 90
0
 91
1
280
0
281
0
  0
CLASS
  1
ACDBPLACEHOLDER
  2
AcDbPlaceHolder
  3
AutoCAD 2000
 90
0
 91
1
280
0
281
0
  0
CLASS
  1
LAYOUT
  2
AcDbLayout
  3
AutoCAD 2000
 90
0
 91
0
280
0
281
0
  0
ENDSEC
  0
SECTION
  2
TABLES
  0
TABLE
  2
VPORT
  5
8
100
AcDbSymbolTable
 70
2
  0
VPORT
  5
1F4
100
AcDbSymbolTableRecord
100
AcDbViewportTableRecord
  2
*ACTIVE
 70
0
 10
0.0
 20
0.0
 11
1.0
 21
1.0
 12
11.0
 22
8.5
 13
0.0
 23
0.0
 14
1.0
 24
1.0
 15
0.0
 25
0.0
 16
0.0
 26
0.0
 36
1.0
 17
0.0
 27
0.0
 37
0.0
 40
17.0
 41
1.2941176471
 42
50.0
 43
0.0
 44
0.0
 50
0.0
 51
0.0
 71
0
 72
100
 73
1
 74
1
 75
0
 76
0
 77
0
 78
0
  0
ENDTAB
  0
TABLE
  2
LTYPE
  5
5
100
AcDbSymbolTable
 70
6
  0
LTYPE
  5
14
100
AcDbSymbolTableRecord
100
AcDbLinetypeTableRecord
  2
BYBLOCK
 70
0
  3

 72
65
 73
0
 40
0.0
  0
LTYPE
  5
15
100
AcDbSymbolTableRecord
100
AcDbLinetypeTableRecord
  2
BYLAYER
 70
0
  3

 72
65
 73
0
 40
0.0
  0
LTYPE
  5
16
100
AcDbSymbolTableRecord
100
AcDbLinetypeTableRecord
  2
CONTINUOUS
 70
64
  3
Solid line
 72
65
 73
0
 40
0.0
  0
LTYPE
  5
1F5
100
AcDbSymbolTableRecord
100
AcDbLinetypeTableRecord
  2
CENTER
 70
64
  3
____ _ ____ _ ____ _ ____ _ ____ _ ____ _ ____
 72
65
 73
4
 40
0.6
 49
0.375
 74
0
 49
-0.075
 74
0
 49
0.075
 74
0
 49
-0.075
 74
0
  0
LTYPE
  5
1F6
100
AcDbSymbolTableRecord
100
AcDbLinetypeTableRecord
  2
HIDDEN
 70
64
  3
- - - - - - - - - - - - - - - - - - - -
 72
65
 73
2
 40
0.2
 49
0.1
 74
0
 49
-0.1
 74
0
  0
LTYPE
  5
1F7
100
AcDbSymbolTableRecord
100
AcDbLinetypeTableRecord
  2
PHANTOM
 70
64
  3
_____ _ _ _____ _ _ _____ _ _ _____
 72
65
 73
6
 40
0.8
 49
0.45
 74
0
 49
-0.05
 74
0
 49
0.1
 74
0
 49
-0.05
 74
0
 49
0.1
 74
0
 49
-0.05
 74
0
  0
LTYPE
  5
1F8
100
AcDbSymbolTableRecord
100
AcDbLinetypeTableRecord
  2
DOT
 70
64
  3
. . . . . . . . . . . . . . . . . . . .
 72
65
 73
2
 40
0.2
 49
0.1
 74
0
 49
-0.1
 74
0
  0
LTYPE
  5
1F9
100
AcDbSymbolTableRecord
100
AcDbLinetypeTableRecord
  2
DASHED
 70
64
  3
- - - - - - - - - - - - - - - - - - - -
 72
65
 73
2
 40
0.2
 49
0.1
 74
0
 49
-0.1
 74
0
  0
ENDTAB
  0
TABLE
  2
LAYER
  5
2
100
AcDbSymbolTable
 70
36
  0
LAYER
  5
10
100
AcDbSymbolTableRecord
100
AcDbLayerTableRecord
  2
0
 70
0
 62
7
  6
CONTINUOUS
370
-3
390
F
  0
LAYER
  5
1FA
100
AcDbSymbolTableRecord
100
AcDbLayerTableRecord
  2
DEFAULT_1
 70
0
 62
7
  6
CENTER
370
-3
390
F
  0
LAYER
  5
1FB
100
AcDbSymbolTableRecord
100
AcDbLayerTableRecord
  2
DEFAULT_2
 70
0
 62
8
  6
HIDDEN
370
-3
390
F
  0
LAYER
  5
1FC
100
AcDbSymbolTableRecord
100
AcDbLayerTableRecord
  2
DEFAULT_3
 70
0
 62
7
  6
PHANTOM
370
-3
390
F
  0
LAYER
  5
1FD
100
AcDbSymbolTableRecord
100
AcDbLayerTableRecord
  2
ALL_FEATURES
 70
0
 62
7
  6
CONTINUOUS
370
-3
390
F
  0
LAYER
  5
1FE
100
AcDbSymbolTableRecord
100
AcDbLayerTableRecord
  2
AXES_FEATURES
 70
0
 62
7
  6
CONTINUOUS
370
-3
390
F
  0
LAYER
  5
1FF
100
AcDbSymbolTableRecord
100
AcDbLayerTableRecord
  2
DIMENSIONS
 70
0
 62
7
  6
CONTINUOUS
370
-3
390
F
  0
ENDTAB
  0
TABLE
  2
STYLE
  5
3
100
AcDbSymbolTable
 70
1
  0
STYLE
  5
11
100
AcDbSymbolTableRecord
100
AcDbTextStyleTableRecord
  2
STANDARD
 70
0
 40
0.0
 41
0.8
 50
0.0
 71
0
 42
0.2
  3
txt
  4

  0
STYLE
  5
200
100
AcDbSymbolTableRecord
100
AcDbTextStyleTableRecord
  2
TEXTSTYLE_1
 70
0
 40
0.0
 41
0.8
 50
0.0
 71
0
 42
0.2
  3
gdt
  4

  0
ENDTAB
  0
TABLE
  2
VIEW
  5
6
100
AcDbSymbolTable
 70
0
  0
ENDTAB
  0
TABLE
  2
UCS
  5
7
100
AcDbSymbolTable
 70
0
  0
ENDTAB
  0
TABLE
  2
APPID
  5
9
100
AcDbSymbolTable
 70
1
  0
APPID
  5
201
100
AcDbSymbolTableRecord
100
AcDbRegAppTableRecord
  2
ACAD
 70
0
  0
ENDTAB
  0
TABLE
  2
BLOCK_RECORD
  5
1
100
AcDbSymbolTable
 70
0
  0
BLOCK_RECORD
  5
202
100
AcDbSymbolTableRecord
100
AcDbBlockTableRecord
  2
*Model_Space
  0
BLOCK_RECORD
  5
203
100
AcDbSymbolTableRecord
100
AcDbBlockTableRecord
  2
*Paper_Space
  0
BLOCK_RECORD
  5
204
100
AcDbSymbolTableRecord
100
AcDbBlockTableRecord
  2
_FILLED
  0
ENDTAB
  0
TABLE
  2
DIMSTYLE
  5
A
100
AcDbSymbolTable
 70
1
100
AcDbDimStyleTable
 71
0
  0
DIMSTYLE
105
205
100
AcDbSymbolTableRecord
100
AcDbDimStyleTableRecord
  2
STANDARD
 70
0
  3

  4

 40
1.0
 41
0.1
 42
0.0625
 43
0.38
 44
0.125
 45
0.0
 46
0.0
 47
0.001
 48
0.001
140
0.08
141
0.09
142
0.0
143
25.4
144
1.0
145
0.0
146
1.0
147
0.09
 71
1.0
 72
0.0
 73
1
 74
1
 75
0
 76
0
 77
0
 78
4
 79
1
170
1
171
2
172
0
173
0
174
0
175
0
176
0
177
0
178
0
270
2
179
3
271
3
272
3
273
2
274
2
275
0
280
0
281
0
282
0
283
1
284
4
285
0
286
0
287
3
288
0
340
11
278
46
341
204
342
204
343
204
344
204
  0
ENDTAB
  0
ENDSEC
  0
SECTION
  2
BLOCKS
  0
BLOCK
  5
20
100
AcDbEntity
  8
0
100
AcDbBlockBegin
  2
*Model_Space
 70
0
 10
0.0
 20
0.0
 30
0.0
  3
*Model_Space
  1

  0
ENDBLK
  5
21
100
AcDbEntity
  8
0
100
AcDbBlockEnd
  0
BLOCK
  5
1C
100
AcDbEntity
  8
0
100
AcDbBlockBegin
  2
*Paper_Space
 70
0
 10
0.0
 20
0.0
 30
0.0
  3
*Paper_Space
  1

  0
ENDBLK
  5
1D
100
AcDbEntity
  8
0
100
AcDbBlockEnd
  0
BLOCK
  5
206
100
AcDbEntity
  8
0
100
AcDbBlockBegin
  2
_FILLED
 70
64
 10
0.0
 20
0.0
  3
_FILLED
  1

  0
SOLID
  5
207
100
AcDbEntity
  8
0
  6
BYBLOCK
 62
0
100
AcDbTrace
 10
0.0
 20
0.0
 11
-1.0
 21
0.2
 12
-1.0
 22
-0.2
 13
-1.0
 23
-0.2
  0
ENDBLK
  5
208
100
AcDbEntity
  8
0
  6
BYBLOCK
 62
0
100
AcDbBlockEnd
  0
ENDSEC
  0
SECTION
  2
ENTITIES
  0
LINE
  5
209
100
AcDbEntity
  8
0
100
AcDbLine
 62
9
  6
CONTINUOUS
 10
4.0255869659
 20
7.3281238167
 11
4.0257733607
 21
7.3105134378
  0
LINE
  5
20A
100
AcDbEntity
  8
0
100
AcDbLine
 62
7
  6
CONTINUOUS
 10
3.9856053078
 20
6.9192841181
 11
3.9856053078
 21
7.2881207793
  0
LINE
  5
20B
100
AcDbEntity
  8
0
100
AcDbLine
 62
9
  6
CONTINUOUS
 10
4.0268133197
 20
6.8969134225
 11
4.0268134884
 21
6.8792994664
  0
LINE
  5
20C
100
AcDbEntity
  8
0
100
AcDbLine
 62
9
  6
CONTINUOUS
 10
4.0270079528
 20
7.2708639671
 11
4.027007861
 21
6.9365451927
  0
LINE
  5
20D
100
AcDbEntity
  8
0
100
AcDbLine
 62
7
  6
CONTINUOUS
 10
6.2416053078
 20
10.8579575978
 11
6.2656053078
 21
10.8995268172
  0
LINE
  5
20E
100
AcDbEntity
  8
0
100
AcDbLine
 62
7
  6
CONTINUOUS
 10
6.0356053078
 20
8.0035425652
 11
6.0356053078
 21
8.2035425652
  0
LINE
  5
20F
100
AcDbEntity
  8
0
100
AcDbLine
 62
7
  6
CONTINUOUS
 10
6.1106053078
 20
7.9535425652
 11
6.1106053078
 21
8.0035425652
  0
LINE
  5
210
100
AcDbEntity
  8
0
100
AcDbLine
 62
7
  6
CONTINUOUS
 10
6.1106053078
 20
8.2035425652
 11
6.1106053078
 21
8.3035425652
  0
LINE
  5
211
100
AcDbEntity
  8
0
100
AcDbLine
 62
7
  6
CONTINUOUS
 10
6.1856053078
 20
8.3785425652
 11
6.1856053078
 21
8.6684905512
  0
LINE
  5
212
100
AcDbEntity
  8
0
100
AcDbLine
 62
7
  6
CONTINUOUS
 10
6.2416053078
 20
10.6799075899
 11
6.2416053078
 21
10.8579575978
  0
LINE
  5
213
100
AcDbEntity
  8
0
100
AcDbLine
 62
7
  6
CONTINUOUS
 10
6.2856053078
 20
7.8035425652
 11
6.2856053078
 21
7.8535425652
  0
LINE
  5
214
100
AcDbEntity
  8
0
100
AcDbLine
 62
7
  6
CONTINUOUS
 10
6.3114580903
 20
11.0725268206
 11
6.3114580903
 21
11.1675268025
  0
LINE
  5
215
100
AcDbEntity
  8
0
100
AcDbLine
 62
7
  6
CONTINUOUS
 10
6.3256053078
 20
11.0725268172
 11
6.3256053078
 21
10.8995268172
  0
LINE
  5
216
100
AcDbEntity
  8
0
100
AcDbLine
 62
7
  6
CONTINUOUS
 10
6.3381615813
 20
10.7826133877
 11
6.3381615813
 21
10.6558924154
  0
LINE
  5
217
100
AcDbEntity
  8
0
100
AcDbLine
 62
9
  6
CONTINUOUS
 10
10.9456053078
 20
2.6840543762
 11
10.8006053181
 21
2.6840543762
  0
LINE
  5
218
100
AcDbEntity
  8
0
100
AcDbLine
 62
9
  6
CONTINUOUS
 10
8.7256053078
 20
2.6840543762
 11
8.8706052989
 21
2.6840543762
  0
LINE
  5
219
100
AcDbEntity
  8
0
100
AcDbLine
 62
7
  6
CONTINUOUS
 10
6.4356053078
 20
7.7035425652
 11
6.4356053078
 21
7.8035425652
  0
LINE
  5
21A
100
AcDbEntity
  8
0
100
AcDbLine
 62
9
  6
CONTINUOUS
 10
6.4659339467
 20
6.9911711339
 11
6.4659339467
 21
7.2792107342
  0
LINE
  5
21B
100
AcDbEntity
  8
0
100
AcDbLine
 62
9
  6
CONTINUOUS
 10
6.5123151852
 20
6.9167103961
 11
6.5123151852
 21
7.3547504771
  0
LINE
  5
21C
100
AcDbEntity
  8
0
100
AcDbLine
 62
7
  6
CONTINUOUS
 10
6.5231053078
 20
7.3905425652
 11
6.5231053078
 21
7.6835425652
  0
LINE
  5
21D
100
AcDbEntity
  8
0
100
AcDbLine
 62
7
  6
CONTINUOUS
 10
6.5731053078
 20
6.7705425652
 11
6.5731053078
 21
6.8005425652
  0
LINE
  5
21E
100
AcDbEntity
  8
0
100
AcDbLine
 62
7
  6
CONTINUOUS
 10
6.6356053078
 20
7.7035425652
 11
6.6356053078
 21
7.6835425652
  0
LINE
  5
21F
100
AcDbEntity
  8
0
100
AcDbLine
 62
7
  6
CONTINUOUS
 10
6.7390490343
 20
10.4364402467
 11
6.7390490343
 21
10.7826133877
  0
LINE
  5
220
100
AcDbEntity
  8
0
100
AcDbLine
 62
7
  6
CONTINUOUS
 10
6.9321615813
 20
10.7826133877
 11
6.9321615813
 21
10.4364402467
  0
LINE
  5
221
100
AcDbEntity
  8
0
100
AcDbLine
 62
7
  6
CONTINUOUS
 10
7.4056053078
 20
10.3195268172
 11
7.4296053078
 21
10.3610960366
  0
LINE
  5
222
100
AcDbEntity
  8
0
100
AcDbLine
 62
7
  6
CONTINUOUS
 10
6.1856053078
 20
8.3785425652
 11
6.1106053078
 21
8.3035425652
  0
LINE
  5
223
100
AcDbEntity
  8
0
100
AcDbLine
 62
7
  6
CONTINUOUS
 10
7.5871233122
 20
9.1510059907
 11
7.5872466946
 21
9.1310843569
  0
LINE
  5
224
100
AcDbEntity
  8
0
100
AcDbLine
 62
7
  6
CONTINUOUS
 10
7.0356053078
 20
7.7035425652
 11
7.0356053078
 21
7.6835425652
  0
LINE
  5
225
100
AcDbEntity
  8
0
100
AcDbLine
 62
7
  6
CONTINUOUS
 10
7.0981053078
 20
6.7705425652
 11
7.0981053078
 21
6.8005425652
  0
LINE
  5
226
100
AcDbEntity
  8
0
100
AcDbLine
 62
7
  6
CONTINUOUS
 10
7.1481053078
 20
7.3905425652
 11
7.1481053078
 21
7.6835425652
  0
LINE
  5
227
100
AcDbEntity
  8
0
100
AcDbLine
 62
7
  6
CONTINUOUS
 10
7.2356053078
 20
6.895044205
 11
7.2356053078
 21
7.3705425652
  0
LINE
  5
228
100
AcDbEntity
  8
0
100
AcDbLine
 62
7
  6
CONTINUOUS
 10
7.2356053078
 20
7.7035425652
 11
7.2356053078
 21
7.8035425652
  0
LINE
  5
229
100
AcDbEntity
  8
0
100
AcDbLine
 62
7
  6
CONTINUOUS
 10
7.2456053078
 20
10.3145661873
 11
7.2456053078
 21
10.3195268172
  0
LINE
  5
22A
100
AcDbEntity
  8
0
100
AcDbLine
 62
7
  6
CONTINUOUS
 10
7.3330490343
 20
10.4364402467
 11
7.3330490343
 21
10.7826133877
  0
LINE
  5
22B
100
AcDbEntity
  8
0
100
AcDbLine
 62
7
  6
CONTINUOUS
 10
7.3456053078
 20
11.0725268172
 11
7.3456053078
 21
10.8995268172
  0
LINE
  5
22C
100
AcDbEntity
  8
0
100
AcDbLine
 62
7
  6
CONTINUOUS
 10
7.3590172381
 20
11.0725268206
 11
7.3590172381
 21
11.1675268025
  0
LINE
  5
22D
100
AcDbEntity
  8
0
100
AcDbLine
 62
7
  6
CONTINUOUS
 10
7.3856053078
 20
7.8035425652
 11
7.3856053078
 21
7.8535425652
  0
LINE
  5
22E
100
AcDbEntity
  8
0
100
AcDbLine
 62
7
  6
CONTINUOUS
 10
7.4296053078
 20
10.3610960366
 11
7.4296053078
 21
10.8579575978
  0
LINE
  5
22F
100
AcDbEntity
  8
0
100
AcDbLine
 62
7
  6
CONTINUOUS
 10
7.4856053078
 20
8.3785425652
 11
7.4856053078
 21
8.9785425652
  0
LINE
  5
230
100
AcDbEntity
  8
0
100
AcDbLine
 62
9
  6
CONTINUOUS
 10
7.5225322566
 20
9.3440543762
 11
7.5225322566
 21
10.0240543762
  0
LINE
  5
231
100
AcDbEntity
  8
0
100
AcDbLine
 62
7
  6
CONTINUOUS
 10
7.5606053078
 20
7.9535425652
 11
7.5606053078
 21
8.0035425652
  0
LINE
  5
232
100
AcDbEntity
  8
0
100
AcDbLine
 62
7
  6
CONTINUOUS
 10
7.5606053078
 20
8.2035425652
 11
7.5606053078
 21
8.3035425652
  0
LINE
  5
233
100
AcDbEntity
  8
0
100
AcDbLine
 62
7
  6
CONTINUOUS
 10
7.5872466946
 20
10.2370243955
 11
7.5871233122
 21
10.2171027618
  0
LWPOLYLINE
  5
234
100
AcDbEntity
  8
0
100
AcDbPolyline
 62
7
  6
CONTINUOUS
 90
12
 70
0
 10
7.3602374192
 20
11.1675267772
 10
7.3617240281
 20
11.3002044961
 10
7.3574948008
 20
11.4695191977
 10
7.3473449608
 20
11.6168647641
 10
7.3319653448
 20
11.7415137531
 10
7.3107059112
 20
11.8485795353
 10
7.2789483738
 20
11.9506026894
 10
7.2273719984
 20
12.0556189947
 10
7.1499818015
 20
12.1556739861
 10
7.0420500862
 20
12.2422806727
 10
6.902812736
 20
12.3028297611
 10
6.7591776668
 20
12.3223079765
  0
LINE
  5
235
100
AcDbEntity
  8
0
100
AcDbLine
 62
7
  6
CONTINUOUS
 10
7.6401999685
 20
9.2484874
 11
7.605283224
 21
9.2040454695
  0
LINE
  5
236
100
AcDbEntity
  8
0
100
AcDbLine
 62
9
  6
CONTINUOUS
 10
7.7065140514
 20
9.2806412925
 11
7.6715973069
 21
9.236199362
  0
LINE
  5
237
100
AcDbEntity
  8
0
100
AcDbLine
 62
9
  6
CONTINUOUS
 10
7.8267441098
 20
9.1515324185
 11
7.8616608543
 21
9.195974349
  0
LINE
  5
238
100
AcDbEntity
  8
0
100
AcDbLine
 62
9
  6
CONTINUOUS
 10
7.8617842367
 20
9.1760527152
 11
7.8268674922
 21
9.1316107847
  0
LINE
  5
239
100
AcDbEntity
  8
0
100
AcDbLine
 62
7
  6
CONTINUOUS
 10
7.8438297505
 20
9.1235396642
 11
7.808913006
 21
9.0790977337
  0
LINE
  5
23A
100
AcDbEntity
  8
0
100
AcDbLine
 62
9
  6
CONTINUOUS
 10
7.7414267904
 20
9.236199362
 11
7.7634870063
 21
9.2641165488
  0
LWPOLYLINE
  5
23B
100
AcDbEntity
  8
0
100
AcDbPolyline
 62
7
  6
CONTINUOUS
 90
10
 70
0
 10
6.2769215333
 20
11.5985186256
 10
6.2759537717
 20
11.6020800915
 10
6.2779030382
 20
11.5925914346
 10
6.2825915072
 20
11.5640016468
 10
6.2884030728
 20
11.5185470305
 10
6.2944342166
 20
11.458125222
 10
6.3000671813
 20
11.3857626108
 10
6.3049249785
 20
11.3041181284
 10
6.3087269493
 20
11.2159660311
 10
6.3102379069
 20
11.1675268064
  0
LINE
  5
23C
100
AcDbEntity
  8
0
100
AcDbLine
 62
9
  6
CONTINUOUS
 10
7.6662156146
 20
9.1440151931
 11
7.666338997
 21
9.1240935594
  0
LINE
  5
23D
100
AcDbEntity
  8
0
100
AcDbLine
 62
9
  6
CONTINUOUS
 10
7.7361684805
 20
9.1240935594
 11
7.7360450981
 21
9.1440151931
  0
LINE
  5
23E
100
AcDbEntity
  8
0
100
AcDbLine
 62
9
  6
CONTINUOUS
 10
7.8267441098
 20
9.1515324185
 11
7.8268674922
 21
9.1316107847
  0
LINE
  5
23F
100
AcDbEntity
  8
0
100
AcDbLine
 62
7
  6
CONTINUOUS
 10
7.6356053078
 20
8.0035425652
 11
7.6356053078
 21
8.2035425652
  0
LINE
  5
240
100
AcDbEntity
  8
0
100
AcDbLine
 62
9
  6
CONTINUOUS
 10
7.7635943596
 20
9.264089533
 11
7.7635943596
 21
10.1040192212
  0
LINE
  5
241
100
AcDbEntity
  8
0
100
AcDbLine
 62
9
  6
CONTINUOUS
 10
7.7980318028
 20
10.1132573973
 11
7.7980318028
 21
9.2548513552
  0
LINE
  5
242
100
AcDbEntity
  8
0
100
AcDbLine
 62
7
  6
CONTINUOUS
 10
7.8480318028
 20
9.2340543762
 11
7.8480318028
 21
10.1340543762
  0
LINE
  5
243
100
AcDbEntity
  8
0
100
AcDbLine
 62
9
  6
CONTINUOUS
 10
7.666338997
 20
10.2440151931
 11
7.6662156146
 21
10.2240935594
  0
LINE
  5
244
100
AcDbEntity
  8
0
100
AcDbLine
 62
9
  6
CONTINUOUS
 10
7.7360450981
 20
10.2240935594
 11
7.7361684805
 21
10.2440151931
  0
LINE
  5
245
100
AcDbEntity
  8
0
100
AcDbLine
 62
9
  6
CONTINUOUS
 10
7.8268674922
 20
10.2364979677
 11
7.8267441098
 21
10.216576334
  0
LINE
  5
246
100
AcDbEntity
  8
0
100
AcDbLine
 62
7
  6
CONTINUOUS
 10
9.4067231591
 20
10.2727381684
 11
9.4068101655
 21
10.2728015944
  0
LWPOLYLINE
  5
247
100
AcDbEntity
  8
0
100
AcDbPolyline
 62
7
  6
CONTINUOUS
 90
4
 70
0
 10
9.4073116086
 20
10.2731678384
 10
9.3979463756
 20
10.2673845281
 10
9.3604375511
 20
10.2528128852
 10
9.3334601438
 20
10.2476254032
  0
LINE
  5
248
100
AcDbEntity
  8
0
100
AcDbLine
 62
9
  6
CONTINUOUS
 10
8.4784923281
 20
10.2240543762
 11
8.4784923281
 21
9.1440543762
  0
LINE
  5
249
100
AcDbEntity
  8
0
100
AcDbLine
 62
7
  6
CONTINUOUS
 10
9.2856053078
 20
8.905057267
 11
9.2856053078
 21
8.4690937463
  0
LINE
  5
24A
100
AcDbEntity
  8
0
100
AcDbLine
 62
7
  6
CONTINUOUS
 10
9.2856053078
 20
7.6605110692
 11
9.2856053078
 21
8.4305110692
  0
LINE
  5
24B
100
AcDbEntity
  8
0
100
AcDbLine
 62
7
  6
CONTINUOUS
 10
9.3533553078
 20
8.4690937463
 11
9.3533553078
 21
8.4305110692
  0
LINE
  5
24C
100
AcDbEntity
  8
0
100
AcDbLine
 62
9
  6
CONTINUOUS
 10
9.1936669277
 20
8.4522913586
 11
9.1931896544
 21
8.4007389984
  0
LINE
  5
24D
100
AcDbEntity
  8
0
100
AcDbLine
 62
9
  6
CONTINUOUS
 10
8.9204060941
 20
3.573035185
 11
8.9201355426
 21
3.5618053718
  0
LINE
  5
24E
100
AcDbEntity
  8
0
100
AcDbLine
 62
9
  6
CONTINUOUS
 10
8.9414100611
 20
3.9454216359
 11
8.9411295563
 21
3.9338511849
  0
LINE
  5
24F
100
AcDbEntity
  8
0
100
AcDbLine
 62
9
  6
CONTINUOUS
 10
8.8969196387
 20
3.156029295
 11
8.8966625576
 21
3.1458420919
  0
LINE
  5
250
100
AcDbEntity
  8
0
100
AcDbLine
 62
9
  6
CONTINUOUS
 10
8.8706059414
 20
2.6840829801
 11
9.2302902809
 21
9.0582184554
  0
LINE
  5
251
100
AcDbEntity
  8
0
100
AcDbLine
 62
7
  6
CONTINUOUS
 10
9.2286271165
 20
9.0601393892
 11
8.8708053285
 21
2.6912292392
  0
LINE
  5
252
100
AcDbEntity
  8
0
100
AcDbLine
 62
7
  6
CONTINUOUS
 10
7.4856053078
 20
8.3785425652
 11
7.5606053078
 21
8.3035425652
  0
LINE
  5
253
100
AcDbEntity
  8
0
100
AcDbLine
 62
7
  6
CONTINUOUS
 10
9.5206053078
 20
7.5308260298
 11
9.5206053078
 21
7.5005110692
  0
LINE
  5
254
100
AcDbEntity
  8
0
100
AcDbLine
 62
9
  6
CONTINUOUS
 10
9.8356055608
 20
8.7722939103
 11
9.8356062993
 21
9.0089732199
  0
LINE
  5
255
100
AcDbEntity
  8
0
100
AcDbLine
 62
9
  6
CONTINUOUS
 10
9.8356053078
 20
7.5005110692
 11
9.8356053078
 21
2.1965543762
  0
LINE
  5
256
100
AcDbEntity
  8
0
100
AcDbLine
 62
7
  6
CONTINUOUS
 10
7.4856053078
 20
8.9785425652
 11
7.4106053078
 21
9.0535425652
  0
LINE
  5
257
100
AcDbEntity
  8
0
100
AcDbLine
 62
7
  6
CONTINUOUS
 10
7.4296053078
 20
10.8579575978
 11
7.4056053078
 21
10.8995268172
  0
LINE
  5
258
100
AcDbEntity
  8
0
100
AcDbLine
 62
9
  6
CONTINUOUS
 10
10.8006046825
 20
2.6840829469
 11
10.4409205367
 21
9.0582148769
  0
LINE
  5
259
100
AcDbEntity
  8
0
100
AcDbLine
 62
7
  6
CONTINUOUS
 10
10.8004056477
 20
2.691222839
 11
10.5519360405
 21
7.1092193338
  0
LINE
  5
25A
100
AcDbEntity
  8
0
100
AcDbLine
 62
7
  6
CONTINUOUS
 10
10.5519360405
 20
7.1092193338
 11
10.4803919036
 21
8.4008703242
  0
LINE
  5
25B
100
AcDbEntity
  8
0
100
AcDbLine
 62
7
  6
CONTINUOUS
 10
10.4803919036
 20
8.4008703242
 11
10.4425837111
 21
9.0601358389
  0
LINE
  5
25C
100
AcDbEntity
  8
0
100
AcDbLine
 62
7
  6
CONTINUOUS
 10
10.4775410853
 20
8.4523387242
 11
10.477543688
 21
8.4522913586
  0
LINE
  5
25D
100
AcDbEntity
  8
0
100
AcDbLine
 62
9
  6
CONTINUOUS
 10
10.477543688
 20
8.4522913586
 11
10.4780209613
 21
8.4007389984
  0
LINE
  5
25E
100
AcDbEntity
  8
0
100
AcDbLine
 62
7
  6
CONTINUOUS
 10
10.1506053078
 20
7.5308260298
 11
10.1506053078
 21
7.5005110692
  0
LINE
  5
25F
100
AcDbEntity
  8
0
100
AcDbLine
 62
7
  6
CONTINUOUS
 10
10.3178553078
 20
8.4690937463
 11
10.3178553078
 21
8.4305110692
  0
LINE
  5
260
100
AcDbEntity
  8
0
100
AcDbLine
 62
7
  6
CONTINUOUS
 10
10.3856053078
 20
7.6605110692
 11
10.3856053078
 21
8.4305110692
  0
LINE
  5
261
100
AcDbEntity
  8
0
100
AcDbLine
 62
7
  6
CONTINUOUS
 10
10.3856053078
 20
8.4690937463
 11
10.3856053078
 21
8.9050572725
  0
LINE
  5
262
100
AcDbEntity
  8
0
100
AcDbLine
 62
7
  6
CONTINUOUS
 10
12.2416053078
 20
10.8579575978
 11
12.2656053078
 21
10.8995268172
  0
LINE
  5
263
100
AcDbEntity
  8
0
100
AcDbLine
 62
7
  6
CONTINUOUS
 10
11.8273808652
 20
10.2445690883
 11
11.8622976097
 21
10.2890110188
  0
LINE
  5
264
100
AcDbEntity
  8
0
100
AcDbLine
 62
9
  6
CONTINUOUS
 10
11.8443431235
 20
10.2364979677
 11
11.809426379
 21
10.1920560373
  0
LINE
  5
265
100
AcDbEntity
  8
0
100
AcDbLine
 62
9
  6
CONTINUOUS
 10
11.8095497614
 20
10.1721344035
 11
11.8444665058
 21
10.216576334
  0
LINE
  5
266
100
AcDbEntity
  8
0
100
AcDbLine
 62
9
  6
CONTINUOUS
 10
11.9297838252
 20
10.1319093905
 11
11.9103293449
 21
10.1071477847
  0
LINE
  5
267
100
AcDbEntity
  8
0
100
AcDbLine
 62
9
  6
CONTINUOUS
 10
11.9804327409
 20
10.1074964197
 11
11.9996133088
 21
10.1319093905
  0
LINE
  5
268
100
AcDbEntity
  8
0
100
AcDbLine
 62
7
  6
CONTINUOUS
 10
12.0310106472
 20
10.1196213525
 11
12.0659273917
 21
10.164063283
  0
LINE
  5
269
100
AcDbEntity
  8
0
100
AcDbLine
 62
7
  6
CONTINUOUS
 10
6.5731053078
 20
6.7705425652
 11
7.0981053078
 21
6.7705425652
  0
LINE
  5
26A
100
AcDbEntity
  8
0
100
AcDbLine
 62
7
  6
CONTINUOUS
 10
12.5731053078
 20
6.7705425652
 11
13.0981053078
 21
6.7705425652
  0
LINE
  5
26B
100
AcDbEntity
  8
0
100
AcDbLine
 62
9
  6
CONTINUOUS
 10
13.0981053078
 20
6.8005425652
 11
12.5731053078
 21
6.8005425652
  0
LINE
  5
26C
100
AcDbEntity
  8
0
100
AcDbLine
 62
9
  6
CONTINUOUS
 10
7.0981053078
 20
6.8005425652
 11
6.5731053078
 21
6.8005425652
  0
LINE
  5
26D
100
AcDbEntity
  8
0
100
AcDbLine
 62
7
  6
CONTINUOUS
 10
6.5231053078
 20
6.8205425652
 11
7.1481053078
 21
6.8205425652
  0
LINE
  5
26E
100
AcDbEntity
  8
0
100
AcDbLine
 62
7
  6
CONTINUOUS
 10
12.5231053078
 20
6.8205425652
 11
13.1481053078
 21
6.8205425652
  0
LINE
  5
26F
100
AcDbEntity
  8
0
100
AcDbLine
 62
7
  6
CONTINUOUS
 10
7.2356043334
 20
6.8955425652
 11
6.4356060898
 21
6.8955425652
  0
LINE
  5
270
100
AcDbEntity
  8
0
100
AcDbLine
 62
7
  6
CONTINUOUS
 10
12.4356062822
 20
6.8955425652
 11
13.2356045258
 21
6.8955425652
  0
LINE
  5
271
100
AcDbEntity
  8
0
100
AcDbLine
 62
9
  6
CONTINUOUS
 10
3.9856053078
 20
6.9365386241
 11
4.0270079069
 21
6.9365386241
  0
LINE
  5
272
100
AcDbEntity
  8
0
100
AcDbLine
 62
9
  6
CONTINUOUS
 10
15.6442027082
 20
6.9365386241
 11
15.6856053078
 21
6.9365386241
  0
LINE
  5
273
100
AcDbEntity
  8
0
100
AcDbLine
 62
9
  6
CONTINUOUS
 10
7.7634870069
 20
10.1039922034
 11
7.7414267904
 21
10.1319093905
  0
LINE
  5
274
100
AcDbEntity
  8
0
100
AcDbLine
 62
7
  6
CONTINUOUS
 10
7.605283224
 20
10.164063283
 11
7.6401999685
 21
10.1196213525
  0
LINE
  5
275
100
AcDbEntity
  8
0
100
AcDbLine
 62
9
  6
CONTINUOUS
 10
7.6715973069
 20
10.1319093905
 11
7.7065140514
 21
10.08746746
  0
LINE
  5
276
100
AcDbEntity
  8
0
100
AcDbLine
 62
9
  6
CONTINUOUS
 10
7.8267441098
 20
10.216576334
 11
7.8616608543
 21
10.1721344035
  0
LINE
  5
277
100
AcDbEntity
  8
0
100
AcDbLine
 62
9
  6
CONTINUOUS
 10
7.8617842367
 20
10.1920560373
 11
7.8268674922
 21
10.2364979677
  0
LINE
  5
278
100
AcDbEntity
  8
0
100
AcDbLine
 62
7
  6
CONTINUOUS
 10
7.808913006
 20
10.2890110188
 11
7.8438297505
 21
10.2445690883
  0
LINE
  5
279
100
AcDbEntity
  8
0
100
AcDbLine
 62
9
  6
CONTINUOUS
 10
10.7742914768
 20
3.156020378
 11
10.7745479928
 21
3.1458295799
  0
LINE
  5
27A
100
AcDbEntity
  8
0
100
AcDbLine
 62
9
  6
CONTINUOUS
 10
10.7298005546
 20
3.9454216359
 11
10.7300810593
 21
3.9338511849
  0
LINE
  5
27B
100
AcDbEntity
  8
0
100
AcDbLine
 62
9
  6
CONTINUOUS
 10
10.7508045215
 20
3.573035185
 11
10.7510750731
 21
3.5618053718
  0
LINE
  5
27C
100
AcDbEntity
  8
0
100
AcDbLine
 62
9
  6
CONTINUOUS
 10
10.6635712776
 20
9.1440543762
 11
10.6635712776
 21
10.2240543762
  0
LINE
  5
27D
100
AcDbEntity
  8
0
100
AcDbLine
 62
7
  6
CONTINUOUS
 10
12.1856053078
 20
8.9785425652
 11
12.2606053078
 21
9.0535425652
  0
LINE
  5
27E
100
AcDbEntity
  8
0
100
AcDbLine
 62
7
  6
CONTINUOUS
 10
4.729049879
 20
6.899843536
 11
6.3789668239
 21
6.952727669
  0
LINE
  5
27F
100
AcDbEntity
  8
0
100
AcDbLine
 62
7
  6
CONTINUOUS
 10
4.0268134726
 20
6.8793025948
 11
4.729049879
 21
6.899843536
  0
LINE
  5
280
100
AcDbEntity
  8
0
100
AcDbLine
 62
9
  6
CONTINUOUS
 10
6.4174315823
 20
7.0010908282
 11
4.027007861
 21
6.9365451927
  0
LINE
  5
281
100
AcDbEntity
  8
0
100
AcDbLine
 62
7
  6
CONTINUOUS
 10
14.9426238273
 20
7.3260106262
 11
13.2907935375
 21
7.3164187221
  0
LINE
  5
282
100
AcDbEntity
  8
0
100
AcDbLine
 62
7
  6
CONTINUOUS
 10
15.6455906455
 20
7.3281204429
 11
14.9426238273
 21
7.3260106262
  0
LINE
  5
283
100
AcDbEntity
  8
0
100
AcDbLine
 62
9
  6
CONTINUOUS
 10
15.6856053078
 20
7.2708703249
 11
13.2513330598
 21
7.2690493718
  0
LINE
  5
284
100
AcDbEntity
  8
0
100
AcDbLine
 62
7
  6
CONTINUOUS
 10
13.2356054214
 20
7.3705425652
 11
12.4356053078
 21
7.3705425652
  0
LINE
  5
285
100
AcDbEntity
  8
0
100
AcDbLine
 62
7
  6
CONTINUOUS
 10
7.2356053078
 20
7.3705425652
 11
6.4356051943
 21
7.3705425652
  0
LINE
  5
286
100
AcDbEntity
  8
0
100
AcDbLine
 62
9
  6
CONTINUOUS
 10
6.5231053078
 20
7.3905425652
 11
7.1480596424
 21
7.3905425652
  0
LINE
  5
287
100
AcDbEntity
  8
0
100
AcDbLine
 62
9
  6
CONTINUOUS
 10
12.5231053078
 20
7.3905425652
 11
13.1480596424
 21
7.3905425652
  0
LINE
  5
288
100
AcDbEntity
  8
0
100
AcDbLine
 62
7
  6
CONTINUOUS
 10
9.5206090724
 20
7.5005110692
 11
10.1506015433
 21
7.5005110692
  0
LINE
  5
289
100
AcDbEntity
  8
0
100
AcDbLine
 62
9
  6
CONTINUOUS
 10
10.1506053078
 20
7.5308260298
 11
9.5206053078
 21
7.5308260298
  0
LINE
  5
28A
100
AcDbEntity
  8
0
100
AcDbLine
 62
7
  6
CONTINUOUS
 10
9.4706096773
 20
7.5505110692
 11
10.2006009384
 21
7.5505110692
  0
LINE
  5
28B
100
AcDbEntity
  8
0
100
AcDbLine
 62
9
  6
CONTINUOUS
 10
3.9856053078
 20
7.2708703249
 11
6.4198775423
 21
7.2690493726
  0
LWPOLYLINE
  5
28C
100
AcDbEntity
  8
0
100
AcDbPolyline
 62
7
  6
CONTINUOUS
 90
3
 70
0
 10
6.3804170781
 20
7.3164187221
 10
4.7285867883
 20
7.3260106262
 10
4.0256199701
 20
7.3281204429
  0
LINE
  5
28D
100
AcDbEntity
  8
0
100
AcDbLine
 62
9
  6
CONTINUOUS
 10
15.6442027535
 20
6.9365451125
 11
13.2537790242
 21
7.001090829
  0
LWPOLYLINE
  5
28E
100
AcDbEntity
  8
0
100
AcDbPolyline
 62
7
  6
CONTINUOUS
 90
3
 70
0
 10
13.2922437918
 20
6.952727669
 10
14.9421607367
 20
6.899843536
 10
15.6443971431
 20
6.8793025948
  0
LINE
  5
28F
100
AcDbEntity
  8
0
100
AcDbLine
 62
7
  6
CONTINUOUS
 10
11.3160318028
 20
10.0940543762
 11
11.3160318028
 21
9.2740543762
  0
LINE
  5
290
100
AcDbEntity
  8
0
100
AcDbLine
 62
7
  6
CONTINUOUS
 10
11.4160318028
 20
9.2740543762
 11
11.4160318028
 21
10.0940543762
  0
LINE
  5
291
100
AcDbEntity
  8
0
100
AcDbLine
 62
7
  6
CONTINUOUS
 10
13.4056053078
 20
10.3195268172
 11
13.4296053078
 21
10.3610960366
  0
LINE
  5
292
100
AcDbEntity
  8
0
100
AcDbLine
 62
7
  6
CONTINUOUS
 10
12.1856053078
 20
8.3785425652
 11
12.1106053078
 21
8.3035425652
  0
LINE
  5
293
100
AcDbEntity
  8
0
100
AcDbLine
 62
7
  6
CONTINUOUS
 10
9.315685771
 20
7.6305110692
 11
10.3555248446
 21
7.6305110692
  0
LINE
  5
294
100
AcDbEntity
  8
0
100
AcDbLine
 62
9
  6
CONTINUOUS
 10
9.2856053078
 20
7.6605110692
 11
10.3856053078
 21
7.6605110692
  0
LINE
  5
295
100
AcDbEntity
  8
0
100
AcDbLine
 62
7
  6
CONTINUOUS
 10
13.1481053078
 20
7.6835425652
 11
12.5231053078
 21
7.6835425652
  0
LINE
  5
296
100
AcDbEntity
  8
0
100
AcDbLine
 62
7
  6
CONTINUOUS
 10
7.1481053078
 20
7.6835425652
 11
6.5231053078
 21
7.6835425652
  0
LINE
  5
297
100
AcDbEntity
  8
0
100
AcDbLine
 62
7
  6
CONTINUOUS
 10
6.4356587584
 20
7.7035425652
 11
7.2355518573
 21
7.7035425652
  0
LINE
  5
298
100
AcDbEntity
  8
0
100
AcDbLine
 62
7
  6
CONTINUOUS
 10
12.4356587584
 20
7.7035425652
 11
13.2355518573
 21
7.7035425652
  0
LINE
  5
299
100
AcDbEntity
  8
0
100
AcDbLine
 62
7
  6
CONTINUOUS
 10
6.2856788023
 20
7.8035425652
 11
7.3855318133
 21
7.8035425652
  0
LINE
  5
29A
100
AcDbEntity
  8
0
100
AcDbLine
 62
7
  6
CONTINUOUS
 10
12.2856788023
 20
7.8035425652
 11
13.3855318133
 21
7.8035425652
  0
LINE
  5
29B
100
AcDbEntity
  8
0
100
AcDbLine
 62
7
  6
CONTINUOUS
 10
6.2106088895
 20
7.8535425652
 11
7.4606017261
 21
7.8535425652
  0
LINE
  5
29C
100
AcDbEntity
  8
0
100
AcDbLine
 62
7
  6
CONTINUOUS
 10
12.2106088895
 20
7.8535425652
 11
13.4606017261
 21
7.8535425652
  0
LINE
  5
29D
100
AcDbEntity
  8
0
100
AcDbLine
 62
7
  6
CONTINUOUS
 10
6.1106053078
 20
7.9535425652
 11
7.5606053078
 21
7.9535425652
  0
LINE
  5
29E
100
AcDbEntity
  8
0
100
AcDbLine
 62
7
  6
CONTINUOUS
 10
12.1106053078
 20
7.9535425652
 11
13.5606053078
 21
7.9535425652
  0
LINE
  5
29F
100
AcDbEntity
  8
0
100
AcDbLine
 62
7
  6
CONTINUOUS
 10
6.0356098924
 20
8.0035425652
 11
7.6356007233
 21
8.0035425652
  0
LINE
  5
2A0
100
AcDbEntity
  8
0
100
AcDbLine
 62
7
  6
CONTINUOUS
 10
12.0356098924
 20
8.0035425652
 11
13.6356007233
 21
8.0035425652
  0
LINE
  5
2A1
100
AcDbEntity
  8
0
100
AcDbLine
 62
9
  6
CONTINUOUS
 10
11.8444665058
 20
10.216576334
 11
11.8443431235
 21
10.2364979677
  0
LINE
  5
2A2
100
AcDbEntity
  8
0
100
AcDbLine
 62
9
  6
CONTINUOUS
 10
11.9350421351
 20
10.2440151931
 11
11.9351655175
 21
10.2240935594
  0
LINE
  5
2A3
100
AcDbEntity
  8
0
100
AcDbLine
 62
9
  6
CONTINUOUS
 10
12.0049950011
 20
10.2240935594
 11
12.0048716187
 21
10.2440151931
  0
LINE
  5
2A4
100
AcDbEntity
  8
0
100
AcDbLine
 62
7
  6
CONTINUOUS
 10
12.0840873035
 20
10.2171027618
 11
12.0839639211
 21
10.2370243955
  0
LINE
  5
2A5
100
AcDbEntity
  8
0
100
AcDbLine
 62
7
  6
CONTINUOUS
 10
11.8850318028
 20
10.1099588101
 11
11.8850318028
 21
9.2581499424
  0
LINE
  5
2A6
100
AcDbEntity
  8
0
100
AcDbLine
 62
7
  6
CONTINUOUS
 10
11.9850318028
 20
9.260488646
 11
11.9850318028
 21
10.1076201065
  0
LINE
  5
2A7
100
AcDbEntity
  8
0
100
AcDbLine
 62
7
  6
CONTINUOUS
 10
12.0356053078
 20
8.0035425652
 11
12.0356053078
 21
8.2035425652
  0
LINE
  5
2A8
100
AcDbEntity
  8
0
100
AcDbLine
 62
7
  6
CONTINUOUS
 10
12.0450318028
 20
9.316604671
 11
12.0450318028
 21
10.0905332557
  0
LINE
  5
2A9
100
AcDbEntity
  8
0
100
AcDbLine
 62
7
  6
CONTINUOUS
 10
12.0670318028
 20
10.1339942444
 11
12.0670318028
 21
9.2341145081
  0
LINE
  5
2AA
100
AcDbEntity
  8
0
100
AcDbLine
 62
7
  6
CONTINUOUS
 10
12.1106053078
 20
7.9535425652
 11
12.1106053078
 21
8.0035425652
  0
LINE
  5
2AB
100
AcDbEntity
  8
0
100
AcDbLine
 62
7
  6
CONTINUOUS
 10
12.1106053078
 20
8.2035425652
 11
12.1106053078
 21
8.3035425652
  0
LINE
  5
2AC
100
AcDbEntity
  8
0
100
AcDbLine
 62
7
  6
CONTINUOUS
 10
12.1856053078
 20
8.3785425652
 11
12.1856053078
 21
8.9785425652
  0
LINE
  5
2AD
100
AcDbEntity
  8
0
100
AcDbLine
 62
7
  6
CONTINUOUS
 10
12.2416053078
 20
10.3610960366
 11
12.2416053078
 21
10.8579575978
  0
LINE
  5
2AE
100
AcDbEntity
  8
0
100
AcDbLine
 62
7
  6
CONTINUOUS
 10
12.2856053078
 20
7.8035425652
 11
12.2856053078
 21
7.8535425652
  0
LINE
  5
2AF
100
AcDbEntity
  8
0
100
AcDbLine
 62
9
  6
CONTINUOUS
 10
11.8443431235
 20
9.1316107847
 11
11.8444665058
 21
9.1515324185
  0
LINE
  5
2B0
100
AcDbEntity
  8
0
100
AcDbLine
 62
9
  6
CONTINUOUS
 10
11.9351655175
 20
9.1440151931
 11
11.9350421352
 21
9.1240935594
  0
LINE
  5
2B1
100
AcDbEntity
  8
0
100
AcDbLine
 62
9
  6
CONTINUOUS
 10
12.0048716187
 20
9.1240935594
 11
12.0049950011
 21
9.1440151931
  0
LINE
  5
2B2
100
AcDbEntity
  8
0
100
AcDbLine
 62
7
  6
CONTINUOUS
 10
12.0839639211
 20
9.1310843569
 11
12.0840873035
 21
9.1510059907
  0
LINE
  5
2B3
100
AcDbEntity
  8
0
100
AcDbLine
 62
7
  6
CONTINUOUS
 10
13.6356007233
 20
8.2035425652
 11
12.0356098924
 21
8.2035425652
  0
LINE
  5
2B4
100
AcDbEntity
  8
0
100
AcDbLine
 62
7
  6
CONTINUOUS
 10
7.6356007233
 20
8.2035425652
 11
6.0356098924
 21
8.2035425652
  0
LINE
  5
2B5
100
AcDbEntity
  8
0
100
AcDbLine
 62
7
  6
CONTINUOUS
 10
13.5606053078
 20
8.3035425652
 11
12.1106053078
 21
8.3035425652
  0
LINE
  5
2B6
100
AcDbEntity
  8
0
100
AcDbLine
 62
7
  6
CONTINUOUS
 10
7.5606053078
 20
8.3035425652
 11
6.1106053078
 21
8.3035425652
  0
LINE
  5
2B7
100
AcDbEntity
  8
0
100
AcDbLine
 62
7
  6
CONTINUOUS
 10
6.1856053078
 20
8.3785425652
 11
7.4856053078
 21
8.3785425652
  0
LINE
  5
2B8
100
AcDbEntity
  8
0
100
AcDbLine
 62
7
  6
CONTINUOUS
 10
12.1856053078
 20
8.3785425652
 11
13.4856053078
 21
8.3785425652
  0
LINE
  5
2B9
100
AcDbEntity
  8
0
100
AcDbLine
 62
7
  6
CONTINUOUS
 10
10.3855318133
 20
8.4305110692
 11
9.2856788023
 21
8.4305110692
  0
LINE
  5
2BA
100
AcDbEntity
  8
0
100
AcDbLine
 62
7
  6
CONTINUOUS
 10
9.2856788023
 20
8.4690937463
 11
10.3855318133
 21
8.4690937463
  0
LINE
  5
2BB
100
AcDbEntity
  8
0
100
AcDbLine
 62
7
  6
CONTINUOUS
 10
12.3121933776
 20
11.0725268206
 11
12.3121933776
 21
11.1675268025
  0
LINE
  5
2BC
100
AcDbEntity
  8
0
100
AcDbLine
 62
7
  6
CONTINUOUS
 10
12.3256053078
 20
11.0725268172
 11
12.3256053078
 21
10.8995268172
  0
LINE
  5
2BD
100
AcDbEntity
  8
0
100
AcDbLine
 62
7
  6
CONTINUOUS
 10
12.3381615813
 20
10.7826133877
 11
12.3381615813
 21
10.4364402467
  0
LINE
  5
2BE
100
AcDbEntity
  8
0
100
AcDbLine
 62
7
  6
CONTINUOUS
 10
12.4256053078
 20
10.3145661873
 11
12.4256053078
 21
10.3195268172
  0
LINE
  5
2BF
100
AcDbEntity
  8
0
100
AcDbLine
 62
7
  6
CONTINUOUS
 10
12.4356053078
 20
6.895044205
 11
12.4356053078
 21
7.3705425652
  0
LINE
  5
2C0
100
AcDbEntity
  8
0
100
AcDbLine
 62
7
  6
CONTINUOUS
 10
12.4356053078
 20
7.7035425652
 11
12.4356053078
 21
7.8035425652
  0
LINE
  5
2C1
100
AcDbEntity
  8
0
100
AcDbLine
 62
7
  6
CONTINUOUS
 10
12.5231053078
 20
7.3905425652
 11
12.5231053078
 21
7.6835425652
  0
LINE
  5
2C2
100
AcDbEntity
  8
0
100
AcDbLine
 62
7
  6
CONTINUOUS
 10
12.5731053078
 20
6.7705425652
 11
12.5731053078
 21
6.8005425652
  0
LINE
  5
2C3
100
AcDbEntity
  8
0
100
AcDbLine
 62
7
  6
CONTINUOUS
 10
12.6356053078
 20
7.7035425652
 11
12.6356053078
 21
7.6835425652
  0
LINE
  5
2C4
100
AcDbEntity
  8
0
100
AcDbLine
 62
7
  6
CONTINUOUS
 10
12.6870318028
 20
9.2550930919
 11
12.6870318028
 21
10.1130156606
  0
LINE
  5
2C5
100
AcDbEntity
  8
0
100
AcDbLine
 62
7
  6
CONTINUOUS
 10
12.6990318028
 20
9.3065543762
 11
12.6990318028
 21
10.0615543762
  0
LINE
  5
2C6
100
AcDbEntity
  8
0
100
AcDbLine
 62
7
  6
CONTINUOUS
 10
12.7315318028
 20
10.1006592992
 11
12.7315318028
 21
9.2674494533
  0
LINE
  5
2C7
100
AcDbEntity
  8
0
100
AcDbLine
 62
7
  6
CONTINUOUS
 10
12.7365318028
 20
9.2674494527
 11
12.7365318028
 21
10.1006592998
  0
LINE
  5
2C8
100
AcDbEntity
  8
0
100
AcDbLine
 62
7
  6
CONTINUOUS
 10
12.7390490343
 20
10.4364402467
 11
12.7390490343
 21
10.7826133877
  0
LINE
  5
2C9
100
AcDbEntity
  8
0
100
AcDbLine
 62
7
  6
CONTINUOUS
 10
12.7690318028
 20
10.1102410737
 11
12.7690318028
 21
9.2578676788
  0
LINE
  5
2CA
100
AcDbEntity
  8
0
100
AcDbLine
 62
7
  6
CONTINUOUS
 10
11.1198634206
 20
9.2161708303
 11
11.2660532184
 21
9.2340543762
  0
LINE
  5
2CB
100
AcDbEntity
  8
0
100
AcDbLine
 62
7
  6
CONTINUOUS
 10
11.3224464268
 20
9.2409530145
 11
11.7738033752
 21
9.2961679668
  0
LINE
  5
2CC
100
AcDbEntity
  8
0
100
AcDbLine
 62
7
  6
CONTINUOUS
 10
12.0290448311
 20
9.3273919124
 11
12.0449690691
 21
9.3293399406
  0
LINE
  5
2CD
100
AcDbEntity
  8
0
100
AcDbLine
 62
7
  6
CONTINUOUS
 10
13.2297082346
 20
9.2734004484
 11
12.7690318028
 21
9.2578107214
  0
LINE
  5
2CE
100
AcDbEntity
  8
0
100
AcDbLine
 62
7
  6
CONTINUOUS
 10
12.6870318028
 20
9.2550357637
 11
12.0670318028
 21
9.2340543762
  0
LINE
  5
2CF
100
AcDbEntity
  8
0
100
AcDbLine
 62
7
  6
CONTINUOUS
 10
13.4856053078
 20
8.9785425652
 11
12.1856053078
 21
8.9785425652
  0
LINE
  5
2D0
100
AcDbEntity
  8
0
100
AcDbLine
 62
7
  6
CONTINUOUS
 10
7.4856053078
 20
8.9785425652
 11
6.7242436392
 21
8.9785425652
  0
LINE
  5
2D1
100
AcDbEntity
  8
0
100
AcDbLine
 62
7
  6
CONTINUOUS
 10
7.6722450644
 20
9.0466107847
 11
7.7420745479
 21
9.0466107847
  0
LINE
  5
2D2
100
AcDbEntity
  8
0
100
AcDbLine
 62
7
  6
CONTINUOUS
 10
11.9291360677
 20
9.0466107847
 11
11.9989655512
 21
9.0466107847
  0
LINE
  5
2D3
100
AcDbEntity
  8
0
100
AcDbLine
 62
7
  6
CONTINUOUS
 10
13.4106053078
 20
9.0535425652
 11
12.2606053078
 21
9.0535425652
  0
LINE
  5
2D4
100
AcDbEntity
  8
0
100
AcDbLine
 62
7
  6
CONTINUOUS
 10
7.4106053078
 20
9.0535425652
 11
6.7920887408
 21
9.0535425652
  0
LINE
  5
2D5
100
AcDbEntity
  8
0
100
AcDbLine
 62
9
  6
CONTINUOUS
 10
13.3542733427
 20
9.0970383758
 11
12.3447911961
 21
9.0970383736
  0
LINE
  5
2D6
100
AcDbEntity
  8
0
100
AcDbLine
 62
9
  6
CONTINUOUS
 10
7.666338997
 20
9.1240935594
 11
7.7361684805
 21
9.1240935594
  0
LINE
  5
2D7
100
AcDbEntity
  8
0
100
AcDbLine
 62
9
  6
CONTINUOUS
 10
11.9350421352
 20
9.1240935594
 11
12.0048716187
 21
9.1240935594
  0
LINE
  5
2D8
100
AcDbEntity
  8
0
100
AcDbLine
 62
9
  6
CONTINUOUS
 10
12.0049950011
 20
9.1440151931
 11
11.9351655175
 21
9.1440151931
  0
LINE
  5
2D9
100
AcDbEntity
  8
0
100
AcDbLine
 62
9
  6
CONTINUOUS
 10
7.7360450981
 20
9.1440151931
 11
7.6662156146
 21
9.1440151931
  0
LINE
  5
2DA
100
AcDbEntity
  8
0
100
AcDbLine
 62
7
  6
CONTINUOUS
 10
8.4784923281
 20
9.1440543762
 11
10.6635712776
 21
9.1440543762
  0
LINE
  5
2DB
100
AcDbEntity
  8
0
100
AcDbLine
 62
7
  6
CONTINUOUS
 10
11.3113708057
 20
9.2340543762
 11
11.1652951858
 21
9.2340543762
  0
LINE
  5
2DC
100
AcDbEntity
  8
0
100
AcDbLine
 62
7
  6
CONTINUOUS
 10
7.8444038406
 20
9.2340543762
 11
7.8480318028
 21
9.2340543762
  0
LINE
  5
2DD
100
AcDbEntity
  8
0
100
AcDbLine
 62
9
  6
CONTINUOUS
 10
7.6715973069
 20
9.236199362
 11
7.7414267904
 21
9.236199362
  0
LINE
  5
2DE
100
AcDbEntity
  8
0
100
AcDbLine
 62
9
  6
CONTINUOUS
 10
11.9297838252
 20
9.236199362
 11
11.9996133088
 21
9.236199362
  0
LINE
  5
2DF
100
AcDbEntity
  8
0
100
AcDbLine
 62
7
  6
CONTINUOUS
 10
12.7365318028
 20
9.2673937761
 11
12.7315318028
 21
9.2673937761
  0
LINE
  5
2E0
100
AcDbEntity
  8
0
100
AcDbLine
 62
7
  6
CONTINUOUS
 10
11.3160318028
 20
9.2740543762
 11
11.4160318028
 21
9.2740543762
  0
LINE
  5
2E1
100
AcDbEntity
  8
0
100
AcDbLine
 62
9
  6
CONTINUOUS
 10
7.7215259334
 20
9.2806412925
 11
7.7065140514
 21
9.2806412925
  0
LINE
  5
2E2
100
AcDbEntity
  8
0
100
AcDbLine
 62
7
  6
CONTINUOUS
 10
12.6870318028
 20
9.3065543762
 11
12.6990541314
 21
9.3065543762
  0
LINE
  5
2E3
100
AcDbEntity
  8
0
100
AcDbLine
 62
7
  6
CONTINUOUS
 10
12.0534736147
 20
9.316214377
 11
12.0450318028
 21
9.316214377
  0
LINE
  5
2E4
100
AcDbEntity
  8
0
100
AcDbLine
 62
9
  6
CONTINUOUS
 10
7.3264024549
 20
9.0969518221
 11
6.8196130812
 21
9.0970371735
  0
LINE
  5
2E5
100
AcDbEntity
  8
0
100
AcDbLine
 62
7
  6
CONTINUOUS
 10
11.9804327409
 20
9.2606123328
 11
11.9103293449
 21
9.2609609678
  0
LINE
  5
2E6
100
AcDbEntity
  8
0
100
AcDbLine
 62
7
  6
CONTINUOUS
 10
10.2641508883
 20
10.2729867546
 11
10.2638985677
 21
10.2731681574
  0
LINE
  5
2E7
100
AcDbEntity
  8
0
100
AcDbLine
 62
7
  6
CONTINUOUS
 10
10.2643928471
 20
10.2728071318
 11
10.2644885809
 21
10.2727373392
  0
LINE
  5
2E8
100
AcDbEntity
  8
0
100
AcDbLine
 62
7
  6
CONTINUOUS
 10
11.8622976097
 20
9.0790977337
 11
11.8273808652
 21
9.1235396642
  0
LINE
  5
2E9
100
AcDbEntity
  8
0
100
AcDbLine
 62
9
  6
CONTINUOUS
 10
11.8443431235
 20
9.1316107847
 11
11.809426379
 21
9.1760527152
  0
LINE
  5
2EA
100
AcDbEntity
  8
0
100
AcDbLine
 62
9
  6
CONTINUOUS
 10
11.8095497614
 20
9.195974349
 11
11.8444665058
 21
9.1515324185
  0
LINE
  5
2EB
100
AcDbEntity
  8
0
100
AcDbLine
 62
9
  6
CONTINUOUS
 10
11.9103293449
 20
9.2609609678
 11
11.9297838252
 21
9.236199362
  0
LINE
  5
2EC
100
AcDbEntity
  8
0
100
AcDbLine
 62
9
  6
CONTINUOUS
 10
11.9996133088
 20
9.236199362
 11
11.9804327409
 21
9.2606123328
  0
LINE
  5
2ED
100
AcDbEntity
  8
0
100
AcDbLine
 62
7
  6
CONTINUOUS
 10
12.052971925
 20
9.316655445
 11
12.0670318028
 21
9.292383847
  0
LINE
  5
2EE
100
AcDbEntity
  8
0
100
AcDbLine
 62
7
  6
CONTINUOUS
 10
12.9321615813
 20
10.7826133877
 11
12.9321615813
 21
10.4364402467
  0
LINE
  5
2EF
100
AcDbEntity
  8
0
100
AcDbLine
 62
7
  6
CONTINUOUS
 10
12.9990318028
 20
9.4983557767
 11
12.9990318028
 21
9.8697529757
  0
LINE
  5
2F0
100
AcDbEntity
  8
0
100
AcDbLine
 62
7
  6
CONTINUOUS
 10
13.0356053078
 20
7.7035425652
 11
13.0356053078
 21
7.6835425652
  0
LINE
  5
2F1
100
AcDbEntity
  8
0
100
AcDbLine
 62
7
  6
CONTINUOUS
 10
13.0981053078
 20
6.7705425652
 11
13.0981053078
 21
6.8005425652
  0
LINE
  5
2F2
100
AcDbEntity
  8
0
100
AcDbLine
 62
7
  6
CONTINUOUS
 10
13.1481053078
 20
7.3905425652
 11
13.1481053078
 21
7.6835425652
  0
LINE
  5
2F3
100
AcDbEntity
  8
0
100
AcDbLine
 62
9
  6
CONTINUOUS
 10
13.1588952275
 20
7.3547498295
 11
13.1588952275
 21
6.9167104231
  0
LINE
  5
2F4
100
AcDbEntity
  8
0
100
AcDbLine
 62
9
  6
CONTINUOUS
 10
13.205276669
 20
7.2792107141
 11
13.205276669
 21
6.9911711553
  0
LINE
  5
2F5
100
AcDbEntity
  8
0
100
AcDbLine
 62
9
  6
CONTINUOUS
 10
13.2297082346
 20
9.2734004484
 11
13.2297082346
 21
9.5166855849
  0
LINE
  5
2F6
100
AcDbEntity
  8
0
100
AcDbLine
 62
9
  6
CONTINUOUS
 10
13.2297082346
 20
9.8514206821
 11
13.2297082346
 21
10.0947083041
  0
LINE
  5
2F7
100
AcDbEntity
  8
0
100
AcDbLine
 62
7
  6
CONTINUOUS
 10
13.2356053078
 20
7.7035425652
 11
13.2356053078
 21
7.8035425652
  0
LINE
  5
2F8
100
AcDbEntity
  8
0
100
AcDbLine
 62
7
  6
CONTINUOUS
 10
13.2456053078
 20
10.3145661873
 11
13.2456053078
 21
10.3195268172
  0
LINE
  5
2F9
100
AcDbEntity
  8
0
100
AcDbLine
 62
7
  6
CONTINUOUS
 10
13.2490318028
 20
10.0747197464
 11
13.2490318028
 21
9.2933890061
  0
LINE
  5
2FA
100
AcDbEntity
  8
0
100
AcDbLine
 62
7
  6
CONTINUOUS
 10
13.3330490343
 20
10.4364402467
 11
13.3330490343
 21
10.7826133877
  0
LINE
  5
2FB
100
AcDbEntity
  8
0
100
AcDbLine
 62
7
  6
CONTINUOUS
 10
13.3456053078
 20
11.0725268172
 11
13.3456053078
 21
10.8995268172
  0
LINE
  5
2FC
100
AcDbEntity
  8
0
100
AcDbLine
 62
7
  6
CONTINUOUS
 10
13.3597525254
 20
11.0725268206
 11
13.3597525254
 21
11.1675268025
  0
LINE
  5
2FD
100
AcDbEntity
  8
0
100
AcDbLine
 62
7
  6
CONTINUOUS
 10
13.3856053078
 20
7.8035425652
 11
13.3856053078
 21
7.8535425652
  0
LINE
  5
2FE
100
AcDbEntity
  8
0
100
AcDbLine
 62
7
  6
CONTINUOUS
 10
13.4296053078
 20
10.3610960366
 11
13.4296053078
 21
10.8579575978
  0
LWPOLYLINE
  5
2FF
100
AcDbEntity
  8
0
100
AcDbPolyline
 62
7
  6
CONTINUOUS
 90
9
 70
0
 10
13.3609727088
 20
11.1675268064
 10
13.3624835429
 20
11.2159625372
 10
13.3662853384
 20
11.3041122938
 10
13.3711429462
 20
11.3857554751
 10
13.3767757293
 20
11.4581176432
 10
13.3828067242
 20
11.5185397995
 10
13.3886182237
 20
11.5639955831
 10
13.3933068406
 20
11.5925875246
 10
13.3948977738
 20
11.6004954364
  0
LINE
  5
300
100
AcDbEntity
  8
0
100
AcDbLine
 62
9
  6
CONTINUOUS
 10
6.6239848342
 20
9.3440545804
 11
6.6234906308
 21
9.3440528253
  0
LINE
  5
301
100
AcDbEntity
  8
0
100
AcDbLine
 62
7
  6
CONTINUOUS
 10
6.6239848451
 20
9.3440543762
 11
7.5225322566
 21
9.3440543762
  0
LINE
  5
302
100
AcDbEntity
  8
0
100
AcDbLine
 62
7
  6
CONTINUOUS
 10
11.9850318028
 20
9.3540543762
 11
12.0450318028
 21
9.3540543762
  0
LINE
  5
303
100
AcDbEntity
  8
0
100
AcDbLine
 62
7
  6
CONTINUOUS
 10
13.2490318028
 20
9.4140543762
 11
17.8390318028
 21
9.4140543762
  0
LINE
  5
304
100
AcDbEntity
  8
0
100
AcDbLine
 62
7
  6
CONTINUOUS
 10
12.3252719731
 20
9.0758625212
 11
12.3252680788
 21
9.0758662186
  0
LINE
  5
305
100
AcDbEntity
  8
0
100
AcDbLine
 62
7
  6
CONTINUOUS
 10
13.4856053078
 20
8.3785425652
 11
13.5606053078
 21
8.3035425652
  0
LINE
  5
306
100
AcDbEntity
  8
0
100
AcDbLine
 62
7
  6
CONTINUOUS
 10
12.0659273917
 20
9.2040454695
 11
12.0310106472
 21
9.2484874
  0
LINE
  5
307
100
AcDbEntity
  8
0
100
AcDbLine
 62
7
  6
CONTINUOUS
 10
13.4856053078
 20
8.3785425652
 11
13.4856053078
 21
8.9785425652
  0
LINE
  5
308
100
AcDbEntity
  8
0
100
AcDbLine
 62
7
  6
CONTINUOUS
 10
13.5606053078
 20
7.9535425652
 11
13.5606053078
 21
8.0035425652
  0
LINE
  5
309
100
AcDbEntity
  8
0
100
AcDbLine
 62
7
  6
CONTINUOUS
 10
13.5606053078
 20
8.2035425652
 11
13.5606053078
 21
8.3035425652
  0
LINE
  5
30A
100
AcDbEntity
  8
0
100
AcDbLine
 62
7
  6
CONTINUOUS
 10
13.6356053078
 20
8.0035425652
 11
13.6356053078
 21
8.2035425652
  0
LINE
  5
30B
100
AcDbEntity
  8
0
100
AcDbLine
 62
7
  6
CONTINUOUS
 10
9.3334601876
 20
10.2476251941
 11
9.140782419
 21
10.2240543762
  0
LINE
  5
30C
100
AcDbEntity
  8
0
100
AcDbLine
 62
7
  6
CONTINUOUS
 10
11.9103293449
 20
10.1071477847
 11
11.9804327409
 21
10.1074964197
  0
LINE
  5
30D
100
AcDbEntity
  8
0
100
AcDbLine
 62
7
  6
CONTINUOUS
 10
13.2490318028
 20
9.9540543762
 11
17.8390318028
 21
9.9540543762
  0
LINE
  5
30E
100
AcDbEntity
  8
0
100
AcDbLine
 62
7
  6
CONTINUOUS
 10
11.9850318028
 20
10.0140543762
 11
12.0450318028
 21
10.0140543762
  0
LINE
  5
30F
100
AcDbEntity
  8
0
100
AcDbLine
 62
7
  6
CONTINUOUS
 10
6.6239848451
 20
10.0240543762
 11
7.5225322566
 21
10.0240543762
  0
LINE
  5
310
100
AcDbEntity
  8
0
100
AcDbLine
 62
7
  6
CONTINUOUS
 10
12.6870318028
 20
10.0615543762
 11
12.6990541314
 21
10.0615543762
  0
LINE
  5
311
100
AcDbEntity
  8
0
100
AcDbLine
 62
9
  6
CONTINUOUS
 10
7.7065140514
 20
10.08746746
 11
7.7215259334
 21
10.08746746
  0
LINE
  5
312
100
AcDbEntity
  8
0
100
AcDbLine
 62
7
  6
CONTINUOUS
 10
12.0450318028
 20
10.0905543762
 11
12.048026528
 21
10.0905543762
  0
LINE
  5
313
100
AcDbEntity
  8
0
100
AcDbLine
 62
7
  6
CONTINUOUS
 10
11.3160318028
 20
10.0940543762
 11
11.4160318028
 21
10.0940543762
  0
LINE
  5
314
100
AcDbEntity
  8
0
100
AcDbLine
 62
7
  6
CONTINUOUS
 10
12.7365318028
 20
10.1007149764
 11
12.7315318028
 21
10.1007149764
  0
LINE
  5
315
100
AcDbEntity
  8
0
100
AcDbLine
 62
9
  6
CONTINUOUS
 10
11.9996133088
 20
10.1319093905
 11
11.9297838252
 21
10.1319093905
  0
LINE
  5
316
100
AcDbEntity
  8
0
100
AcDbLine
 62
9
  6
CONTINUOUS
 10
7.7414267904
 20
10.1319093905
 11
7.6715973069
 21
10.1319093905
  0
LINE
  5
317
100
AcDbEntity
  8
0
100
AcDbLine
 62
7
  6
CONTINUOUS
 10
7.8444038406
 20
10.1340543762
 11
7.8480318028
 21
10.1340543762
  0
LINE
  5
318
100
AcDbEntity
  8
0
100
AcDbLine
 62
7
  6
CONTINUOUS
 10
11.1652951858
 20
10.1340543762
 11
11.3113708057
 21
10.1340543762
  0
LINE
  5
319
100
AcDbEntity
  8
0
100
AcDbLine
 62
7
  6
CONTINUOUS
 10
8.4784923281
 20
10.2240543762
 11
10.6635712776
 21
10.2240543762
  0
LINE
  5
31A
100
AcDbEntity
  8
0
100
AcDbLine
 62
9
  6
CONTINUOUS
 10
7.6662156146
 20
10.2240935594
 11
7.7360450981
 21
10.2240935594
  0
LINE
  5
31B
100
AcDbEntity
  8
0
100
AcDbLine
 62
9
  6
CONTINUOUS
 10
11.9351655175
 20
10.2240935594
 11
12.0049950011
 21
10.2240935594
  0
LINE
  5
31C
100
AcDbEntity
  8
0
100
AcDbLine
 62
9
  6
CONTINUOUS
 10
12.0048716187
 20
10.2440151931
 11
11.9350421351
 21
10.2440151931
  0
LINE
  5
31D
100
AcDbEntity
  8
0
100
AcDbLine
 62
9
  6
CONTINUOUS
 10
7.7361684805
 20
10.2440151931
 11
7.666338997
 21
10.2440151931
  0
LINE
  5
31E
100
AcDbEntity
  8
0
100
AcDbLine
 62
9
  6
CONTINUOUS
 10
6.8173545373
 20
10.2710709626
 11
7.3264142781
 21
10.2710703789
  0
LINE
  5
31F
100
AcDbEntity
  8
0
100
AcDbLine
 62
7
  6
CONTINUOUS
 10
13.303645693
 20
10.3145661873
 11
12.3675647868
 21
10.3145661873
  0
LINE
  5
320
100
AcDbEntity
  8
0
100
AcDbLine
 62
7
  6
CONTINUOUS
 10
7.3036718697
 20
10.3145661873
 11
6.7873934925
 21
10.3145661873
  0
LINE
  5
321
100
AcDbEntity
  8
0
100
AcDbLine
 62
7
  6
CONTINUOUS
 10
6.7839764357
 20
10.3195268172
 11
7.4056053078
 21
10.3195268172
  0
LINE
  5
322
100
AcDbEntity
  8
0
100
AcDbLine
 62
7
  6
CONTINUOUS
 10
12.2656053078
 20
10.3195268172
 11
13.4056053078
 21
10.3195268172
  0
LINE
  5
323
100
AcDbEntity
  8
0
100
AcDbLine
 62
7
  6
CONTINUOUS
 10
11.9989655512
 20
10.3214979677
 11
11.9291360677
 21
10.3214979677
  0
LINE
  5
324
100
AcDbEntity
  8
0
100
AcDbLine
 62
7
  6
CONTINUOUS
 10
7.7420745479
 20
10.3214979677
 11
7.6722450644
 21
10.3214979677
  0
LINE
  5
325
100
AcDbEntity
  8
0
100
AcDbLine
 62
7
  6
CONTINUOUS
 10
6.7390490343
 20
10.4364402467
 11
6.9321615813
 21
10.4364402467
  0
LINE
  5
326
100
AcDbEntity
  8
0
100
AcDbLine
 62
7
  6
CONTINUOUS
 10
7.3330490343
 20
10.4364402467
 11
7.4296053078
 21
10.4364402467
  0
LINE
  5
327
100
AcDbEntity
  8
0
100
AcDbLine
 62
7
  6
CONTINUOUS
 10
12.2416053078
 20
10.4364402467
 11
12.3381615813
 21
10.4364402467
  0
LINE
  5
328
100
AcDbEntity
  8
0
100
AcDbLine
 62
7
  6
CONTINUOUS
 10
12.7390490343
 20
10.4364402467
 11
12.9321615813
 21
10.4364402467
  0
LINE
  5
329
100
AcDbEntity
  8
0
100
AcDbLine
 62
7
  6
CONTINUOUS
 10
13.3330490343
 20
10.4364402467
 11
13.4296053078
 21
10.4364402467
  0
LINE
  5
32A
100
AcDbEntity
  8
0
100
AcDbLine
 62
9
  6
CONTINUOUS
 10
12.344808294
 20
10.2711568664
 11
13.3542730167
 21
10.2710703775
  0
LINE
  5
32B
100
AcDbEntity
  8
0
100
AcDbLine
 62
9
  6
CONTINUOUS
 10
6.6239848359
 20
10.0240542228
 11
6.6235040145
 21
10.0240558843
  0
LINE
  5
32C
100
AcDbEntity
  8
0
100
AcDbLine
 62
7
  6
CONTINUOUS
 10
13.2297082346
 20
10.0947083041
 11
12.7690318028
 21
10.1102980311
  0
LINE
  5
32D
100
AcDbEntity
  8
0
100
AcDbLine
 62
7
  6
CONTINUOUS
 10
12.6870318028
 20
10.1130729888
 11
12.0670318028
 21
10.1340543762
  0
LINE
  5
32E
100
AcDbEntity
  8
0
100
AcDbLine
 62
7
  6
CONTINUOUS
 10
6.2130242939
 20
10.8169444612
 11
6.0029405009
 21
10.8402557684
  0
LINE
  5
32F
100
AcDbEntity
  8
0
100
AcDbLine
 62
7
  6
CONTINUOUS
 10
10.3381720408
 20
10.2475737125
 11
10.5304281958
 21
10.2240543762
  0
LINE
  5
330
100
AcDbEntity
  8
0
100
AcDbLine
 62
7
  6
CONTINUOUS
 10
11.119830696
 20
10.1519508037
 11
11.2661230188
 21
10.1340543762
  0
LINE
  5
331
100
AcDbEntity
  8
0
100
AcDbLine
 62
7
  6
CONTINUOUS
 10
11.3224475601
 20
10.1271640073
 11
11.7738213284
 21
10.0719459497
  0
LINE
  5
332
100
AcDbEntity
  8
0
100
AcDbLine
 62
7
  6
CONTINUOUS
 10
12.0290553539
 20
10.0407223206
 11
12.0449698803
 21
10.0387754435
  0
LWPOLYLINE
  5
333
100
AcDbEntity
  8
0
100
AcDbPolyline
 62
7
  6
CONTINUOUS
 90
4
 70
0
 10
10.3377488817
 20
10.2476256196
 10
10.3108511911
 20
10.2527923021
 10
10.2733240781
 20
10.2673518695
 10
10.2641508883
 20
10.2729867546
  0
LINE
  5
334
100
AcDbEntity
  8
0
100
AcDbLine
 62
7
  6
CONTINUOUS
 10
13.4856053078
 20
8.9785425652
 11
13.4106053078
 21
9.0535425652
  0
LINE
  5
335
100
AcDbEntity
  8
0
100
AcDbLine
 62
7
  6
CONTINUOUS
 10
12.0489335211
 20
10.0901972072
 11
12.0485968029
 21
10.0905543762
  0
LINE
  5
336
100
AcDbEntity
  8
0
100
AcDbLine
 62
7
  6
CONTINUOUS
 10
12.2656053078
 20
10.3195268172
 11
12.2416053078
 21
10.3610960366
  0
LINE
  5
337
100
AcDbEntity
  8
0
100
AcDbLine
 62
9
  6
CONTINUOUS
 10
14.5490318028
 20
9.4140543762
 11
14.5490318028
 21
9.9540543762
  0
LINE
  5
338
100
AcDbEntity
  8
0
100
AcDbLine
 62
7
  6
CONTINUOUS
 10
13.458186326
 20
10.8169442886
 11
13.6682730317
 21
10.8402564283
  0
LINE
  5
339
100
AcDbEntity
  8
0
100
AcDbLine
 62
7
  6
CONTINUOUS
 10
13.4417161825
 20
10.8138249211
 11
13.4416642142
 21
10.8138248699
  0
LINE
  5
33A
100
AcDbEntity
  8
0
100
AcDbLine
 62
7
  6
CONTINUOUS
 10
13.4296053078
 20
10.7826133877
 11
13.3330490343
 21
10.7826133877
  0
LINE
  5
33B
100
AcDbEntity
  8
0
100
AcDbLine
 62
7
  6
CONTINUOUS
 10
12.9321615813
 20
10.7826133877
 11
12.7390490343
 21
10.7826133877
  0
LINE
  5
33C
100
AcDbEntity
  8
0
100
AcDbLine
 62
7
  6
CONTINUOUS
 10
12.3381615813
 20
10.7826133877
 11
12.2416053078
 21
10.7826133877
  0
LINE
  5
33D
100
AcDbEntity
  8
0
100
AcDbLine
 62
7
  6
CONTINUOUS
 10
7.4296053078
 20
10.7826133877
 11
7.3330490343
 21
10.7826133877
  0
LINE
  5
33E
100
AcDbEntity
  8
0
100
AcDbLine
 62
7
  6
CONTINUOUS
 10
6.9321615813
 20
10.7826133877
 11
6.7390490343
 21
10.7826133877
  0
LINE
  5
33F
100
AcDbEntity
  8
0
100
AcDbLine
 62
7
  6
CONTINUOUS
 10
6.3381615813
 20
10.7826133877
 11
6.2416053078
 21
10.7826133877
  0
LINE
  5
340
100
AcDbEntity
  8
0
100
AcDbLine
 62
7
  6
CONTINUOUS
 10
13.4056053078
 20
10.8995268172
 11
12.2656053078
 21
10.8995268172
  0
LINE
  5
341
100
AcDbEntity
  8
0
100
AcDbLine
 62
7
  6
CONTINUOUS
 10
7.4056053078
 20
10.8995268172
 11
6.2656053078
 21
10.8995268172
  0
LINE
  5
342
100
AcDbEntity
  8
0
100
AcDbLine
 62
7
  6
CONTINUOUS
 10
6.3126856356
 20
11.0725268172
 11
7.3577896927
 21
11.0725268172
  0
LINE
  5
343
100
AcDbEntity
  8
0
100
AcDbLine
 62
7
  6
CONTINUOUS
 10
12.3134192875
 20
11.0725268172
 11
13.3585266154
 21
11.0725268172
  0
LINE
  5
344
100
AcDbEntity
  8
0
100
AcDbLine
 62
7
  6
CONTINUOUS
 10
6.2294982032
 20
10.8138250273
 11
6.2295463193
 21
10.8138249834
  0
LINE
  5
345
100
AcDbEntity
  8
0
100
AcDbLine
 62
7
  6
CONTINUOUS
 10
7.3590172364
 20
11.1675268025
 11
6.3114580903
 21
11.1675268025
  0
LINE
  5
346
100
AcDbEntity
  8
0
100
AcDbLine
 62
7
  6
CONTINUOUS
 10
12.3121933792
 20
11.1675268025
 11
13.3597525254
 21
11.1675268025
  0
LINE
  5
347
100
AcDbEntity
  8
0
100
AcDbLine
 62
7
  6
CONTINUOUS
 10
13.4296053078
 20
10.8579575978
 11
13.4056053078
 21
10.8995268172
  0
LINE
  5
348
100
AcDbEntity
  8
0
100
AcDbLine
 62
9
  6
CONTINUOUS
 10
15.6442027535
 20
6.9365451125
 11
15.6442026629
 21
7.2708638866
  0
LINE
  5
349
100
AcDbEntity
  8
0
100
AcDbLine
 62
9
  6
CONTINUOUS
 10
15.6443971272
 20
6.8792994664
 11
15.644397164
 21
6.8969134253
  0
LINE
  5
34A
100
AcDbEntity
  8
0
100
AcDbLine
 62
7
  6
CONTINUOUS
 10
15.6856053078
 20
6.9192841181
 11
15.6856053078
 21
7.2881207793
  0
LINE
  5
34B
100
AcDbEntity
  8
0
100
AcDbLine
 62
9
  6
CONTINUOUS
 10
15.6454372513
 20
7.3105134415
 11
15.6456236497
 21
7.3281238167
  0
LWPOLYLINE
  5
34C
100
AcDbEntity
  8
0
100
AcDbPolyline
 62
7
  6
CONTINUOUS
 90
12
 70
0
 10
12.9120329488
 20
12.3223079765
 10
12.7683978796
 20
12.3028297611
 10
12.6291605294
 20
12.2422806726
 10
12.5212288141
 20
12.1556739861
 10
12.4438386172
 20
12.0556189946
 10
12.3922622418
 20
11.9506026893
 10
12.3605047045
 20
11.8485795353
 10
12.3392452708
 20
11.741513753
 10
12.3238656549
 20
11.616864764
 10
12.3137158149
 20
11.4695191976
 10
12.3094865876
 20
11.3002044961
 10
12.3109731965
 20
11.1675267772
  0
LINE
  5
34D
100
AcDbEntity
  8
0
100
AcDbLine
 62
7
  6
CONTINUOUS
 10
6.7146759744
 20
12.3204592706
 11
6.7141091887
 21
12.3204119109
  0
LINE
  5
34E
100
AcDbEntity
  8
0
100
AcDbLine
 62
7
  6
CONTINUOUS
 10
6.7592161028
 20
12.3223080209
 11
6.7145967356
 21
12.3204552568
  0
LINE
  5
34F
100
AcDbEntity
  8
0
100
AcDbLine
 62
7
  6
CONTINUOUS
 10
6.7591776665
 20
12.3223079765
 11
6.7592161028
 21
12.3223080209
  0
LINE
  5
350
100
AcDbEntity
  8
0
100
AcDbLine
 62
7
  6
CONTINUOUS
 10
6.2294944332
 20
12.7712287162
 11
6.2295464006
 21
12.7712287673
  0
LINE
  5
351
100
AcDbEntity
  8
0
100
AcDbLine
 62
7
  6
CONTINUOUS
 10
13.4417124127
 20
12.7712286115
 11
13.4416642956
 21
12.7712286554
  0
LINE
  5
352
100
AcDbEntity
  8
0
100
AcDbLine
 62
7
  6
CONTINUOUS
 10
12.9120329488
 20
12.3223079765
 11
12.9119945131
 21
12.3223080209
  0
LINE
  5
353
100
AcDbEntity
  8
0
100
AcDbLine
 62
7
  6
CONTINUOUS
 10
12.9566138698
 20
12.3204552577
 11
12.9119945128
 21
12.3223080209
  0
LINE
  5
354
100
AcDbEntity
  8
0
100
AcDbLine
 62
7
  6
CONTINUOUS
 10
12.9566138698
 20
12.3204552577
 11
12.9572055275
 21
12.3204057469
  0
LINE
  5
355
100
AcDbEntity
  8
0
100
AcDbLine
 62
7
  6
CONTINUOUS
 10
6.0029362905
 20
12.7447969368
 11
6.2130242939
 21
12.7681091732
  0
LINE
  5
356
100
AcDbEntity
  8
0
100
AcDbLine
 62
7
  6
CONTINUOUS
 10
13.6682660417
 20
12.7447987478
 11
13.4581863356
 21
12.7681093446
  0
ARC
  5
357
100
AcDbEntity
  8
0
100
AcDbCircle
 62
9
  6
CONTINUOUS
 10
6.9039519614
 20
9.3518728851
 40
2.0351602868
100
AcDbArc
 50
257.9200003722
 51
258.9050619517
  0
ARC
  5
358
100
AcDbEntity
  8
0
100
AcDbCircle
 62
7
  6
CONTINUOUS
 10
6.3545263213
 20
9.4100512056
 40
1.5318831928
100
AcDbArc
 50
353.8794659936
 51
354.8041054053
  0
ARC
  5
359
100
AcDbEntity
  8
0
100
AcDbCircle
 62
9
  6
CONTINUOUS
 10
6.3260988876
 20
7.5709302866
 40
0.2853244801
100
AcDbArc
 50
305.682902319
 51
310.7414809656
  0
ARC
  5
35A
100
AcDbEntity
  8
0
100
AcDbCircle
 62
9
  6
CONTINUOUS
 10
6.3299595188
 20
6.7000318124
 40
0.283201519
100
AcDbArc
 50
49.916109342
 51
54.9628591613
  0
ARC
  5
35B
100
AcDbEntity
  8
0
100
AcDbCircle
 62
9
  6
CONTINUOUS
 10
6.3249035485
 20
7.4161555652
 40
0.1972146964
100
AcDbArc
 50
337.9802966278
 51
341.8588667287
  0
ARC
  5
35C
100
AcDbEntity
  8
0
100
AcDbCircle
 62
9
  6
CONTINUOUS
 10
6.3396892536
 20
6.8594145883
 40
0.1818861913
100
AcDbArc
 50
18.3615513702
 51
20.0737394814
  0
ARC
  5
35D
100
AcDbEntity
  8
0
100
AcDbCircle
 62
7
  6
CONTINUOUS
 10
6.1106053078
 20
7.8535425652
 40
0.1
100
AcDbArc
 50
0.0
 51
90.0
  0
ARC
  5
35E
100
AcDbEntity
  8
0
100
AcDbCircle
 62
7
  6
CONTINUOUS
 10
6.4481053078
 20
6.8205425652
 40
0.075
100
AcDbArc
 50
0.0
 51
67.5
  0
ARC
  5
35F
100
AcDbEntity
  8
0
100
AcDbCircle
 62
7
  6
CONTINUOUS
 10
7.2231053078
 20
6.8205425652
 40
0.075
100
AcDbArc
 50
90.0
 51
180.0
  0
ARC
  5
360
100
AcDbEntity
  8
0
100
AcDbCircle
 62
7
  6
CONTINUOUS
 10
6.3805820172
 20
6.8977280957
 40
0.0550243871
100
AcDbArc
 50
359.1047459416
 51
91.6821434769
  0
ARC
  5
361
100
AcDbEntity
  8
0
100
AcDbCircle
 62
7
  6
CONTINUOUS
 10
7.3036725371
 20
9.1047236676
 40
0.0511811024
100
AcDbArc
 50
270.0
 51
325.6957080068
  0
ARC
  5
362
100
AcDbEntity
  8
0
100
AcDbCircle
 62
7
  6
CONTINUOUS
 10
4.0256057654
 20
7.2881237977
 40
0.0400000234
100
AcDbArc
 50
96.3401914704
 51
180.0
  0
ARC
  5
363
100
AcDbEntity
  8
0
100
AcDbCircle
 62
7
  6
CONTINUOUS
 10
4.0256057533
 20
6.9192812516
 40
0.0400000222
100
AcDbArc
 50
180.0
 51
265.7445851128
  0
ARC
  5
364
100
AcDbEntity
  8
0
100
AcDbCircle
 62
9
  6
CONTINUOUS
 10
4.0250205018
 20
6.9365938323
 40
0.0394152326
100
AcDbArc
 50
180.0802532673
 51
194.4464508456
  0
ARC
  5
365
100
AcDbEntity
  8
0
100
AcDbCircle
 62
7
  6
CONTINUOUS
 10
6.5031053078
 20
7.3905425652
 40
0.02
100
AcDbArc
 50
283.9347317258
 51
360.0
  0
ARC
  5
366
100
AcDbEntity
  8
0
100
AcDbCircle
 62
7
  6
CONTINUOUS
 10
10.3911047939
 20
-24.4107140263
 40
34.3795220674
100
AcDbArc
 50
85.2638804363
 51
85.6495355914
  0
ARC
  5
367
100
AcDbEntity
  8
0
100
AcDbCircle
 62
7
  6
CONTINUOUS
 10
8.9981689827
 20
2.6840898332
 40
0.1275636903
100
AcDbArc
 50
176.7637315978
 51
180.0159256318
  0
ARC
  5
368
100
AcDbEntity
  8
0
100
AcDbCircle
 62
9
  6
CONTINUOUS
 10
8.9956401708
 20
2.6840531489
 40
0.1250348719
100
AcDbArc
 50
179.9994375952
 51
191.0394036577
  0
ARC
  5
369
100
AcDbEntity
  8
0
100
AcDbCircle
 62
7
  6
CONTINUOUS
 10
8.4784923281
 20
8.7240543762
 40
1.5
100
AcDbArc
 50
90.0
 51
114.8539722589
  0
ARC
  5
36A
100
AcDbEntity
  8
0
100
AcDbCircle
 62
9
  6
CONTINUOUS
 10
7.6651881925
 20
9.3865338606
 40
0.837560329
100
AcDbArc
 50
89.9297161493
 51
92.1192044212
  0
ARC
  5
36B
100
AcDbEntity
  8
0
100
AcDbCircle
 62
7
  6
CONTINUOUS
 10
7.5225322566
 20
8.9940543762
 40
0.35
100
AcDbArc
 50
53.2130265183
 51
90.0
  0
ARC
  5
36C
100
AcDbEntity
  8
0
100
AcDbCircle
 62
9
  6
CONTINUOUS
 10
7.5313082177
 20
9.2883623739
 40
0.3451500271
100
AcDbArc
 50
349.5303117653
 51
350.1611561797
  0
ARC
  5
36D
100
AcDbEntity
  8
0
100
AcDbCircle
 62
7
  6
CONTINUOUS
 10
7.5960206652
 20
9.0797100763
 40
0.2514531525
100
AcDbArc
 50
84.8923656229
 51
102.5300047106
  0
ARC
  5
36E
100
AcDbEntity
  8
0
100
AcDbCircle
 62
7
  6
CONTINUOUS
 10
9.035512318
 20
8.904972261
 40
0.2500996743
100
AcDbArc
 50
0.0194841606
 51
75.1521620891
  0
ARC
  5
36F
100
AcDbEntity
  8
0
100
AcDbCircle
 62
7
  6
CONTINUOUS
 10
7.595878679
 20
9.0811928771
 40
0.2499753754
100
AcDbArc
 50
102.5719701595
 51
181.1698379667
  0
ARC
  5
370
100
AcDbEntity
  8
0
100
AcDbCircle
 62
7
  6
CONTINUOUS
 10
7.5606053078
 20
7.8535425652
 40
0.1
100
AcDbArc
 50
90.0
 51
180.0
  0
ARC
  5
371
100
AcDbEntity
  8
0
100
AcDbCircle
 62
9
  6
CONTINUOUS
 10
7.6717028765
 20
9.1509129218
 40
0.0852865055
100
AcDbArc
 50
90.0709220938
 51
109.3227816602
  0
ARC
  5
372
100
AcDbEntity
  8
0
100
AcDbCircle
 62
9
  6
CONTINUOUS
 10
7.7065878017
 20
9.1955617403
 40
0.0850795842
100
AcDbArc
 50
90.0496662129
 51
112.4447165551
  0
ARC
  5
373
100
AcDbEntity
  8
0
100
AcDbCircle
 62
7
  6
CONTINUOUS
 10
7.7420701296
 20
9.1316198749
 40
0.0850085481
100
AcDbArc
 50
270.0029779077
 51
321.8413221596
  0
ARC
  5
374
100
AcDbEntity
  8
0
100
AcDbCircle
 62
7
  6
CONTINUOUS
 10
7.6722450646
 20
9.131610785
 40
0.0850000002
100
AcDbArc
 50
180.3548505519
 51
269.9999998384
  0
ARC
  5
375
100
AcDbEntity
  8
0
100
AcDbCircle
 62
7
  6
CONTINUOUS
 10
7.6721213312
 20
9.1515325952
 40
0.084999615
100
AcDbArc
 50
141.8442476731
 51
180.3521373917
  0
ARC
  5
376
100
AcDbEntity
  8
0
100
AcDbCircle
 62
9
  6
CONTINUOUS
 10
7.7767291286
 20
9.1954171432
 40
0.0849335535
100
AcDbArc
 50
0.3758911297
 51
29.5439210979
  0
ARC
  5
377
100
AcDbEntity
  8
0
100
AcDbCircle
 62
9
  6
CONTINUOUS
 10
7.7776454916
 20
9.1754951107
 40
0.0841401677
100
AcDbArc
 50
321.8676563608
 51
0.3797051822
  0
ARC
  5
378
100
AcDbEntity
  8
0
100
AcDbCircle
 62
9
  6
CONTINUOUS
 10
7.7427287471
 20
9.1310531802
 40
0.0841401677
100
AcDbArc
 50
321.8676563532
 51
0.3797051784
  0
ARC
  5
379
100
AcDbEntity
  8
0
100
AcDbCircle
 62
9
  6
CONTINUOUS
 10
7.7063067872
 20
9.1965242349
 40
0.0840827801
100
AcDbArc
 50
112.5181366094
 51
141.8309352415
  0
ARC
  5
37A
100
AcDbEntity
  8
0
100
AcDbCircle
 62
9
  6
CONTINUOUS
 10
7.6713692318
 20
9.1521013813
 40
0.0840546296
100
AcDbArc
 50
109.3762219939
 51
141.8323920834
  0
ARC
  5
37B
100
AcDbEntity
  8
0
100
AcDbCircle
 62
7
  6
CONTINUOUS
 10
10.6733878909
 20
2.6841093153
 40
0.1272167943
100
AcDbArc
 50
359.9881242123
 51
3.2054539505
  0
ARC
  5
37C
100
AcDbEntity
  8
0
100
AcDbCircle
 62
7
  6
CONTINUOUS
 10
10.6635712776
 20
8.7240543762
 40
1.5
100
AcDbArc
 50
64.2163806705
 51
90.0
  0
ARC
  5
37D
100
AcDbEntity
  8
0
100
AcDbCircle
 62
9
  6
CONTINUOUS
 10
9.9163256299
 20
9.1710059803
 40
0.6830454343
100
AcDbArc
 50
191.2906503277
 51
202.3230933317
  0
ARC
  5
37E
100
AcDbEntity
  8
0
100
AcDbCircle
 62
9
  6
CONTINUOUS
 10
9.754885101
 20
9.1710059585
 40
0.6830453194
100
AcDbArc
 50
337.6769046921
 51
348.7084210351
  0
ARC
  5
37F
100
AcDbEntity
  8
0
100
AcDbCircle
 62
9
  6
CONTINUOUS
 10
9.7769611279
 20
9.1625720891
 40
0.6594205723
100
AcDbArc
 50
337.0862536229
 51
337.6262220483
  0
ARC
  5
380
100
AcDbEntity
  8
0
100
AcDbCircle
 62
9
  6
CONTINUOUS
 10
9.8942492149
 20
9.1625719758
 40
0.6594202768
100
AcDbArc
 50
202.3737778716
 51
202.913862201
  0
ARC
  5
381
100
AcDbEntity
  8
0
100
AcDbCircle
 62
9
  6
CONTINUOUS
 10
9.9757987205
 20
9.6469652806
 40
0.5999534413
100
AcDbArc
 50
302.1959037401
 51
302.9699834412
  0
ARC
  5
382
100
AcDbEntity
  8
0
100
AcDbCircle
 62
9
  6
CONTINUOUS
 10
10.5773888809
 20
8.9411562483
 40
0.2918517232
100
AcDbArc
 50
135.396309759
 51
143.5335317257
  0
ARC
  5
383
100
AcDbEntity
  8
0
100
AcDbCircle
 62
7
  6
CONTINUOUS
 10
10.6357062168
 20
8.904969944
 40
0.2501046536
100
AcDbArc
 50
104.8499963695
 51
179.9799854109
  0
ARC
  5
384
100
AcDbEntity
  8
0
100
AcDbCircle
 62
7
  6
CONTINUOUS
 10
9.3906053078
 20
7.5505110692
 40
0.08
100
AcDbArc
 50
0.0
 51
90.0
  0
ARC
  5
385
100
AcDbEntity
  8
0
100
AcDbCircle
 62
7
  6
CONTINUOUS
 10
10.2806053078
 20
7.5505110692
 40
0.08
100
AcDbArc
 50
90.0
 51
180.0
  0
ARC
  5
386
100
AcDbEntity
  8
0
100
AcDbCircle
 62
7
  6
CONTINUOUS
 10
9.3156053078
 20
7.6605110692
 40
0.03
100
AcDbArc
 50
180.0
 51
270.0
  0
ARC
  5
387
100
AcDbEntity
  8
0
100
AcDbCircle
 62
7
  6
CONTINUOUS
 10
10.3556053078
 20
7.6605110692
 40
0.03
100
AcDbArc
 50
270.0
 51
360.0
  0
ARC
  5
388
100
AcDbEntity
  8
0
100
AcDbCircle
 62
7
  6
CONTINUOUS
 10
10.1702903472
 20
7.5308260298
 40
0.0196850394
100
AcDbArc
 50
90.0
 51
180.0
  0
ARC
  5
389
100
AcDbEntity
  8
0
100
AcDbCircle
 62
7
  6
CONTINUOUS
 10
9.5009202685
 20
7.5308260298
 40
0.0196850394
100
AcDbArc
 50
0.0
 51
90.0
  0
ARC
  5
38A
100
AcDbEntity
  8
0
100
AcDbCircle
 62
7
  6
CONTINUOUS
 10
6.1914751891
 20
9.9326772984
 40
1.4547414027
100
AcDbArc
 50
4.5065978376
 51
5.8681641138
  0
ARC
  5
38B
100
AcDbEntity
  8
0
100
AcDbCircle
 62
7
  6
CONTINUOUS
 10
6.4465830514
 20
9.9671678722
 40
1.4393798768
100
AcDbArc
 50
5.1646581027
 51
6.2033126087
  0
ARC
  5
38C
100
AcDbEntity
  8
0
100
AcDbCircle
 62
7
  6
CONTINUOUS
 10
5.9680318028
 20
9.6840543762
 40
1.04
100
AcDbArc
 50
19.2273138642
 51
340.7922279637
  0
ARC
  5
38D
100
AcDbEntity
  8
0
100
AcDbCircle
 62
9
  6
CONTINUOUS
 10
5.9680318028
 20
9.6840543762
 40
1.0277893215
100
AcDbArc
 50
19.4427643499
 51
340.5556411479
  0
ARC
  5
38E
100
AcDbEntity
  8
0
100
AcDbCircle
 62
9
  6
CONTINUOUS
 10
5.9680318028
 20
9.6840543762
 40
0.840293406
100
AcDbArc
 50
23.9306738939
 51
336.0657848045
  0
ARC
  5
38F
100
AcDbEntity
  8
0
100
AcDbCircle
 62
9
  6
CONTINUOUS
 10
5.9680318028
 20
9.6840543762
 40
0.7923149729
100
AcDbArc
 50
25.6561576132
 51
334.4730139867
  0
CIRCLE
  5
390
100
AcDbEntity
  8
0
100
AcDbCircle
 62
9
  6
CONTINUOUS
 10
5.9680318028
 20
9.6840543762
 40
0.0291338583
  0
ARC
  5
391
100
AcDbEntity
  8
0
100
AcDbCircle
 62
7
  6
CONTINUOUS
 10
6.2323944261
 20
11.8265100397
 40
1.0128945419
100
AcDbArc
 50
258.0946496237
 51
260.2950879906
  0
ARC
  5
392
100
AcDbEntity
  8
0
100
AcDbCircle
 62
7
  6
CONTINUOUS
 10
6.2303723458
 20
11.8147724509
 40
1.0009840597
100
AcDbArc
 50
260.2959174717
 51
265.1155200625
  0
ARC
  5
393
100
AcDbEntity
  8
0
100
AcDbCircle
 62
7
  6
CONTINUOUS
 10
6.2300130978
 20
11.7730550993
 40
0.9981894228
100
AcDbArc
 50
93.8923833232
 51
99.7591121077
  0
ARC
  5
394
100
AcDbEntity
  8
0
100
AcDbCircle
 62
7
  6
CONTINUOUS
 10
6.2296022834
 20
11.8067624836
 40
0.9929376165
100
AcDbArc
 50
265.1204387431
 51
269.9967705228
  0
ARC
  5
395
100
AcDbEntity
  8
0
100
AcDbCircle
 62
7
  6
CONTINUOUS
 10
6.2295565829
 20
11.7796576758
 40
0.991571087
100
AcDbArc
 50
90.0005872482
 51
93.8919637379
  0
ARC
  5
396
100
AcDbEntity
  8
0
100
AcDbCircle
 62
7
  6
CONTINUOUS
 10
6.2293237249
 20
11.8026191606
 40
0.9887889865
100
AcDbArc
 50
270.0100741309
 51
270.711314147
  0
ARC
  5
397
100
AcDbEntity
  8
0
100
AcDbCircle
 62
7
  6
CONTINUOUS
 10
6.21567941
 20
11.8054483776
 40
0.9883537518
100
AcDbArc
 50
255.3994027261
 51
257.5701333445
  0
ARC
  5
398
100
AcDbEntity
  8
0
100
AcDbCircle
 62
7
  6
CONTINUOUS
 10
6.2156749789
 20
11.779609889
 40
0.9883480377
100
AcDbArc
 50
102.4299234861
 51
104.7548430709
  0
ARC
  5
399
100
AcDbEntity
  8
0
100
AcDbCircle
 62
7
  6
CONTINUOUS
 10
6.7648244012
 20
11.7924201393
 40
0.5326608488
100
AcDbArc
 50
201.6280791114
 51
204.7916075355
  0
ARC
  5
39A
100
AcDbEntity
  8
0
100
AcDbCircle
 62
7
  6
CONTINUOUS
 10
7.6205506924
 20
9.8104007171
 40
4.4398133559
100
AcDbArc
 50
1.9743558853
 51
2.4102927235
  0
ARC
  5
39B
100
AcDbEntity
  8
0
100
AcDbCircle
 62
9
  6
CONTINUOUS
 10
6.8850921859
 20
9.7837282721
 40
2.518396223
100
AcDbArc
 50
258.5371691903
 51
259.3255279807
  0
ARC
  5
39C
100
AcDbEntity
  8
0
100
AcDbCircle
 62
9
  6
CONTINUOUS
 10
7.6653115749
 20
9.9616532582
 40
0.837560329
100
AcDbArc
 50
267.8807955788
 51
270.0702838507
  0
ARC
  5
39D
100
AcDbEntity
  8
0
100
AcDbCircle
 62
7
  6
CONTINUOUS
 10
7.5225322566
 20
10.3740543762
 40
0.35
100
AcDbArc
 50
270.0
 51
306.7869734806
  0
ARC
  5
39E
100
AcDbEntity
  8
0
100
AcDbCircle
 62
7
  6
CONTINUOUS
 10
7.5960173579
 20
10.2883656634
 40
0.251420202
100
AcDbArc
 50
257.5593518099
 51
275.1051626892
  0
ARC
  5
39F
100
AcDbEntity
  8
0
100
AcDbCircle
 62
7
  6
CONTINUOUS
 10
7.5956032372
 20
10.2871455672
 40
0.2497041136
100
AcDbArc
 50
178.8391989775
 51
257.5187916068
  0
ARC
  5
3A0
100
AcDbEntity
  8
0
100
AcDbCircle
 62
9
  6
CONTINUOUS
 10
7.7065878017
 20
10.1725470122
 40
0.0850795842
100
AcDbArc
 50
247.5552834448
 51
269.9503337871
  0
ARC
  5
3A1
100
AcDbEntity
  8
0
100
AcDbCircle
 62
7
  6
CONTINUOUS
 10
7.7420701266
 20
10.2364888712
 40
0.0850085555
100
AcDbArc
 50
38.1586799284
 51
89.9970200124
  0
ARC
  5
3A2
100
AcDbEntity
  8
0
100
AcDbCircle
 62
7
  6
CONTINUOUS
 10
7.6721216949
 20
10.2165763401
 40
0.0850000139
100
AcDbArc
 50
179.662054736
 51
218.1556977803
  0
ARC
  5
3A3
100
AcDbEntity
  8
0
100
AcDbCircle
 62
7
  6
CONTINUOUS
 10
7.6722450647
 20
10.2364979674
 40
0.0850000003
100
AcDbArc
 50
90.0000002052
 51
179.6451494044
  0
ARC
  5
3A4
100
AcDbEntity
  8
0
100
AcDbCircle
 62
9
  6
CONTINUOUS
 10
7.7767255798
 20
10.1726880388
 40
0.0849370789
100
AcDbArc
 50
327.1152012403
 51
359.6265330703
  0
ARC
  5
3A5
100
AcDbEntity
  8
0
100
AcDbCircle
 62
9
  6
CONTINUOUS
 10
7.7776454916
 20
10.1926136418
 40
0.0841401677
100
AcDbArc
 50
359.6202948155
 51
38.132343649
  0
ARC
  5
3A6
100
AcDbEntity
  8
0
100
AcDbCircle
 62
9
  6
CONTINUOUS
 10
7.7063067872
 20
10.1715845176
 40
0.0840827801
100
AcDbArc
 50
218.1690647585
 51
247.4818633905
  0
ARC
  5
3A7
100
AcDbEntity
  8
0
100
AcDbCircle
 62
9
  6
CONTINUOUS
 10
7.6712360012
 20
10.2158512443
 40
0.0838534118
100
AcDbArc
 50
218.1399920939
 51
270.0512370531
  0
ARC
  5
3A8
100
AcDbEntity
  8
0
100
AcDbCircle
 62
9
  6
CONTINUOUS
 10
7.743696667
 20
10.2370062607
 40
0.0831723784
100
AcDbArc
 50
359.6498450237
 51
38.1419812103
  0
ARC
  5
3A9
100
AcDbEntity
  8
0
100
AcDbCircle
 62
7
  6
CONTINUOUS
 10
7.3036725371
 20
10.2633850849
 40
0.0511811024
100
AcDbArc
 50
34.304291993
 51
90.0
  0
ARC
  5
3AA
100
AcDbEntity
  8
0
100
AcDbCircle
 62
7
  6
CONTINUOUS
 10
9.4892966313
 20
9.6840543762
 40
3.9093008025
100
AcDbArc
 50
351.3638693749
 51
356.0277811809
  0
ARC
  5
3AB
100
AcDbEntity
  8
0
100
AcDbCircle
 62
7
  6
CONTINUOUS
 10
9.4892966313
 20
9.6840543762
 40
3.9093008025
100
AcDbArc
 50
3.9722162833
 51
8.636130625
  0
ARC
  5
3AC
100
AcDbEntity
  8
0
100
AcDbCircle
 62
7
  6
CONTINUOUS
 10
10.6635712776
 20
10.6440543762
 40
1.5
100
AcDbArc
 50
270.0
 51
295.7836193295
  0
ARC
  5
3AD
100
AcDbEntity
  8
0
100
AcDbCircle
 62
7
  6
CONTINUOUS
 10
8.4784923281
 20
10.6440543762
 40
1.5
100
AcDbArc
 50
245.1460277411
 51
270.0
  0
ARC
  5
3AE
100
AcDbEntity
  8
0
100
AcDbCircle
 62
7
  6
CONTINUOUS
 10
9.8356053078
 20
9.6840543762
 40
0.7283464567
100
AcDbArc
 50
53.9342183295
 51
126.0665215877
  0
ARC
  5
3AF
100
AcDbEntity
  8
0
100
AcDbCircle
 62
7
  6
CONTINUOUS
 10
9.8356092835
 20
9.6840508813
 40
0.6799924429
100
AcDbArc
 50
233.2766398441
 51
307.2704622529
  0
ARC
  5
3B0
100
AcDbEntity
  8
0
100
AcDbCircle
 62
7
  6
CONTINUOUS
 10
9.8356083042
 20
9.6840664848
 40
0.6799839324
100
AcDbArc
 50
52.7526878395
 51
126.7175947732
  0
ARC
  5
3B1
100
AcDbEntity
  8
0
100
AcDbCircle
 62
7
  6
CONTINUOUS
 10
10.3911729734
 20
43.7779486218
 40
34.3786482232
100
AcDbArc
 50
274.3504612457
 51
274.7361020535
  0
ARC
  5
3B2
100
AcDbEntity
  8
0
100
AcDbCircle
 62
9
  6
CONTINUOUS
 10
13.3460934444
 20
7.5721876568
 40
0.2869184387
100
AcDbArc
 50
229.2738662826
 51
234.3149246407
  0
ARC
  5
3B3
100
AcDbEntity
  8
0
100
AcDbCircle
 62
9
  6
CONTINUOUS
 10
13.3397740417
 20
6.7019503268
 40
0.2807826288
100
AcDbArc
 50
125.0259147925
 51
130.1053698401
  0
ARC
  5
3B4
100
AcDbEntity
  8
0
100
AcDbCircle
 62
9
  6
CONTINUOUS
 10
13.3462042383
 20
7.4160937336
 40
0.1970983051
100
AcDbArc
 50
198.1336815682
 51
202.0113167292
  0
ARC
  5
3B5
100
AcDbEntity
  8
0
100
AcDbCircle
 62
9
  6
CONTINUOUS
 10
13.3315823385
 20
6.8593649154
 40
0.1819597316
100
AcDbArc
 50
159.9146587312
 51
161.6298373511
  0
ARC
  5
3B6
100
AcDbEntity
  8
0
100
AcDbCircle
 62
7
  6
CONTINUOUS
 10
12.1106053078
 20
7.8535425652
 40
0.1
100
AcDbArc
 50
0.0
 51
90.0
  0
ARC
  5
3B7
100
AcDbEntity
  8
0
100
AcDbCircle
 62
7
  6
CONTINUOUS
 10
13.2231053078
 20
6.8205425652
 40
0.075
100
AcDbArc
 50
112.5
 51
180.0
  0
ARC
  5
3B8
100
AcDbEntity
  8
0
100
AcDbCircle
 62
7
  6
CONTINUOUS
 10
12.4481053078
 20
6.8205425652
 40
0.075
100
AcDbArc
 50
0.0
 51
90.0
  0
ARC
  5
3B9
100
AcDbEntity
  8
0
100
AcDbCircle
 62
7
  6
CONTINUOUS
 10
13.2906285984
 20
6.8977280957
 40
0.0550243871
100
AcDbArc
 50
88.3178565355
 51
180.8952541166
  0
ARC
  5
3BA
100
AcDbEntity
  8
0
100
AcDbCircle
 62
7
  6
CONTINUOUS
 10
13.2906427963
 20
7.371404257
 40
0.0549149322
100
AcDbArc
 50
203.2634577623
 51
270.1570700938
  0
ARC
  5
3BB
100
AcDbEntity
  8
0
100
AcDbCircle
 62
7
  6
CONTINUOUS
 10
13.1681053078
 20
7.3905425652
 40
0.02
100
AcDbArc
 50
180.0
 51
256.0651860186
  0
ARC
  5
3BC
100
AcDbEntity
  8
0
100
AcDbCircle
 62
9
  6
CONTINUOUS
 10
12.7027386912
 20
9.6010654666
 40
2.2924361756
100
AcDbArc
 50
282.9812828474
 51
283.3463443843
  0
ARC
  5
3BD
100
AcDbEntity
  8
0
100
AcDbCircle
 62
9
  6
CONTINUOUS
 10
12.7567049593
 20
9.4050264693
 40
2.0893513316
100
AcDbArc
 50
281.0984359928
 51
281.4612488212
  0
ARC
  5
3BE
100
AcDbEntity
  8
0
100
AcDbCircle
 62
9
  6
CONTINUOUS
 10
12.8169875028
 20
9.1149591604
 40
1.7930902917
100
AcDbArc
 50
281.4151522881
 51
282.9131058615
  0
ARC
  5
3BF
100
AcDbEntity
  8
0
100
AcDbCircle
 62
9
  6
CONTINUOUS
 10
12.0058990408
 20
9.4064554943
 40
0.837560329
100
AcDbArc
 50
87.8807955789
 51
90.0702838507
  0
ARC
  5
3C0
100
AcDbEntity
  8
0
100
AcDbCircle
 62
7
  6
CONTINUOUS
 10
11.6196457303
 20
8.8919151758
 40
0.433
100
AcDbArc
 50
57.9057842818
 51
118.0498776996
  0
ARC
  5
3C1
100
AcDbEntity
  8
0
100
AcDbCircle
 62
7
  6
CONTINUOUS
 10
11.1520318028
 20
9.6280543762
 40
0.425
100
AcDbArc
 50
292.0191155054
 51
301.9657187508
  0
ARC
  5
3C2
100
AcDbEntity
  8
0
100
AcDbCircle
 62
7
  6
CONTINUOUS
 10
12.0744158382
 20
9.081000806
 40
0.2508960713
100
AcDbArc
 50
358.8300330019
 51
2.9284925764
  0
ARC
  5
3C3
100
AcDbEntity
  8
0
100
AcDbCircle
 62
7
  6
CONTINUOUS
 10
12.0754323067
 20
9.0812324086
 40
0.2498703276
100
AcDbArc
 50
2.8873626499
 51
39.9443168597
  0
ARC
  5
3C4
100
AcDbEntity
  8
0
100
AcDbCircle
 62
7
  6
CONTINUOUS
 10
11.9799225463
 20
9.1560760764
 40
0.1045375013
100
AcDbArc
 50
87.1985603071
 51
89.7203672169
  0
ARC
  5
3C5
100
AcDbEntity
  8
0
100
AcDbCircle
 62
9
  6
CONTINUOUS
 10
11.8945937336
 20
9.1953943459
 40
0.0850459501
100
AcDbArc
 50
127.8752920406
 51
179.609246715
  0
ARC
  5
3C6
100
AcDbEntity
  8
0
100
AcDbCircle
 62
9
  6
CONTINUOUS
 10
11.9644655083
 20
9.19567955
 40
0.0850169962
100
AcDbArc
 50
50.767487748
 51
70.6936171293
  0
ARC
  5
3C7
100
AcDbEntity
  8
0
100
AcDbCircle
 62
7
  6
CONTINUOUS
 10
11.9291404891
 20
9.1316198812
 40
0.0850085555
100
AcDbArc
 50
218.1586799188
 51
269.9970200139
  0
ARC
  5
3C8
100
AcDbEntity
  8
0
100
AcDbCircle
 62
7
  6
CONTINUOUS
 10
11.9990887038
 20
9.1515323398
 40
0.0850002293
100
AcDbArc
 50
359.6452036043
 51
38.1556459333
  0
ARC
  5
3C9
100
AcDbEntity
  8
0
100
AcDbCircle
 62
7
  6
CONTINUOUS
 10
11.9990110591
 20
9.1315590537
 40
0.0849307472
100
AcDbArc
 50
270.0335175859
 51
359.6329573038
  0
ARC
  5
3CA
100
AcDbEntity
  8
0
100
AcDbCircle
 62
9
  6
CONTINUOUS
 10
11.8935651241
 20
9.1754951107
 40
0.08414017
100
AcDbArc
 50
179.6202948139
 51
218.1323436276
  0
ARC
  5
3CB
100
AcDbEntity
  8
0
100
AcDbCircle
 62
9
  6
CONTINUOUS
 10
11.9284818685
 20
9.1310531802
 40
0.0841401676
100
AcDbArc
 50
179.6202948162
 51
218.1323436531
  0
ARC
  5
3CC
100
AcDbEntity
  8
0
100
AcDbCircle
 62
9
  6
CONTINUOUS
 10
11.9999746144
 20
9.1522575082
 40
0.0838534118
100
AcDbArc
 50
38.1399921064
 51
90.0512370531
  0
ARC
  5
3CD
100
AcDbEntity
  8
0
100
AcDbCircle
 62
9
  6
CONTINUOUS
 10
11.9654351561
 20
9.1970084567
 40
0.0833744199
100
AcDbArc
 50
38.1330954448
 51
50.7060395435
  0
ARC
  5
3CE
100
AcDbEntity
  8
0
100
AcDbCircle
 62
9
  6
CONTINUOUS
 10
11.9650794074
 20
9.1975599322
 40
0.0830394027
100
AcDbArc
 50
70.6644203664
 51
76.0971551446
  0
ARC
  5
3CF
100
AcDbEntity
  8
0
100
AcDbCircle
 62
7
  6
CONTINUOUS
 10
13.3036725371
 20
9.1047236676
 40
0.0511811024
100
AcDbArc
 50
270.0
 51
351.3638693749
  0
ARC
  5
3D0
100
AcDbEntity
  8
0
100
AcDbCircle
 62
7
  6
CONTINUOUS
 10
12.3675380786
 20
9.1047236676
 40
0.0511811024
100
AcDbArc
 50
214.3042919927
 51
270.0
  0
ARC
  5
3D1
100
AcDbEntity
  8
0
100
AcDbCircle
 62
7
  6
CONTINUOUS
 10
12.7340318028
 20
9.3053043762
 40
0.035
100
AcDbArc
 50
177.9532869023
 51
265.9039562418
  0
ARC
  5
3D2
100
AcDbEntity
  8
0
100
AcDbCircle
 62
7
  6
CONTINUOUS
 10
12.7340318028
 20
9.3053043762
 40
0.035
100
AcDbArc
 50
274.0960437582
 51
332.7298233178
  0
ARC
  5
3D3
100
AcDbEntity
  8
0
100
AcDbCircle
 62
7
  6
CONTINUOUS
 10
13.2290318028
 20
9.2933890061
 40
0.02
100
AcDbArc
 50
271.9382038126
 51
360.0
  0
ARC
  5
3D4
100
AcDbEntity
  8
0
100
AcDbCircle
 62
7
  6
CONTINUOUS
 10
13.5606053078
 20
7.8535425652
 40
0.1
100
AcDbArc
 50
90.0
 51
180.0
  0
ARC
  5
3D5
100
AcDbEntity
  8
0
100
AcDbCircle
 62
7
  6
CONTINUOUS
 10
15.6456048502
 20
7.2881237977
 40
0.0400000234
100
AcDbArc
 50
0.0
 51
89.9730717551
  0
ARC
  5
3D6
100
AcDbEntity
  8
0
100
AcDbCircle
 62
7
  6
CONTINUOUS
 10
15.6456048624
 20
6.9192812516
 40
0.0400000222
100
AcDbArc
 50
268.2697848598
 51
360.0
  0
ARC
  5
3D7
100
AcDbEntity
  8
0
100
AcDbCircle
 62
7
  6
CONTINUOUS
 10
15.645927369
 20
6.9353913518
 40
0.0385083414
100
AcDbArc
 50
267.7226393929
 51
276.7211645301
  0
ARC
  5
3D8
100
AcDbEntity
  8
0
100
AcDbCircle
 62
7
  6
CONTINUOUS
 10
14.3456145235
 20
9.5054768661
 40
2.3234484924
100
AcDbArc
 50
183.7846728757
 51
184.5240634921
  0
ARC
  5
3D9
100
AcDbEntity
  8
0
100
AcDbCircle
 62
9
  6
CONTINUOUS
 10
12.7853692466
 20
9.7875673613
 40
2.5223080438
100
AcDbArc
 50
280.6750900488
 51
281.4622219184
  0
ARC
  5
3DA
100
AcDbEntity
  8
0
100
AcDbCircle
 62
7
  6
CONTINUOUS
 10
14.2252758233
 20
9.8713022293
 40
2.2028007559
100
AcDbArc
 50
175.4167678553
 51
176.2687035302
  0
ARC
  5
3DB
100
AcDbEntity
  8
0
100
AcDbCircle
 62
7
  6
CONTINUOUS
 10
13.4769998942
 20
9.9329455265
 40
1.4519927816
100
AcDbArc
 50
174.1313285172
 51
175.482016705
  0
ARC
  5
3DC
100
AcDbEntity
  8
0
100
AcDbCircle
 62
7
  6
CONTINUOUS
 10
13.4024203324
 20
10.0565654507
 40
1.357441627
100
AcDbArc
 50
182.511079459
 51
182.6294675356
  0
ARC
  5
3DD
100
AcDbEntity
  8
0
100
AcDbCircle
 62
9
  6
CONTINUOUS
 10
12.0060224232
 20
9.9815748919
 40
0.837560329
100
AcDbArc
 50
269.9297161493
 51
272.1192044212
  0
ARC
  5
3DE
100
AcDbEntity
  8
0
100
AcDbCircle
 62
7
  6
CONTINUOUS
 10
11.6196457303
 20
10.4761935767
 40
0.433
100
AcDbArc
 50
241.9501223004
 51
302.0942157182
  0
ARC
  5
3DF
100
AcDbEntity
  8
0
100
AcDbCircle
 62
7
  6
CONTINUOUS
 10
11.1520318028
 20
9.7400543762
 40
0.425
100
AcDbArc
 50
58.0342812492
 51
67.9808844946
  0
ARC
  5
3E0
100
AcDbEntity
  8
0
100
AcDbCircle
 62
7
  6
CONTINUOUS
 10
12.0744206597
 20
10.2871079142
 40
0.2508912515
100
AcDbArc
 50
357.0916776837
 51
1.1698379518
  0
ARC
  5
3E1
100
AcDbEntity
  8
0
100
AcDbCircle
 62
7
  6
CONTINUOUS
 10
12.0754317619
 20
10.2868766104
 40
0.2498709262
100
AcDbArc
 50
320.055728298
 51
357.1328844146
  0
ARC
  5
3E2
100
AcDbEntity
  8
0
100
AcDbCircle
 62
7
  6
CONTINUOUS
 10
11.9799225463
 20
10.2120326761
 40
0.1045375013
100
AcDbArc
 50
270.2796327832
 51
272.8014396928
  0
ARC
  5
3E3
100
AcDbEntity
  8
0
100
AcDbCircle
 62
7
  6
CONTINUOUS
 10
11.929140486
 20
10.2364888776
 40
0.0850085481
100
AcDbArc
 50
90.0029779011
 51
141.841322172
  0
ARC
  5
3E4
100
AcDbEntity
  8
0
100
AcDbCircle
 62
7
  6
CONTINUOUS
 10
11.9990977656
 20
10.2165733101
 40
0.084991187
100
AcDbArc
 50
321.8422246915
 51
0.3569257697
  0
ARC
  5
3E5
100
AcDbEntity
  8
0
100
AcDbCircle
 62
7
  6
CONTINUOUS
 10
11.9990107412
 20
10.2365494856
 40
0.0849311088
100
AcDbArc
 50
0.3671058375
 51
89.9238665501
  0
ARC
  5
3E6
100
AcDbEntity
  8
0
100
AcDbCircle
 62
9
  6
CONTINUOUS
 10
11.9284818686
 20
10.2370555722
 40
0.0841401677
100
AcDbArc
 50
141.8676563606
 51
180.3797051715
  0
ARC
  5
3E7
100
AcDbEntity
  8
0
100
AcDbCircle
 62
9
  6
CONTINUOUS
 10
11.8935651138
 20
10.1926136428
 40
0.0841401635
100
AcDbArc
 50
141.867652603
 51
180.3797059173
  0
ARC
  5
3E8
100
AcDbEntity
  8
0
100
AcDbCircle
 62
9
  6
CONTINUOUS
 10
11.9999339709
 20
10.2159045177
 40
0.0839182806
100
AcDbArc
 50
269.9571972485
 51
321.8485382758
  0
ARC
  5
3E9
100
AcDbEntity
  8
0
100
AcDbCircle
 62
9
  6
CONTINUOUS
 10
11.9650737793
 20
10.1714261516
 40
0.0838598905
100
AcDbArc
 50
316.038596722
 51
321.844245574
  0
ARC
  5
3EA
100
AcDbEntity
  8
0
100
AcDbCircle
 62
9
  6
CONTINUOUS
 10
11.9650794074
 20
10.1705488203
 40
0.0830394027
100
AcDbArc
 50
283.9028448552
 51
289.3355796333
  0
ARC
  5
3EB
100
AcDbEntity
  8
0
100
AcDbCircle
 62
7
  6
CONTINUOUS
 10
13.3036725371
 20
10.2633850849
 40
0.0511811024
100
AcDbArc
 50
8.636130625
 51
90.0
  0
ARC
  5
3EC
100
AcDbEntity
  8
0
100
AcDbCircle
 62
7
  6
CONTINUOUS
 10
12.3675380786
 20
10.2633850849
 40
0.0511811024
100
AcDbArc
 50
90.0
 51
145.6957080079
  0
ARC
  5
3ED
100
AcDbEntity
  8
0
100
AcDbCircle
 62
7
  6
CONTINUOUS
 10
12.7340318028
 20
10.0628043762
 40
0.035
100
AcDbArc
 50
94.0960437582
 51
182.0467130977
  0
ARC
  5
3EE
100
AcDbEntity
  8
0
100
AcDbCircle
 62
7
  6
CONTINUOUS
 10
12.7340318028
 20
10.0628043762
 40
0.035
100
AcDbArc
 50
27.2701766822
 51
85.9039562418
  0
ARC
  5
3EF
100
AcDbEntity
  8
0
100
AcDbCircle
 62
7
  6
CONTINUOUS
 10
13.2290318028
 20
10.0747197464
 40
0.02
100
AcDbArc
 50
0.0
 51
88.0617961874
  0
ARC
  5
3F0
100
AcDbEntity
  8
0
100
AcDbCircle
 62
7
  6
CONTINUOUS
 10
13.4388161942
 20
11.758543592
 40
1.0128945418
100
AcDbArc
 50
78.094648382
 51
80.2950869352
  0
ARC
  5
3F1
100
AcDbEntity
  8
0
100
AcDbCircle
 62
7
  6
CONTINUOUS
 10
13.4408382749
 20
11.7702811822
 40
1.0009840581
100
AcDbArc
 50
80.2959164158
 51
85.1155195522
  0
ARC
  5
3F2
100
AcDbEntity
  8
0
100
AcDbCircle
 62
7
  6
CONTINUOUS
 10
13.4411975229
 20
11.8119985361
 40
0.998189421
100
AcDbArc
 50
273.8923839326
 51
279.759113207
  0
ARC
  5
3F3
100
AcDbEntity
  8
0
100
AcDbCircle
 62
7
  6
CONTINUOUS
 10
13.4416083375
 20
11.7782911507
 40
0.9929376137
100
AcDbArc
 50
85.120438234
 51
89.9967708633
  0
ARC
  5
3F4
100
AcDbEntity
  8
0
100
AcDbCircle
 62
7
  6
CONTINUOUS
 10
13.4416361288
 20
11.8058279026
 40
0.9920032476
100
AcDbArc
 50
270.6954261616
 51
273.8913029946
  0
ARC
  5
3F5
100
AcDbEntity
  8
0
100
AcDbCircle
 62
7
  6
CONTINUOUS
 10
13.4418929673
 20
11.8031706584
 40
0.9893397064
100
AcDbArc
 50
269.2887513639
 51
270.6949758896
  0
ARC
  5
3F6
100
AcDbEntity
  8
0
100
AcDbCircle
 62
7
  6
CONTINUOUS
 10
13.4554846589
 20
11.7794271173
 40
0.9885374642
100
AcDbArc
 50
75.3989572901
 51
77.5699602474
  0
ARC
  5
3F7
100
AcDbEntity
  8
0
100
AcDbCircle
 62
7
  6
CONTINUOUS
 10
13.4554943983
 20
11.8055636142
 40
0.9884741702
100
AcDbArc
 50
282.4306881675
 51
284.7550608054
  0
ARC
  5
3F8
100
AcDbEntity
  8
0
100
AcDbCircle
 62
7
  6
CONTINUOUS
 10
12.9063995516
 20
11.7924140378
 40
0.5326461822
100
AcDbArc
 50
335.2102046522
 51
338.5946704215
  0
ARC
  5
3F9
100
AcDbEntity
  8
0
100
AcDbCircle
 62
7
  6
CONTINUOUS
 10
17.8390318028
 20
9.6840543762
 40
0.27
100
AcDbArc
 50
270.0
 51
90.0
  0
SPLINE
  5
3FA
100
AcDbEntity
  8
0
100
AcDbSpline
 62
7
  6
CONTINUOUS
 70
0
 71
3
 72
23
 73
19
 74
0
 42
0.0000001
 43
0.0000001
 44
0.0000000001
 40
0.0
 40
0.0
 40
0.0
 40
0.0
 40
0.125
 40
0.25
 40
0.375
 40
0.5
 40
0.625
 40
0.6875
 40
0.75
 40
0.8125
 40
0.84375
 40
0.875
 40
0.90625
 40
0.9375
 40
0.953125
 40
0.96875
 40
0.984375
 40
1.0
 40
1.0
 40
1.0
 40
1.0
 10
9.8356053078
 20
2.1965543762
 30
0.0
 10
9.7783200372
 20
2.1965543762
 30
0.0
 10
9.666772226
 20
2.1998836107
 30
0.0
 10
9.5081932267
 20
2.2141658409
 30
0.0
 10
9.3571169503
 20
2.2370949716
 30
0.0
 10
9.2127597083
 20
2.2695235911
 30
0.0
 10
9.098195679
 20
2.3058334085
 30
0.0
 10
9.0094194867
 20
2.3427795616
 30
0.0
 10
8.9443425303
 20
2.3758917742
 30
0.0
 10
8.8914383495
 20
2.4092998042
 30
0.0
 10
8.8492768892
 20
2.4425423211
 30
0.0
 10
8.818877637
 20
2.4707648115
 30
0.0
 10
8.788154269
 20
2.5056108491
 30
0.0
 10
8.7642198188
 20
2.5415483972
 30
0.0
 10
8.7472685472
 20
2.5766739792
 30
0.0
 10
8.7364886857
 20
2.6059497967
 30
0.0
 10
8.727944635
 20
2.6416921274
 30
0.0
 10
8.7256053078
 20
2.6697458241
 30
0.0
 10
8.7256053078
 20
2.6840543762
 30
0.0
  0
SPLINE
  5
3FB
100
AcDbEntity
  8
0
100
AcDbSpline
 62
7
  6
CONTINUOUS
 70
0
 71
3
 72
15
 73
11
 74
0
 42
0.0000001
 43
0.0000001
 44
0.0000000001
 40
0.0
 40
0.0
 40
0.0
 40
0.0
 40
0.0814622679
 40
0.1629245359
 40
0.2443868038
 40
0.3258490717
 40
0.4887736076
 40
0.6516981434
 40
0.9775472151
 40
1.0
 40
1.0
 40
1.0
 40
1.0
 10
8.7256053078
 20
2.6840543762
 30
0.0
 10
8.7256053078
 20
2.6983629284
 30
0.0
 10
8.7279608269
 20
2.7264795578
 30
0.0
 10
8.7364472998
 20
2.7619805861
 30
0.0
 10
8.7473263516
 20
2.7915911344
 30
0.0
 10
8.7641277352
 20
2.8263797672
 30
0.0
 10
8.7883041632
 20
2.8626587348
 30
0.0
 10
8.8287662444
 20
2.9085769942
 30
0.0
 10
8.8613170687
 20
2.9357293781
 30
0.0
 10
8.8837837712
 20
2.9520439249
 30
0.0
 10
8.8852332445
 20
2.9530867617
 30
0.0
  0
SPLINE
  5
3FC
100
AcDbEntity
  8
0
100
AcDbSpline
 62
7
  6
CONTINUOUS
 70
0
 71
3
 72
15
 73
11
 74
0
 42
0.0000001
 43
0.0000001
 44
0.0000000001
 40
0.0
 40
0.0
 40
0.0
 40
0.0
 40
0.0228293789
 40
0.3485529193
 40
0.5114146894
 40
0.6742764596
 40
0.7557073447
 40
0.8371382298
 40
0.9185691149
 40
1.0
 40
1.0
 40
1.0
 40
1.0
 10
10.7859000449
 20
2.9531413373
 30
0.0
 10
10.7873728149
 20
2.9520823526
 30
0.0
 10
10.8098369294
 20
2.9357765606
 30
0.0
 10
10.8422990811
 20
2.908696009
 30
0.0
 10
10.8830130019
 20
2.8625682033
 30
0.0
 10
10.9070076711
 20
2.8264470041
 30
0.0
 10
10.9239305373
 20
2.7915465975
 30
0.0
 10
10.9347372596
 20
2.7620006104
 30
0.0
 10
10.9432686691
 20
2.7264646156
 30
0.0
 10
10.9456053078
 20
2.6983629284
 30
0.0
 10
10.9456053078
 20
2.6840543762
 30
0.0
  0
SPLINE
  5
3FD
100
AcDbEntity
  8
0
100
AcDbSpline
 62
7
  6
CONTINUOUS
 70
0
 71
3
 72
21
 73
17
 74
0
 42
0.0000001
 43
0.0000001
 44
0.0000000001
 40
0.0
 40
0.0
 40
0.0
 40
0.0
 40
0.015625
 40
0.03125
 40
0.0625
 40
0.09375
 40
0.125
 40
0.1875
 40
0.25
 40
0.3125
 40
0.375
 40
0.5
 40
0.625
 40
0.75
 40
0.875
 40
1.0
 40
1.0
 40
1.0
 40
1.0
 10
10.9456053078
 20
2.6840543762
 30
0.0
 10
10.9456053078
 20
2.6697458241
 30
0.0
 10
10.9432545548
 20
2.6415874162
 30
0.0
 10
10.9319166624
 20
2.5943946998
 30
0.0
 10
10.9118478761
 20
2.5491077715
 30
0.0
 10
10.8829719671
 20
2.5054396522
 30
0.0
 10
10.8423227957
 20
2.4594710162
 30
0.0
 10
10.7906024037
 20
2.4162732991
 30
0.0
 10
10.7268078048
 20
2.3758258882
 30
0.0
 10
10.6617829495
 20
2.3427512169
 30
0.0
 10
10.573019462
 20
2.3058497596
 30
0.0
 10
10.4584510762
 20
2.2695181547
 30
0.0
 10
10.3140875931
 20
2.2370960085
 30
0.0
 10
10.1630415089
 20
2.2141671296
 30
0.0
 10
10.0043479822
 20
2.199877419
 30
0.0
 10
9.8928905785
 20
2.1965543762
 30
0.0
 10
9.8356053078
 20
2.1965543762
 30
0.0
  0
SPLINE
  5
3FE
100
AcDbEntity
  8
0
100
AcDbSpline
 62
7
  6
CONTINUOUS
 70
0
 71
3
 72
9
 73
5
 74
0
 42
0.0000001
 43
0.0000001
 44
0.0000000001
 40
0.0
 40
0.0
 40
0.0
 40
0.0
 40
0.4239371999
 40
1.0
 40
1.0
 40
1.0
 40
1.0
 10
7.63172955
 20
10.130986061
 30
0.0
 10
7.6324351299
 20
10.1275478819
 30
0.0
 10
7.6338783329
 20
10.1193926948
 30
0.0
 10
7.6350495337
 20
10.1111958568
 30
0.0
 10
7.6356757216
 20
10.1064678438
 30
0.0
  0
LINE
  5
3FF
100
AcDbEntity
  8
0
100
AcDbLine
 62
7
  6
CONTINUOUS
 10
7.6356757216
 20
10.1064678438
 11
7.6385934259
 21
10.0814098023
  0
LINE
  5
400
100
AcDbEntity
  8
0
100
AcDbLine
 62
7
  6
CONTINUOUS
 10
7.6417144687
 20
9.3210707945
 11
7.638689403
 21
9.2876316592
  0
LINE
  5
401
100
AcDbEntity
  8
0
100
AcDbLine
 62
7
  6
CONTINUOUS
 10
7.638689403
 20
9.2876316592
 11
7.6357499882
 21
9.2622033365
  0
SPLINE
  5
402
100
AcDbEntity
  8
0
100
AcDbSpline
 62
7
  6
CONTINUOUS
 70
0
 71
3
 72
9
 73
5
 74
0
 42
0.0000001
 43
0.0000001
 44
0.0000000001
 40
0.0
 40
0.0
 40
0.0
 40
0.0
 40
0.5767352207
 40
1.0
 40
1.0
 40
1.0
 40
1.0
 10
7.6357499882
 20
9.2622033365
 30
0.0
 10
7.6351131825
 20
9.257362699
 30
0.0
 10
7.6339224176
 20
9.2489803824
 30
0.0
 10
7.6324511902
 20
9.2406407686
 30
0.0
 10
7.6317312775
 20
9.2371306919
 30
0.0
  0
SPLINE
  5
403
100
AcDbEntity
  8
0
100
AcDbSpline
 62
7
  6
CONTINUOUS
 70
0
 71
3
 72
9
 73
5
 74
0
 42
0.0000001
 43
0.0000001
 44
0.0000000001
 40
0.0
 40
0.0
 40
0.0
 40
0.0
 40
0.5371578771
 40
1.0
 40
1.0
 40
1.0
 40
1.0
 10
7.8438297505
 20
10.2445690883
 30
0.0
 10
7.8466845476
 20
10.2409355108
 30
0.0
 10
7.8515131268
 20
10.2337735287
 30
0.0
 10
7.8553891634
 20
10.2260761902
 30
0.0
 10
7.8570194344
 20
10.2224436468
 30
0.0
  0
SPLINE
  5
404
100
AcDbEntity
  8
0
100
AcDbSpline
 62
7
  6
CONTINUOUS
 70
0
 71
3
 72
10
 73
6
 74
0
 42
0.0000001
 43
0.0000001
 44
0.0000000001
 40
0.0
 40
0.0
 40
0.0
 40
0.0
 40
0.2748466307
 40
0.5182585999
 40
1.0
 40
1.0
 40
1.0
 40
1.0
 10
7.8570194344
 20
10.2224436468
 30
0.0
 10
7.8586197927
 20
10.2188777542
 30
0.0
 10
7.8613431866
 20
10.2120143849
 30
0.0
 10
7.8653967002
 20
10.1983752145
 30
0.0
 10
7.8677089311
 20
10.1883147454
 30
0.0
 10
7.8690455472
 20
10.181595639
 30
0.0
  0
SPLINE
  5
405
100
AcDbEntity
  8
0
100
AcDbSpline
 62
7
  6
CONTINUOUS
 70
0
 71
3
 72
9
 73
5
 74
0
 42
0.0000001
 43
0.0000001
 44
0.0000000001
 40
0.0
 40
0.0
 40
0.0
 40
0.0
 40
0.2379586513
 40
1.0
 40
1.0
 40
1.0
 40
1.0
 10
7.8690455472
 20
10.181595639
 30
0.0
 10
7.8694483029
 20
10.1795710051
 30
0.0
 10
7.8710683234
 20
10.1710481984
 30
0.0
 10
7.8724264122
 20
10.1624772639
 30
0.0
 10
7.8733737127
 20
10.1559347363
 30
0.0
  0
SPLINE
  5
406
100
AcDbEntity
  8
0
100
AcDbSpline
 62
7
  6
CONTINUOUS
 70
0
 71
3
 72
9
 73
5
 74
0
 42
0.0000001
 43
0.0000001
 44
0.0000000001
 40
0.0
 40
0.0
 40
0.0
 40
0.0
 40
0.2349283461
 40
1.0
 40
1.0
 40
1.0
 40
1.0
 10
7.8733737127
 20
10.1559347363
 30
0.0
 10
7.8737495497
 20
10.1533390198
 30
0.0
 10
7.8752893476
 20
10.1422813642
 30
0.0
 10
7.8766097959
 20
10.1311938558
 30
0.0
 10
7.8775349535
 20
10.1227027036
 30
0.0
  0
SPLINE
  5
407
100
AcDbEntity
  8
0
100
AcDbSpline
 62
7
  6
CONTINUOUS
 70
0
 71
3
 72
9
 73
5
 74
0
 42
0.0000001
 43
0.0000001
 44
0.0000000001
 40
0.0
 40
0.0
 40
0.0
 40
0.0
 40
0.2654221642
 40
1.0
 40
1.0
 40
1.0
 40
1.0
 10
7.8776774684
 20
9.2467211742
 30
0.0
 10
7.8773539237
 20
9.2437225373
 30
0.0
 10
7.8760945784
 20
9.2324294178
 30
0.0
 10
7.8746651813
 20
9.2211544955
 30
0.0
 10
7.8734775856
 20
9.2128922666
 30
0.0
  0
SPLINE
  5
408
100
AcDbEntity
  8
0
100
AcDbSpline
 62
7
  6
CONTINUOUS
 70
0
 71
3
 72
9
 73
5
 74
0
 42
0.0000001
 43
0.0000001
 44
0.0000000001
 40
0.0
 40
0.0
 40
0.0
 40
0.0
 40
0.2632458414
 40
1.0
 40
1.0
 40
1.0
 40
1.0
 10
7.8734775856
 20
9.2128922666
 30
0.0
 10
7.8731480458
 20
9.2105996228
 30
0.0
 10
7.8718551209
 20
9.2018966673
 30
0.0
 10
7.870372954
 20
9.1932201264
 30
0.0
 10
7.8691142782
 20
9.1868610597
 30
0.0
  0
SPLINE
  5
409
100
AcDbEntity
  8
0
100
AcDbSpline
 62
7
  6
CONTINUOUS
 70
0
 71
3
 72
11
 73
7
 74
0
 42
0.0000001
 43
0.0000001
 44
0.0000000001
 40
0.0
 40
0.0
 40
0.0
 40
0.0
 40
0.2436730141
 40
0.4821808362
 40
0.7254183988
 40
1.0
 40
1.0
 40
1.0
 40
1.0
 10
7.8691142782
 20
9.1868610597
 30
0.0
 10
7.8684367747
 20
9.1834381846
 30
0.0
 10
7.866999592
 20
9.176683109
 30
0.0
 10
7.8644632502
 20
9.1666081239
 30
0.0
 10
7.8613879458
 20
9.1562166288
 30
0.0
 10
7.8586524715
 20
9.1493097462
 30
0.0
 10
7.8570445758
 20
9.1457216642
 30
0.0
  0
SPLINE
  5
40A
100
AcDbEntity
  8
0
100
AcDbSpline
 62
7
  6
CONTINUOUS
 70
0
 71
3
 72
9
 73
5
 74
0
 42
0.0000001
 43
0.0000001
 44
0.0000000001
 40
0.0
 40
0.0
 40
0.0
 40
0.0
 40
0.4626317055
 40
1.0
 40
1.0
 40
1.0
 40
1.0
 10
7.8570445758
 20
9.1457216642
 30
0.0
 10
7.8554131861
 20
9.1420811539
 30
0.0
 10
7.8515321609
 20
9.1343631147
 30
0.0
 10
7.8466925098
 20
9.127183376
 30
0.0
 10
7.8438297505
 20
9.1235396642
 30
0.0
  0
SPLINE
  5
40B
100
AcDbEntity
  8
0
100
AcDbSpline
 62
7
  6
CONTINUOUS
 70
0
 71
3
 72
9
 73
5
 74
0
 42
0.0000001
 43
0.0000001
 44
0.0000000001
 40
0.0
 40
0.0
 40
0.0
 40
0.0
 40
0.5371578771
 40
1.0
 40
1.0
 40
1.0
 40
1.0
 10
11.8273808652
 20
10.2445690883
 30
0.0
 10
11.824526068
 20
10.2409355108
 30
0.0
 10
11.8196974889
 20
10.2337735287
 30
0.0
 10
11.8158214523
 20
10.2260761902
 30
0.0
 10
11.8141911813
 20
10.2224436468
 30
0.0
  0
SPLINE
  5
40C
100
AcDbEntity
  8
0
100
AcDbSpline
 62
7
  6
CONTINUOUS
 70
0
 71
3
 72
10
 73
6
 74
0
 42
0.0000001
 43
0.0000001
 44
0.0000000001
 40
0.0
 40
0.0
 40
0.0
 40
0.0
 40
0.2748466307
 40
0.5182585999
 40
1.0
 40
1.0
 40
1.0
 40
1.0
 10
11.8141911813
 20
10.2224436468
 30
0.0
 10
11.8125908229
 20
10.2188777542
 30
0.0
 10
11.8098674291
 20
10.2120143849
 30
0.0
 10
11.8058139155
 20
10.1983752145
 30
0.0
 10
11.8035016845
 20
10.1883147454
 30
0.0
 10
11.8021650684
 20
10.181595639
 30
0.0
  0
SPLINE
  5
40D
100
AcDbEntity
  8
0
100
AcDbSpline
 62
7
  6
CONTINUOUS
 70
0
 71
3
 72
9
 73
5
 74
0
 42
0.0000001
 43
0.0000001
 44
0.0000000001
 40
0.0
 40
0.0
 40
0.0
 40
0.0
 40
0.2379586513
 40
1.0
 40
1.0
 40
1.0
 40
1.0
 10
11.8021650684
 20
10.181595639
 30
0.0
 10
11.8017623127
 20
10.1795710051
 30
0.0
 10
11.8001422923
 20
10.1710481984
 30
0.0
 10
11.7987842035
 20
10.1624772639
 30
0.0
 10
11.7978369029
 20
10.1559347363
 30
0.0
  0
SPLINE
  5
40E
100
AcDbEntity
  8
0
100
AcDbSpline
 62
7
  6
CONTINUOUS
 70
0
 71
3
 72
9
 73
5
 74
0
 42
0.0000001
 43
0.0000001
 44
0.0000000001
 40
0.0
 40
0.0
 40
0.0
 40
0.0
 40
0.2349283461
 40
1.0
 40
1.0
 40
1.0
 40
1.0
 10
11.7978369029
 20
10.1559347363
 30
0.0
 10
11.797461066
 20
10.1533390198
 30
0.0
 10
11.7959212681
 20
10.1422813642
 30
0.0
 10
11.7946008198
 20
10.1311938558
 30
0.0
 10
11.7936756622
 20
10.1227027036
 30
0.0
  0
SPLINE
  5
40F
100
AcDbEntity
  8
0
100
AcDbSpline
 62
7
  6
CONTINUOUS
 70
0
 71
3
 72
9
 73
5
 74
0
 42
0.0000001
 43
0.0000001
 44
0.0000000001
 40
0.0
 40
0.0
 40
0.0
 40
0.0
 40
0.235321426
 40
1.0
 40
1.0
 40
1.0
 40
1.0
 10
11.7936756622
 20
10.1227027036
 30
0.0
 10
11.7933047638
 20
10.1192985758
 30
0.0
 10
11.7917882215
 20
10.1048262231
 30
0.0
 10
11.7904886833
 20
10.0903316249
 30
0.0
 10
11.7895807223
 20
10.0792415296
 30
0.0
  0
LINE
  5
410
100
AcDbEntity
  8
0
100
AcDbLine
 62
7
  6
CONTINUOUS
 10
11.7894036258
 20
9.2910435094
 11
11.7895789097
 21
9.2888886726
  0
SPLINE
  5
411
100
AcDbEntity
  8
0
100
AcDbSpline
 62
7
  6
CONTINUOUS
 70
0
 71
3
 72
9
 73
5
 74
0
 42
0.0000001
 43
0.0000001
 44
0.0000000001
 40
0.0
 40
0.0
 40
0.0
 40
0.0
 40
0.2640917005
 40
1.0
 40
1.0
 40
1.0
 40
1.0
 10
11.7895789097
 20
9.2888886726
 30
0.0
 10
11.7898830878
 20
9.2851727323
 30
0.0
 10
11.791072497
 20
9.2711052552
 30
0.0
 10
11.7924186348
 20
9.2570505593
 30
0.0
 10
11.7935331472
 20
9.2467211742
 30
0.0
  0
SPLINE
  5
412
100
AcDbEntity
  8
0
100
AcDbSpline
 62
7
  6
CONTINUOUS
 70
0
 71
3
 72
9
 73
5
 74
0
 42
0.0000001
 43
0.0000001
 44
0.0000000001
 40
0.0
 40
0.0
 40
0.0
 40
0.0
 40
0.2654221642
 40
1.0
 40
1.0
 40
1.0
 40
1.0
 10
11.7935331472
 20
9.2467211742
 30
0.0
 10
11.7938566919
 20
9.2437225373
 30
0.0
 10
11.7951160372
 20
9.2324294178
 30
0.0
 10
11.7965454344
 20
9.2211544955
 30
0.0
 10
11.79773303
 20
9.2128922666
 30
0.0
  0
SPLINE
  5
413
100
AcDbEntity
  8
0
100
AcDbSpline
 62
7
  6
CONTINUOUS
 70
0
 71
3
 72
9
 73
5
 74
0
 42
0.0000001
 43
0.0000001
 44
0.0000000001
 40
0.0
 40
0.0
 40
0.0
 40
0.0
 40
0.2632458414
 40
1.0
 40
1.0
 40
1.0
 40
1.0
 10
11.79773303
 20
9.2128922666
 30
0.0
 10
11.7980625699
 20
9.2105996228
 30
0.0
 10
11.7993554948
 20
9.2018966673
 30
0.0
 10
11.8008376617
 20
9.1932201264
 30
0.0
 10
11.8020963375
 20
9.1868610597
 30
0.0
  0
SPLINE
  5
414
100
AcDbEntity
  8
0
100
AcDbSpline
 62
7
  6
CONTINUOUS
 70
0
 71
3
 72
11
 73
7
 74
0
 42
0.0000001
 43
0.0000001
 44
0.0000000001
 40
0.0
 40
0.0
 40
0.0
 40
0.0
 40
0.2436730141
 40
0.4821808362
 40
0.7254183988
 40
1.0
 40
1.0
 40
1.0
 40
1.0
 10
11.8020963375
 20
9.1868610597
 30
0.0
 10
11.8027738409
 20
9.1834381846
 30
0.0
 10
11.8042110237
 20
9.176683109
 30
0.0
 10
11.8067473655
 20
9.1666081239
 30
0.0
 10
11.8098226699
 20
9.1562166288
 30
0.0
 10
11.8125581442
 20
9.1493097462
 30
0.0
 10
11.8141660398
 20
9.1457216642
 30
0.0
  0
SPLINE
  5
415
100
AcDbEntity
  8
0
100
AcDbSpline
 62
7
  6
CONTINUOUS
 70
0
 71
3
 72
9
 73
5
 74
0
 42
0.0000001
 43
0.0000001
 44
0.0000000001
 40
0.0
 40
0.0
 40
0.0
 40
0.0
 40
0.4626317055
 40
1.0
 40
1.0
 40
1.0
 40
1.0
 10
11.8141660398
 20
9.1457216642
 30
0.0
 10
11.8157974296
 20
9.1420811539
 30
0.0
 10
11.8196784548
 20
9.1343631147
 30
0.0
 10
11.8245181058
 20
9.127183376
 30
0.0
 10
11.8273808652
 20
9.1235396642
 30
0.0
  0
LINE
  5
416
100
AcDbEntity
  8
0
100
AcDbLine
 62
7
  6
CONTINUOUS
 10
12.0394810656
 20
10.130986061
 11
12.0381125764
 21
10.1236869347
  0
LINE
  5
417
100
AcDbEntity
  8
0
100
AcDbLine
 62
7
  6
CONTINUOUS
 10
12.0381125764
 20
10.1236869347
 11
12.035534894
 21
10.1064678438
  0
LINE
  5
418
100
AcDbEntity
  8
0
100
AcDbLine
 62
7
  6
CONTINUOUS
 10
12.035534894
 20
10.1064678438
 11
12.0326171898
 21
10.0814098023
  0
LINE
  5
419
100
AcDbEntity
  8
0
100
AcDbLine
 62
7
  6
CONTINUOUS
 10
12.0294052135
 20
9.3222084041
 11
12.0325212127
 21
9.2876316592
  0
LINE
  5
41A
100
AcDbEntity
  8
0
100
AcDbLine
 62
7
  6
CONTINUOUS
 10
12.0325212127
 20
9.2876316592
 11
12.0354606275
 21
9.2622033365
  0
SPLINE
  5
41B
100
AcDbEntity
  8
0
100
AcDbSpline
 62
7
  6
CONTINUOUS
 70
0
 71
3
 72
9
 73
5
 74
0
 42
0.0000001
 43
0.0000001
 44
0.0000000001
 40
0.0
 40
0.0
 40
0.0
 40
0.0
 40
0.5767352207
 40
1.0
 40
1.0
 40
1.0
 40
1.0
 10
12.0354606275
 20
9.2622033365
 30
0.0
 10
12.0360974331
 20
9.257362699
 30
0.0
 10
12.037288198
 20
9.2489803824
 30
0.0
 10
12.0387594254
 20
9.2406407686
 30
0.0
 10
12.0394793382
 20
9.2371306919
 30
0.0
  0
SPLINE
  5
41C
100
AcDbEntity
  8
0
100
AcDbSpline
 62
7
  6
CONTINUOUS
 70
0
 71
3
 72
9
 73
5
 74
0
 42
0.0000001
 43
0.0000001
 44
0.0000000001
 40
0.0
 40
0.0
 40
0.0
 40
0.0
 40
0.5151005769
 40
1.0
 40
1.0
 40
1.0
 40
1.0
 10
13.2402471835
 20
7.3497385697
 30
0.0
 10
13.2387986886
 20
7.353117922
 30
0.0
 10
13.236579791
 20
7.3599481431
 30
0.0
 10
13.2356604366
 20
7.3670818698
 30
0.0
 10
13.2356053214
 20
7.3705425649
 30
0.0
  0
SPLINE
  5
41D
100
AcDbEntity
  8
0
100
AcDbSpline
 62
7
  6
CONTINUOUS
 70
0
 71
3
 72
16
 73
12
 74
0
 42
0.0000001
 43
0.0000001
 44
0.0000000001
 40
0.0
 40
0.0
 40
0.0
 40
0.0
 40
0.1250372567
 40
0.2500746955
 40
0.3751097578
 40
0.4376692957
 40
0.5002295497
 40
0.62526296
 40
0.7502661541
 40
0.8752405665
 40
1.0
 40
1.0
 40
1.0
 40
1.0
 10
7.1317357225
 20
12.1761957709
 30
0.0
 10
7.1130445444
 20
12.2200572922
 30
0.0
 10
7.069148483
 20
12.3051649911
 30
0.0
 10
6.9854986016
 20
12.4217732663
 30
0.0
 10
6.9022757416
 20
12.5077785703
 30
0.0
 10
6.8287970661
 20
12.5687161518
 30
0.0
 10
6.7510449431
 20
12.6240989386
 30
0.0
 10
6.6465838336
 20
12.68245609
 30
0.0
 10
6.5124397434
 20
12.7334230776
 30
0.0
 10
6.3724357323
 20
12.7643408139
 30
0.0
 10
6.2770657531
 20
12.7712142653
 30
0.0
 10
6.229493675
 20
12.7712226622
 30
0.0
  0
SPLINE
  5
41E
100
AcDbEntity
  8
0
100
AcDbSpline
 62
7
  6
CONTINUOUS
 70
0
 71
3
 72
10
 73
6
 74
0
 42
0.0000001
 43
0.0000001
 44
0.0000000001
 40
0.0
 40
0.0
 40
0.0
 40
0.0
 40
0.5375805657
 40
0.7909872953
 40
1.0
 40
1.0
 40
1.0
 40
1.0
 10
6.0608137611
 20
12.7567998366
 30
0.0
 10
6.0438449141
 20
12.7538840529
 30
0.0
 10
6.0189822925
 20
12.7489473849
 30
0.0
 10
5.9878158487
 20
12.7415609559
 30
0.0
 10
5.9734829565
 20
12.737826827
 30
0.0
 10
5.9670174749
 20
12.7360918454
 30
0.0
  0
LINE
  5
41F
100
AcDbEntity
  8
0
100
AcDbLine
 62
7
  6
CONTINUOUS
 10
5.9670174749
 20
12.7360918454
 11
5.9637797799
 21
12.7352178711
  0
SPLINE
  5
420
100
AcDbEntity
  8
0
100
AcDbSpline
 62
7
  6
CONTINUOUS
 70
0
 71
3
 72
16
 73
12
 74
0
 42
0.0000001
 43
0.0000001
 44
0.0000000001
 40
0.0
 40
0.0
 40
0.0
 40
0.0
 40
0.0490098761
 40
0.0804278103
 40
0.187537858
 40
0.3301527549
 40
0.4077670279
 40
0.4881369394
 40
0.6545023017
 40
0.8257440193
 40
1.0
 40
1.0
 40
1.0
 40
1.0
 10
5.9663620838
 20
10.8491473889
 30
0.0
 10
5.9653344006
 20
10.8494209115
 30
0.0
 10
5.961777829
 20
10.8503769206
 30
0.0
 10
5.9678033438
 20
10.8487498339
 30
0.0
 10
5.9722231521
 20
10.8475654301
 30
0.0
 10
5.979684405
 20
10.8456211641
 30
0.0
 10
5.9859149451
 20
10.8440482
 30
0.0
 10
5.9927719899
 20
10.8423503893
 30
0.0
 10
6.0015797086
 20
10.8402423533
 30
0.0
 10
6.0124127817
 20
10.8377701032
 30
0.0
 10
6.0197389386
 20
10.836183113
 30
0.0
 10
6.02343878
 20
10.8354031378
 30
0.0
  0
SPLINE
  5
421
100
AcDbEntity
  8
0
100
AcDbSpline
 62
7
  6
CONTINUOUS
 70
0
 71
3
 72
29
 73
25
 74
0
 42
0.0000001
 43
0.0000001
 44
0.0000000001
 40
0.0
 40
0.0
 40
0.0
 40
0.0
 40
0.0624840208
 40
0.1249576889
 40
0.1874401523
 40
0.2499199928
 40
0.281185624
 40
0.3124529886
 40
0.3749338939
 40
0.4374150079
 40
0.4686814912
 40
0.499948705
 40
0.5312157991
 40
0.5624817915
 40
0.5937482525
 40
0.6250148195
 40
0.6562806499
 40
0.6875472164
 40
0.7188137194
 40
0.7500787655
 40
0.8125581364
 40
0.8750408749
 40
0.9375153866
 40
1.0
 40
1.0
 40
1.0
 40
1.0
 10
5.9665357438
 20
10.8490119854
 30
0.0
 10
5.9147629126
 20
10.8624992266
 30
0.0
 10
5.8132242887
 20
10.897946815
 30
0.0
 10
5.6716589339
 20
10.9749817323
 30
0.0
 10
5.5443812176
 20
11.0738956424
 30
0.0
 10
5.4531282023
 20
11.1725929274
 30
0.0
 10
5.3905946014
 20
11.2595957984
 30
0.0
 10
5.3354465464
 20
11.3514607357
 30
0.0
 10
5.2809816332
 20
11.4743490895
 30
0.0
 10
5.2476189508
 20
11.6045702165
 30
0.0
 10
5.2341248999
 20
11.7108619883
 30
0.0
 10
5.2306825696
 20
11.791200222
 30
0.0
 10
5.2339048463
 20
11.8715416586
 30
0.0
 10
5.2438096808
 20
11.951337165
 30
0.0
 10
5.2603213858
 20
12.0300292264
 30
0.0
 10
5.2832796752
 20
12.1070873993
 30
0.0
 10
5.3125614786
 20
12.181972604
 30
0.0
 10
5.3479385039
 20
12.2541748937
 30
0.0
 10
5.3891318482
 20
12.3232299155
 30
0.0
 10
5.4514250005
 20
12.4103969457
 30
0.0
 10
5.5424095833
 20
12.5093441783
 30
0.0
 10
5.669419324
 20
12.6086018588
 30
0.0
 10
5.8107777643
 20
12.6860194985
 30
0.0
 10
5.9122220447
 20
12.7217398133
 30
0.0
 10
5.9639588543
 20
12.7353665716
 30
0.0
  0
SPLINE
  5
422
100
AcDbEntity
  8
0
100
AcDbSpline
 62
7
  6
CONTINUOUS
 70
0
 71
3
 72
21
 73
17
 74
0
 42
0.0000001
 43
0.0000001
 44
0.0000000001
 40
0.0
 40
0.0
 40
0.0
 40
0.0
 40
0.0622357345
 40
0.1244217884
 40
0.1866937708
 40
0.2490523622
 40
0.3114583943
 40
0.3739093232
 40
0.4364107749
 40
0.4989652236
 40
0.624018011
 40
0.7492027665
 40
0.8119182645
 40
0.8746326229
 40
0.9373321407
 40
1.0
 40
1.0
 40
1.0
 40
1.0
 10
6.7141089702
 20
12.3204144889
 30
0.0
 10
6.6937403536
 20
12.3187024602
 30
0.0
 10
6.6531799152
 20
12.3128824575
 30
0.0
 10
6.5937971012
 20
12.2970677897
 30
0.0
 10
6.5366427508
 20
12.274361824
 30
0.0
 10
6.4824516031
 20
12.2451396366
 30
0.0
 10
6.4319967231
 20
12.2097461648
 30
0.0
 10
6.3860099627
 20
12.1686508475
 30
0.0
 10
6.3450575626
 20
12.1224616783
 30
0.0
 10
6.2980187392
 20
12.0549288596
 30
0.0
 10
6.2543437532
 20
11.9608518397
 30
0.0
 10
6.2335688677
 20
11.8591829302
 30
0.0
 10
6.2312162341
 20
11.7767522507
 30
0.0
 10
6.2366443585
 20
11.7150562897
 30
0.0
 10
6.2491178981
 20
11.654423922
 30
0.0
 10
6.2620789503
 20
11.6152252688
 30
0.0
 10
6.2696650247
 20
11.5960919148
 30
0.0
  0
SPLINE
  5
423
100
AcDbEntity
  8
0
100
AcDbSpline
 62
7
  6
CONTINUOUS
 70
0
 71
3
 72
11
 73
7
 74
0
 42
0.0000001
 43
0.0000001
 44
0.0000000001
 40
0.0
 40
0.0
 40
0.0
 40
0.0
 40
0.3399852306
 40
0.6208523393
 40
0.8432180116
 40
1.0
 40
1.0
 40
1.0
 40
1.0
 10
6.7141287737
 20
12.3204165332
 30
0.0
 10
6.706314118
 20
12.3197682262
 30
0.0
 10
6.6920523289
 20
12.3184766948
 30
0.0
 10
6.6727066192
 20
12.3164815634
 30
0.0
 10
6.6575691528
 20
12.3148723409
 30
0.0
 10
6.6488679546
 20
12.3140002142
 30
0.0
 10
6.6452694039
 20
12.3136448188
 30
0.0
  0
SPLINE
  5
424
100
AcDbEntity
  8
0
100
AcDbSpline
 62
7
  6
CONTINUOUS
 70
0
 71
3
 72
9
 73
5
 74
0
 42
0.0000001
 43
0.0000001
 44
0.0000000001
 40
0.0
 40
0.0
 40
0.0
 40
0.0
 40
0.4851965216
 40
1.0
 40
1.0
 40
1.0
 40
1.0
 10
6.3804170823
 20
7.3164187444
 30
0.0
 10
6.3838800543
 20
7.3164064541
 30
0.0
 10
6.3910298655
 20
7.317188643
 30
0.0
 10
6.397900391
 20
7.3192771011
 30
0.0
 10
6.4013047508
 20
7.3206594434
 30
0.0
  0
SPLINE
  5
425
100
AcDbEntity
  8
0
100
AcDbSpline
 62
7
  6
CONTINUOUS
 70
0
 71
3
 72
9
 73
5
 74
0
 42
0.0000001
 43
0.0000001
 44
0.0000000001
 40
0.0
 40
0.0
 40
0.0
 40
0.0
 40
0.5003554453
 40
1.0
 40
1.0
 40
1.0
 40
1.0
 10
6.4013047508
 20
7.3206594434
 30
0.0
 10
6.4078575592
 20
7.3233202152
 30
0.0
 10
6.4202336438
 20
7.3310252039
 30
0.0
 10
6.4281811046
 20
7.3432473735
 30
0.0
 10
6.4309634321
 20
7.3497385697
 30
0.0
  0
SPLINE
  5
426
100
AcDbEntity
  8
0
100
AcDbSpline
 62
7
  6
CONTINUOUS
 70
0
 71
3
 72
9
 73
5
 74
0
 42
0.0000001
 43
0.0000001
 44
0.0000000001
 40
0.0
 40
0.0
 40
0.0
 40
0.0
 40
0.5151005769
 40
1.0
 40
1.0
 40
1.0
 40
1.0
 10
6.4309634321
 20
7.3497385697
 30
0.0
 10
6.4324119271
 20
7.353117922
 30
0.0
 10
6.4346308247
 20
7.3599481431
 30
0.0
 10
6.4355501791
 20
7.3670818698
 30
0.0
 10
6.4356052943
 20
7.3705425649
 30
0.0
  0
SPLINE
  5
427
100
AcDbEntity
  8
0
100
AcDbSpline
 62
7
  6
CONTINUOUS
 70
0
 71
3
 72
17
 73
13
 74
0
 42
0.0000001
 43
0.0000001
 44
0.0000000001
 40
0.0
 40
0.0
 40
0.0
 40
0.0
 40
0.1247466525
 40
0.1872678747
 40
0.2497963985
 40
0.374789153
 40
0.4998119367
 40
0.562367163
 40
0.6249215345
 40
0.7499462719
 40
0.8749731535
 40
1.0
 40
1.0
 40
1.0
 40
1.0
 10
13.4417130354
 20
12.7712234494
 30
0.0
 10
13.3941277847
 20
12.7712151534
 30
0.0
 10
13.3225535782
 20
12.7660420228
 30
0.0
 10
13.2287619031
 20
12.7488902474
 30
0.0
 10
13.1363664475
 20
12.724908374
 30
0.0
 10
13.0244983219
 20
12.6824031949
 30
0.0
 10
12.9200249984
 20
12.6240107357
 30
0.0
 10
12.8422583779
 20
12.5685979225
 30
0.0
 10
12.7687708985
 20
12.5076267331
 30
0.0
 10
12.6855440519
 20
12.42157543
 30
0.0
 10
12.6019032769
 20
12.3049081445
 30
0.0
 10
12.5580212117
 20
12.2197611102
 30
0.0
 10
12.5393400084
 20
12.175879996
 30
0.0
  0
SPLINE
  5
428
100
AcDbEntity
  8
0
100
AcDbSpline
 62
7
  6
CONTINUOUS
 70
0
 71
3
 72
28
 73
24
 74
0
 42
0.0000001
 43
0.0000001
 44
0.0000000001
 40
0.0
 40
0.0
 40
0.0
 40
0.0
 40
0.0624865632
 40
0.124963479
 40
0.1874490878
 40
0.2499320545
 40
0.2811993044
 40
0.3124683576
 40
0.3437376596
 40
0.3750063049
 40
0.4374910731
 40
0.4687594677
 40
0.500028676
 40
0.5312977081
 40
0.5625655954
 40
0.6250485668
 40
0.6875308937
 40
0.7187989949
 40
0.7500655898
 40
0.8125481733
 40
0.8750341447
 40
0.937511416
 40
1.0
 40
1.0
 40
1.0
 40
1.0
 10
13.7072462793
 20
10.8496859151
 30
0.0
 10
13.7589817961
 20
10.8633124859
 30
0.0
 10
13.8604245716
 20
10.8990301107
 30
0.0
 10
14.0017812274
 20
10.9764457637
 30
0.0
 10
14.1287896433
 20
11.0757027555
 30
0.0
 10
14.2197773196
 20
11.1746467922
 30
0.0
 10
14.2820719065
 20
11.2618150003
 30
0.0
 10
14.3232661961
 20
11.3308698318
 30
0.0
 10
14.3586466437
 20
11.4030801304
 30
0.0
 10
14.397665139
 20
11.50285734
 30
0.0
 10
14.424109071
 20
11.6071899459
 30
0.0
 10
14.4373041686
 20
11.7135102676
 30
0.0
 10
14.4405270887
 20
11.7938588766
 30
0.0
 10
14.4370836021
 20
11.8741955183
 30
0.0
 10
14.4235904077
 20
11.9804863449
 30
0.0
 10
14.3902265972
 20
12.1107033504
 30
0.0
 10
14.3357654496
 20
12.2335889041
 30
0.0
 10
14.2806197556
 20
12.3254514962
 30
0.0
 10
14.2180874198
 20
12.412452666
 30
0.0
 10
14.1268356404
 20
12.5111492254
 30
0.0
 10
13.9995605661
 20
12.6100656619
 30
0.0
 10
13.8579952375
 20
12.6871032163
 30
0.0
 10
13.7564557
 20
12.722551441
 30
0.0
 10
13.7046820723
 20
12.7360393519
 30
0.0
  0
SPLINE
  5
429
100
AcDbEntity
  8
0
100
AcDbSpline
 62
7
  6
CONTINUOUS
 70
0
 71
3
 72
10
 73
6
 74
0
 42
0.0000001
 43
0.0000001
 44
0.0000000001
 40
0.0
 40
0.0
 40
0.0
 40
0.0
 40
0.5375805774
 40
0.7909873091
 40
1.0
 40
1.0
 40
1.0
 40
1.0
 10
13.6103968782
 20
10.8282538038
 30
0.0
 10
13.6273657264
 20
10.8311695881
 30
0.0
 10
13.6522283495
 20
10.8361062569
 30
0.0
 10
13.6833947946
 20
10.843492687
 30
0.0
 10
13.6977276871
 20
10.8472268163
 30
0.0
 10
13.7041931686
 20
10.8489617981
 30
0.0
  0
LINE
  5
42A
100
AcDbEntity
  8
0
100
AcDbLine
 62
7
  6
CONTINUOUS
 10
13.7041931686
 20
10.8489617981
 11
13.707430862
 21
10.849835772
  0
SPLINE
  5
42B
100
AcDbEntity
  8
0
100
AcDbSpline
 62
7
  6
CONTINUOUS
 70
0
 71
3
 72
16
 73
12
 74
0
 42
0.0000001
 43
0.0000001
 44
0.0000000001
 40
0.0
 40
0.0
 40
0.0
 40
0.0
 40
0.0490099539
 40
0.0804278064
 40
0.1875378197
 40
0.3301527099
 40
0.4077669857
 40
0.4881369015
 40
0.6545022746
 40
0.8257440051
 40
1.0
 40
1.0
 40
1.0
 40
1.0
 10
13.7048485511
 20
12.7359062386
 30
0.0
 10
13.7058762361
 20
12.7356327155
 30
0.0
 10
13.7094328111
 20
12.7346767055
 30
0.0
 10
13.7034073025
 20
12.7363037906
 30
0.0
 10
13.6989874933
 20
12.7374881948
 30
0.0
 10
13.6915262418
 20
12.7394324606
 30
0.0
 10
13.6852957013
 20
12.7410054251
 30
0.0
 10
13.6784386557
 20
12.7427032361
 30
0.0
 10
13.669630936
 20
12.7448112726
 30
0.0
 10
13.6587978614
 20
12.7472835233
 30
0.0
 10
13.6514717036
 20
12.7488705139
 30
0.0
 10
13.6477718617
 20
12.7496504893
 30
0.0
  0
SPLINE
  5
42C
100
AcDbEntity
  8
0
100
AcDbSpline
 62
7
  6
CONTINUOUS
 70
0
 71
3
 72
21
 73
17
 74
0
 42
0.0000001
 43
0.0000001
 44
0.0000000001
 40
0.0
 40
0.0
 40
0.0
 40
0.0
 40
0.0622357479
 40
0.1244218432
 40
0.1866935626
 40
0.2490519172
 40
0.3114577459
 40
0.3739082932
 40
0.436409249
 40
0.4989629685
 40
0.6240154619
 40
0.7492002957
 40
0.8119159052
 40
0.8746305177
 40
0.9373309671
 40
1.0
 40
1.0
 40
1.0
 40
1.0
 10
12.9572055275
 20
12.3204057469
 30
0.0
 10
12.9775289911
 20
12.3186934335
 30
0.0
 10
13.0179993096
 20
12.3128834411
 30
0.0
 10
13.0772538025
 20
12.2971149487
 30
0.0
 10
13.1342918324
 20
12.274484759
 30
0.0
 10
13.1883833069
 20
12.2453649687
 30
0.0
 10
13.238760569
 20
12.2100986144
 30
0.0
 10
13.2846953247
 20
12.1691502038
 30
0.0
 10
13.3256242609
 20
12.1231234206
 30
0.0
 10
13.3726756813
 20
12.0558216468
 30
0.0
 10
13.4164491073
 20
11.9620471261
 30
0.0
 10
13.437441708
 20
11.8606606773
 30
0.0
 10
13.4400358623
 20
11.7784193319
 30
0.0
 10
13.4348196566
 20
11.7168419875
 30
0.0
 10
13.422584027
 20
11.6562999817
 30
0.0
 10
13.4098000088
 20
11.617138592
 30
0.0
 10
13.402304797
 20
11.5980176823
 30
0.0
  0
SPLINE
  5
42D
100
AcDbEntity
  8
0
100
AcDbSpline
 62
7
  6
CONTINUOUS
 70
0
 71
3
 72
16
 73
12
 74
0
 42
0.0000001
 43
0.0000001
 44
0.0000000001
 40
0.0
 40
0.0
 40
0.0
 40
0.0
 40
0.0242299608
 40
0.0345167157
 40
0.0542169265
 40
0.122238714
 40
0.2319436345
 40
0.3767711017
 40
0.5530325798
 40
0.7606995811
 40
1.0
 40
1.0
 40
1.0
 40
1.0
 10
13.0285882548
 20
12.3132590304
 30
0.0
 10
13.02921089
 20
12.3132317599
 30
0.0
 10
13.0298889463
 20
12.3132016924
 30
0.0
 10
13.03188631
 20
12.3130607365
 30
0.0
 10
13.0273880951
 20
12.3135100208
 30
0.0
 10
13.0241492871
 20
12.3138203439
 30
0.0
 10
13.0148874777
 20
12.3147485008
 30
0.0
 10
13.0042813817
 20
12.3158621058
 30
0.0
 10
12.9906061278
 20
12.3173089626
 30
0.0
 10
12.9747062783
 20
12.3188851406
 30
0.0
 10
12.9632407573
 20
12.31990562
 30
0.0
 10
12.9571066554
 20
12.3204145514
 30
0.0
  0
SPLINE
  5
42E
100
AcDbEntity
  8
0
100
AcDbSpline
 62
9
  6
CONTINUOUS
 70
0
 71
3
 72
9
 73
5
 74
0
 42
0.0000001
 43
0.0000001
 44
0.0000000001
 40
0.0
 40
0.0
 40
0.0
 40
0.0
 40
0.2494816494
 40
1.0
 40
1.0
 40
1.0
 40
1.0
 10
6.4485261941
 20
7.3141722075
 30
0.0
 10
6.4461658177
 20
7.3132476843
 30
0.0
 10
6.4365170878
 20
7.3100350576
 30
0.0
 10
6.4262372686
 20
7.3087606368
 30
0.0
 10
6.4186127685
 20
7.3089121673
 30
0.0
  0
SPLINE
  5
42F
100
AcDbEntity
  8
0
100
AcDbSpline
 62
9
  6
CONTINUOUS
 70
0
 71
3
 72
9
 73
5
 74
0
 42
0.0000001
 43
0.0000001
 44
0.0000000001
 40
0.0
 40
0.0
 40
0.0
 40
0.0
 40
0.4844691009
 40
1.0
 40
1.0
 40
1.0
 40
1.0
 10
6.3846059922
 20
7.315564335
 30
0.0
 10
6.3880626737
 20
7.3155653264
 30
0.0
 10
6.3952071276
 20
7.3163898299
 30
0.0
 10
6.4020587249
 20
7.3185351143
 30
0.0
 10
6.4054537964
 20
7.3199505411
 30
0.0
  0
SPLINE
  5
430
100
AcDbEntity
  8
0
100
AcDbSpline
 62
9
  6
CONTINUOUS
 70
0
 71
3
 72
9
 73
5
 74
0
 42
0.0000001
 43
0.0000001
 44
0.0000000001
 40
0.0
 40
0.0
 40
0.0
 40
0.0
 40
0.4991214375
 40
1.0
 40
1.0
 40
1.0
 40
1.0
 10
6.4054537964
 20
7.3199505411
 30
0.0
 10
6.4119946774
 20
7.3226774759
 30
0.0
 10
6.4243412999
 20
7.3305654101
 30
0.0
 10
6.4321528269
 20
7.3429534734
 30
0.0
 10
6.4348714848
 20
7.3495248056
 30
0.0
  0
SPLINE
  5
431
100
AcDbEntity
  8
0
100
AcDbSpline
 62
9
  6
CONTINUOUS
 70
0
 71
3
 72
9
 73
5
 74
0
 42
0.0000001
 43
0.0000001
 44
0.0000000001
 40
0.0
 40
0.0
 40
0.0
 40
0.0
 40
0.5151936645
 40
1.0
 40
1.0
 40
1.0
 40
1.0
 10
6.4348714848
 20
7.3495248056
 30
0.0
 10
6.4362879849
 20
7.3529486614
 30
0.0
 10
6.4384385128
 20
7.3598574567
 30
0.0
 10
6.4392798923
 20
7.3670558368
 30
0.0
 10
6.4392931871
 20
7.3705425658
 30
0.0
  0
SPLINE
  5
432
100
AcDbEntity
  8
0
100
AcDbSpline
 62
9
  6
CONTINUOUS
 70
0
 71
3
 72
12
 73
8
 74
0
 42
0.0000001
 43
0.0000001
 44
0.0000000001
 40
0.0
 40
0.0
 40
0.0
 40
0.0
 40
0.256980177
 40
0.3843070175
 40
0.5101063819
 40
0.7577779233
 40
1.0
 40
1.0
 40
1.0
 40
1.0
 10
6.4659339467
 20
7.2792107342
 30
0.0
 10
6.470831113
 20
7.2835379391
 30
0.0
 10
6.4777117705
 20
7.2905421415
 30
0.0
 10
6.4857182029
 20
7.3007604312
 30
0.0
 10
6.4927893748
 20
7.3113664965
 30
0.0
 10
6.500253207
 20
7.3251574542
 30
0.0
 10
6.5054254811
 20
7.3365033159
 30
0.0
 10
6.5077324143
 20
7.3422147624
 30
0.0
  0
SPLINE
  5
433
100
AcDbEntity
  8
0
100
AcDbSpline
 62
9
  6
CONTINUOUS
 70
0
 71
3
 72
9
 73
5
 74
0
 42
0.0000001
 43
0.0000001
 44
0.0000000001
 40
0.0
 40
0.0
 40
0.0
 40
0.0
 40
0.6310454709
 40
1.0
 40
1.0
 40
1.0
 40
1.0
 10
6.4780392478
 20
7.361778477
 30
0.0
 10
6.4698686181
 20
7.3635296781
 30
0.0
 10
6.4569377253
 20
7.3663856223
 30
0.0
 10
6.4440478143
 20
7.3694185564
 30
0.0
 10
6.4392931879
 20
7.3705423418
 30
0.0
  0
SPLINE
  5
434
100
AcDbEntity
  8
0
100
AcDbSpline
 62
9
  6
CONTINUOUS
 70
0
 71
3
 72
16
 73
12
 74
0
 42
0.0000001
 43
0.0000001
 44
0.0000000001
 40
0.0
 40
0.0
 40
0.0
 40
0.0
 40
0.0274681468
 40
0.0510735886
 40
0.0822276849
 40
0.1211431595
 40
0.1678066597
 40
0.2834933896
 40
0.4272549298
 40
0.5967299562
 40
1.0
 40
1.0
 40
1.0
 40
1.0
 10
12.0840836366
 20
9.1510060137
 30
0.0
 10
12.0840760226
 20
9.1505659003
 30
0.0
 10
12.0832954955
 20
9.1499365322
 30
0.0
 10
12.0821504975
 20
9.1494112079
 30
0.0
 10
12.0807091382
 20
9.1489155579
 30
0.0
 10
12.0789050036
 20
9.1484468026
 30
0.0
 10
12.0757444297
 20
9.1477825563
 30
0.0
 10
12.0708951082
 20
9.1470377475
 30
0.0
 10
12.0640638143
 20
9.1462615988
 30
0.0
 10
12.0526213926
 20
9.1452980103
 30
0.0
 10
12.043452119
 20
9.1448312119
 30
0.0
 10
12.0369942834
 20
9.1445874078
 30
0.0
  0
SPLINE
  5
435
100
AcDbEntity
  8
0
100
AcDbSpline
 62
9
  6
CONTINUOUS
 70
0
 71
3
 72
25
 73
21
 74
0
 42
0.0000001
 43
0.0000001
 44
0.0000000001
 40
0.0
 40
0.0
 40
0.0
 40
0.0
 40
0.2160487447
 40
0.4114254134
 40
0.5832725566
 40
0.659461009
 40
0.7286652266
 40
0.7905391049
 40
0.8448458943
 40
0.8913759443
 40
0.9299190498
 40
0.9461296732
 40
0.9602644942
 40
0.9722970929
 40
0.9822010194
 40
0.9899497947
 40
0.9955169112
 40
0.9974740564
 40
0.998875834
 40
1.0
 40
1.0
 40
1.0
 40
1.0
 10
10.2850751257
 20
8.9730510858
 30
0.0
 10
10.2925695864
 20
8.968547039
 30
0.0
 10
10.3067323314
 20
8.9597869677
 30
0.0
 10
10.3265169375
 20
8.9469075406
 30
0.0
 10
10.3413626872
 20
8.9368239466
 30
0.0
 10
10.3518958432
 20
8.9294824977
 30
0.0
 10
10.3587466718
 20
8.924641932
 30
0.0
 10
10.3648534564
 20
8.9202831439
 30
0.0
 10
10.3701956421
 20
8.9164328627
 30
0.0
 10
10.374757012
 20
8.9131140622
 30
0.0
 10
10.3780609313
 20
8.9106881068
 30
0.0
 10
10.3803027983
 20
8.9090302062
 30
0.0
 10
10.3816791557
 20
8.9080080317
 30
0.0
 10
10.382850712
 20
8.90713366
 30
0.0
 10
10.3838082278
 20
8.906417399
 30
0.0
 10
10.3845694765
 20
8.9058419042
 30
0.0
 10
10.3850412102
 20
8.905491337
 30
0.0
 10
10.3853581524
 20
8.9052434337
 30
0.0
 10
10.3854514887
 20
8.905186083
 30
0.0
 10
10.3856320078
 20
8.9050226989
 30
0.0
 10
10.3856052978
 20
8.9050595297
 30
0.0
  0
SPLINE
  5
436
100
AcDbEntity
  8
0
100
AcDbSpline
 62
9
  6
CONTINUOUS
 70
0
 71
3
 72
18
 73
14
 74
0
 42
0.0000001
 43
0.0000001
 44
0.0000000001
 40
0.0
 40
0.0
 40
0.0
 40
0.0
 40
0.0084579591
 40
0.0152491577
 40
0.0240777782
 40
0.0481472402
 40
0.0809406794
 40
0.1717694314
 40
0.2936787236
 40
0.4428502118
 40
0.6143971644
 40
0.8026292844
 40
1.0
 40
1.0
 40
1.0
 40
1.0
 10
7.7420745483
 20
9.0466160257
 30
0.0
 10
7.7418541522
 20
9.0466192255
 30
0.0
 10
7.7415170153
 20
9.0469472124
 30
0.0
 10
7.7412222706
 20
9.0474799921
 30
0.0
 10
7.7408193533
 20
9.0484442171
 30
0.0
 10
7.7403689115
 20
9.0500943423
 30
0.0
 10
7.7396120311
 20
9.0538722837
 30
0.0
 10
7.7388039852
 20
9.0602237371
 30
0.0
 10
7.7379687916
 20
9.0696190345
 30
0.0
 10
7.7372642053
 20
9.0811339278
 30
0.0
 10
7.736706751
 20
9.0943862809
 30
0.0
 10
7.7363279295
 20
9.1089015163
 30
0.0
 10
7.7362003362
 20
9.1189500636
 30
0.0
 10
7.7361684805
 20
9.1240935594
 30
0.0
  0
SPLINE
  5
437
100
AcDbEntity
  8
0
100
AcDbSpline
 62
9
  6
CONTINUOUS
 70
0
 71
3
 72
11
 73
7
 74
0
 42
0.0000001
 43
0.0000001
 44
0.0000000001
 40
0.0
 40
0.0
 40
0.0
 40
0.0
 40
0.2352071209
 40
0.4831696137
 40
0.7399817537
 40
1.0
 40
1.0
 40
1.0
 40
1.0
 10
10.2850669242
 20
8.9730466699
 30
0.0
 10
10.2867119753
 20
8.9850335868
 30
0.0
 10
10.2916077053
 20
9.0094709326
 30
0.0
 10
10.3035011817
 20
9.0457284726
 30
0.0
 10
10.3203834124
 20
9.0813729101
 30
0.0
 10
10.3347297996
 20
9.1038627916
 30
0.0
 10
10.3426803136
 20
9.1146189728
 30
0.0
  0
SPLINE
  5
438
100
AcDbEntity
  8
0
100
AcDbSpline
 62
9
  6
CONTINUOUS
 70
0
 71
3
 72
11
 73
7
 74
0
 42
0.0000001
 43
0.0000001
 44
0.0000000001
 40
0.0
 40
0.0
 40
0.0
 40
0.0
 40
0.3036339877
 40
0.5714410757
 40
0.8032548633
 40
1.0
 40
1.0
 40
1.0
 40
1.0
 10
10.3850265869
 20
10.2268242392
 30
0.0
 10
10.3806740554
 20
10.2297149002
 30
0.0
 10
10.3723021929
 20
10.2348928249
 30
0.0
 10
10.3599675023
 20
10.2411764397
 30
0.0
 10
10.3487607507
 20
10.2454841177
 30
0.0
 10
10.3415356889
 20
10.2471618045
 30
0.0
 10
10.3381751417
 20
10.2475730972
 30
0.0
  0
SPLINE
  5
439
100
AcDbEntity
  8
0
100
AcDbSpline
 62
9
  6
CONTINUOUS
 70
0
 71
3
 72
9
 73
5
 74
0
 42
0.0000001
 43
0.0000001
 44
0.0000000001
 40
0.0
 40
0.0
 40
0.0
 40
0.0
 40
0.2500143758
 40
1.0
 40
1.0
 40
1.0
 40
1.0
 10
15.6454372041
 20
7.3105144372
 30
0.0
 10
15.4460226045
 20
7.3105956077
 30
0.0
 10
14.6484098724
 20
7.3104548211
 30
0.0
 10
13.8507979853
 20
7.3092042907
 30
0.0
 10
13.2526000738
 20
7.3089118265
 30
0.0
  0
LINE
  5
43A
100
AcDbEntity
  8
0
100
AcDbLine
 62
9
  6
CONTINUOUS
 10
13.2866067805
 20
7.3155643673
 11
13.2907935383
 21
7.316418722
  0
SPLINE
  5
43B
100
AcDbEntity
  8
0
100
AcDbSpline
 62
9
  6
CONTINUOUS
 70
0
 71
3
 72
17
 73
13
 74
0
 42
0.0000001
 43
0.0000001
 44
0.0000000001
 40
0.0
 40
0.0
 40
0.0
 40
0.0
 40
0.3572430962
 40
0.5217211279
 40
0.6682095094
 40
0.792332931
 40
0.8447237146
 40
0.8900491079
 40
0.9279758163
 40
0.9582826545
 40
0.9813908375
 40
1.0
 40
1.0
 40
1.0
 40
1.0
 10
4.0270080417
 20
6.9365386241
 30
0.0
 10
4.0270701177
 20
6.9317811943
 30
0.0
 10
4.0272496885
 20
6.9248349608
 30
0.0
 10
4.0273423422
 20
6.915935568
 30
0.0
 10
4.0272784751
 20
6.9101411251
 30
0.0
 10
4.0272267464
 20
6.9058395995
 30
0.0
 10
4.027261314
 20
6.9028847743
 30
0.0
 10
4.0273395558
 20
6.9010801201
 30
0.0
 10
4.0274041658
 20
6.899568268
 30
0.0
 10
4.0273776057
 20
6.8983522781
 30
0.0
 10
4.0272019128
 20
6.8973959883
 30
0.0
 10
4.0268437915
 20
6.8969257847
 30
0.0
 10
4.0266356002
 20
6.8967913179
 30
0.0
  0
SPLINE
  5
43C
100
AcDbEntity
  8
0
100
AcDbSpline
 62
9
  6
CONTINUOUS
 70
0
 71
3
 72
16
 73
12
 74
0
 42
0.0000001
 43
0.0000001
 44
0.0000000001
 40
0.0
 40
0.0
 40
0.0
 40
0.0
 40
0.1251281884
 40
0.1877574004
 40
0.2502727914
 40
0.3131317739
 40
0.3758927736
 40
0.5010963335
 40
0.6260196067
 40
0.7508783442
 40
1.0
 40
1.0
 40
1.0
 40
1.0
 10
4.0266356002
 20
6.8967913179
 30
0.0
 10
4.0244005834
 20
6.8968661101
 30
0.0
 10
4.0210342623
 20
6.8969848283
 30
0.0
 10
4.016634335
 20
6.8978327182
 30
0.0
 10
4.0133931142
 20
6.8987278513
 30
0.0
 10
4.0102276083
 20
6.8998740278
 30
0.0
 10
4.0061593661
 20
6.9017676904
 30
0.0
 10
4.0013972374
 20
6.9047495477
 30
0.0
 10
3.9963551343
 20
6.9092145011
 30
0.0
 10
3.990753877
 20
6.9161915775
 30
0.0
 10
3.9879612267
 20
6.9224489683
 30
0.0
 10
3.9868515305
 20
6.926760715
 30
0.0
  0
SPLINE
  5
43D
100
AcDbEntity
  8
0
100
AcDbSpline
 62
9
  6
CONTINUOUS
 70
0
 71
3
 72
17
 73
13
 74
0
 42
0.0000001
 43
0.0000001
 44
0.0000000001
 40
0.0
 40
0.0
 40
0.0
 40
0.0
 40
0.1750268234
 40
0.3535678146
 40
0.5250188142
 40
0.6787794079
 40
0.8057356807
 40
0.9026916294
 40
0.939388822
 40
0.9679556406
 40
0.9882020197
 40
1.0
 40
1.0
 40
1.0
 40
1.0
 10
6.4174315731
 20
7.0010908279
 30
0.0
 10
6.4174937914
 20
6.998765228
 30
0.0
 10
6.4176027437
 20
6.9940668801
 30
0.0
 10
6.4177211902
 20
6.9870893523
 30
0.0
 10
6.4177892751
 20
6.9803938695
 30
0.0
 10
6.4177999925
 20
6.9743835012
 30
0.0
 10
6.4177411918
 20
6.9693639743
 30
0.0
 10
6.4176409642
 20
6.9659005442
 30
0.0
 10
6.4175240917
 20
6.9637480769
 30
0.0
 10
6.4174390634
 20
6.9626132484
 30
0.0
 10
6.4173422317
 20
6.9618158007
 30
0.0
 10
6.4172695014
 20
6.9613918068
 30
0.0
 10
6.4172124811
 20
6.9612457236
 30
0.0
  0
SPLINE
  5
43E
100
AcDbEntity
  8
0
100
AcDbSpline
 62
9
  6
CONTINUOUS
 70
0
 71
3
 72
9
 73
5
 74
0
 42
0.0000001
 43
0.0000001
 44
0.0000000001
 40
0.0
 40
0.0
 40
0.0
 40
0.0
 40
0.5000069506
 40
1.0
 40
1.0
 40
1.0
 40
1.0
 10
6.4198775423
 20
7.2690493726
 30
0.0
 10
6.4277856937
 20
7.2690444431
 30
0.0
 10
6.4436492899
 20
7.2707468333
 30
0.0
 10
6.4587736321
 20
7.275854352
 30
0.0
 10
6.4659339467
 20
7.2792107342
 30
0.0
  0
SPLINE
  5
43F
100
AcDbEntity
  8
0
100
AcDbSpline
 62
9
  6
CONTINUOUS
 70
0
 71
3
 72
12
 73
8
 74
0
 42
0.0000001
 43
0.0000001
 44
0.0000000001
 40
0.0
 40
0.0
 40
0.0
 40
0.0
 40
0.055058519
 40
0.1354948756
 40
0.3661051602
 40
0.6713221874
 40
1.0
 40
1.0
 40
1.0
 40
1.0
 10
6.4485260657
 20
7.3141720237
 30
0.0
 10
6.4488999754
 20
7.313560314
 30
0.0
 10
6.4497673315
 20
7.3120231481
 30
0.0
 10
6.4520207094
 20
7.3078223066
 30
0.0
 10
6.4556454592
 20
7.3006617617
 30
0.0
 10
6.4605770105
 20
7.2905425109
 30
0.0
 10
6.4641187359
 20
7.2830865485
 30
0.0
 10
6.4659337431
 20
7.2792106396
 30
0.0
  0
SPLINE
  5
440
100
AcDbEntity
  8
0
100
AcDbSpline
 62
9
  6
CONTINUOUS
 70
0
 71
3
 72
17
 73
13
 74
0
 42
0.0000001
 43
0.0000001
 44
0.0000000001
 40
0.0
 40
0.0
 40
0.0
 40
0.0
 40
0.0117963974
 40
0.0320439373
 40
0.0606143073
 40
0.0973170525
 40
0.1942885414
 40
0.3212636595
 40
0.4750418916
 40
0.6464992448
 40
0.825023827
 40
1.0
 40
1.0
 40
1.0
 40
1.0
 10
6.4186126858
 20
7.3089118202
 30
0.0
 10
6.4186735868
 20
7.3087671775
 30
0.0
 10
6.4187574779
 20
7.3083448441
 30
0.0
 10
6.418875311
 20
7.3075494406
 30
0.0
 10
6.4189901837
 20
7.3064160471
 30
0.0
 10
6.4191636479
 20
7.3042650744
 30
0.0
 10
6.4193548654
 20
7.3008017356
 30
0.0
 10
6.4195454613
 20
7.2957801507
 30
0.0
 10
6.4196924656
 20
7.2897654461
 30
0.0
 10
6.4198000209
 20
7.2830641934
 30
0.0
 10
6.4198645605
 20
7.2760803189
 30
0.0
 10
6.4198787917
 20
7.2713772798
 30
0.0
 10
6.4198775341
 20
7.2690493726
 30
0.0
  0
SPLINE
  5
441
100
AcDbEntity
  8
0
100
AcDbSpline
 62
7
  6
CONTINUOUS
 70
0
 71
3
 72
9
 73
5
 74
0
 42
0.0000001
 43
0.0000001
 44
0.0000000001
 40
0.0
 40
0.0
 40
0.0
 40
0.0
 40
0.3990157652
 40
1.0
 40
1.0
 40
1.0
 40
1.0
 10
12.0426522859
 20
10.0348740172
 30
0.0
 10
12.0411736161
 20
10.0322973216
 30
0.0
 10
12.0376031927
 20
10.0257620698
 30
0.0
 10
12.0342526431
 20
10.0191112726
 30
0.0
 10
12.0323010504
 20
10.0150847351
 30
0.0
  0
SPLINE
  5
442
100
AcDbEntity
  8
0
100
AcDbSpline
 62
7
  6
CONTINUOUS
 70
0
 71
3
 72
11
 73
7
 74
0
 42
0.0000001
 43
0.0000001
 44
0.0000000001
 40
0.0
 40
0.0
 40
0.0
 40
0.0
 40
0.3165926958
 40
0.5920247647
 40
0.8228479622
 40
1.0
 40
1.0
 40
1.0
 40
1.0
 10
12.0322529969
 20
9.3530091697
 30
0.0
 10
12.033250227
 20
9.3508122289
 30
0.0
 10
12.035179239
 20
9.3467278354
 30
0.0
 10
12.0384272933
 20
9.34135126
 30
0.0
 10
12.0414481845
 20
9.3371088757
 30
0.0
 10
12.0432969727
 20
9.3346056677
 30
0.0
 10
12.0440234042
 20
9.3334677358
 30
0.0
  0
SPLINE
  5
443
100
AcDbEntity
  8
0
100
AcDbSpline
 62
9
  6
CONTINUOUS
 70
0
 71
3
 72
9
 73
5
 74
0
 42
0.0000001
 43
0.0000001
 44
0.0000000001
 40
0.0
 40
0.0
 40
0.0
 40
0.0
 40
0.2499885858
 40
1.0
 40
1.0
 40
1.0
 40
1.0
 10
6.4186126772
 20
7.3089118202
 30
0.0
 10
6.2192184876
 20
7.3090092707
 30
0.0
 10
5.4216055488
 20
7.3096860431
 30
0.0
 10
4.6239924146
 20
7.3107579307
 30
0.0
 10
4.0257734074
 20
7.3105144368
 30
0.0
  0
SPLINE
  5
444
100
AcDbEntity
  8
0
100
AcDbSpline
 62
9
  6
CONTINUOUS
 70
0
 71
3
 72
9
 73
5
 74
0
 42
0.0000001
 43
0.0000001
 44
0.0000000001
 40
0.0
 40
0.0
 40
0.0
 40
0.0
 40
0.4844691001
 40
1.0
 40
1.0
 40
1.0
 40
1.0
 10
13.2866046874
 20
7.3155637742
 30
0.0
 10
13.2831479925
 20
7.3155647862
 30
0.0
 10
13.2760035157
 20
7.3163893352
 30
0.0
 10
13.2691519046
 20
7.3185346688
 30
0.0
 10
13.2657568283
 20
7.3199501213
 30
0.0
  0
SPLINE
  5
445
100
AcDbEntity
  8
0
100
AcDbSpline
 62
9
  6
CONTINUOUS
 70
0
 71
3
 72
9
 73
5
 74
0
 42
0.0000001
 43
0.0000001
 44
0.0000000001
 40
0.0
 40
0.0
 40
0.0
 40
0.0
 40
0.4991211518
 40
1.0
 40
1.0
 40
1.0
 40
1.0
 10
13.2657568283
 20
7.3199501213
 30
0.0
 10
13.2592159355
 20
7.3226771067
 30
0.0
 10
13.246869303
 20
7.3305651539
 30
0.0
 10
13.2390577982
 20
7.3429533109
 30
0.0
 10
13.2363391512
 20
7.3495246892
 30
0.0
  0
SPLINE
  5
446
100
AcDbEntity
  8
0
100
AcDbSpline
 62
9
  6
CONTINUOUS
 70
0
 71
3
 72
9
 73
5
 74
0
 42
0.0000001
 43
0.0000001
 44
0.0000000001
 40
0.0
 40
0.0
 40
0.0
 40
0.0
 40
0.5151935231
 40
1.0
 40
1.0
 40
1.0
 40
1.0
 10
13.2363391512
 20
7.3495246892
 30
0.0
 10
13.2349226576
 20
7.352948567
 30
0.0
 10
13.2327721428
 20
7.3598574046
 30
0.0
 10
13.2319307772
 20
7.3670558228
 30
0.0
 10
13.2319174887
 20
7.3705425706
 30
0.0
  0
SPLINE
  5
447
100
AcDbEntity
  8
0
100
AcDbSpline
 62
9
  6
CONTINUOUS
 70
0
 71
3
 72
11
 73
7
 74
0
 42
0.0000001
 43
0.0000001
 44
0.0000000001
 40
0.0
 40
0.0
 40
0.0
 40
0.0
 40
0.2487048673
 40
0.4990904978
 40
0.7491336239
 40
1.0
 40
1.0
 40
1.0
 40
1.0
 10
3.9856053078
 20
7.2708703249
 30
0.0
 10
3.985605288
 20
7.2747946653
 30
0.0
 10
3.9868237095
 20
7.2827149887
 30
0.0
 10
3.9920330206
 20
7.2935194223
 30
0.0
 10
4.0002590632
 20
7.3022949044
 30
0.0
 10
4.0072242491
 20
7.3063083441
 30
0.0
 10
4.0109082394
 20
7.3077566253
 30
0.0
  0
SPLINE
  5
448
100
AcDbEntity
  8
0
100
AcDbSpline
 62
9
  6
CONTINUOUS
 70
0
 71
3
 72
11
 73
7
 74
0
 42
0.0000001
 43
0.0000001
 44
0.0000000001
 40
0.0
 40
0.0
 40
0.0
 40
0.0
 40
0.2500452973
 40
0.5003674587
 40
0.7503281574
 40
1.0
 40
1.0
 40
1.0
 40
1.0
 10
4.0109082394
 20
7.3077566253
 30
0.0
 10
4.0120879604
 20
7.3082204071
 30
0.0
 10
4.0144953778
 20
7.3090333246
 30
0.0
 10
4.0181985111
 20
7.3099236794
 30
0.0
 10
4.0219715601
 20
7.310448905
 30
0.0
 10
4.0245076599
 20
7.3105199135
 30
0.0
 10
4.0257733657
 20
7.3105146288
 30
0.0
  0
SPLINE
  5
449
100
AcDbEntity
  8
0
100
AcDbSpline
 62
9
  6
CONTINUOUS
 70
0
 71
3
 72
15
 73
11
 74
0
 42
0.0000001
 43
0.0000001
 44
0.0000000001
 40
0.0
 40
0.0
 40
0.0
 40
0.0
 40
0.0163451655
 40
0.0405998167
 40
0.1118005025
 40
0.2113700548
 40
0.3363205488
 40
0.4826133073
 40
0.645984254
 40
1.0
 40
1.0
 40
1.0
 40
1.0
 10
4.0257733657
 20
7.3105146288
 30
0.0
 10
4.0258280977
 20
7.3103054411
 30
0.0
 10
4.0259211792
 20
7.3097753731
 30
0.0
 10
4.0261082542
 20
7.3083085561
 30
0.0
 10
4.0263100135
 20
7.3057349222
 30
0.0
 10
4.0265082833
 20
7.3018280494
 30
0.0
 10
4.0266605356
 20
7.2969245863
 30
0.0
 10
4.0267861684
 20
7.2911765135
 30
0.0
 10
4.0269371189
 20
7.2823980186
 30
0.0
 10
4.0270057618
 20
7.2755535788
 30
0.0
 10
4.02700794
 20
7.2708703249
 30
0.0
  0
SPLINE
  5
44A
100
AcDbEntity
  8
0
100
AcDbSpline
 62
9
  6
CONTINUOUS
 70
0
 71
3
 72
9
 73
5
 74
0
 42
0.0000001
 43
0.0000001
 44
0.0000000001
 40
0.0
 40
0.0
 40
0.0
 40
0.0
 40
0.5000167802
 40
1.0
 40
1.0
 40
1.0
 40
1.0
 10
6.4174315823
 20
7.0010908282
 30
0.0
 10
6.4257348757
 20
7.0013130501
 30
0.0
 10
6.442445267
 20
6.9998776742
 30
0.0
 10
6.4583997651
 20
6.9946669758
 30
0.0
 10
6.4659339467
 20
6.9911711339
 30
0.0
  0
SPLINE
  5
44B
100
AcDbEntity
  8
0
100
AcDbSpline
 62
9
  6
CONTINUOUS
 70
0
 71
3
 72
12
 73
8
 74
0
 42
0.0000001
 43
0.0000001
 44
0.0000000001
 40
0.0
 40
0.0
 40
0.0
 40
0.0
 40
0.3275366861
 40
0.6317846552
 40
0.8626792366
 40
0.9438306048
 40
1.0
 40
1.0
 40
1.0
 40
1.0
 10
6.4659334498
 20
6.991171361
 30
0.0
 10
6.4641456835
 20
6.9873142635
 30
0.0
 10
6.4606564125
 20
6.9798931375
 30
0.0
 10
6.4557915531
 20
6.9698080293
 30
0.0
 10
6.4522078369
 20
6.9626553326
 30
0.0
 10
6.4499691145
 20
6.9584329356
 30
0.0
 10
6.4491013487
 20
6.956875412
 30
0.0
 10
6.4487260985
 20
6.9562503484
 30
0.0
  0
SPLINE
  5
44C
100
AcDbEntity
  8
0
100
AcDbSpline
 62
9
  6
CONTINUOUS
 70
0
 71
3
 72
10
 73
6
 74
0
 42
0.0000001
 43
0.0000001
 44
0.0000000001
 40
0.0
 40
0.0
 40
0.0
 40
0.0
 40
0.5150075392
 40
0.762400936
 40
1.0
 40
1.0
 40
1.0
 40
1.0
 10
6.4487262026
 20
6.9562502448
 30
0.0
 10
6.456773099
 20
6.9531549378
 30
0.0
 10
6.4682736399
 20
6.9474687386
 30
0.0
 10
6.4825483437
 20
6.9387249295
 30
0.0
 10
6.4892912777
 20
6.9341958517
 30
0.0
 10
6.4925475824
 20
6.9319115699
 30
0.0
  0
SPLINE
  5
44D
100
AcDbEntity
  8
0
100
AcDbSpline
 62
9
  6
CONTINUOUS
 70
0
 71
3
 72
10
 73
6
 74
0
 42
0.0000001
 43
0.0000001
 44
0.0000000001
 40
0.0
 40
0.0
 40
0.0
 40
0.0
 40
0.6168696804
 40
0.8391472821
 40
1.0
 40
1.0
 40
1.0
 40
1.0
 10
6.5123151852
 20
6.9167103961
 30
0.0
 10
6.4982764799
 20
6.9134212951
 30
0.0
 10
6.4791774208
 20
6.9089511886
 30
0.0
 10
6.4564890017
 20
6.903331194
 30
0.0
 10
6.4478265029
 20
6.9010549034
 30
0.0
 10
6.4442100623
 20
6.900026544
 30
0.0
  0
SPLINE
  5
44E
100
AcDbEntity
  8
0
100
AcDbSpline
 62
9
  6
CONTINUOUS
 70
0
 71
3
 72
14
 73
10
 74
0
 42
0.0000001
 43
0.0000001
 44
0.0000000001
 40
0.0
 40
0.0
 40
0.0
 40
0.0
 40
0.423662923
 40
0.591782834
 40
0.7306955359
 40
0.8404151492
 40
0.9210910625
 40
0.9733095701
 40
1.0
 40
1.0
 40
1.0
 40
1.0
 10
6.4442100623
 20
6.900026544
 30
0.0
 10
6.4429552027
 20
6.8996697162
 30
0.0
 10
6.4412054693
 20
6.8991582477
 30
0.0
 10
6.4390628886
 20
6.8984734362
 30
0.0
 10
6.437848235
 20
6.8980533621
 30
0.0
 10
6.4369048664
 20
6.8976936039
 30
0.0
 10
6.4362140163
 20
6.8973790095
 30
0.0
 10
6.435805433
 20
6.8971472944
 30
0.0
 10
6.4356053074
 20
6.896950462
 30
0.0
 10
6.4356053078
 20
6.8968682728
 30
0.0
  0
SPLINE
  5
44F
100
AcDbEntity
  8
0
100
AcDbSpline
 62
9
  6
CONTINUOUS
 70
0
 71
3
 72
9
 73
5
 74
0
 42
0.0000001
 43
0.0000001
 44
0.0000000001
 40
0.0
 40
0.0
 40
0.0
 40
0.0
 40
0.2512248725
 40
1.0
 40
1.0
 40
1.0
 40
1.0
 10
6.4172125006
 20
6.9612452123
 30
0.0
 10
6.4198920902
 20
6.9613687792
 30
0.0
 10
6.4305740191
 20
6.9613227188
 30
0.0
 10
6.4412640306
 20
6.9591194653
 30
0.0
 10
6.4487264126
 20
6.9562501729
 30
0.0
  0
SPLINE
  5
450
100
AcDbEntity
  8
0
100
AcDbSpline
 62
9
  6
CONTINUOUS
 70
0
 71
3
 72
14
 73
10
 74
0
 42
0.0000001
 43
0.0000001
 44
0.0000000001
 40
0.0
 40
0.0
 40
0.0
 40
0.0
 40
0.1293451916
 40
0.2582815815
 40
0.385796268
 40
0.5116554557
 40
0.6360833396
 40
0.7589578744
 40
1.0
 40
1.0
 40
1.0
 40
1.0
 10
6.4659339467
 20
6.9911711339
 30
0.0
 10
6.468637521
 20
6.9888075601
 30
0.0
 10
6.4738529701
 20
6.9838738117
 30
0.0
 10
6.481039522
 20
6.9759161243
 30
0.0
 10
6.4874712012
 20
6.9674561688
 30
0.0
 10
6.4931334917
 20
6.95861599
 30
0.0
 10
6.4981718422
 20
6.9495578235
 30
0.0
 10
6.5042487072
 20
6.9374364544
 30
0.0
 10
6.5082301613
 20
6.9281292221
 30
0.0
 10
6.5105261614
 20
6.9218432477
 30
0.0
  0
LINE
  5
451
100
AcDbEntity
  8
0
100
AcDbLine
 62
7
  6
CONTINUOUS
 10
15.6454372459
 20
7.3105146314
 11
15.6504593089
 21
7.3102551594
  0
SPLINE
  5
452
100
AcDbEntity
  8
0
100
AcDbSpline
 62
9
  6
CONTINUOUS
 70
0
 71
3
 72
13
 73
9
 74
0
 42
0.0000001
 43
0.0000001
 44
0.0000000001
 40
0.0
 40
0.0
 40
0.0
 40
0.0
 40
0.1251704419
 40
0.2509435018
 40
0.3761612148
 40
0.5013304189
 40
0.7505137499
 40
1.0
 40
1.0
 40
1.0
 40
1.0
 10
15.6504593089
 20
7.3102551594
 30
0.0
 10
15.6523414212
 20
7.3099743138
 30
0.0
 10
15.6561002307
 20
7.3092701311
 30
0.0
 10
15.6615350524
 20
7.3074171113
 30
0.0
 10
15.6666179548
 20
7.3047523584
 30
0.0
 10
15.6728286836
 20
7.3003472764
 30
0.0
 10
15.6793156235
 20
7.2932377982
 30
0.0
 10
15.6826436566
 20
7.2862897559
 30
0.0
 10
15.6837820221
 20
7.2826717072
 30
0.0
  0
SPLINE
  5
453
100
AcDbEntity
  8
0
100
AcDbSpline
 62
9
  6
CONTINUOUS
 70
0
 71
3
 72
9
 73
5
 74
0
 42
0.0000001
 43
0.0000001
 44
0.0000000001
 40
0.0
 40
0.0
 40
0.0
 40
0.0
 40
0.2513315334
 40
1.0
 40
1.0
 40
1.0
 40
1.0
 10
15.6837820221
 20
7.2826717072
 30
0.0
 10
15.6840829279
 20
7.2817153431
 30
0.0
 10
15.6851357095
 20
7.2778663186
 30
0.0
 10
15.6856053056
 20
7.2738568331
 30
0.0
 10
15.6856053078
 20
7.2708703249
 30
0.0
  0
SPLINE
  5
454
100
AcDbEntity
  8
0
100
AcDbSpline
 62
9
  6
CONTINUOUS
 70
0
 71
3
 72
15
 73
11
 74
0
 42
0.0000001
 43
0.0000001
 44
0.0000000001
 40
0.0
 40
0.0
 40
0.0
 40
0.0
 40
0.3540180729
 40
0.5173870114
 40
0.6636735871
 40
0.7886176832
 40
0.8881867906
 40
0.9593953124
 40
0.9836534631
 40
1.0
 40
1.0
 40
1.0
 40
1.0
 10
15.6442026629
 20
7.2708703249
 30
0.0
 10
15.644204841
 20
7.2755536113
 30
0.0
 10
15.6442724231
 20
7.282398064
 30
0.0
 10
15.6444229255
 20
7.291176495
 30
0.0
 10
15.6445490964
 20
7.2969243663
 30
0.0
 10
15.6447021378
 20
7.3018276354
 30
0.0
 10
15.6449008919
 20
7.305734494
 30
0.0
 10
15.6451025482
 20
7.3083082777
 30
0.0
 10
15.6452894821
 20
7.3097752801
 30
0.0
 10
15.6453825099
 20
7.3103054258
 30
0.0
 10
15.6454372459
 20
7.3105146314
 30
0.0
  0
SPLINE
  5
455
100
AcDbEntity
  8
0
100
AcDbSpline
 62
9
  6
CONTINUOUS
 70
0
 71
3
 72
9
 73
5
 74
0
 42
0.0000001
 43
0.0000001
 44
0.0000000001
 40
0.0
 40
0.0
 40
0.0
 40
0.0
 40
0.2500143314
 40
1.0
 40
1.0
 40
1.0
 40
1.0
 10
4.0268135107
 20
6.8969124081
 30
0.0
 10
4.2260304962
 20
6.9020598921
 30
0.0
 10
5.0228407961
 20
6.9231120412
 30
0.0
 10
5.8196212486
 20
6.9452694644
 30
0.0
 10
6.4172124638
 20
6.9612457232
 30
0.0
  0
LINE
  5
456
100
AcDbEntity
  8
0
100
AcDbLine
 62
9
  6
CONTINUOUS
 10
6.4172124711
 20
6.9612457163
 11
6.3789668239
 21
6.952727669
  0
SPLINE
  5
457
100
AcDbEntity
  8
0
100
AcDbSpline
 62
9
  6
CONTINUOUS
 70
0
 71
3
 72
9
 73
5
 74
0
 42
0.0000001
 43
0.0000001
 44
0.0000000001
 40
0.0
 40
0.0
 40
0.0
 40
0.0
 40
0.4778602236
 40
1.0
 40
1.0
 40
1.0
 40
1.0
 10
13.4416663265
 20
10.8138248699
 30
0.0
 10
13.4396277872
 20
10.8138248739
 30
0.0
 10
13.4353294126
 20
10.8143399935
 30
0.0
 10
13.4313969981
 20
10.8162042157
 30
0.0
 10
13.4295402999
 20
10.8174347186
 30
0.0
  0
SPLINE
  5
458
100
AcDbEntity
  8
0
100
AcDbSpline
 62
9
  6
CONTINUOUS
 70
0
 71
3
 72
9
 73
5
 74
0
 42
0.0000001
 43
0.0000001
 44
0.0000000001
 40
0.0
 40
0.0
 40
0.0
 40
0.0
 40
0.2418121568
 40
1.0
 40
1.0
 40
1.0
 40
1.0
 10
13.3876529771
 20
10.8945978889
 30
0.0
 10
13.3863431219
 20
10.8981295687
 30
0.0
 10
13.3810140496
 20
10.9127672309
 30
0.0
 10
13.3759549175
 20
10.9275014149
 30
0.0
 10
13.3721675865
 20
10.938688148
 30
0.0
  0
SPLINE
  5
459
100
AcDbEntity
  8
0
100
AcDbSpline
 62
9
  6
CONTINUOUS
 70
0
 71
3
 72
9
 73
5
 74
0
 42
0.0000001
 43
0.0000001
 44
0.0000000001
 40
0.0
 40
0.0
 40
0.0
 40
0.0
 40
0.5068004228
 40
1.0
 40
1.0
 40
1.0
 40
1.0
 10
13.3721675865
 20
10.938688148
 30
0.0
 10
13.3677261067
 20
10.9518070567
 30
0.0
 10
13.3590999797
 20
10.9777384591
 30
0.0
 10
13.3502523085
 20
11.0035982102
 30
0.0
 10
13.3456838136
 20
11.0162790313
 30
0.0
  0
SPLINE
  5
45A
100
AcDbEntity
  8
0
100
AcDbSpline
 62
9
  6
CONTINUOUS
 70
0
 71
3
 72
40
 73
36
 74
0
 42
0.0000001
 43
0.0000001
 44
0.0000000001
 40
0.0
 40
0.0
 40
0.0
 40
0.0
 40
0.0098748247
 40
0.0151349811
 40
0.0208504151
 40
0.0272078437
 40
0.034292402
 40
0.0507339267
 40
0.0701647736
 40
0.0923473589
 40
0.1169515188
 40
0.1436010412
 40
0.2014164236
 40
0.2624534131
 40
0.3232865082
 40
0.3525559167
 40
0.3804965805
 40
0.4748687733
 40
0.5129144714
 40
0.5462240842
 40
0.5758070406
 40
0.6026121243
 40
0.6274853945
 40
0.6511414601
 40
0.6741664546
 40
0.6970581938
 40
0.7201477505
 40
0.7433815174
 40
0.7897862381
 40
0.835301206
 40
0.8791112412
 40
0.9002276912
 40
0.9208047598
 40
0.9607603271
 40
1.0
 40
1.0
 40
1.0
 40
1.0
 10
13.4416621279
 20
12.7712286554
 30
0.0
 10
13.4394887747
 20
12.7712286563
 30
0.0
 10
13.4361220623
 20
12.7707892456
 30
0.0
 10
13.431843276
 20
12.7690787708
 30
0.0
 10
13.4285757439
 20
12.7670754049
 30
0.0
 10
13.425348497
 20
12.7643428973
 30
0.0
 10
13.4208339723
 20
12.7595459241
 30
0.0
 10
13.4153104828
 20
12.7518295807
 30
0.0
 10
13.4089639127
 20
12.7407287435
 30
0.0
 10
13.402599207
 20
12.7276085191
 30
0.0
 10
13.3962183913
 20
12.7127550838
 30
0.0
 10
13.3874564908
 20
12.6904030034
 30
0.0
 10
13.3767697589
 20
12.6602088816
 30
0.0
 10
13.3642155718
 20
12.6227081914
 30
0.0
 10
13.3536294911
 20
12.5911731056
 30
0.0
 10
13.344976807
 20
12.5666734803
 30
0.0
 10
13.3333577572
 20
12.535407846
 30
0.0
 10
13.319149646
 20
12.5029552448
 30
0.0
 10
13.3005026567
 20
12.4715603705
 30
0.0
 10
13.2874997681
 20
12.453508244
 30
0.0
 10
13.2744591444
 20
12.4386451011
 30
0.0
 10
13.2613923355
 20
12.4263941987
 30
0.0
 10
13.2483198005
 20
12.4161660013
 30
0.0
 10
13.2352584702
 20
12.4073523431
 30
0.0
 10
13.2222089229
 20
12.3993390887
 30
0.0
 10
13.209198128
 20
12.391504056
 30
0.0
 10
13.1963138368
 20
12.3833747647
 30
0.0
 10
13.1791541754
 20
12.3723273528
 30
0.0
 10
13.1578745887
 20
12.3585595002
 30
0.0
 10
13.1323010554
 20
12.3431051048
 30
0.0
 10
13.110657424
 20
12.3319570408
 30
0.0
 10
13.0932345625
 20
12.324809526
 30
0.0
 10
13.0761425941
 20
12.319207476
 30
0.0
 10
13.0545384929
 20
12.3148334098
 30
0.0
 10
13.0371124783
 20
12.3136053762
 30
0.0
 10
13.0284783816
 20
12.313411571
 30
0.0
  0
SPLINE
  5
45B
100
AcDbEntity
  8
0
100
AcDbSpline
 62
9
  6
CONTINUOUS
 70
0
 71
3
 72
10
 73
6
 74
0
 42
0.0000001
 43
0.0000001
 44
0.0000000001
 40
0.0
 40
0.0
 40
0.0
 40
0.0
 40
0.2375684123
 40
0.4849448851
 40
1.0
 40
1.0
 40
1.0
 40
1.0
 10
13.1786197282
 20
6.9318811249
 30
0.0
 10
13.1818786213
 20
6.934168116
 30
0.0
 10
13.1886272927
 20
6.9387025702
 30
0.0
 10
13.2029156087
 20
6.9474578785
 30
0.0
 10
13.214428309
 20
6.9531514286
 30
0.0
 10
13.2224844432
 20
6.9562502295
 30
0.0
  0
SPLINE
  5
45C
100
AcDbEntity
  8
0
100
AcDbSpline
 62
9
  6
CONTINUOUS
 70
0
 71
3
 72
9
 73
5
 74
0
 42
0.0000001
 43
0.0000001
 44
0.0000000001
 40
0.0
 40
0.0
 40
0.0
 40
0.0
 40
0.2494237013
 40
1.0
 40
1.0
 40
1.0
 40
1.0
 10
13.222484234
 20
6.9562499531
 30
0.0
 10
13.2249703026
 20
6.9572057973
 30
0.0
 10
13.235142761
 20
6.9604881522
 30
0.0
 10
13.245991493
 20
6.9616149705
 30
0.0
 10
13.253998034
 20
6.9612450043
 30
0.0
  0
SPLINE
  5
45D
100
AcDbEntity
  8
0
100
AcDbSpline
 62
9
  6
CONTINUOUS
 70
0
 71
3
 72
18
 73
14
 74
0
 42
0.0000001
 43
0.0000001
 44
0.0000000001
 40
0.0
 40
0.0
 40
0.0
 40
0.0
 40
0.0069449052
 40
0.0205519034
 40
0.0415822923
 40
0.0701879437
 40
0.1064073362
 40
0.1502438658
 40
0.2607158169
 40
0.4014013061
 40
0.5718523874
 40
0.7715581327
 40
1.0
 40
1.0
 40
1.0
 40
1.0
 10
13.2356053078
 20
6.8968682731
 30
0.0
 10
13.2356053082
 20
6.896951231
 30
0.0
 10
13.2354025555
 20
6.89714976
 30
0.0
 10
13.2349894305
 20
6.8973833526
 30
0.0
 10
13.2342904287
 20
6.8977007335
 30
0.0
 10
13.2333360758
 20
6.8980637076
 30
0.0
 10
13.2321072207
 20
6.8984876446
 30
0.0
 10
13.2299395645
 20
6.8991788266
 30
0.0
 10
13.226556048
 20
6.9001664144
 30
0.0
 10
13.2216980269
 20
6.9014935496
 30
0.0
 10
13.2157932996
 20
6.9030337001
 30
0.0
 10
13.2088602852
 20
6.9047832795
 30
0.0
 10
13.2038941936
 20
6.9060056626
 30
0.0
 10
13.2012431628
 20
6.9066523716
 30
0.0
  0
LINE
  5
45E
100
AcDbEntity
  8
0
100
AcDbLine
 62
9
  6
CONTINUOUS
 10
13.2012431628
 20
6.9066523716
 11
13.1588952275
 21
6.9167104231
  0
SPLINE
  5
45F
100
AcDbEntity
  8
0
100
AcDbSpline
 62
9
  6
CONTINUOUS
 70
0
 71
3
 72
14
 73
10
 74
0
 42
0.0000001
 43
0.0000001
 44
0.0000000001
 40
0.0
 40
0.0
 40
0.0
 40
0.0
 40
0.1293436161
 40
0.2582799031
 40
0.385795121
 40
0.5116560497
 40
0.6360859304
 40
0.7589615415
 40
1.0
 40
1.0
 40
1.0
 40
1.0
 10
13.205276669
 20
6.9911711553
 30
0.0
 10
13.2025724722
 20
6.9888091085
 30
0.0
 10
13.1973567768
 20
6.9838769894
 30
0.0
 10
13.1901720566
 20
6.9759195995
 30
0.0
 10
13.1837430138
 20
6.9674593971
 30
0.0
 10
13.1780825495
 20
6.9586196494
 30
0.0
 10
13.1730451847
 20
6.9495624278
 30
0.0
 10
13.1669682611
 20
6.9374431999
 30
0.0
 10
13.1629859238
 20
6.9281379758
 30
0.0
 10
13.1606890077
 20
6.9218534213
 30
0.0
  0
SPLINE
  5
460
100
AcDbEntity
  8
0
100
AcDbSpline
 62
9
  6
CONTINUOUS
 70
0
 71
3
 72
12
 73
8
 74
0
 42
0.0000001
 43
0.0000001
 44
0.0000000001
 40
0.0
 40
0.0
 40
0.0
 40
0.0
 40
0.0561695851
 40
0.1373211969
 40
0.3682162103
 40
0.6724641767
 40
1.0
 40
1.0
 40
1.0
 40
1.0
 10
13.2224846377
 20
6.9562502539
 30
0.0
 10
13.2221093848
 20
6.9568753221
 30
0.0
 10
13.2212416141
 20
6.9584328575
 30
0.0
 10
13.2190028829
 20
6.962655284
 30
0.0
 10
13.2154191617
 20
6.9698080234
 30
0.0
 10
13.2105543082
 20
6.9798931773
 30
0.0
 10
13.2070650469
 20
6.9873143313
 30
0.0
 10
13.2052772887
 20
6.9911714387
 30
0.0
  0
SPLINE
  5
461
100
AcDbEntity
  8
0
100
AcDbSpline
 62
9
  6
CONTINUOUS
 70
0
 71
3
 72
17
 73
13
 74
0
 42
0.0000001
 43
0.0000001
 44
0.0000000001
 40
0.0
 40
0.0
 40
0.0
 40
0.0
 40
0.0117979833
 40
0.0320443645
 40
0.0606111844
 40
0.0973083777
 40
0.1942643257
 40
0.3212205959
 40
0.4749811857
 40
0.6464321822
 40
0.8249731727
 40
1.0
 40
1.0
 40
1.0
 40
1.0
 10
13.2539981244
 20
6.9612457292
 30
0.0
 10
13.2539411042
 20
6.9613918125
 30
0.0
 10
13.2538683738
 20
6.9618158063
 30
0.0
 10
13.2537715422
 20
6.9626132541
 30
0.0
 10
13.2536865138
 20
6.9637480825
 30
0.0
 10
13.2535696413
 20
6.9659005496
 30
0.0
 10
13.2534694138
 20
6.9693639792
 30
0.0
 10
13.2534106131
 20
6.9743835054
 30
0.0
 10
13.2534213304
 20
6.9803938729
 30
0.0
 10
13.2534894154
 20
6.9870893547
 30
0.0
 10
13.2536078618
 20
6.9940668817
 30
0.0
 10
13.2537168141
 20
6.9987652291
 30
0.0
 10
13.2537790325
 20
7.0010908288
 30
0.0
  0
SPLINE
  5
462
100
AcDbEntity
  8
0
100
AcDbSpline
 62
9
  6
CONTINUOUS
 70
0
 71
3
 72
9
 73
5
 74
0
 42
0.0000001
 43
0.0000001
 44
0.0000000001
 40
0.0
 40
0.0
 40
0.0
 40
0.0
 40
0.249988618
 40
1.0
 40
1.0
 40
1.0
 40
1.0
 10
13.2539981334
 20
6.961245729
 30
0.0
 10
13.4531899344
 20
6.9559204848
 30
0.0
 10
14.2499856953
 20
6.9343333323
 30
0.0
 10
15.046771365
 20
6.9123542166
 30
0.0
 10
15.6443971054
 20
6.8969124088
 30
0.0
  0
LINE
  5
463
100
AcDbEntity
  8
0
100
AcDbLine
 62
9
  6
CONTINUOUS
 10
13.2922437918
 20
6.952727669
 11
13.2539981257
 21
6.9612457175
  0
SPLINE
  5
464
100
AcDbEntity
  8
0
100
AcDbSpline
 62
9
  6
CONTINUOUS
 70
0
 71
3
 72
11
 73
7
 74
0
 42
0.0000001
 43
0.0000001
 44
0.0000000001
 40
0.0
 40
0.0
 40
0.0
 40
0.0
 40
0.2488201647
 40
0.4991126122
 40
0.7492000317
 40
1.0
 40
1.0
 40
1.0
 40
1.0
 10
15.6856053078
 20
6.9365386241
 30
0.0
 10
15.6856053081
 20
6.9323968751
 30
0.0
 10
15.6842483312
 20
6.9240366797
 30
0.0
 10
15.6784613171
 20
6.9127547824
 30
0.0
 10
15.669384854
 20
6.9038732939
 30
0.0
 10
15.6618078848
 20
6.900016222
 30
0.0
 10
15.657822313
 20
6.8987738974
 30
0.0
  0
SPLINE
  5
465
100
AcDbEntity
  8
0
100
AcDbSpline
 62
9
  6
CONTINUOUS
 70
0
 71
3
 72
9
 73
5
 74
0
 42
0.0000001
 43
0.0000001
 44
0.0000000001
 40
0.0
 40
0.0
 40
0.0
 40
0.0
 40
0.2517928612
 40
1.0
 40
1.0
 40
1.0
 40
1.0
 10
15.657822313
 20
6.8987738974
 30
0.0
 10
15.6572157848
 20
6.8985848392
 30
0.0
 10
15.6547870176
 20
6.8978976178
 30
0.0
 10
15.6523015307
 20
6.8974265059
 30
0.0
 10
15.6504344325
 20
6.89714745
 30
0.0
  0
SPLINE
  5
466
100
AcDbEntity
  8
0
100
AcDbSpline
 62
9
  6
CONTINUOUS
 70
0
 71
3
 72
16
 73
12
 74
0
 42
0.0000001
 43
0.0000001
 44
0.0000000001
 40
0.0
 40
0.0
 40
0.0
 40
0.0
 40
0.0176585261
 40
0.0426956438
 40
0.1143645099
 40
0.213587523
 40
0.337904275
 40
0.483705025
 40
0.6468143269
 40
0.8211739843
 40
1.0
 40
1.0
 40
1.0
 40
1.0
 10
15.6451809559
 20
6.8968961641
 30
0.0
 10
15.64505745
 20
6.8970953155
 30
0.0
 10
15.6448319387
 20
6.8976198237
 30
0.0
 10
15.6443987001
 20
6.899074666
 30
0.0
 10
15.6439818989
 20
6.9016519909
 30
0.0
 10
15.6437594103
 20
6.905565529
 30
0.0
 10
15.6437654183
 20
6.9104684366
 30
0.0
 10
15.6438780113
 20
6.9162162175
 30
0.0
 10
15.6439963482
 20
6.9226285082
 30
0.0
 10
15.6441055626
 20
6.9294791632
 30
0.0
 10
15.644171625
 20
6.934165696
 30
0.0
 10
15.6442025748
 20
6.9365386241
 30
0.0
  0
SPLINE
  5
467
100
AcDbEntity
  8
0
100
AcDbSpline
 62
9
  6
CONTINUOUS
 70
0
 71
3
 72
11
 73
7
 74
0
 42
0.0000001
 43
0.0000001
 44
0.0000000001
 40
0.0
 40
0.0
 40
0.0
 40
0.0
 40
0.196732446
 40
0.4285418302
 40
0.6963532032
 40
1.0
 40
1.0
 40
1.0
 40
1.0
 10
9.3330348236
 20
10.2475729985
 30
0.0
 10
9.329672949
 20
10.2471615388
 30
0.0
 10
9.3224448937
 20
10.2454828697
 30
0.0
 10
9.3112334878
 20
10.241172516
 30
0.0
 10
9.2988934664
 20
10.2348848499
 30
0.0
 10
9.290518004
 20
10.229703579
 30
0.0
 10
9.2861635773
 20
10.226811032
 30
0.0
  0
SPLINE
  5
468
100
AcDbEntity
  8
0
100
AcDbSpline
 62
9
  6
CONTINUOUS
 70
0
 71
3
 72
27
 73
23
 74
0
 42
0.0000001
 43
0.0000001
 44
0.0000000001
 40
0.0
 40
0.0
 40
0.0
 40
0.0
 40
0.0029817441
 40
0.0060848558
 40
0.0130364524
 40
0.021466595
 40
0.0316781467
 40
0.0438167112
 40
0.0579475713
 40
0.0740939208
 40
0.0922556057
 40
0.1124187419
 40
0.1345609435
 40
0.1846642475
 40
0.2423086062
 40
0.3072017213
 40
0.378927984
 40
0.4566897981
 40
0.5395997525
 40
0.6267643364
 40
0.8102634584
 40
1.0
 40
1.0
 40
1.0
 40
1.0
 10
12.9119945131
 20
12.3223080209
 30
0.0
 10
12.9108209749
 20
12.3223080352
 30
0.0
 10
12.908419452
 20
12.3220531022
 30
0.0
 10
12.9035004582
 20
12.3204942485
 30
0.0
 10
12.8973127725
 20
12.3164391865
 30
0.0
 10
12.890395811
 20
12.3090474644
 30
0.0
 10
12.8835636788
 20
12.2990015279
 30
0.0
 10
12.876806994
 20
12.2863117072
 30
0.0
 10
12.8701226183
 20
12.2710010046
 30
0.0
 10
12.8635274672
 20
12.2531050343
 30
0.0
 10
12.857038165
 20
12.2326661389
 30
0.0
 10
12.8506720595
 20
12.2097306018
 30
0.0
 10
12.8420121423
 20
12.1744023898
 30
0.0
 10
12.8317970832
 20
12.1242926531
 30
0.0
 10
12.8207212178
 20
12.0572433765
 30
0.0
 10
12.8105343724
 20
11.981457732
 30
0.0
 10
12.8013809838
 20
11.8975738188
 30
0.0
 10
12.7932922642
 20
11.806461095
 30
0.0
 10
12.7863345833
 20
11.7091632261
 30
0.0
 10
12.7785195187
 20
11.5702208943
 30
0.0
 10
12.7721465474
 20
11.3891091545
 30
0.0
 10
12.7706954358
 20
11.2422017787
 30
0.0
 10
12.7709457879
 20
11.1675267506
 30
0.0
  0
SPLINE
  5
469
100
AcDbEntity
  8
0
100
AcDbSpline
 62
9
  6
CONTINUOUS
 70
0
 71
3
 72
13
 73
9
 74
0
 42
0.0000001
 43
0.0000001
 44
0.0000000001
 40
0.0
 40
0.0
 40
0.0
 40
0.0
 40
0.1416711633
 40
0.2754758204
 40
0.4041906379
 40
0.5289918607
 40
0.7693745506
 40
1.0
 40
1.0
 40
1.0
 40
1.0
 10
10.4780209613
 20
8.4007389984
 30
0.0
 10
10.4773814706
 20
8.3865357988
 30
0.0
 10
10.4745758044
 20
8.3589822132
 30
0.0
 10
10.4674401992
 20
8.3190282073
 30
0.0
 10
10.4582435853
 20
8.2812362931
 30
0.0
 10
10.4438043864
 20
8.2337993243
 30
0.0
 10
10.4219589132
 20
8.1780192423
 30
0.0
 10
10.4001823423
 20
8.1359532146
 30
0.0
 10
10.3884558991
 20
8.1159990656
 30
0.0
  0
SPLINE
  5
46A
100
AcDbEntity
  8
0
100
AcDbSpline
 62
9
  6
CONTINUOUS
 70
0
 71
3
 72
18
 73
14
 74
0
 42
0.0000001
 43
0.0000001
 44
0.0000000001
 40
0.0
 40
0.0
 40
0.0
 40
0.0
 40
0.0084579591
 40
0.0152491577
 40
0.0240777782
 40
0.0481472402
 40
0.0809406794
 40
0.1717694314
 40
0.2936787236
 40
0.4428502118
 40
0.6143971644
 40
0.8026292844
 40
1.0
 40
1.0
 40
1.0
 40
1.0
 10
7.6722450648
 20
10.3214927268
 30
0.0
 10
7.6720246687
 20
10.321489527
 30
0.0
 10
7.6716875318
 20
10.3211615401
 30
0.0
 10
7.6713927871
 20
10.3206287604
 30
0.0
 10
7.6709898698
 20
10.3196645354
 30
0.0
 10
7.670539428
 20
10.3180144102
 30
0.0
 10
7.6697825476
 20
10.3142364688
 30
0.0
 10
7.6689745017
 20
10.3078850154
 30
0.0
 10
7.668139308
 20
10.298489718
 30
0.0
 10
7.6674347218
 20
10.2869748247
 30
0.0
 10
7.6668772674
 20
10.2737224716
 30
0.0
 10
7.666498446
 20
10.2592072362
 30
0.0
 10
7.6663708526
 20
10.2491586889
 30
0.0
 10
7.666338997
 20
10.2440151931
 30
0.0
  0
SPLINE
  5
46B
100
AcDbEntity
  8
0
100
AcDbSpline
 62
9
  6
CONTINUOUS
 70
0
 71
3
 72
16
 73
12
 74
0
 42
0.0000001
 43
0.0000001
 44
0.0000000001
 40
0.0
 40
0.0
 40
0.0
 40
0.0
 40
0.0274681468
 40
0.0510735886
 40
0.0822276849
 40
0.1211431595
 40
0.1678066597
 40
0.2834933896
 40
0.4272549298
 40
0.5967299562
 40
1.0
 40
1.0
 40
1.0
 40
1.0
 10
7.5871269791
 20
10.2171027387
 30
0.0
 10
7.587134593
 20
10.2175428522
 30
0.0
 10
7.5879151201
 20
10.2181722202
 30
0.0
 10
7.5890601181
 20
10.2186975446
 30
0.0
 10
7.5905014775
 20
10.2191931946
 30
0.0
 10
7.592305612
 20
10.2196619499
 30
0.0
 10
7.5954661859
 20
10.2203261962
 30
0.0
 10
7.6003155075
 20
10.221071005
 30
0.0
 10
7.6071468013
 20
10.2218471537
 30
0.0
 10
7.618589223
 20
10.2228107422
 30
0.0
 10
7.6277584967
 20
10.2232775406
 30
0.0
 10
7.6342163323
 20
10.2235213446
 30
0.0
  0
SPLINE
  5
46C
100
AcDbEntity
  8
0
100
AcDbSpline
 62
9
  6
CONTINUOUS
 70
0
 71
3
 72
13
 73
9
 74
0
 42
0.0000001
 43
0.0000001
 44
0.0000000001
 40
0.0
 40
0.0
 40
0.0
 40
0.0
 40
0.1416711633
 40
0.2754758204
 40
0.4041906379
 40
0.5289918607
 40
0.7693745506
 40
1.0
 40
1.0
 40
1.0
 40
1.0
 10
9.1931896544
 20
8.4007389984
 30
0.0
 10
9.1938291451
 20
8.3865357988
 30
0.0
 10
9.1966348113
 20
8.3589822132
 30
0.0
 10
9.2037704165
 20
8.3190282073
 30
0.0
 10
9.2129670304
 20
8.2812362931
 30
0.0
 10
9.2274062293
 20
8.2337993243
 30
0.0
 10
9.2492517025
 20
8.1780192423
 30
0.0
 10
9.2710282733
 20
8.1359532146
 30
0.0
 10
9.2827547165
 20
8.1159990656
 30
0.0
  0
SPLINE
  5
46D
100
AcDbEntity
  8
0
100
AcDbSpline
 62
9
  6
CONTINUOUS
 70
0
 71
3
 72
11
 73
7
 74
0
 42
0.0000001
 43
0.0000001
 44
0.0000000001
 40
0.0
 40
0.0
 40
0.0
 40
0.0
 40
0.271891855
 40
0.5256632649
 40
0.7670735843
 40
1.0
 40
1.0
 40
1.0
 40
1.0
 10
10.7300810593
 20
3.9338511849
 30
0.0
 10
10.7300424574
 20
3.9285633242
 30
0.0
 10
10.729521846
 20
3.9183367261
 30
0.0
 10
10.7274751594
 20
3.903543568
 30
0.0
 10
10.724513448
 20
3.8896859025
 30
0.0
 10
10.722054343
 20
3.8807884966
 30
0.0
 10
10.7207241016
 20
3.8764580391
 30
0.0
  0
SPLINE
  5
46E
100
AcDbEntity
  8
0
100
AcDbSpline
 62
9
  6
CONTINUOUS
 70
0
 71
3
 72
21
 73
17
 74
0
 42
0.0000001
 43
0.0000001
 44
0.0000000001
 40
0.0
 40
0.0
 40
0.0
 40
0.0
 40
0.0315506378
 40
0.0618579126
 40
0.0914835141
 40
0.1207482152
 40
0.178801065
 40
0.2078063638
 40
0.236869993
 40
0.2953112333
 40
0.3543527257
 40
0.4746729289
 40
0.598686031
 40
0.7270155321
 40
0.8604101568
 40
1.0
 40
1.0
 40
1.0
 40
1.0
 10
10.7207241016
 20
3.8764580391
 30
0.0
 10
10.7175167646
 20
3.8660168986
 30
0.0
 10
10.7098751555
 20
3.845943577
 30
0.0
 10
10.6954286436
 20
3.8177073327
 30
0.0
 10
10.678947205
 20
3.7915539416
 30
0.0
 10
10.6549848916
 20
3.7588906104
 30
0.0
 10
10.6281126663
 20
3.7287573652
 30
0.0
 10
10.5991716532
 20
3.7008440111
 30
0.0
 10
10.5688896748
 20
3.6741795186
 30
0.0
 10
10.5286783217
 20
3.6431449518
 30
0.0
 10
10.4598876148
 20
3.5978141545
 30
0.0
 10
10.3665163182
 20
3.5490512335
 30
0.0
 10
10.2456425022
 20
3.5032059893
 30
0.0
 10
10.1161224799
 20
3.4696573828
 30
0.0
 10
9.9785147559
 20
3.4488973875
 30
0.0
 10
9.8839305406
 20
3.4443689989
 30
0.0
 10
9.8356053078
 20
3.4443689989
 30
0.0
  0
SPLINE
  5
46F
100
AcDbEntity
  8
0
100
AcDbSpline
 62
7
  6
CONTINUOUS
 70
0
 71
3
 72
11
 73
7
 74
0
 42
0.0000001
 43
0.0000001
 44
0.0000000001
 40
0.0
 40
0.0
 40
0.0
 40
0.0
 40
0.2042853963
 40
0.4437045485
 40
0.7107817264
 40
1.0
 40
1.0
 40
1.0
 40
1.0
 10
12.3447911961
 20
9.0970383736
 30
0.0
 10
12.3499728697
 20
9.1072778244
 30
0.0
 10
12.3614811483
 20
9.1293893195
 30
0.0
 10
12.3804136479
 20
9.1645448552
 30
0.0
 10
12.4019341544
 20
9.2037235304
 30
0.0
 10
12.4170477308
 20
9.2310760752
 30
0.0
 10
12.4249126283
 20
9.2452926301
 30
0.0
  0
SPLINE
  5
470
100
AcDbEntity
  8
0
100
AcDbSpline
 62
7
  6
CONTINUOUS
 70
0
 71
3
 72
17
 73
13
 74
0
 42
0.0000001
 43
0.0000001
 44
0.0000000001
 40
0.0
 40
0.0
 40
0.0
 40
0.0
 40
0.1274850939
 40
0.2531724865
 40
0.3770929647
 40
0.4386264396
 40
0.5000001975
 40
0.561373995
 40
0.6229074599
 40
0.7468276688
 40
0.8725148895
 40
1.0
 40
1.0
 40
1.0
 40
1.0
 10
7.3330490343
 20
10.7826133877
 30
0.0
 10
7.3180828712
 20
10.7934806992
 30
0.0
 10
7.2873364653
 20
10.8137204736
 30
0.0
 10
7.2381676259
 20
10.8380827023
 30
0.0
 10
7.1947908452
 20
10.8515122979
 30
0.0
 10
7.1593533094
 20
10.857026754
 30
0.0
 10
7.132605217
 20
10.8584193781
 30
0.0
 10
7.1058571231
 20
10.8570267591
 30
0.0
 10
7.0704196362
 20
10.8515122179
 30
0.0
 10
7.0270429137
 20
10.8380826782
 30
0.0
 10
6.9778741337
 20
10.8137204599
 30
0.0
 10
6.9471277464
 20
10.7934807006
 30
0.0
 10
6.9321615813
 20
10.7826133877
 30
0.0
  0
SPLINE
  5
471
100
AcDbEntity
  8
0
100
AcDbSpline
 62
7
  6
CONTINUOUS
 70
0
 71
3
 72
17
 73
13
 74
0
 42
0.0000001
 43
0.0000001
 44
0.0000000001
 40
0.0
 40
0.0
 40
0.0
 40
0.0
 40
0.1274850939
 40
0.2531724865
 40
0.3770929647
 40
0.4386264396
 40
0.5000001975
 40
0.561373995
 40
0.6229074599
 40
0.7468276688
 40
0.8725148895
 40
1.0
 40
1.0
 40
1.0
 40
1.0
 10
6.7390490343
 20
10.7826133877
 30
0.0
 10
6.7240828712
 20
10.7934806992
 30
0.0
 10
6.6933364653
 20
10.8137204736
 30
0.0
 10
6.6441676259
 20
10.8380827023
 30
0.0
 10
6.6007908452
 20
10.8515122979
 30
0.0
 10
6.5653533094
 20
10.857026754
 30
0.0
 10
6.538605217
 20
10.8584193781
 30
0.0
 10
6.5118571231
 20
10.8570267591
 30
0.0
 10
6.4764196362
 20
10.8515122179
 30
0.0
 10
6.4330429137
 20
10.8380826782
 30
0.0
 10
6.3838741337
 20
10.8137204599
 30
0.0
 10
6.3531277464
 20
10.7934807006
 30
0.0
 10
6.3381615813
 20
10.7826133877
 30
0.0
  0
SPLINE
  5
472
100
AcDbEntity
  8
0
100
AcDbSpline
 62
9
  6
CONTINUOUS
 70
0
 71
3
 72
10
 73
6
 74
0
 42
0.0000001
 43
0.0000001
 44
0.0000000001
 40
0.0
 40
0.0
 40
0.0
 40
0.0
 40
0.5606393324
 40
0.7956149262
 40
1.0
 40
1.0
 40
1.0
 40
1.0
 10
9.360813839
 20
10.2259415599
 30
0.0
 10
9.3683965639
 20
10.2356435375
 30
0.0
 10
9.3798121062
 20
10.2489476729
 30
0.0
 10
9.3957367538
 20
10.2640927873
 30
0.0
 10
9.403229056
 20
10.270198587
 30
0.0
 10
9.4068530983
 20
10.2728476838
 30
0.0
  0
SPLINE
  5
473
100
AcDbEntity
  8
0
100
AcDbSpline
 62
7
  6
CONTINUOUS
 70
0
 71
3
 72
12
 73
8
 74
0
 42
0.0000001
 43
0.0000001
 44
0.0000000001
 40
0.0
 40
0.0
 40
0.0
 40
0.0
 40
0.0546675778
 40
0.2229490758
 40
0.5207031583
 40
0.7307332825
 40
1.0
 40
1.0
 40
1.0
 40
1.0
 10
12.3252596178
 20
10.2922301364
 30
0.0
 10
12.3256005393
 20
10.2919725453
 30
0.0
 10
12.3269848973
 20
10.2909142885
 30
0.0
 10
12.3301614128
 20
10.2883700591
 30
0.0
 10
12.3341366083
 20
10.2848778568
 30
0.0
 10
12.3383684893
 20
10.2805224933
 30
0.0
 10
12.3408151594
 20
10.2776660869
 30
0.0
 10
12.3420113958
 20
10.2759346136
 30
0.0
  0
LINE
  5
474
100
AcDbEntity
  8
0
100
AcDbLine
 62
7
  6
CONTINUOUS
 10
12.3420113958
 20
10.2759346136
 11
12.344808273
 21
10.2711570107
  0
SPLINE
  5
475
100
AcDbEntity
  8
0
100
AcDbSpline
 62
7
  6
CONTINUOUS
 70
0
 71
3
 72
10
 73
6
 74
0
 42
0.0000001
 43
0.0000001
 44
0.0000000001
 40
0.0
 40
0.0
 40
0.0
 40
0.0
 40
0.4438972737
 40
0.7108562452
 40
1.0
 40
1.0
 40
1.0
 40
1.0
 10
12.344808294
 20
10.2711568664
 30
0.0
 10
12.3560569395
 20
10.2488919055
 30
0.0
 10
12.3748585468
 20
10.2136369076
 30
0.0
 10
12.4019332147
 20
10.1643948891
 30
0.0
 10
12.4170397039
 20
10.1370377468
 30
0.0
 10
12.4249048607
 20
10.1228195138
 30
0.0
  0
SPLINE
  5
476
100
AcDbEntity
  8
0
100
AcDbSpline
 62
7
  6
CONTINUOUS
 70
0
 71
3
 72
9
 73
5
 74
0
 42
0.0000001
 43
0.0000001
 44
0.0000000001
 40
0.0
 40
0.0
 40
0.0
 40
0.0
 40
0.2490879754
 40
1.0
 40
1.0
 40
1.0
 40
1.0
 10
6.702631051
 20
10.4121301465
 30
0.0
 10
6.7057386769
 20
10.4140180726
 30
0.0
 10
6.7181276912
 20
10.4217403117
 30
0.0
 10
6.7301790645
 20
10.4299995361
 30
0.0
 10
6.7390490343
 20
10.4364402467
 30
0.0
  0
SPLINE
  5
477
100
AcDbEntity
  8
0
100
AcDbSpline
 62
7
  6
CONTINUOUS
 70
0
 71
3
 72
17
 73
13
 74
0
 42
0.0000001
 43
0.0000001
 44
0.0000000001
 40
0.0
 40
0.0
 40
0.0
 40
0.0
 40
0.1274850939
 40
0.2531724865
 40
0.3770929647
 40
0.4386264396
 40
0.5000001975
 40
0.561373995
 40
0.6229074599
 40
0.7468276688
 40
0.8725148895
 40
1.0
 40
1.0
 40
1.0
 40
1.0
 10
6.9321615813
 20
10.4364402467
 30
0.0
 10
6.9471277444
 20
10.4255729352
 30
0.0
 10
6.9778741504
 20
10.4053331608
 30
0.0
 10
7.0270429897
 20
10.3809709321
 30
0.0
 10
7.0704197705
 20
10.3675413365
 30
0.0
 10
7.1058573063
 20
10.3620268803
 30
0.0
 10
7.1326053987
 20
10.3606342563
 30
0.0
 10
7.1593534926
 20
10.3620268753
 30
0.0
 10
7.1947909795
 20
10.3675414165
 30
0.0
 10
7.2381677019
 20
10.3809709562
 30
0.0
 10
7.2873364819
 20
10.4053331745
 30
0.0
 10
7.3180828693
 20
10.4255729337
 30
0.0
 10
7.3330490343
 20
10.4364402467
 30
0.0
  0
SPLINE
  5
478
100
AcDbEntity
  8
0
100
AcDbSpline
 62
9
  6
CONTINUOUS
 70
0
 71
3
 72
25
 73
21
 74
0
 42
0.0000001
 43
0.0000001
 44
0.0000000001
 40
0.0
 40
0.0
 40
0.0
 40
0.0
 40
0.0011270131
 40
0.0025298826
 40
0.0044879141
 40
0.0100562331
 40
0.0178055283
 40
0.0277093859
 40
0.0397414208
 40
0.0538752773
 40
0.07008463
 40
0.1086246537
 40
0.1551515367
 40
0.2094558387
 40
0.271328679
 40
0.3405338361
 40
0.41672474
 40
0.5885783552
 40
0.7839582677
 40
1.0
 40
1.0
 40
1.0
 40
1.0
 10
9.2856081143
 20
8.9050595827
 30
0.0
 10
9.2856345396
 20
8.9050967569
 30
0.0
 10
9.2857314517
 20
8.9051438518
 30
0.0
 10
9.285868096
 20
8.9052614327
 30
0.0
 10
9.2861605557
 20
8.9054754025
 30
0.0
 10
9.2866504318
 20
8.905851326
 30
0.0
 10
9.2874029315
 20
8.906414842
 30
0.0
 10
9.2883636973
 20
8.907135827
 30
0.0
 10
9.2895338847
 20
8.9080085164
 30
0.0
 10
9.2909104515
 20
8.9090312004
 30
0.0
 10
9.2931518265
 20
8.9106887058
 30
0.0
 10
9.2964554533
 20
8.9131145046
 30
0.0
 10
9.3010163755
 20
8.9164327453
 30
0.0
 10
9.306358312
 20
8.9202824128
 30
0.0
 10
9.3124650586
 20
8.9246404461
 30
0.0
 10
9.3193161277
 20
8.9294801483
 30
0.0
 10
9.3298498576
 20
8.9368204003
 30
0.0
 10
9.3446961026
 20
8.9469026105
 30
0.0
 10
9.3644799391
 20
8.9597813334
 30
0.0
 10
9.3786410428
 20
8.9685422241
 30
0.0
 10
9.3861342147
 20
8.9730470553
 30
0.0
  0
SPLINE
  5
479
100
AcDbEntity
  8
0
100
AcDbSpline
 62
9
  6
CONTINUOUS
 70
0
 71
3
 72
15
 73
11
 74
0
 42
0.0000001
 43
0.0000001
 44
0.0000000001
 40
0.0
 40
0.0
 40
0.0
 40
0.0
 40
0.1056170928
 40
0.2182002276
 40
0.3368849231
 40
0.4611410956
 40
0.5905946751
 40
0.7243144571
 40
0.8613343262
 40
1.0
 40
1.0
 40
1.0
 40
1.0
 10
9.3861308384
 20
8.9730590605
 30
0.0
 10
9.3983008154
 20
8.9600493235
 30
0.0
 10
9.4245782754
 20
8.9342110654
 30
0.0
 10
9.4683341246
 20
8.8978528534
 30
0.0
 10
9.5177520841
 20
8.863732055
 30
0.0
 10
9.5727128107
 20
8.83310798
 30
0.0
 10
9.6328776486
 20
8.8072924183
 30
0.0
 10
9.6975748111
 20
8.7875250349
 30
0.0
 10
9.7656730979
 20
8.7751889961
 30
0.0
 10
9.8122163419
 20
8.7722988239
 30
0.0
 10
9.835605357
 20
8.7722945191
 30
0.0
  0
SPLINE
  5
47A
100
AcDbEntity
  8
0
100
AcDbSpline
 62
9
  6
CONTINUOUS
 70
0
 71
3
 72
15
 73
11
 74
0
 42
0.0000001
 43
0.0000001
 44
0.0000000001
 40
0.0
 40
0.0
 40
0.0
 40
0.0
 40
0.1386696634
 40
0.2756941702
 40
0.4094147928
 40
0.5388670268
 40
0.6631219174
 40
0.7818052387
 40
0.8943862838
 40
1.0
 40
1.0
 40
1.0
 40
1.0
 10
9.8356053562
 20
8.7722948943
 30
0.0
 10
9.858994603
 20
8.7722993381
 30
0.0
 10
9.9055383927
 20
8.7751898056
 30
0.0
 10
9.9736370092
 20
8.7875256226
 30
0.0
 10
10.0383336561
 20
8.807292777
 30
0.0
 10
10.0984969675
 20
8.8331079983
 30
0.0
 10
10.1534560617
 20
8.8637311473
 30
0.0
 10
10.2028726278
 20
8.8978505414
 30
0.0
 10
10.2466271608
 20
8.9342068392
 30
0.0
 10
10.2729038331
 20
8.9600435883
 30
0.0
 10
10.2850733682
 20
8.9730524984
 30
0.0
  0
SPLINE
  5
47B
100
AcDbEntity
  8
0
100
AcDbSpline
 62
9
  6
CONTINUOUS
 70
0
 71
3
 72
11
 73
7
 74
0
 42
0.0000001
 43
0.0000001
 44
0.0000000001
 40
0.0
 40
0.0
 40
0.0
 40
0.0
 40
0.2730405253
 40
0.5269471895
 40
0.7678912109
 40
1.0
 40
1.0
 40
1.0
 40
1.0
 10
8.9201355426
 20
3.5618053718
 30
0.0
 10
8.9201771138
 20
3.5564939123
 30
0.0
 10
8.9207251388
 20
3.5462394723
 30
0.0
 10
8.9228840705
 20
3.5314406706
 30
0.0
 10
8.9260039298
 20
3.5176359535
 30
0.0
 10
8.9285924546
 20
3.5087983197
 30
0.0
 10
8.9299916304
 20
3.5045052189
 30
0.0
  0
SPLINE
  5
47C
100
AcDbEntity
  8
0
100
AcDbSpline
 62
9
  6
CONTINUOUS
 70
0
 71
3
 72
23
 73
19
 74
0
 42
0.0000001
 43
0.0000001
 44
0.0000000001
 40
0.0
 40
0.0
 40
0.0
 40
0.0
 40
0.0157785595
 40
0.0311461182
 40
0.0610352173
 40
0.075710577
 40
0.0902740228
 40
0.1191780172
 40
0.1766172986
 40
0.2053702349
 40
0.234215443
 40
0.2923201672
 40
0.3511503818
 40
0.4713926045
 40
0.595736032
 40
0.7247551291
 40
0.8591472182
 40
1.0
 40
1.0
 40
1.0
 40
1.0
 10
8.9299916304
 20
3.5045052189
 30
0.0
 10
8.931695895
 20
3.4992760123
 30
0.0
 10
8.9354371585
 20
3.489073585
 30
0.0
 10
8.9439897225
 20
3.4695827108
 30
0.0
 10
8.954026884
 20
3.4512079123
 30
0.0
 10
8.9651779868
 20
3.4338707427
 30
0.0
 10
8.9768177122
 20
3.4172732251
 30
0.0
 10
8.9986142218
 20
3.3896323364
 30
0.0
 10
9.0264998781
 20
3.3606402224
 30
0.0
 10
9.0564310738
 20
3.3339443957
 30
0.0
 10
9.0877345663
 20
3.3084940108
 30
0.0
 10
9.1292039837
 20
3.2790229252
 30
0.0
 10
9.1999783764
 20
3.2361865711
 30
0.0
 10
9.2956655925
 20
3.1904622244
 30
0.0
 10
9.4189453683
 20
3.1477830029
 30
0.0
 10
9.5507040675
 20
3.1166851065
 30
0.0
 10
9.6904995252
 20
3.0974627145
 30
0.0
 10
9.7865083652
 20
3.0932825019
 30
0.0
 10
9.8356053076
 20
3.0932825019
 30
0.0
  0
SPLINE
  5
47D
100
AcDbEntity
  8
0
100
AcDbSpline
 62
9
  6
CONTINUOUS
 70
0
 71
3
 72
11
 73
7
 74
0
 42
0.0000001
 43
0.0000001
 44
0.0000000001
 40
0.0
 40
0.0
 40
0.0
 40
0.0
 40
0.2740763394
 40
0.5284480413
 40
0.768987466
 40
1.0
 40
1.0
 40
1.0
 40
1.0
 10
10.7745479928
 20
3.1458295799
 30
0.0
 10
10.7745219842
 20
3.1408777445
 30
0.0
 10
10.7740477714
 20
3.1313256871
 30
0.0
 10
10.7721069724
 20
3.1175515226
 30
0.0
 10
10.7692437269
 20
3.1047410439
 30
0.0
 10
10.7668528087
 20
3.0965571673
 30
0.0
 10
10.7655583625
 20
3.0925891224
 30
0.0
  0
SPLINE
  5
47E
100
AcDbEntity
  8
0
100
AcDbSpline
 62
9
  6
CONTINUOUS
 70
0
 71
3
 72
22
 73
18
 74
0
 42
0.0000001
 43
0.0000001
 44
0.0000000001
 40
0.0
 40
0.0
 40
0.0
 40
0.0
 40
0.0308735855
 40
0.0602991872
 40
0.0889663377
 40
0.1172614706
 40
0.145392854
 40
0.1734971111
 40
0.2016655909
 40
0.2299594471
 40
0.2870945501
 40
0.3451701662
 40
0.4646420118
 40
0.5892735523
 40
0.7196149033
 40
0.8562306503
 40
1.0
 40
1.0
 40
1.0
 40
1.0
 10
10.7655583625
 20
3.0925891224
 30
0.0
 10
10.76221584
 20
3.0823428261
 30
0.0
 10
10.7541016292
 20
3.062823453
 30
0.0
 10
10.7385513239
 20
3.0358647729
 30
0.0
 10
10.7207420294
 20
3.0114713208
 30
0.0
 10
10.7012932075
 20
2.9889801492
 30
0.0
 10
10.680366799
 20
2.9681408802
 30
0.0
 10
10.6581975128
 20
2.9487060781
 30
0.0
 10
10.6349180989
 20
2.9305285523
 30
0.0
 10
10.6024805737
 20
2.9076931685
 30
0.0
 10
10.5595523715
 20
2.8817388049
 30
0.0
 10
10.486340901
 20
2.8448391121
 30
0.0
 10
10.3876392324
 20
2.8068393301
 30
0.0
 10
10.2612360191
 20
2.7728380752
 30
0.0
 10
10.1264897873
 20
2.748927138
 30
0.0
 10
9.9837126811
 20
2.7345544407
 30
0.0
 10
9.8857939859
 20
2.7315429249
 30
0.0
 10
9.835605308
 20
2.7315429249
 30
0.0
  0
SPLINE
  5
47F
100
AcDbEntity
  8
0
100
AcDbSpline
 62
9
  6
CONTINUOUS
 70
0
 71
3
 72
11
 73
7
 74
0
 42
0.0000001
 43
0.0000001
 44
0.0000000001
 40
0.0
 40
0.0
 40
0.0
 40
0.0
 40
0.2730405253
 40
0.5269471895
 40
0.7678912109
 40
1.0
 40
1.0
 40
1.0
 40
1.0
 10
10.7510750731
 20
3.5618053718
 30
0.0
 10
10.7510335018
 20
3.5564939123
 30
0.0
 10
10.7504854768
 20
3.5462394723
 30
0.0
 10
10.7483265452
 20
3.5314406706
 30
0.0
 10
10.7452066859
 20
3.5176359535
 30
0.0
 10
10.7426181611
 20
3.5087983197
 30
0.0
 10
10.7412189853
 20
3.5045052189
 30
0.0
  0
SPLINE
  5
480
100
AcDbEntity
  8
0
100
AcDbSpline
 62
9
  6
CONTINUOUS
 70
0
 71
3
 72
23
 73
19
 74
0
 42
0.0000001
 43
0.0000001
 44
0.0000000001
 40
0.0
 40
0.0
 40
0.0
 40
0.0
 40
0.0157785595
 40
0.0311461182
 40
0.0610352173
 40
0.075710577
 40
0.0902740228
 40
0.1191780172
 40
0.1766172986
 40
0.2053702349
 40
0.234215443
 40
0.2923201672
 40
0.3511503818
 40
0.4713926044
 40
0.595736032
 40
0.7247551291
 40
0.8591472182
 40
1.0
 40
1.0
 40
1.0
 40
1.0
 10
10.7412189853
 20
3.5045052189
 30
0.0
 10
10.7395147207
 20
3.4992760123
 30
0.0
 10
10.7357734571
 20
3.489073585
 30
0.0
 10
10.7272208931
 20
3.4695827108
 30
0.0
 10
10.7171837316
 20
3.4512079123
 30
0.0
 10
10.7060326289
 20
3.4338707426
 30
0.0
 10
10.6943929034
 20
3.4172732251
 30
0.0
 10
10.6725963939
 20
3.3896323364
 30
0.0
 10
10.6447107375
 20
3.3606402224
 30
0.0
 10
10.6147795418
 20
3.3339443957
 30
0.0
 10
10.5834760493
 20
3.3084940108
 30
0.0
 10
10.5420066319
 20
3.2790229252
 30
0.0
 10
10.4712322392
 20
3.236186571
 30
0.0
 10
10.3755450231
 20
3.1904622244
 30
0.0
 10
10.2522652472
 20
3.1477830028
 30
0.0
 10
10.1205065479
 20
3.1166851064
 30
0.0
 10
9.9807110903
 20
3.0974627145
 30
0.0
 10
9.8847022502
 20
3.0932825019
 30
0.0
 10
9.8356053078
 20
3.0932825019
 30
0.0
  0
SPLINE
  5
481
100
AcDbEntity
  8
0
100
AcDbSpline
 62
7
  6
CONTINUOUS
 70
0
 71
3
 72
17
 73
13
 74
0
 42
0.0000001
 43
0.0000001
 44
0.0000000001
 40
0.0
 40
0.0
 40
0.0
 40
0.0
 40
0.1274850939
 40
0.2531724865
 40
0.3770929647
 40
0.4386264396
 40
0.5000001975
 40
0.561373995
 40
0.6229074599
 40
0.7468276688
 40
0.8725148895
 40
1.0
 40
1.0
 40
1.0
 40
1.0
 10
13.3330490343
 20
10.7826133877
 30
0.0
 10
13.3180828712
 20
10.7934806992
 30
0.0
 10
13.2873364653
 20
10.8137204736
 30
0.0
 10
13.2381676259
 20
10.8380827023
 30
0.0
 10
13.1947908452
 20
10.8515122979
 30
0.0
 10
13.1593533094
 20
10.857026754
 30
0.0
 10
13.132605217
 20
10.8584193781
 30
0.0
 10
13.1058571231
 20
10.8570267591
 30
0.0
 10
13.0704196362
 20
10.8515122179
 30
0.0
 10
13.0270429137
 20
10.8380826782
 30
0.0
 10
12.9778741337
 20
10.8137204599
 30
0.0
 10
12.9471277464
 20
10.7934807006
 30
0.0
 10
12.9321615813
 20
10.7826133877
 30
0.0
  0
SPLINE
  5
482
100
AcDbEntity
  8
0
100
AcDbSpline
 62
7
  6
CONTINUOUS
 70
0
 71
3
 72
17
 73
13
 74
0
 42
0.0000001
 43
0.0000001
 44
0.0000000001
 40
0.0
 40
0.0
 40
0.0
 40
0.0
 40
0.1274850939
 40
0.2531724865
 40
0.3770929647
 40
0.4386264396
 40
0.5000001975
 40
0.561373995
 40
0.6229074599
 40
0.7468276688
 40
0.8725148895
 40
1.0
 40
1.0
 40
1.0
 40
1.0
 10
12.7390490343
 20
10.7826133877
 30
0.0
 10
12.7240828712
 20
10.7934806992
 30
0.0
 10
12.6933364653
 20
10.8137204736
 30
0.0
 10
12.6441676259
 20
10.8380827023
 30
0.0
 10
12.6007908452
 20
10.8515122979
 30
0.0
 10
12.5653533094
 20
10.857026754
 30
0.0
 10
12.538605217
 20
10.8584193781
 30
0.0
 10
12.5118571231
 20
10.8570267591
 30
0.0
 10
12.4764196362
 20
10.8515122179
 30
0.0
 10
12.4330429137
 20
10.8380826782
 30
0.0
 10
12.3838741337
 20
10.8137204599
 30
0.0
 10
12.3531277464
 20
10.7934807006
 30
0.0
 10
12.3381615813
 20
10.7826133877
 30
0.0
  0
SPLINE
  5
483
100
AcDbEntity
  8
0
100
AcDbSpline
 62
9
  6
CONTINUOUS
 70
0
 71
3
 72
11
 73
7
 74
0
 42
0.0000001
 43
0.0000001
 44
0.0000000001
 40
0.0
 40
0.0
 40
0.0
 40
0.0
 40
0.271891855
 40
0.5256632649
 40
0.7670735843
 40
1.0
 40
1.0
 40
1.0
 40
1.0
 10
8.9411295563
 20
3.9338511849
 30
0.0
 10
8.9411681582
 20
3.9285633242
 30
0.0
 10
8.9416887696
 20
3.9183367261
 30
0.0
 10
8.9437354563
 20
3.903543568
 30
0.0
 10
8.9466971676
 20
3.8896859025
 30
0.0
 10
8.9491562727
 20
3.8807884966
 30
0.0
 10
8.950486514
 20
3.8764580391
 30
0.0
  0
SPLINE
  5
484
100
AcDbEntity
  8
0
100
AcDbSpline
 62
9
  6
CONTINUOUS
 70
0
 71
3
 72
21
 73
17
 74
0
 42
0.0000001
 43
0.0000001
 44
0.0000000001
 40
0.0
 40
0.0
 40
0.0
 40
0.0
 40
0.0315506378
 40
0.0618579126
 40
0.0914835141
 40
0.1207482152
 40
0.178801065
 40
0.2078063638
 40
0.236869993
 40
0.2953112333
 40
0.3543527257
 40
0.4746729289
 40
0.598686031
 40
0.7270155321
 40
0.8604101568
 40
1.0
 40
1.0
 40
1.0
 40
1.0
 10
8.950486514
 20
3.8764580391
 30
0.0
 10
8.953693851
 20
3.8660168986
 30
0.0
 10
8.9613354602
 20
3.845943577
 30
0.0
 10
8.975781972
 20
3.8177073327
 30
0.0
 10
8.9922634106
 20
3.7915539416
 30
0.0
 10
9.016225724
 20
3.7588906104
 30
0.0
 10
9.0430979494
 20
3.7287573652
 30
0.0
 10
9.0720389625
 20
3.7008440111
 30
0.0
 10
9.1023209408
 20
3.6741795185
 30
0.0
 10
9.142532294
 20
3.6431449518
 30
0.0
 10
9.2113230009
 20
3.5978141545
 30
0.0
 10
9.3046942975
 20
3.5490512335
 30
0.0
 10
9.4255681135
 20
3.5032059893
 30
0.0
 10
9.5550881358
 20
3.4696573828
 30
0.0
 10
9.6926958598
 20
3.4488973875
 30
0.0
 10
9.7872800751
 20
3.4443689989
 30
0.0
 10
9.8356053079
 20
3.4443689989
 30
0.0
  0
SPLINE
  5
485
100
AcDbEntity
  8
0
100
AcDbSpline
 62
9
  6
CONTINUOUS
 70
0
 71
3
 72
30
 73
26
 74
0
 42
0.0000001
 43
0.0000001
 44
0.0000000001
 40
0.0
 40
0.0
 40
0.0
 40
0.0
 40
0.1250257492
 40
0.2500465036
 40
0.3125610943
 40
0.3750749966
 40
0.4375878396
 40
0.5000995908
 40
0.5626098369
 40
0.6251177891
 40
0.6563739545
 40
0.6876296036
 40
0.7501349841
 40
0.7813963291
 40
0.812656673
 40
0.8439135229
 40
0.8751627538
 40
0.8907907947
 40
0.9064145365
 40
0.9220341073
 40
0.9376544504
 40
0.953289112
 40
0.9688977985
 40
0.9844780746
 40
1.0
 40
1.0
 40
1.0
 40
1.0
 10
9.8356052988
 20
2.3434940724
 30
0.0
 10
9.880788182
 20
2.3434924433
 30
0.0
 10
9.9711687777
 20
2.3456635285
 30
0.0
 10
10.0838564033
 20
2.3542397063
 30
0.0
 10
10.1736098972
 20
2.3648234921
 30
0.0
 10
10.2406697643
 20
2.3747186058
 30
0.0
 10
10.3073814489
 20
2.3867438168
 30
0.0
 10
10.3736258151
 20
2.4011333773
 30
0.0
 10
10.4392423655
 20
2.4181644391
 30
0.0
 10
10.4932162554
 20
2.4348793334
 30
0.0
 10
10.535780071
 20
2.4500533268
 30
0.0
 10
10.5778525911
 20
2.4665284033
 30
0.0
 10
10.6190509406
 20
2.4852290963
 30
0.0
 10
10.6587705858
 20
2.5068038346
 30
0.0
 10
10.6876290575
 20
2.524614172
 30
0.0
 10
10.7152131519
 20
2.5443499486
 30
0.0
 10
10.7367004352
 20
2.5627464753
 30
0.0
 10
10.7526325316
 20
2.5787729431
 30
0.0
 10
10.7638082982
 20
2.591520025
 30
0.0
 10
10.7739815405
 20
2.6050841729
 30
0.0
 10
10.7829217386
 20
2.6195018583
 30
0.0
 10
10.7903993595
 20
2.6347320242
 30
0.0
 10
10.7961385387
 20
2.6506923627
 30
0.0
 10
10.7998017905
 20
2.6672253246
 30
0.0
 10
10.8005911144
 20
2.6784840824
 30
0.0
 10
10.8006033761
 20
2.6840935162
 30
0.0
  0
SPLINE
  5
486
100
AcDbEntity
  8
0
100
AcDbSpline
 62
7
  6
CONTINUOUS
 70
0
 71
3
 72
26
 73
22
 74
0
 42
0.0000001
 43
0.0000001
 44
0.0000000001
 40
0.0
 40
0.0
 40
0.0
 40
0.0
 40
0.0008160036
 40
0.0032274808
 40
0.007265773
 40
0.0129243925
 40
0.0201976054
 40
0.0290874183
 40
0.051792624
 40
0.0811976401
 40
0.1174831765
 40
0.1608783485
 40
0.2116615071
 40
0.2702335306
 40
0.3370865671
 40
0.4128637254
 40
0.4986383273
 40
0.5959178993
 40
0.7063948328
 40
0.8367295745
 40
1.0
 40
1.0
 40
1.0
 40
1.0
 10
12.3252726276
 20
9.0758595519
 30
0.0
 10
12.3252770649
 20
9.0758530251
 30
0.0
 10
12.3253137174
 20
9.075886496
 30
0.0
 10
12.3253565541
 20
9.0759172939
 30
0.0
 10
12.3254506969
 20
9.0760029525
 30
0.0
 10
12.3255724356
 20
9.0761062507
 30
0.0
 10
12.3257361508
 20
9.0762422045
 30
0.0
 10
12.3260310447
 20
9.0764740659
 30
0.0
 10
12.3265004272
 20
9.0768323964
 30
0.0
 10
12.3271764933
 20
9.077355369
 30
0.0
 10
12.3280019181
 20
9.0780126996
 30
0.0
 10
12.3289808663
 20
9.078808838
 30
0.0
 10
12.3301172497
 20
9.0797529984
 30
0.0
 10
12.331411241
 20
9.0808622213
 30
0.0
 10
12.3328650553
 20
9.0821559891
 30
0.0
 10
12.334485391
 20
9.0836577655
 30
0.0
 10
12.336272374
 20
9.0854118872
 30
0.0
 10
12.338211731
 20
9.087485864
 30
0.0
 10
12.3403851796
 20
9.0899304035
 30
0.0
 10
12.3427236451
 20
9.0930730353
 30
0.0
 10
12.3440969999
 20
9.0955685097
 30
0.0
 10
12.344804406
 20
9.0969803273
 30
0.0
  0
SPLINE
  5
487
100
AcDbEntity
  8
0
100
AcDbSpline
 62
7
  6
CONTINUOUS
 70
0
 71
3
 72
17
 73
13
 74
0
 42
0.0000001
 43
0.0000001
 44
0.0000000001
 40
0.0
 40
0.0
 40
0.0
 40
0.0
 40
0.1274850939
 40
0.2531724865
 40
0.3770929647
 40
0.4386264396
 40
0.5000001975
 40
0.561373995
 40
0.6229074599
 40
0.7468276688
 40
0.8725148895
 40
1.0
 40
1.0
 40
1.0
 40
1.0
 10
12.3381615813
 20
10.4364402467
 30
0.0
 10
12.3531277444
 20
10.4255729352
 30
0.0
 10
12.3838741504
 20
10.4053331608
 30
0.0
 10
12.4330429897
 20
10.3809709321
 30
0.0
 10
12.4764197705
 20
10.3675413365
 30
0.0
 10
12.5118573063
 20
10.3620268803
 30
0.0
 10
12.5386053987
 20
10.3606342563
 30
0.0
 10
12.5653534926
 20
10.3620268753
 30
0.0
 10
12.6007909795
 20
10.3675414165
 30
0.0
 10
12.6441677019
 20
10.3809709562
 30
0.0
 10
12.6933364819
 20
10.4053331745
 30
0.0
 10
12.7240828693
 20
10.4255729337
 30
0.0
 10
12.7390490343
 20
10.4364402467
 30
0.0
  0
SPLINE
  5
488
100
AcDbEntity
  8
0
100
AcDbSpline
 62
7
  6
CONTINUOUS
 70
0
 71
3
 72
17
 73
13
 74
0
 42
0.0000001
 43
0.0000001
 44
0.0000000001
 40
0.0
 40
0.0
 40
0.0
 40
0.0
 40
0.1274850939
 40
0.2531724865
 40
0.3770929647
 40
0.4386264396
 40
0.5000001975
 40
0.561373995
 40
0.6229074599
 40
0.7468276688
 40
0.8725148895
 40
1.0
 40
1.0
 40
1.0
 40
1.0
 10
12.9321615813
 20
10.4364402467
 30
0.0
 10
12.9471277444
 20
10.4255729352
 30
0.0
 10
12.9778741504
 20
10.4053331608
 30
0.0
 10
13.0270429897
 20
10.3809709321
 30
0.0
 10
13.0704197705
 20
10.3675413365
 30
0.0
 10
13.1058573063
 20
10.3620268803
 30
0.0
 10
13.1326053987
 20
10.3606342563
 30
0.0
 10
13.1593534926
 20
10.3620268753
 30
0.0
 10
13.1947909795
 20
10.3675414165
 30
0.0
 10
13.2381677019
 20
10.3809709562
 30
0.0
 10
13.2873364819
 20
10.4053331745
 30
0.0
 10
13.3180828693
 20
10.4255729337
 30
0.0
 10
13.3330490343
 20
10.4364402467
 30
0.0
  0
SPLINE
  5
489
100
AcDbEntity
  8
0
100
AcDbSpline
 62
9
  6
CONTINUOUS
 70
0
 71
3
 72
28
 73
24
 74
0
 42
0.0000001
 43
0.0000001
 44
0.0000000001
 40
0.0
 40
0.0
 40
0.0
 40
0.0
 40
0.1249665413
 40
0.2499337618
 40
0.3124174111
 40
0.3749017059
 40
0.4373838968
 40
0.4998655163
 40
0.562346052
 40
0.6248236095
 40
0.6872983331
 40
0.7497657008
 40
0.7810100643
 40
0.8122740653
 40
0.843537135
 40
0.8747874611
 40
0.8904189932
 40
0.9060689471
 40
0.9217531172
 40
0.9374299608
 40
0.9530926549
 40
0.9687856624
 40
1.0
 40
1.0
 40
1.0
 40
1.0
 10
9.8356053078
 20
2.3413690816
 30
0.0
 10
9.8808388126
 20
2.3413693531
 30
0.0
 10
9.9713221969
 20
2.3435607735
 30
0.0
 10
10.084137509
 20
2.3521549439
 30
0.0
 10
10.1739880043
 20
2.3627947611
 30
0.0
 10
10.2411192774
 20
2.3727196192
 30
0.0
 10
10.3079001703
 20
2.3847869797
 30
0.0
 10
10.3742115603
 20
2.3992207092
 30
0.0
 10
10.4398979295
 20
2.4162876171
 30
0.0
 10
10.5047166021
 20
2.4364220605
 30
0.0
 10
10.5683264564
 20
2.4601121195
 30
0.0
 10
10.6198437957
 20
2.4835719456
 30
0.0
 10
10.6595821986
 20
2.5052259948
 30
0.0
 10
10.6884386407
 20
2.5231404554
 30
0.0
 10
10.7159860547
 20
2.5430253279
 30
0.0
 10
10.737462597
 20
2.561511158
 30
0.0
 10
10.7533309203
 20
2.5776697676
 30
0.0
 10
10.76442018
 20
2.5905735909
 30
0.0
 10
10.7745213493
 20
2.6042908627
 30
0.0
 10
10.7833893381
 20
2.6188467918
 30
0.0
 10
10.7907492697
 20
2.6342410457
 30
0.0
 10
10.7980994862
 20
2.655693308
 30
0.0
 10
10.8006049293
 20
2.6727558809
 30
0.0
 10
10.8006053171
 20
2.6840543762
 30
0.0
  0
SPLINE
  5
48A
100
AcDbEntity
  8
0
100
AcDbSpline
 62
9
  6
CONTINUOUS
 70
0
 71
3
 72
27
 73
23
 74
0
 42
0.0000001
 43
0.0000001
 44
0.0000000001
 40
0.0
 40
0.0
 40
0.0
 40
0.0
 40
0.0255617618
 40
0.0485286898
 40
0.0689698015
 40
0.0876387228
 40
0.1052640987
 40
0.1221099076
 40
0.1539442932
 40
0.1838986065
 40
0.2127278388
 40
0.2410544782
 40
0.2691212646
 40
0.3249337014
 40
0.3809134451
 40
0.4375256178
 40
0.4950128459
 40
0.5535302733
 40
0.6131697961
 40
0.7361208373
 40
0.8647196054
 40
1.0
 40
1.0
 40
1.0
 40
1.0
 10
10.8786737768
 20
2.6840543762
 30
0.0
 10
10.8786737768
 20
2.6737584977
 30
0.0
 10
10.877133614
 20
2.6541769502
 30
0.0
 10
10.8709861531
 20
2.627012389
 30
0.0
 10
10.8625975031
 20
2.6033975332
 30
0.0
 10
10.8525734194
 20
2.5828211219
 30
0.0
 10
10.8416192421
 20
2.5644080131
 30
0.0
 10
10.8262299069
 20
2.5425519585
 30
0.0
 10
10.8053532666
 20
2.5186222037
 30
0.0
 10
10.778692019
 20
2.493625882
 30
0.0
 10
10.7510770604
 20
2.4719239534
 30
0.0
 10
10.7227241789
 20
2.4525377854
 30
0.0
 10
10.68400652
 20
2.4291883622
 30
0.0
 10
10.6337453153
 20
2.4035739671
 30
0.0
 10
10.5710587208
 20
2.3775393522
 30
0.0
 10
10.5063464369
 20
2.3549621501
 30
0.0
 10
10.4395999624
 20
2.3354047661
 30
0.0
 10
10.3708904676
 20
2.3184655729
 30
0.0
 10
10.2757419826
 20
2.2989235502
 30
0.0
 10
10.1516978275
 20
2.2802544149
 30
0.0
 10
9.9964129654
 20
2.2664904911
 30
0.0
 10
9.8900941384
 20
2.2634859073
 30
0.0
 10
9.8356053078
 20
2.2634859073
 30
0.0
  0
SPLINE
  5
48B
100
AcDbEntity
  8
0
100
AcDbSpline
 62
9
  6
CONTINUOUS
 70
0
 71
3
 72
9
 73
5
 74
0
 42
0.0000001
 43
0.0000001
 44
0.0000000001
 40
0.0
 40
0.0
 40
0.0
 40
0.0
 40
0.2384302803
 40
1.0
 40
1.0
 40
1.0
 40
1.0
 10
10.2643582682
 20
10.2728474266
 30
0.0
 10
10.2650998239
 20
10.2723052783
 30
0.0
 10
10.2681850399
 20
10.2699973899
 30
0.0
 10
10.2711727934
 20
10.2675604239
 30
0.0
 10
10.2734002842
 20
10.2656506447
 30
0.0
  0
SPLINE
  5
48C
100
AcDbEntity
  8
0
100
AcDbSpline
 62
9
  6
CONTINUOUS
 70
0
 71
3
 72
9
 73
5
 74
0
 42
0.0000001
 43
0.0000001
 44
0.0000000001
 40
0.0
 40
0.0
 40
0.0
 40
0.0
 40
0.4585849823
 40
1.0
 40
1.0
 40
1.0
 40
1.0
 10
10.2734002842
 20
10.2656506447
 30
0.0
 10
10.2789855743
 20
10.2608619961
 30
0.0
 10
10.2905387739
 20
10.2496864923
 30
0.0
 10
10.3010698131
 20
10.2375605016
 30
0.0
 10
10.3065314587
 20
10.2308065643
 30
0.0
  0
SPLINE
  5
48D
100
AcDbEntity
  8
0
100
AcDbSpline
 62
9
  6
CONTINUOUS
 70
0
 71
3
 72
42
 73
38
 74
0
 42
0.0000001
 43
0.0000001
 44
0.0000000001
 40
0.0
 40
0.0
 40
0.0
 40
0.0
 40
0.0098991507
 40
0.0151771637
 40
0.0209185131
 40
0.0273107567
 40
0.0344380496
 40
0.050985746
 40
0.0705443819
 40
0.092869094
 40
0.1176225565
 40
0.1444215239
 40
0.2025086426
 40
0.2637358581
 40
0.3246248635
 40
0.3538561466
 40
0.3817068721
 40
0.4320407131
 40
0.4755771125
 40
0.5133611814
 40
0.5464404955
 40
0.5758366172
 40
0.6025058426
 40
0.6272963061
 40
0.6509206611
 40
0.673962728
 40
0.6969209606
 40
0.7200873085
 40
0.7433842266
 40
0.7898658963
 40
0.8353852239
 40
0.8575238877
 40
0.8791469073
 40
0.9002191401
 40
0.9207559815
 40
0.9607003645
 40
1.0
 40
1.0
 40
1.0
 40
1.0
 10
6.2295443174
 20
12.7712287673
 30
0.0
 10
6.2317318669
 20
12.771228763
 30
0.0
 10
6.2351221455
 20
12.770782996
 30
0.0
 10
6.2394278292
 20
12.7690479602
 30
0.0
 10
6.2427158144
 20
12.7670146216
 30
0.0
 10
6.2459630204
 20
12.7642437926
 30
0.0
 10
6.2505066408
 20
12.7593817964
 30
0.0
 10
6.2560645603
 20
12.7515676954
 30
0.0
 10
6.2624509154
 20
12.7403342479
 30
0.0
 10
6.2688557844
 20
12.7270648586
 30
0.0
 10
6.2752770282
 20
12.7120514207
 30
0.0
 10
6.2840917349
 20
12.6894800547
 30
0.0
 10
6.2948415383
 20
12.6590271764
 30
0.0
 10
6.3074722324
 20
12.6212625102
 30
0.0
 10
6.3181287417
 20
12.5895591673
 30
0.0
 10
6.326841536
 20
12.5649874638
 30
0.0
 10
6.3351544708
 20
12.5427526211
 30
0.0
 10
6.3455420706
 20
12.5179221227
 30
0.0
 10
6.3585588603
 20
12.4918747877
 30
0.0
 10
6.371606519
 20
12.4701870562
 30
0.0
 10
6.384696022
 20
12.4522711029
 30
0.0
 10
6.3978245503
 20
12.4375412251
 30
0.0
 10
6.4109781354
 20
12.4254087909
 30
0.0
 10
6.4241359441
 20
12.4152718763
 30
0.0
 10
6.437280789
 20
12.4065079033
 30
0.0
 10
6.4504157153
 20
12.3984939632
 30
0.0
 10
6.4634963502
 20
12.3905865619
 30
0.0
 10
6.4764564651
 20
12.3823763151
 30
0.0
 10
6.4937198175
 20
12.3712480887
 30
0.0
 10
6.5151241275
 20
12.3574278948
 30
0.0
 10
6.5367694145
 20
12.3444515195
 30
0.0
 10
6.5542233146
 20
12.3352400145
 30
0.0
 10
6.5672045296
 20
12.3291620049
 30
0.0
 10
6.580200222
 20
12.3239968375
 30
0.0
 10
6.5974195449
 20
12.318620856
 30
0.0
 10
6.6191673545
 20
12.3145164974
 30
0.0
 10
6.6366855847
 20
12.313477308
 30
0.0
 10
6.6453694324
 20
12.3133650505
 30
0.0
  0
SPLINE
  5
48E
100
AcDbEntity
  8
0
100
AcDbSpline
 62
9
  6
CONTINUOUS
 70
0
 71
3
 72
9
 73
5
 74
0
 42
0.0000001
 43
0.0000001
 44
0.0000000001
 40
0.0
 40
0.0
 40
0.0
 40
0.0
 40
0.4778598592
 40
1.0
 40
1.0
 40
1.0
 40
1.0
 10
6.2295485174
 20
10.8138249834
 30
0.0
 10
6.231587044
 20
10.8138249825
 30
0.0
 10
6.2358853979
 20
10.8143400971
 30
0.0
 10
6.2398177827
 20
10.8162043342
 30
0.0
 10
6.2416744623
 20
10.817434846
 30
0.0
  0
SPLINE
  5
48F
100
AcDbEntity
  8
0
100
AcDbSpline
 62
9
  6
CONTINUOUS
 70
0
 71
3
 72
9
 73
5
 74
0
 42
0.0000001
 43
0.0000001
 44
0.0000000001
 40
0.0
 40
0.0
 40
0.0
 40
0.0
 40
0.2418120747
 40
1.0
 40
1.0
 40
1.0
 40
1.0
 10
6.2835609407
 20
10.8945978803
 30
0.0
 10
6.2848707767
 20
10.8981295823
 30
0.0
 10
6.2901997707
 20
10.9127673406
 30
0.0
 10
6.2952588228
 20
10.9275016192
 30
0.0
 10
6.2990460938
 20
10.9386884249
 30
0.0
  0
SPLINE
  5
490
100
AcDbEntity
  8
0
100
AcDbSpline
 62
9
  6
CONTINUOUS
 70
0
 71
3
 72
9
 73
5
 74
0
 42
0.0000001
 43
0.0000001
 44
0.0000000001
 40
0.0
 40
0.0
 40
0.0
 40
0.0
 40
0.5068004625
 40
1.0
 40
1.0
 40
1.0
 40
1.0
 10
6.2990460938
 20
10.9386884249
 30
0.0
 10
6.3034874624
 20
10.9518072977
 30
0.0
 10
6.3121133723
 20
10.9777386253
 30
0.0
 10
6.3209608246
 20
11.0035983037
 30
0.0
 10
6.3255292085
 20
11.0162790905
 30
0.0
  0
SPLINE
  5
491
100
AcDbEntity
  8
0
100
AcDbSpline
 62
9
  6
CONTINUOUS
 70
0
 71
3
 72
17
 73
13
 74
0
 42
0.0000001
 43
0.0000001
 44
0.0000000001
 40
0.0
 40
0.0
 40
0.0
 40
0.0
 40
0.1011588123
 40
0.2059621777
 40
0.3150314616
 40
0.4292690869
 40
0.4887182303
 40
0.5501198563
 40
0.6142403785
 40
0.681992526
 40
0.8314368437
 40
1.0
 40
1.0
 40
1.0
 40
1.0
 10
10.7929831131
 20
2.8608854505
 30
0.0
 10
10.7979241996
 20
2.8561929863
 30
0.0
 10
10.8077368968
 20
2.8463743251
 30
0.0
 10
10.8218655174
 20
2.8305216773
 30
0.0
 10
10.8353734765
 20
2.8130008242
 30
0.0
 10
10.8457458673
 20
2.7969956176
 30
0.0
 10
10.8534720341
 20
2.7831672875
 30
0.0
 10
10.8590324765
 20
2.7720105994
 30
0.0
 10
10.8641686437
 20
2.760038071
 30
0.0
 10
10.8705306226
 20
2.7421768721
 30
0.0
 10
10.8768078714
 20
2.7168734573
 30
0.0
 10
10.878676535
 20
2.6954090563
 30
0.0
 10
10.878676535
 20
2.6840543762
 30
0.0
  0
SPLINE
  5
492
100
AcDbEntity
  8
0
100
AcDbSpline
 62
9
  6
CONTINUOUS
 70
0
 71
3
 72
18
 73
14
 74
0
 42
0.0000001
 43
0.0000001
 44
0.0000000001
 40
0.0
 40
0.0
 40
0.0
 40
0.0
 40
0.0084579591
 40
0.0152491577
 40
0.0240777782
 40
0.0481472402
 40
0.0809406794
 40
0.1717694314
 40
0.2936787236
 40
0.4428502118
 40
0.6143971644
 40
0.8026292844
 40
1.0
 40
1.0
 40
1.0
 40
1.0
 10
11.9291360674
 20
10.3214927268
 30
0.0
 10
11.9293564634
 20
10.321489527
 30
0.0
 10
11.9296936003
 20
10.3211615401
 30
0.0
 10
11.9299883451
 20
10.3206287604
 30
0.0
 10
11.9303912624
 20
10.3196645354
 30
0.0
 10
11.9308417042
 20
10.3180144102
 30
0.0
 10
11.9315985846
 20
10.3142364688
 30
0.0
 10
11.9324066305
 20
10.3078850154
 30
0.0
 10
11.9332418241
 20
10.298489718
 30
0.0
 10
11.9339464103
 20
10.2869748247
 30
0.0
 10
11.9345038647
 20
10.2737224716
 30
0.0
 10
11.9348826861
 20
10.2592072362
 30
0.0
 10
11.9350102795
 20
10.2491586889
 30
0.0
 10
11.9350421351
 20
10.2440151931
 30
0.0
  0
SPLINE
  5
493
100
AcDbEntity
  8
0
100
AcDbSpline
 62
9
  6
CONTINUOUS
 70
0
 71
3
 72
9
 73
5
 74
0
 42
0.0000001
 43
0.0000001
 44
0.0000000001
 40
0.0
 40
0.0
 40
0.0
 40
0.0
 40
0.2713729719
 40
1.0
 40
1.0
 40
1.0
 40
1.0
 10
10.0641866365
 20
9.0436037904
 30
0.0
 10
10.0799104525
 20
9.0474894125
 30
0.0
 10
10.1374522314
 20
9.0633710633
 30
0.0
 10
10.1933820084
 20
9.0851575048
 30
0.0
 10
10.232435082
 20
9.1042899672
 30
0.0
  0
SPLINE
  5
494
100
AcDbEntity
  8
0
100
AcDbSpline
 62
9
  6
CONTINUOUS
 70
0
 71
3
 72
9
 73
5
 74
0
 42
0.0000001
 43
0.0000001
 44
0.0000000001
 40
0.0
 40
0.0
 40
0.0
 40
0.0
 40
0.2620369115
 40
1.0
 40
1.0
 40
1.0
 40
1.0
 10
10.232435082
 20
9.1042899672
 30
0.0
 10
10.2380906013
 20
9.1070606585
 30
0.0
 10
10.2595423752
 20
9.1178983578
 30
0.0
 10
10.2804546826
 20
9.1298156719
 30
0.0
 10
10.2954633799
 20
9.1392659235
 30
0.0
  0
SPLINE
  5
495
100
AcDbEntity
  8
0
100
AcDbSpline
 62
9
  6
CONTINUOUS
 70
0
 71
3
 72
18
 73
14
 74
0
 42
0.0000001
 43
0.0000001
 44
0.0000000001
 40
0.0
 40
0.0
 40
0.0
 40
0.0
 40
0.0084579591
 40
0.0152491577
 40
0.0240777782
 40
0.0481472402
 40
0.0809406794
 40
0.1717694314
 40
0.2936787236
 40
0.4428502118
 40
0.6143971644
 40
0.8026292844
 40
1.0
 40
1.0
 40
1.0
 40
1.0
 10
11.9989655509
 20
9.0466160257
 30
0.0
 10
11.9991859469
 20
9.0466192255
 30
0.0
 10
11.9995230838
 20
9.0469472124
 30
0.0
 10
11.9998178286
 20
9.0474799921
 30
0.0
 10
12.0002207459
 20
9.0484442171
 30
0.0
 10
12.0006711877
 20
9.0500943423
 30
0.0
 10
12.0014280681
 20
9.0538722837
 30
0.0
 10
12.002236114
 20
9.0602237371
 30
0.0
 10
12.0030713076
 20
9.0696190345
 30
0.0
 10
12.0037758938
 20
9.0811339278
 30
0.0
 10
12.0043333482
 20
9.0943862809
 30
0.0
 10
12.0047121696
 20
9.1089015163
 30
0.0
 10
12.004839763
 20
9.1189500636
 30
0.0
 10
12.0048716187
 20
9.1240935594
 30
0.0
  0
SPLINE
  5
496
100
AcDbEntity
  8
0
100
AcDbSpline
 62
9
  6
CONTINUOUS
 70
0
 71
3
 72
27
 73
23
 74
0
 42
0.0000001
 43
0.0000001
 44
0.0000000001
 40
0.0
 40
0.0
 40
0.0
 40
0.0
 40
0.0029817441
 40
0.0060848559
 40
0.0130364525
 40
0.0214665952
 40
0.0316781469
 40
0.0438167114
 40
0.0579475715
 40
0.074093921
 40
0.0922556058
 40
0.1124187419
 40
0.1345609433
 40
0.1846642469
 40
0.2423086052
 40
0.3072017199
 40
0.3789279821
 40
0.4566897959
 40
0.5395997502
 40
0.626764334
 40
0.8102634567
 40
1.0
 40
1.0
 40
1.0
 40
1.0
 10
6.7592161028
 20
12.3223080209
 30
0.0
 10
6.760389641
 20
12.3223080352
 30
0.0
 10
6.7627911639
 20
12.3220531021
 30
0.0
 10
6.7677101575
 20
12.3204942484
 30
0.0
 10
6.7738978431
 20
12.3164391866
 30
0.0
 10
6.7808148044
 20
12.3090474647
 30
0.0
 10
6.7876469364
 20
12.2990015286
 30
0.0
 10
6.794403621
 20
12.2863117084
 30
0.0
 10
6.8010879966
 20
12.2710010065
 30
0.0
 10
6.8076831475
 20
12.253105037
 30
0.0
 10
6.8141724496
 20
12.2326661425
 30
0.0
 10
6.820538555
 20
12.2097306065
 30
0.0
 10
6.829198472
 20
12.1744023961
 30
0.0
 10
6.8394135309
 20
12.1242926616
 30
0.0
 10
6.8504893961
 20
12.0572433882
 30
0.0
 10
6.8606762414
 20
11.981457747
 30
0.0
 10
6.8698296299
 20
11.8975738376
 30
0.0
 10
6.8779183496
 20
11.8064611177
 30
0.0
 10
6.8848760306
 20
11.7091632527
 30
0.0
 10
6.8926910955
 20
11.5702209261
 30
0.0
 10
6.8990640674
 20
11.3891091922
 30
0.0
 10
6.9005151796
 20
11.242201821
 30
0.0
 10
6.9002648279
 20
11.1675267951
 30
0.0
  0
SPLINE
  5
497
100
AcDbEntity
  8
0
100
AcDbSpline
 62
9
  6
CONTINUOUS
 70
0
 71
3
 72
16
 73
12
 74
0
 42
0.0000001
 43
0.0000001
 44
0.0000000001
 40
0.0
 40
0.0
 40
0.0
 40
0.0
 40
0.0274681468
 40
0.0510735886
 40
0.0822276849
 40
0.1211431595
 40
0.1678066597
 40
0.2834933896
 40
0.4272549298
 40
0.5967299562
 40
1.0
 40
1.0
 40
1.0
 40
1.0
 10
12.0839602542
 20
10.2370243725
 30
0.0
 10
12.0839526402
 20
10.237464486
 30
0.0
 10
12.0831721131
 20
10.238093854
 30
0.0
 10
12.0820271151
 20
10.2386191784
 30
0.0
 10
12.0805857558
 20
10.2391148284
 30
0.0
 10
12.0787816212
 20
10.2395835837
 30
0.0
 10
12.0756210474
 20
10.24024783
 30
0.0
 10
12.0707717258
 20
10.2409926388
 30
0.0
 10
12.0639404319
 20
10.2417687874
 30
0.0
 10
12.0524980102
 20
10.242732376
 30
0.0
 10
12.0433287366
 20
10.2431991743
 30
0.0
 10
12.036870901
 20
10.2434429784
 30
0.0
  0
SPLINE
  5
498
100
AcDbEntity
  8
0
100
AcDbSpline
 62
9
  6
CONTINUOUS
 70
0
 71
3
 72
13
 73
9
 74
0
 42
0.0000001
 43
0.0000001
 44
0.0000000001
 40
0.0
 40
0.0
 40
0.0
 40
0.0
 40
0.258297258
 40
0.3875064647
 40
0.5151915113
 40
0.6406784751
 40
0.7635997875
 40
1.0
 40
1.0
 40
1.0
 40
1.0
 10
9.3861323278
 20
8.9730414439
 30
0.0
 10
9.389811472
 20
8.988108437
 30
0.0
 10
9.3934215016
 20
9.0112565365
 30
0.0
 10
9.3939440294
 20
9.0422224931
 30
0.0
 10
9.3920054496
 20
9.0651470619
 30
0.0
 10
9.3875085716
 20
9.087338986
 30
0.0
 10
9.378322409
 20
9.1150034236
 30
0.0
 10
9.3677665171
 20
9.1341921258
 30
0.0
 10
9.3592184314
 20
9.1455245686
 30
0.0
  0
SPLINE
  5
499
100
AcDbEntity
  8
0
100
AcDbSpline
 62
7
  6
CONTINUOUS
 70
0
 71
3
 72
20
 73
16
 74
0
 42
0.0000001
 43
0.0000001
 44
0.0000000001
 40
0.0
 40
0.0
 40
0.0
 40
0.0
 40
0.0037984903
 40
0.0141440729
 40
0.0313100392
 40
0.0553896787
 40
0.0865106097
 40
0.1248057408
 40
0.1704767597
 40
0.2237741166
 40
0.3546570755
 40
0.5212574932
 40
0.6200562237
 40
0.7311025825
 40
1.0
 40
1.0
 40
1.0
 40
1.0
 10
7.3459393863
 20
10.2922470506
 30
0.0
 10
7.3459540015
 20
10.2922211162
 30
0.0
 10
7.3458234139
 20
10.2921283016
 30
0.0
 10
7.3456673203
 20
10.2920028882
 30
0.0
 10
7.3453163931
 20
10.2917545679
 30
0.0
 10
7.3448779828
 20
10.2914126616
 30
0.0
 10
7.3442974024
 20
10.2909584862
 30
0.0
 10
7.3435917387
 20
10.2903993178
 30
0.0
 10
7.3427521772
 20
10.2897258335
 30
0.0
 10
7.3413587316
 20
10.2885845786
 30
0.0
 10
7.3392685257
 20
10.2867980349
 30
0.0
 10
7.3369758796
 20
10.2847020045
 30
0.0
 10
7.3348745733
 20
10.2826295387
 30
0.0
 10
7.3323171496
 20
10.2798868779
 30
0.0
 10
7.3303473342
 20
10.2776335162
 30
0.0
 10
7.3291660639
 20
10.2758883491
 30
0.0
  0
LINE
  5
49A
100
AcDbEntity
  8
0
100
AcDbLine
 62
7
  6
CONTINUOUS
 10
7.3291660639
 20
10.2758883491
 11
7.3264060579
 21
10.271128359
  0
SPLINE
  5
49B
100
AcDbEntity
  8
0
100
AcDbSpline
 62
7
  6
CONTINUOUS
 70
0
 71
3
 72
11
 73
7
 74
0
 42
0.0000001
 43
0.0000001
 44
0.0000000001
 40
0.0
 40
0.0
 40
0.0
 40
0.0
 40
0.2012409039
 40
0.4406421667
 40
0.7091833855
 40
1.0
 40
1.0
 40
1.0
 40
1.0
 10
7.3264142781
 20
10.2710703789
 30
0.0
 10
7.3202788555
 20
10.2589402163
 30
0.0
 10
7.3064901502
 20
10.2325590818
 30
0.0
 10
7.2836405805
 20
10.1904547095
 30
0.0
 10
7.2575854519
 20
10.1432075739
 30
0.0
 10
7.2392882094
 20
10.1101496401
 30
0.0
 10
7.2297741589
 20
10.0929630356
 30
0.0
  0
SPLINE
  5
49C
100
AcDbEntity
  8
0
100
AcDbSpline
 62
7
  6
CONTINUOUS
 70
0
 71
3
 72
9
 73
5
 74
0
 42
0.0000001
 43
0.0000001
 44
0.0000000001
 40
0.0
 40
0.0
 40
0.0
 40
0.0
 40
0.245019889
 40
1.0
 40
1.0
 40
1.0
 40
1.0
 10
7.2298168629
 20
10.0929090214
 30
0.0
 10
7.2267573595
 20
10.0873129575
 30
0.0
 10
7.214300445
 20
10.064457543
 30
0.0
 10
7.2019996812
 20
10.0415161194
 30
0.0
 10
7.1928798845
 20
10.0241083931
 30
0.0
  0
SPLINE
  5
49D
100
AcDbEntity
  8
0
100
AcDbSpline
 62
7
  6
CONTINUOUS
 70
0
 71
3
 72
9
 73
5
 74
0
 42
0.0000001
 43
0.0000001
 44
0.0000000001
 40
0.0
 40
0.0
 40
0.0
 40
0.0
 40
0.2542915402
 40
1.0
 40
1.0
 40
1.0
 40
1.0
 10
7.1928790634
 20
9.3440004988
 30
0.0
 10
7.195950831
 20
9.3381371691
 30
0.0
 10
7.2081050675
 20
9.3151186702
 30
0.0
 10
7.2205049153
 20
9.2922307348
 30
0.0
 10
7.2298165439
 20
9.2751991053
 30
0.0
  0
SPLINE
  5
49E
100
AcDbEntity
  8
0
100
AcDbSpline
 62
7
  6
CONTINUOUS
 70
0
 71
3
 72
12
 73
8
 74
0
 42
0.0000001
 43
0.0000001
 44
0.0000000001
 40
0.0
 40
0.0
 40
0.0
 40
0.0
 40
0.2907570468
 40
0.4281901788
 40
0.5592145317
 40
0.7986369983
 40
1.0
 40
1.0
 40
1.0
 40
1.0
 10
7.229774208
 20
9.2751455284
 30
0.0
 10
7.2393067853
 20
9.2579659141
 30
0.0
 10
7.2533141511
 20
9.2326487485
 30
0.0
 10
7.2715542192
 20
9.1995550865
 30
0.0
 10
7.2880899367
 20
9.1694830307
 30
0.0
 10
7.3065227153
 20
9.1355232224
 30
0.0
 10
7.3202430428
 20
9.1090844242
 30
0.0
 10
7.3264024549
 20
9.0969518221
 30
0.0
  0
SPLINE
  5
49F
100
AcDbEntity
  8
0
100
AcDbSpline
 62
9
  6
CONTINUOUS
 70
0
 71
3
 72
11
 73
7
 74
0
 42
0.0000001
 43
0.0000001
 44
0.0000000001
 40
0.0
 40
0.0
 40
0.0
 40
0.0
 40
0.2740846634
 40
0.5284574176
 40
0.7689933239
 40
1.0
 40
1.0
 40
1.0
 40
1.0
 10
8.8966625576
 20
3.145842093
 30
0.0
 10
8.8966882051
 20
3.1408889631
 30
0.0
 10
8.8971619047
 20
3.1313344943
 30
0.0
 10
8.899102564
 20
3.1175569535
 30
0.0
 10
8.9019661687
 20
3.1047436007
 30
0.0
 10
8.9043575412
 20
3.096557982
 30
0.0
 10
8.9056522531
 20
3.0925891224
 30
0.0
  0
SPLINE
  5
4A0
100
AcDbEntity
  8
0
100
AcDbSpline
 62
9
  6
CONTINUOUS
 70
0
 71
3
 72
22
 73
18
 74
0
 42
0.0000001
 43
0.0000001
 44
0.0000000001
 40
0.0
 40
0.0
 40
0.0
 40
0.0
 40
0.0308735855
 40
0.0602991871
 40
0.0889663376
 40
0.1172614706
 40
0.1453928539
 40
0.173497111
 40
0.2016655909
 40
0.229959447
 40
0.28709455
 40
0.3451701661
 40
0.4646420117
 40
0.5892735522
 40
0.7196149032
 40
0.8562306503
 40
1.0
 40
1.0
 40
1.0
 40
1.0
 10
8.9056522531
 20
3.0925891224
 30
0.0
 10
8.9089947756
 20
3.082342826
 30
0.0
 10
8.9171089865
 20
3.0628234529
 30
0.0
 10
8.9326592918
 20
3.0358647728
 30
0.0
 10
8.9504685863
 20
3.0114713206
 30
0.0
 10
8.9699174083
 20
2.9889801491
 30
0.0
 10
8.9908438168
 20
2.96814088
 30
0.0
 10
9.0130131031
 20
2.9487060779
 30
0.0
 10
9.0362925171
 20
2.930528552
 30
0.0
 10
9.0687300423
 20
2.9076931682
 30
0.0
 10
9.1116582447
 20
2.8817388046
 30
0.0
 10
9.1848697153
 20
2.8448391118
 30
0.0
 10
9.2835713843
 20
2.8068393298
 30
0.0
 10
9.4099745978
 20
2.7728380749
 30
0.0
 10
9.54472083
 20
2.7489271378
 30
0.0
 10
9.6874979366
 20
2.7345544406
 30
0.0
 10
9.7854166321
 20
2.7315429248
 30
0.0
 10
9.8356053101
 20
2.7315429249
 30
0.0
  0
SPLINE
  5
4A1
100
AcDbEntity
  8
0
100
AcDbSpline
 62
7
  6
CONTINUOUS
 70
0
 71
3
 72
12
 73
8
 74
0
 42
0.0000001
 43
0.0000001
 44
0.0000000001
 40
0.0
 40
0.0
 40
0.0
 40
0.0
 40
0.054667654
 40
0.2229493588
 40
0.5207036523
 40
0.7307339071
 40
1.0
 40
1.0
 40
1.0
 40
1.0
 10
7.3459509978
 20
9.0758786161
 30
0.0
 10
7.3456100783
 20
9.0761362056
 30
0.0
 10
7.3442257286
 20
9.0771944561
 30
0.0
 10
7.3410492338
 20
9.0797386699
 30
0.0
 10
7.3370740535
 20
9.0832308402
 30
0.0
 10
7.3328422243
 20
9.0875861856
 30
0.0
 10
7.3303955218
 20
9.0904425289
 30
0.0
 10
7.3291993189
 20
9.0921740009
 30
0.0
  0
LINE
  5
4A2
100
AcDbEntity
  8
0
100
AcDbLine
 62
7
  6
CONTINUOUS
 10
7.3291993189
 20
9.0921740009
 11
7.3264024902
 21
9.0969516558
  0
SPLINE
  5
4A3
100
AcDbEntity
  8
0
100
AcDbSpline
 62
9
  6
CONTINUOUS
 70
0
 71
3
 72
27
 73
23
 74
0
 42
0.0000001
 43
0.0000001
 44
0.0000000001
 40
0.0
 40
0.0
 40
0.0
 40
0.0
 40
0.0311381506
 40
0.0468122154
 40
0.062460293
 40
0.0781162796
 40
0.0937621702
 40
0.1093997727
 40
0.1250484218
 40
0.1563276785
 40
0.1875952133
 40
0.250078237
 40
0.3125687085
 40
0.3750632266
 40
0.4375598954
 40
0.5000570262
 40
0.5625506564
 40
0.6250437622
 40
0.6875376311
 40
0.7500324756
 40
0.8750142313
 40
1.0
 40
1.0
 40
1.0
 40
1.0
 10
8.8706072382
 20
2.6840933525
 30
0.0
 10
8.8706200958
 20
2.6728416655
 30
0.0
 10
8.873276768
 20
2.6558468545
 30
0.0
 10
8.8808587785
 20
2.6345613755
 30
0.0
 10
8.8883730168
 20
2.6192962427
 30
0.0
 10
8.8973647471
 20
2.6048829735
 30
0.0
 10
8.9075615385
 20
2.5913055454
 30
0.0
 10
8.9187450903
 20
2.5785380544
 30
0.0
 10
8.934728613
 20
2.5625322439
 30
0.0
 10
8.956269194
 20
2.5441712209
 30
0.0
 10
8.9930402899
 20
2.5178554419
 30
0.0
 10
9.0421798093
 20
2.489775051
 30
0.0
 10
9.1039170426
 20
2.4617446825
 30
0.0
 10
9.1674655838
 20
2.4381377503
 30
0.0
 10
9.2322099134
 20
2.4180936915
 30
0.0
 10
9.2978088326
 20
2.4010811617
 30
0.0
 10
9.3640291364
 20
2.3867059481
 30
0.0
 10
9.4307134856
 20
2.3746902967
 30
0.0
 10
9.4977446696
 20
2.3648005915
 30
0.0
 10
9.5874615274
 20
2.3542371028
 30
0.0
 10
9.7001000277
 20
2.3456586454
 30
0.0
 10
9.7904420597
 20
2.3434923846
 30
0.0
 10
9.8356053606
 20
2.3434940767
 30
0.0
  0
SPLINE
  5
4A4
100
AcDbEntity
  8
0
100
AcDbSpline
 62
7
  6
CONTINUOUS
 70
0
 71
3
 72
18
 73
14
 74
0
 42
0.0000001
 43
0.0000001
 44
0.0000000001
 40
0.0
 40
0.0
 40
0.0
 40
0.0
 40
0.1250160245
 40
0.2500314294
 40
0.375043998
 40
0.5000512848
 40
0.6250442471
 40
0.6875622373
 40
0.7500810779
 40
0.8126027464
 40
0.8751215728
 40
0.9376214135
 40
1.0
 40
1.0
 40
1.0
 40
1.0
 10
13.2490318028
 20
9.7935734678
 30
0.0
 10
13.2490318028
 20
9.7962646712
 30
0.0
 10
13.2489467593
 20
9.8016476647
 30
0.0
 10
13.2485057093
 20
9.8097114824
 30
0.0
 10
13.2476752043
 20
9.8177461826
 30
0.0
 10
13.2463489925
 20
9.8257151827
 30
0.0
 10
13.2446986024
 20
9.8322504623
 30
0.0
 10
13.2429141839
 20
9.8373325546
 30
0.0
 10
13.2412855024
 20
9.8410325193
 30
0.0
 10
13.2392903472
 20
9.8445534335
 30
0.0
 10
13.2368062371
 20
9.8477602466
 30
0.0
 10
13.2336860436
 20
9.8503874949
 30
0.0
 10
13.231049364
 20
9.8513092275
 30
0.0
 10
13.2297111536
 20
9.8514203427
 30
0.0
  0
SPLINE
  5
4A5
100
AcDbEntity
  8
0
100
AcDbSpline
 62
9
  6
CONTINUOUS
 70
0
 71
3
 72
24
 73
20
 74
0
 42
0.0000001
 43
0.0000001
 44
0.0000000001
 40
0.0
 40
0.0
 40
0.0
 40
0.0
 40
0.0312214866
 40
0.0624609655
 40
0.0937051982
 40
0.1249646994
 40
0.156224682
 40
0.1874752926
 40
0.2187270458
 40
0.2499798883
 40
0.3124768916
 40
0.3749799638
 40
0.4374865803
 40
0.4999926811
 40
0.5624958971
 40
0.6249976366
 40
0.7499925976
 40
0.8749937688
 40
1.0
 40
1.0
 40
1.0
 40
1.0
 10
8.8729189782
 20
2.6601109667
 30
0.0
 10
8.8750436907
 20
2.6492670155
 30
0.0
 10
8.8822669249
 20
2.6281096818
 30
0.0
 10
8.8992264191
 20
2.5994133603
 30
0.0
 10
8.9207256229
 20
2.5739880453
 30
0.0
 10
8.9450352207
 20
2.5513179279
 30
0.0
 10
8.9713359952
 20
2.5310124443
 30
0.0
 10
8.9990668394
 20
2.5127405989
 30
0.0
 10
9.0278383995
 20
2.4961767455
 30
0.0
 10
9.0672374391
 20
2.4760191609
 30
0.0
 10
9.1180674704
 20
2.4540819403
 30
0.0
 10
9.1805958772
 20
2.4317507352
 30
0.0
 10
9.2442054203
 20
2.4127278858
 30
0.0
 10
9.3085820703
 20
2.3965221075
 30
0.0
 10
9.3735296523
 20
2.3828054064
 30
0.0
 10
9.4606889207
 20
2.3674864544
 30
0.0
 10
9.5704501967
 20
2.3533453266
 30
0.0
 10
9.7028596491
 20
2.3434531102
 30
0.0
 10
9.7913621598
 20
2.3413692595
 30
0.0
 10
9.8356053078
 20
2.3413690816
 30
0.0
  0
SPLINE
  5
4A6
100
AcDbEntity
  8
0
100
AcDbSpline
 62
9
  6
CONTINUOUS
 70
0
 71
3
 72
27
 73
23
 74
0
 42
0.0000001
 43
0.0000001
 44
0.0000000001
 40
0.0
 40
0.0
 40
0.0
 40
0.0
 40
0.1353014281
 40
0.2638777748
 40
0.3868281925
 40
0.4464682647
 40
0.504984573
 40
0.5624711169
 40
0.6190834684
 40
0.6750638832
 40
0.730875216
 40
0.7589393446
 40
0.7872585734
 40
0.8160753757
 40
0.8460267281
 40
0.8778766837
 40
0.8947273118
 40
0.9123475199
 40
0.9310002425
 40
0.9514350456
 40
0.9744220248
 40
1.0
 40
1.0
 40
1.0
 40
1.0
 10
9.8356053078
 20
2.2634838457
 30
0.0
 10
9.7811076793
 20
2.2634838457
 30
0.0
 10
9.6747887822
 20
2.266489444
 30
0.0
 10
9.5195038521
 20
2.2802535039
 30
0.0
 10
9.3954679602
 20
2.2989216902
 30
0.0
 10
9.3003193196
 20
2.3184634591
 30
0.0
 10
9.2316099699
 20
2.3354029023
 30
0.0
 10
9.1648636746
 20
2.3549600249
 30
0.0
 10
9.1001509218
 20
2.3775373747
 30
0.0
 10
9.037464323
 20
2.4035727704
 30
0.0
 10
8.987203851
 20
2.4291865248
 30
0.0
 10
8.9484893029
 20
2.4525328741
 30
0.0
 10
8.9201419937
 20
2.4719113402
 30
0.0
 10
8.8925302423
 20
2.4936028567
 30
0.0
 10
8.8658692144
 20
2.5186003554
 30
0.0
 10
8.8449924467
 20
2.542539318
 30
0.0
 10
8.8295964352
 20
2.5643981511
 30
0.0
 10
8.8186390308
 20
2.5828015744
 30
0.0
 10
8.808610305
 20
2.6033636148
 30
0.0
 10
8.8002219511
 20
2.626978178
 30
0.0
 10
8.7940779912
 20
2.6541559609
 30
0.0
 10
8.7925347773
 20
2.6737519056
 30
0.0
 10
8.7925347773
 20
2.6840543762
 30
0.0
  0
SPLINE
  5
4A7
100
AcDbEntity
  8
0
100
AcDbSpline
 62
7
  6
CONTINUOUS
 70
0
 71
3
 72
18
 73
14
 74
0
 42
0.0000001
 43
0.0000001
 44
0.0000000001
 40
0.0
 40
0.0
 40
0.0
 40
0.0
 40
0.062381744
 40
0.1248804087
 40
0.1873993797
 40
0.2499207739
 40
0.3124394513
 40
0.3749573547
 40
0.4999499447
 40
0.6249569186
 40
0.7499691793
 40
0.8749842777
 40
1.0
 40
1.0
 40
1.0
 40
1.0
 10
13.229696712
 20
9.5166842458
 30
0.0
 10
13.231035305
 20
9.5167953928
 30
0.0
 10
13.2336732883
 20
9.5177139124
 30
0.0
 10
13.2367974081
 20
9.5203386379
 30
0.0
 10
13.2392836166
 20
9.5235450572
 30
0.0
 10
13.2412805259
 20
9.52706608
 30
0.0
 10
13.2429104332
 20
9.5307665473
 30
0.0
 10
13.2446961023
 20
9.5358495337
 30
0.0
 10
13.2463475346
 20
9.5423861863
 30
0.0
 10
13.2476745035
 20
9.5503569696
 30
0.0
 10
13.24850545
 20
9.5583935178
 30
0.0
 10
13.2489467198
 20
9.5664592076
 30
0.0
 10
13.2490318028
 20
9.5718434547
 30
0.0
 10
13.2490318028
 20
9.5745352847
 30
0.0
  0
SPLINE
  5
4A8
100
AcDbEntity
  8
0
100
AcDbSpline
 62
7
  6
CONTINUOUS
 70
0
 71
3
 72
9
 73
5
 74
0
 42
0.0000001
 43
0.0000001
 44
0.0000000001
 40
0.0
 40
0.0
 40
0.0
 40
0.0
 40
0.38835327
 40
1.0
 40
1.0
 40
1.0
 40
1.0
 10
12.0524963211
 20
9.3166621472
 30
0.0
 10
12.0522469159
 20
9.3170553189
 30
0.0
 10
12.0518409374
 20
9.3182016213
 30
0.0
 10
12.0515590495
 20
9.319362235
 30
0.0
 10
12.0514068803
 20
9.3200795876
 30
0.0
  0
SPLINE
  5
4A9
100
AcDbEntity
  8
0
100
AcDbSpline
 62
7
  6
CONTINUOUS
 70
0
 71
3
 72
11
 73
7
 74
0
 42
0.0000001
 43
0.0000001
 44
0.0000000001
 40
0.0
 40
0.0
 40
0.0
 40
0.0
 40
0.1568104308
 40
0.3764110603
 40
0.6578518911
 40
1.0
 40
1.0
 40
1.0
 40
1.0
 10
12.0514068803
 20
9.3200795876
 30
0.0
 10
12.0510463299
 20
9.3217792853
 30
0.0
 10
12.0504123
 20
9.3259059966
 30
0.0
 10
12.0495799577
 20
9.3331470331
 30
0.0
 10
12.0487296587
 20
9.3424521916
 30
0.0
 10
12.0481943801
 20
9.3493410052
 30
0.0
 10
12.0479174185
 20
9.3531220036
 30
0.0
  0
SPLINE
  5
4AA
100
AcDbEntity
  8
0
100
AcDbSpline
 62
7
  6
CONTINUOUS
 70
0
 71
3
 72
9
 73
5
 74
0
 42
0.0000001
 43
0.0000001
 44
0.0000000001
 40
0.0
 40
0.0
 40
0.0
 40
0.0
 40
0.2135343016
 40
1.0
 40
1.0
 40
1.0
 40
1.0
 10
12.0479174185
 20
9.3531220036
 30
0.0
 10
12.0476512288
 20
9.356755946
 30
0.0
 10
12.0464826278
 20
9.373779698
 30
0.0
 10
12.0456012069
 20
9.3908226295
 30
0.0
 10
12.0450318028
 20
9.4042305348
 30
0.0
  0
SPLINE
  5
4AB
100
AcDbEntity
  8
0
100
AcDbSpline
 62
7
  6
CONTINUOUS
 70
0
 71
3
 72
9
 73
5
 74
0
 42
0.0000001
 43
0.0000001
 44
0.0000000001
 40
0.0
 40
0.0
 40
0.0
 40
0.0
 40
0.480476986
 40
1.0
 40
1.0
 40
1.0
 40
1.0
 10
12.0637813693
 20
9.4714679625
 30
0.0
 10
12.0626226854
 20
9.5054673786
 30
0.0
 10
12.0605520712
 20
9.5762404502
 30
0.0
 10
12.0585801972
 20
9.6470157175
 30
0.0
 10
12.0575339305
 20
9.68378456
 30
0.0
  0
LINE
  5
4AC
100
AcDbEntity
  8
0
100
AcDbLine
 62
7
  6
CONTINUOUS
 10
12.0575339305
 20
9.68378456
 11
12.0572765681
 21
9.6928120449
  0
SPLINE
  5
4AD
100
AcDbEntity
  8
0
100
AcDbSpline
 62
7
  6
CONTINUOUS
 70
0
 71
3
 72
16
 73
12
 74
0
 42
0.0000001
 43
0.0000001
 44
0.0000000001
 40
0.0
 40
0.0
 40
0.0
 40
0.0
 40
0.1422165905
 40
0.2825145714
 40
0.419303711
 40
0.5510630994
 40
0.67639161
 40
0.7362137944
 40
0.7939137047
 40
0.9022518731
 40
1.0
 40
1.0
 40
1.0
 40
1.0
 10
12.0572765681
 20
9.6928120449
 30
0.0
 10
12.0568681973
 20
9.70710806
 30
0.0
 10
12.0560495703
 20
9.7355070135
 30
0.0
 10
12.0548417866
 20
9.7776565074
 30
0.0
 10
12.0537239637
 20
9.818756511
 30
0.0
 10
12.0526780993
 20
9.858352436
 30
0.0
 10
12.0516594832
 20
9.8902063873
 30
0.0
 10
12.0506427914
 20
9.9146074358
 30
0.0
 10
12.0495181639
 20
9.937293172
 30
0.0
 10
12.0480077546
 20
9.9637774191
 30
0.0
 10
12.0468587112
 20
9.9844708431
 30
0.0
 10
12.0464079459
 20
9.9942904294
 30
0.0
  0
SPLINE
  5
4AE
100
AcDbEntity
  8
0
100
AcDbSpline
 62
9
  6
CONTINUOUS
 70
0
 71
3
 72
11
 73
7
 74
0
 42
0.0000001
 43
0.0000001
 44
0.0000000001
 40
0.0
 40
0.0
 40
0.0
 40
0.0
 40
0.2533138146
 40
0.5072229047
 40
0.7569929763
 40
1.0
 40
1.0
 40
1.0
 40
1.0
 10
10.2850759693
 20
8.973043537
 30
0.0
 10
10.2823826365
 20
8.9840741242
 30
0.0
 10
10.2783702415
 20
9.0065252689
 30
0.0
 10
10.2767733696
 20
9.0405215699
 30
0.0
 10
10.2801275482
 20
9.0739636289
 30
0.0
 10
10.2861596907
 20
9.0953592521
 30
0.0
 10
10.2900578924
 20
9.1055304745
 30
0.0
  0
SPLINE
  5
4AF
100
AcDbEntity
  8
0
100
AcDbSpline
 62
9
  6
CONTINUOUS
 70
0
 71
3
 72
9
 73
5
 74
0
 42
0.0000001
 43
0.0000001
 44
0.0000000001
 40
0.0
 40
0.0
 40
0.0
 40
0.0
 40
0.2555218671
 40
1.0
 40
1.0
 40
1.0
 40
1.0
 10
10.2900578924
 20
9.1055304745
 30
0.0
 10
10.2914502348
 20
9.1091633865
 30
0.0
 10
10.2973610347
 20
9.1231967554
 30
0.0
 10
10.3051559991
 20
9.1364596363
 30
0.0
 10
10.3119811896
 20
9.145510014
 30
0.0
  0
LINE
  5
4B0
100
AcDbEntity
  8
0
100
AcDbLine
 62
7
  6
CONTINUOUS
 10
12.0664384225
 20
9.6840366751
 11
12.0577283399
 21
9.9633620177
  0
LINE
  5
4B1
100
AcDbEntity
  8
0
100
AcDbLine
 62
7
  6
CONTINUOUS
 10
12.056436107
 20
9.9971176778
 11
12.0562890361
 21
10.0005096863
  0
LINE
  5
4B2
100
AcDbEntity
  8
0
100
AcDbLine
 62
7
  6
CONTINUOUS
 10
12.0562890361
 20
10.0005096863
 11
12.0546479284
 21
10.032458847
  0
SPLINE
  5
4B3
100
AcDbEntity
  8
0
100
AcDbSpline
 62
7
  6
CONTINUOUS
 70
0
 71
3
 72
17
 73
13
 74
0
 42
0.0000001
 43
0.0000001
 44
0.0000000001
 40
0.0
 40
0.0
 40
0.0
 40
0.0
 40
0.2136087703
 40
0.403123002
 40
0.5678481393
 40
0.7070807442
 40
0.8201343574
 40
0.9066390974
 40
0.9399021565
 40
0.9665072825
 40
0.9864932934
 40
1.0
 40
1.0
 40
1.0
 40
1.0
 10
12.0546479284
 20
10.032458847
 30
0.0
 10
12.0543958747
 20
10.0365860027
 30
0.0
 10
12.0538819296
 20
10.0443725105
 30
0.0
 10
12.0530476594
 20
10.0553328743
 30
0.0
 10
12.0522309405
 20
10.0648501954
 30
0.0
 10
12.0514643187
 20
10.072886051
 30
0.0
 10
12.0507882919
 20
10.079408898
 30
0.0
 10
12.0502658268
 20
10.0838861842
 30
0.0
 10
12.0498539784
 20
10.0866892518
 30
0.0
 10
12.0495825238
 20
10.0882122724
 30
0.0
 10
12.0493161779
 20
10.0893434412
 30
0.0
 10
12.0491080524
 20
10.0899629241
 30
0.0
 10
12.048985735
 20
10.0901939975
 30
0.0
  0
SPLINE
  5
4B4
100
AcDbEntity
  8
0
100
AcDbSpline
 62
9
  6
CONTINUOUS
 70
0
 71
3
 72
12
 73
8
 74
0
 42
0.0000001
 43
0.0000001
 44
0.0000000001
 40
0.0
 40
0.0
 40
0.0
 40
0.0
 40
0.2885977159
 40
0.5523871942
 40
0.6742637193
 40
0.7892097846
 40
1.0
 40
1.0
 40
1.0
 40
1.0
 10
9.6521995447
 20
9.0336594169
 30
0.0
 10
9.6233424159
 20
9.0392483502
 30
0.0
 10
9.5685832697
 20
9.0526073845
 30
0.0
 10
9.5036372611
 20
9.075247379
 30
0.0
 10
9.4568027591
 20
9.095446448
 30
0.0
 10
9.4157938819
 20
9.115381127
 30
0.0
 10
9.3869542621
 20
9.1319217647
 30
0.0
 10
9.3689444866
 20
9.1436074619
 30
0.0
  0
LINE
  5
4B5
100
AcDbEntity
  8
0
100
AcDbLine
 62
9
  6
CONTINUOUS
 10
6.3804170781
 20
7.3164187221
 11
6.3846057865
 21
7.3155643999
  0
SPLINE
  5
4B6
100
AcDbEntity
  8
0
100
AcDbSpline
 62
9
  6
CONTINUOUS
 70
0
 71
3
 72
9
 73
5
 74
0
 42
0.0000001
 43
0.0000001
 44
0.0000000001
 40
0.0
 40
0.0
 40
0.0
 40
0.0
 40
0.257757369
 40
1.0
 40
1.0
 40
1.0
 40
1.0
 10
12.0049950011
 20
10.2240935594
 30
0.0
 10
12.0077448774
 20
10.2240935594
 30
0.0
 10
12.0184132198
 20
10.2240457939
 30
0.0
 10
12.0290813285
 20
10.2238200842
 30
0.0
 10
12.0369942834
 20
10.2235213446
 30
0.0
  0
SPLINE
  5
4B7
100
AcDbEntity
  8
0
100
AcDbSpline
 62
9
  6
CONTINUOUS
 70
0
 71
3
 72
12
 73
8
 74
0
 42
0.0000001
 43
0.0000001
 44
0.0000000001
 40
0.0
 40
0.0
 40
0.0
 40
0.0
 40
0.3292223441
 40
0.6120781584
 40
0.8382308927
 40
0.9275832418
 40
1.0
 40
1.0
 40
1.0
 40
1.0
 10
12.0369942834
 20
10.2235213446
 30
0.0
 10
12.0417030178
 20
10.2233435748
 30
0.0
 10
12.0504547305
 20
10.2229249751
 30
0.0
 10
12.0624199188
 20
10.2220336322
 30
0.0
 10
12.0709363871
 20
10.2210870243
 30
0.0
 10
12.0764169844
 20
10.2201923714
 30
0.0
 10
12.078683876
 20
10.2197117674
 30
0.0
 10
12.0796875535
 20
10.2194530516
 30
0.0
  0
SPLINE
  5
4B8
100
AcDbEntity
  8
0
100
AcDbSpline
 62
9
  6
CONTINUOUS
 70
0
 71
3
 72
12
 73
8
 74
0
 42
0.0000001
 43
0.0000001
 44
0.0000000001
 40
0.0
 40
0.0
 40
0.0
 40
0.0
 40
0.3849315481
 40
0.6732215353
 40
0.7828494013
 40
0.8714204012
 40
1.0
 40
1.0
 40
1.0
 40
1.0
 10
12.0796875535
 20
10.2194530516
 30
0.0
 10
12.0803303091
 20
10.2192873698
 30
0.0
 10
12.0814462876
 20
10.2189644462
 30
0.0
 10
12.0827054604
 20
10.2184658114
 30
0.0
 10
12.08342929
 20
10.2180320917
 30
0.0
 10
12.0838639804
 20
10.2176814247
 30
0.0
 10
12.0840798014
 20
10.2173244249
 30
0.0
 10
12.0840836366
 20
10.2171027387
 30
0.0
  0
SPLINE
  5
4B9
100
AcDbEntity
  8
0
100
AcDbSpline
 62
9
  6
CONTINUOUS
 70
0
 71
3
 72
14
 73
10
 74
0
 42
0.0000001
 43
0.0000001
 44
0.0000000001
 40
0.0
 40
0.0
 40
0.0
 40
0.0
 40
0.0419677479
 40
0.108549845
 40
0.199958527
 40
0.3157581214
 40
0.455180343
 40
0.6167852223
 40
1.0
 40
1.0
 40
1.0
 40
1.0
 10
11.9996133088
 20
10.1319093905
 30
0.0
 10
11.9998769654
 20
10.1322449718
 30
0.0
 10
12.0003048957
 20
10.1332876072
 30
0.0
 10
12.0008406135
 20
10.1352402301
 30
0.0
 10
12.0013686268
 20
10.1379804822
 30
0.0
 10
12.0018851093
 20
10.1414660234
 30
0.0
 10
12.0023763613
 20
10.145677329
 30
0.0
 10
12.0030313386
 20
10.1526044774
 30
0.0
 10
12.0034088309
 20
10.1581329899
 30
0.0
 10
12.0036359432
 20
10.1620232451
 30
0.0
  0
SPLINE
  5
4BA
100
AcDbEntity
  8
0
100
AcDbSpline
 62
9
  6
CONTINUOUS
 70
0
 71
3
 72
9
 73
5
 74
0
 42
0.0000001
 43
0.0000001
 44
0.0000000001
 40
0.0
 40
0.0
 40
0.0
 40
0.0
 40
0.4689562967
 40
1.0
 40
1.0
 40
1.0
 40
1.0
 10
12.0036359432
 20
10.1620232451
 30
0.0
 10
12.0042016266
 20
10.171712958
 30
0.0
 10
12.0049144188
 20
10.1924034371
 30
0.0
 10
12.0050630729
 20
10.2131025066
 30
0.0
 10
12.0049950011
 20
10.2240935594
 30
0.0
  0
SPLINE
  5
4BB
100
AcDbEntity
  8
0
100
AcDbSpline
 62
9
  6
CONTINUOUS
 70
0
 71
3
 72
9
 73
5
 74
0
 42
0.0000001
 43
0.0000001
 44
0.0000000001
 40
0.0
 40
0.0
 40
0.0
 40
0.0
 40
0.5310437033
 40
1.0
 40
1.0
 40
1.0
 40
1.0
 10
12.0049950011
 20
9.1440151931
 30
0.0
 10
12.0050630729
 20
9.1550062459
 30
0.0
 10
12.0049144188
 20
9.1757053154
 30
0.0
 10
12.0042016266
 20
9.1963957945
 30
0.0
 10
12.0036359432
 20
9.2060855074
 30
0.0
  0
SPLINE
  5
4BC
100
AcDbEntity
  8
0
100
AcDbSpline
 62
9
  6
CONTINUOUS
 70
0
 71
3
 72
14
 73
10
 74
0
 42
0.0000001
 43
0.0000001
 44
0.0000000001
 40
0.0
 40
0.0
 40
0.0
 40
0.0
 40
0.3832147777
 40
0.544819657
 40
0.6842418786
 40
0.800041473
 40
0.891450155
 40
0.9580322521
 40
1.0
 40
1.0
 40
1.0
 40
1.0
 10
12.0036359432
 20
9.2060855074
 30
0.0
 10
12.0034088309
 20
9.2099757626
 30
0.0
 10
12.0030313386
 20
9.215504275
 30
0.0
 10
12.0023763613
 20
9.2224314235
 30
0.0
 10
12.0018851093
 20
9.2266427291
 30
0.0
 10
12.0013686268
 20
9.2301282703
 30
0.0
 10
12.0008406135
 20
9.2328685224
 30
0.0
 10
12.0003048957
 20
9.2348211453
 30
0.0
 10
11.9998769654
 20
9.2358637806
 30
0.0
 10
11.9996133088
 20
9.236199362
 30
0.0
  0
SPLINE
  5
4BD
100
AcDbEntity
  8
0
100
AcDbSpline
 62
9
  6
CONTINUOUS
 70
0
 71
3
 72
9
 73
5
 74
0
 42
0.0000001
 43
0.0000001
 44
0.0000000001
 40
0.0
 40
0.0
 40
0.0
 40
0.0
 40
0.257757369
 40
1.0
 40
1.0
 40
1.0
 40
1.0
 10
12.0048716187
 20
9.1240935594
 30
0.0
 10
12.007621495
 20
9.1240935594
 30
0.0
 10
12.0182898374
 20
9.1241413248
 30
0.0
 10
12.0289579461
 20
9.1243670346
 30
0.0
 10
12.036870901
 20
9.1246657741
 30
0.0
  0
SPLINE
  5
4BE
100
AcDbEntity
  8
0
100
AcDbSpline
 62
9
  6
CONTINUOUS
 70
0
 71
3
 72
16
 73
12
 74
0
 42
0.0000001
 43
0.0000001
 44
0.0000000001
 40
0.0
 40
0.0
 40
0.0
 40
0.0
 40
0.4032700438
 40
0.5727450702
 40
0.7165066104
 40
0.8321933403
 40
0.8788568405
 40
0.9177723151
 40
0.9489264114
 40
0.9725318532
 40
1.0
 40
1.0
 40
1.0
 40
1.0
 10
12.036870901
 20
9.1246657741
 30
0.0
 10
12.0433287366
 20
9.1249095781
 30
0.0
 10
12.0524980102
 20
9.1253763765
 30
0.0
 10
12.0639404319
 20
9.1263399651
 30
0.0
 10
12.0707717258
 20
9.1271161137
 30
0.0
 10
12.0756210474
 20
9.1278609225
 30
0.0
 10
12.0787816212
 20
9.1285251688
 30
0.0
 10
12.0805857558
 20
9.1289939241
 30
0.0
 10
12.0820271151
 20
9.1294895741
 30
0.0
 10
12.0831721131
 20
9.1300148985
 30
0.0
 10
12.0839526402
 20
9.1306442665
 30
0.0
 10
12.0839602542
 20
9.13108438
 30
0.0
  0
SPLINE
  5
4BF
100
AcDbEntity
  8
0
100
AcDbSpline
 62
9
  6
CONTINUOUS
 70
0
 71
3
 72
18
 73
14
 74
0
 42
0.0000001
 43
0.0000001
 44
0.0000000001
 40
0.0
 40
0.0
 40
0.0
 40
0.0
 40
0.1973707156
 40
0.3856028356
 40
0.5571497882
 40
0.7063212764
 40
0.8282305686
 40
0.9190593206
 40
0.9518527598
 40
0.9759222218
 40
0.9847508423
 40
0.9915420409
 40
1.0
 40
1.0
 40
1.0
 40
1.0
 10
11.9350421351
 20
9.1240935594
 30
0.0
 10
11.9350102795
 20
9.1189500636
 30
0.0
 10
11.9348826861
 20
9.1089015163
 30
0.0
 10
11.9345038647
 20
9.0943862809
 30
0.0
 10
11.9339464103
 20
9.0811339278
 30
0.0
 10
11.9332418241
 20
9.0696190345
 30
0.0
 10
11.9324066305
 20
9.0602237371
 30
0.0
 10
11.9315985846
 20
9.0538722837
 30
0.0
 10
11.9308417042
 20
9.0500943423
 30
0.0
 10
11.9303912624
 20
9.0484442171
 30
0.0
 10
11.9299883451
 20
9.0474799921
 30
0.0
 10
11.9296936003
 20
9.0469472124
 30
0.0
 10
11.9293564634
 20
9.0466192255
 30
0.0
 10
11.9291360674
 20
9.0466160257
 30
0.0
  0
SPLINE
  5
4C0
100
AcDbEntity
  8
0
100
AcDbSpline
 62
7
  6
CONTINUOUS
 70
0
 71
3
 72
9
 73
5
 74
0
 42
0.0000001
 43
0.0000001
 44
0.0000000001
 40
0.0
 40
0.0
 40
0.0
 40
0.0
 40
0.2650122009
 40
1.0
 40
1.0
 40
1.0
 40
1.0
 10
11.9103293449
 20
9.2609609678
 30
0.0
 10
11.9080780371
 20
9.2609721718
 30
0.0
 10
11.8995824912
 20
9.2607430753
 30
0.0
 10
11.8911231738
 20
9.2595215221
 30
0.0
 10
11.8850318028
 20
9.2581499424
 30
0.0
  0
SPLINE
  5
4C1
100
AcDbEntity
  8
0
100
AcDbSpline
 62
7
  6
CONTINUOUS
 70
0
 71
3
 72
9
 73
5
 74
0
 42
0.0000001
 43
0.0000001
 44
0.0000000001
 40
0.0
 40
0.0
 40
0.0
 40
0.0
 40
0.2313350447
 40
1.0
 40
1.0
 40
1.0
 40
1.0
 10
11.8850318028
 20
10.1099588101
 30
0.0
 10
11.8869487378
 20
10.1095271784
 30
0.0
 10
11.8952783791
 20
10.1078643508
 30
0.0
 10
11.9038004884
 20
10.1071152929
 30
0.0
 10
11.9103293449
 20
10.1071477847
 30
0.0
  0
SPLINE
  5
4C2
100
AcDbEntity
  8
0
100
AcDbSpline
 62
9
  6
CONTINUOUS
 70
0
 71
3
 72
14
 73
10
 74
0
 42
0.0000001
 43
0.0000001
 44
0.0000000001
 40
0.0
 40
0.0
 40
0.0
 40
0.0
 40
0.0414055373
 40
0.106644558
 40
0.1968450734
 40
0.3119015597
 40
0.4512065084
 40
0.6133944202
 40
1.0
 40
1.0
 40
1.0
 40
1.0
 10
11.8443431235
 20
9.1316107847
 30
0.0
 10
11.8445965273
 20
9.1312882531
 30
0.0
 10
11.8455334026
 20
9.1307203079
 30
0.0
 10
11.8473460049
 20
9.1300351215
 30
0.0
 10
11.8499451057
 20
9.1293432078
 30
0.0
 10
11.8532888337
 20
9.1286656894
 30
0.0
 10
11.857365056
 20
9.1280122795
 30
0.0
 10
11.8641243102
 20
9.1271299775
 30
0.0
 10
11.8695379227
 20
9.1266116356
 30
0.0
 10
11.8733546222
 20
9.1262953037
 30
0.0
  0
SPLINE
  5
4C3
100
AcDbEntity
  8
0
100
AcDbSpline
 62
9
  6
CONTINUOUS
 70
0
 71
3
 72
9
 73
5
 74
0
 42
0.0000001
 43
0.0000001
 44
0.0000000001
 40
0.0
 40
0.0
 40
0.0
 40
0.0
 40
0.4670527075
 40
1.0
 40
1.0
 40
1.0
 40
1.0
 10
11.8733546222
 20
9.1262953037
 30
0.0
 10
11.8829335006
 20
9.1255013966
 30
0.0
 10
11.9034944148
 20
9.124439748
 30
0.0
 10
11.924074334
 20
9.1240935594
 30
0.0
 10
11.9350421351
 20
9.1240935594
 30
0.0
  0
SPLINE
  5
4C4
100
AcDbEntity
  8
0
100
AcDbSpline
 62
7
  6
CONTINUOUS
 70
0
 71
3
 72
12
 73
8
 74
0
 42
0.0000001
 43
0.0000001
 44
0.0000000001
 40
0.0
 40
0.0
 40
0.0
 40
0.0
 40
0.1488040031
 40
0.2456283365
 40
0.3596703076
 40
0.6426492713
 40
1.0
 40
1.0
 40
1.0
 40
1.0
 10
11.8497042835
 20
10.1093665574
 30
0.0
 10
11.851201083
 20
10.1103052874
 30
0.0
 10
11.8541510847
 20
10.1110115704
 30
0.0
 10
11.8583936474
 20
10.1112877144
 30
0.0
 10
11.8642692122
 20
10.111191491
 30
0.0
 10
11.8731960801
 20
10.1105117877
 30
0.0
 10
11.8807902166
 20
10.1100672851
 30
0.0
 10
11.8850318028
 20
10.1099588101
 30
0.0
  0
SPLINE
  5
4C5
100
AcDbEntity
  8
0
100
AcDbSpline
 62
7
  6
CONTINUOUS
 70
0
 71
3
 72
12
 73
8
 74
0
 42
0.0000001
 43
0.0000001
 44
0.0000000001
 40
0.0
 40
0.0
 40
0.0
 40
0.0
 40
0.3573508625
 40
0.6403290829
 40
0.7543714083
 40
0.8511961587
 40
1.0
 40
1.0
 40
1.0
 40
1.0
 10
11.8850318028
 20
9.2581499424
 30
0.0
 10
11.8807902155
 20
9.2580414674
 30
0.0
 10
11.8731960873
 20
9.2575969549
 30
0.0
 10
11.8642692245
 20
9.2569172607
 30
0.0
 10
11.8583936583
 20
9.2568210302
 30
0.0
 10
11.854151094
 20
9.2570972177
 30
0.0
 10
11.8512010812
 20
9.2578034662
 30
0.0
 10
11.8497042835
 20
9.2587421951
 30
0.0
  0
SPLINE
  5
4C6
100
AcDbEntity
  8
0
100
AcDbSpline
 62
9
  6
CONTINUOUS
 70
0
 71
3
 72
9
 73
5
 74
0
 42
0.0000001
 43
0.0000001
 44
0.0000000001
 40
0.0
 40
0.0
 40
0.0
 40
0.0
 40
0.5001229577
 40
1.0
 40
1.0
 40
1.0
 40
1.0
 10
11.9925737878
 20
10.0921932114
 30
0.0
 10
11.9987524567
 20
10.0943597456
 30
0.0
 10
12.0106450425
 20
10.1001387919
 30
0.0
 10
12.0208935887
 20
10.1085024949
 30
0.0
 10
12.0254367647
 20
10.1132128264
 30
0.0
  0
SPLINE
  5
4C7
100
AcDbEntity
  8
0
100
AcDbSpline
 62
9
  6
CONTINUOUS
 70
0
 71
3
 72
11
 73
7
 74
0
 42
0.0000001
 43
0.0000001
 44
0.0000000001
 40
0.0
 40
0.0
 40
0.0
 40
0.0
 40
0.249960314
 40
0.500238856
 40
0.7503776445
 40
1.0
 40
1.0
 40
1.0
 40
1.0
 10
11.9297838252
 20
10.1319093905
 30
0.0
 10
11.9187432094
 20
10.1319093905
 30
0.0
 10
11.8964106165
 20
10.1363261304
 30
0.0
 10
11.8681390344
 20
10.1551529875
 30
0.0
 10
11.8491006494
 20
10.1832665239
 30
0.0
 10
11.8445347909
 20
10.205550857
 30
0.0
 10
11.8444665058
 20
10.216576334
 30
0.0
  0
SPLINE
  5
4C8
100
AcDbEntity
  8
0
100
AcDbSpline
 62
9
  6
CONTINUOUS
 70
0
 71
3
 72
14
 73
10
 74
0
 42
0.0000001
 43
0.0000001
 44
0.0000000001
 40
0.0
 40
0.0
 40
0.0
 40
0.0
 40
0.0414055373
 40
0.106644558
 40
0.1968450734
 40
0.3119015597
 40
0.4512065084
 40
0.6133944202
 40
1.0
 40
1.0
 40
1.0
 40
1.0
 10
11.8444665058
 20
10.216576334
 30
0.0
 10
11.8447199096
 20
10.2168988656
 30
0.0
 10
11.845656785
 20
10.2174668108
 30
0.0
 10
11.8474693873
 20
10.2181519973
 30
0.0
 10
11.8500684881
 20
10.2188439109
 30
0.0
 10
11.8534122161
 20
10.2195214293
 30
0.0
 10
11.8574884384
 20
10.2201748392
 30
0.0
 10
11.8642476926
 20
10.2210571412
 30
0.0
 10
11.8696613051
 20
10.2215754831
 30
0.0
 10
11.8734780045
 20
10.221891815
 30
0.0
  0
SPLINE
  5
4C9
100
AcDbEntity
  8
0
100
AcDbSpline
 62
9
  6
CONTINUOUS
 70
0
 71
3
 72
9
 73
5
 74
0
 42
0.0000001
 43
0.0000001
 44
0.0000000001
 40
0.0
 40
0.0
 40
0.0
 40
0.0
 40
0.4670527075
 40
1.0
 40
1.0
 40
1.0
 40
1.0
 10
11.8734780045
 20
10.221891815
 30
0.0
 10
11.883056883
 20
10.2226857221
 30
0.0
 10
11.9036177971
 20
10.2237473707
 30
0.0
 10
11.9241977163
 20
10.2240935594
 30
0.0
 10
11.9351655175
 20
10.2240935594
 30
0.0
  0
SPLINE
  5
4CA
100
AcDbEntity
  8
0
100
AcDbSpline
 62
9
  6
CONTINUOUS
 70
0
 71
3
 72
18
 73
14
 74
0
 42
0.0000001
 43
0.0000001
 44
0.0000000001
 40
0.0
 40
0.0
 40
0.0
 40
0.0
 40
0.1795705517
 40
0.3560926495
 40
0.5218105521
 40
0.6705574357
 40
0.7968046947
 40
0.8500442206
 40
0.8959758348
 40
0.9341251501
 40
0.9642390607
 40
0.9861740375
 40
1.0
 40
1.0
 40
1.0
 40
1.0
 10
11.9351655175
 20
10.2240935594
 30
0.0
 10
11.9351998456
 20
10.2185508546
 30
0.0
 10
11.935191223
 20
10.2075589326
 30
0.0
 10
11.9349632669
 20
10.1914533217
 30
0.0
 10
11.9345226494
 20
10.1763036973
 30
0.0
 10
11.9338931497
 20
10.1627142107
 30
0.0
 10
11.9332017628
 20
10.1526045205
 30
0.0
 10
11.932546891
 20
10.1456773228
 30
0.0
 10
11.9320556231
 20
10.1414660246
 30
0.0
 10
11.9315391438
 20
10.1379804819
 30
0.0
 10
11.9310111298
 20
10.1352402302
 30
0.0
 10
11.9304754122
 20
10.1332876072
 30
0.0
 10
11.9300474819
 20
10.1322449718
 30
0.0
 10
11.9297838252
 20
10.1319093905
 30
0.0
  0
SPLINE
  5
4CB
100
AcDbEntity
  8
0
100
AcDbSpline
 62
9
  6
CONTINUOUS
 70
0
 71
3
 72
15
 73
11
 74
0
 42
0.0000001
 43
0.0000001
 44
0.0000000001
 40
0.0
 40
0.0
 40
0.0
 40
0.0
 40
0.0222162665
 40
0.0495653739
 40
0.1203993117
 40
0.2132411249
 40
0.3281373355
 40
0.4648688983
 40
0.622880423
 40
1.0
 40
1.0
 40
1.0
 40
1.0
 10
11.8095497614
 20
10.1721344035
 30
0.0
 10
11.8091224261
 20
10.1715904925
 30
0.0
 10
11.8082905252
 20
10.17028239
 30
0.0
 10
11.8066520812
 20
10.1669064825
 30
0.0
 10
11.8047155818
 20
10.1612649848
 30
0.0
 10
11.8025457492
 20
10.1528654468
 30
0.0
 10
11.8004063208
 20
10.1423513125
 30
0.0
 10
11.7983111174
 20
10.129768961
 30
0.0
 10
11.7954208323
 20
10.1090492717
 30
0.0
 10
11.7936370647
 20
10.0924794523
 30
0.0
 10
11.7925125229
 20
10.0807917983
 30
0.0
  0
SPLINE
  5
4CC
100
AcDbEntity
  8
0
100
AcDbSpline
 62
9
  6
CONTINUOUS
 70
0
 71
3
 72
15
 73
11
 74
0
 42
0.0000001
 43
0.0000001
 44
0.0000000001
 40
0.0
 40
0.0
 40
0.0
 40
0.0
 40
0.377119577
 40
0.5351311017
 40
0.6718626645
 40
0.7867588751
 40
0.8796006883
 40
0.9504346261
 40
0.9777837335
 40
1.0
 40
1.0
 40
1.0
 40
1.0
 10
11.7925125229
 20
9.2873169542
 30
0.0
 10
11.7936370647
 20
9.2756293002
 30
0.0
 10
11.7954208323
 20
9.2590594808
 30
0.0
 10
11.7983111174
 20
9.2383397915
 30
0.0
 10
11.8004063208
 20
9.22575744
 30
0.0
 10
11.8025457492
 20
9.2152433057
 30
0.0
 10
11.8047155818
 20
9.2068437677
 30
0.0
 10
11.8066520812
 20
9.20120227
 30
0.0
 10
11.8082905252
 20
9.1978263625
 30
0.0
 10
11.8091224261
 20
9.19651826
 30
0.0
 10
11.8095497614
 20
9.195974349
 30
0.0
  0
SPLINE
  5
4CD
100
AcDbEntity
  8
0
100
AcDbSpline
 62
9
  6
CONTINUOUS
 70
0
 71
3
 72
15
 73
11
 74
0
 42
0.0000001
 43
0.0000001
 44
0.0000000001
 40
0.0
 40
0.0
 40
0.0
 40
0.0
 40
0.0211546564
 40
0.0476199005
 40
0.1172320977
 40
0.2095360235
 40
0.3245122039
 40
0.4617847561
 40
0.6206487364
 40
1.0
 40
1.0
 40
1.0
 40
1.0
 10
11.809426379
 20
9.1760527152
 30
0.0
 10
11.8089355097
 20
9.1766774922
 30
0.0
 10
11.8079848497
 20
9.1782034688
 30
0.0
 10
11.8061166812
 20
9.1821955181
 30
0.0
 10
11.803923111
 20
9.1889441945
 30
0.0
 10
11.8014711677
 20
9.1990523726
 30
0.0
 10
11.7990627341
 20
9.2117727612
 30
0.0
 10
11.7967122908
 20
9.2270352408
 30
0.0
 10
11.7934856826
 20
9.2522018531
 30
0.0
 10
11.7915191676
 20
9.2723254183
 30
0.0
 10
11.7902876059
 20
9.2865200644
 30
0.0
  0
SPLINE
  5
4CE
100
AcDbEntity
  8
0
100
AcDbSpline
 62
9
  6
CONTINUOUS
 70
0
 71
3
 72
15
 73
11
 74
0
 42
0.0000001
 43
0.0000001
 44
0.0000000001
 40
0.0
 40
0.0
 40
0.0
 40
0.0
 40
0.3793512159
 40
0.5382151387
 40
0.6754876526
 40
0.7904638336
 40
0.8827677732
 40
0.9523800123
 40
0.9788452935
 40
1.0
 40
1.0
 40
1.0
 40
1.0
 10
11.7902876721
 20
10.0815894506
 30
0.0
 10
11.7915192313
 20
10.095783998
 30
0.0
 10
11.793485741
 20
10.1159074219
 30
0.0
 10
11.7967123396
 20
10.1410738563
 30
0.0
 10
11.799062775
 20
10.1563362274
 30
0.0
 10
11.8014711989
 20
10.1690565275
 30
0.0
 10
11.8039231327
 20
10.1791646374
 30
0.0
 10
11.8061166947
 20
10.1859132695
 30
0.0
 10
11.8079848558
 20
10.1899052946
 30
0.0
 10
11.8089355119
 20
10.1914312631
 30
0.0
 10
11.809426379
 20
10.1920560373
 30
0.0
  0
SPLINE
  5
4CF
100
AcDbEntity
  8
0
100
AcDbSpline
 62
9
  6
CONTINUOUS
 70
0
 71
3
 72
11
 73
7
 74
0
 42
0.0000001
 43
0.0000001
 44
0.0000000001
 40
0.0
 40
0.0
 40
0.0
 40
0.0
 40
0.2493729617
 40
0.4993793193
 40
0.7495490411
 40
1.0
 40
1.0
 40
1.0
 40
1.0
 10
11.8095497614
 20
10.1721344035
 30
0.0
 10
11.809589322
 20
10.1657468335
 30
0.0
 10
11.8111409523
 20
10.1529199503
 30
0.0
 10
11.8176979018
 20
10.1347063492
 30
0.0
 10
11.8281991384
 20
10.1184092454
 30
0.0
 10
11.8374724614
 20
10.1093693899
 30
0.0
 10
11.8425363997
 20
10.105430777
 30
0.0
  0
SPLINE
  5
4D0
100
AcDbEntity
  8
0
100
AcDbSpline
 62
9
  6
CONTINUOUS
 70
0
 71
3
 72
11
 73
7
 74
0
 42
0.0000001
 43
0.0000001
 44
0.0000000001
 40
0.0
 40
0.0
 40
0.0
 40
0.0
 40
0.2496223555
 40
0.499761144
 40
0.750039686
 40
1.0
 40
1.0
 40
1.0
 40
1.0
 10
11.8444665058
 20
9.1515324185
 30
0.0
 10
11.8445347909
 20
9.1625578955
 30
0.0
 10
11.8491006494
 20
9.1848422286
 30
0.0
 10
11.8681390344
 20
9.212955765
 30
0.0
 10
11.8964106165
 20
9.2317826221
 30
0.0
 10
11.9187432094
 20
9.236199362
 30
0.0
 10
11.9297838252
 20
9.236199362
 30
0.0
  0
SPLINE
  5
4D1
100
AcDbEntity
  8
0
100
AcDbSpline
 62
9
  6
CONTINUOUS
 70
0
 71
3
 72
18
 73
14
 74
0
 42
0.0000001
 43
0.0000001
 44
0.0000000001
 40
0.0
 40
0.0
 40
0.0
 40
0.0
 40
0.0138259625
 40
0.0357609393
 40
0.0658748499
 40
0.1040241652
 40
0.1499557794
 40
0.2031953053
 40
0.3294425643
 40
0.4781894479
 40
0.6439073505
 40
0.8204294483
 40
1.0
 40
1.0
 40
1.0
 40
1.0
 10
11.9297838252
 20
9.236199362
 30
0.0
 10
11.9300474819
 20
9.2358637806
 30
0.0
 10
11.9304754122
 20
9.2348211453
 30
0.0
 10
11.9310111298
 20
9.2328685223
 30
0.0
 10
11.9315391438
 20
9.2301282705
 30
0.0
 10
11.9320556231
 20
9.2266427279
 30
0.0
 10
11.932546891
 20
9.2224314297
 30
0.0
 10
11.9332017628
 20
9.215504232
 30
0.0
 10
11.9338931497
 20
9.2053945418
 30
0.0
 10
11.9345226494
 20
9.1918050552
 30
0.0
 10
11.9349632669
 20
9.1766554308
 30
0.0
 10
11.935191223
 20
9.1605498198
 30
0.0
 10
11.9351998456
 20
9.1495578979
 30
0.0
 10
11.9351655175
 20
9.1440151931
 30
0.0
  0
SPLINE
  5
4D2
100
AcDbEntity
  8
0
100
AcDbSpline
 62
9
  6
CONTINUOUS
 70
0
 71
3
 72
9
 73
5
 74
0
 42
0.0000001
 43
0.0000001
 44
0.0000000001
 40
0.0
 40
0.0
 40
0.0
 40
0.0
 40
0.5329472925
 40
1.0
 40
1.0
 40
1.0
 40
1.0
 10
11.9351655175
 20
9.1440151931
 30
0.0
 10
11.9241977163
 20
9.1440151931
 30
0.0
 10
11.9036177971
 20
9.1443613818
 30
0.0
 10
11.883056883
 20
9.1454230304
 30
0.0
 10
11.8734780045
 20
9.1462169375
 30
0.0
  0
SPLINE
  5
4D3
100
AcDbEntity
  8
0
100
AcDbSpline
 62
9
  6
CONTINUOUS
 70
0
 71
3
 72
14
 73
10
 74
0
 42
0.0000001
 43
0.0000001
 44
0.0000000001
 40
0.0
 40
0.0
 40
0.0
 40
0.0
 40
0.3866055798
 40
0.5487934916
 40
0.6880984403
 40
0.8031549266
 40
0.893355442
 40
0.9585944627
 40
1.0
 40
1.0
 40
1.0
 40
1.0
 10
11.8734780045
 20
9.1462169375
 30
0.0
 10
11.8696613051
 20
9.1465332694
 30
0.0
 10
11.8642476926
 20
9.1470516112
 30
0.0
 10
11.8574884384
 20
9.1479339133
 30
0.0
 10
11.8534122161
 20
9.1485873232
 30
0.0
 10
11.8500684881
 20
9.1492648416
 30
0.0
 10
11.8474693873
 20
9.1499567552
 30
0.0
 10
11.845656785
 20
9.1506419417
 30
0.0
 10
11.8447199096
 20
9.1512098869
 30
0.0
 10
11.8444665058
 20
9.1515324185
 30
0.0
  0
SPLINE
  5
4D4
100
AcDbEntity
  8
0
100
AcDbSpline
 62
9
  6
CONTINUOUS
 70
0
 71
3
 72
18
 73
14
 74
0
 42
0.0000001
 43
0.0000001
 44
0.0000000001
 40
0.0
 40
0.0
 40
0.0
 40
0.0
 40
0.1973707156
 40
0.3856028356
 40
0.5571497882
 40
0.7063212764
 40
0.8282305686
 40
0.9190593206
 40
0.9518527598
 40
0.9759222218
 40
0.9847508423
 40
0.9915420409
 40
1.0
 40
1.0
 40
1.0
 40
1.0
 10
12.0048716187
 20
10.2440151931
 30
0.0
 10
12.004839763
 20
10.2491586889
 30
0.0
 10
12.0047121696
 20
10.2592072362
 30
0.0
 10
12.0043333482
 20
10.2737224716
 30
0.0
 10
12.0037758938
 20
10.2869748247
 30
0.0
 10
12.0030713076
 20
10.298489718
 30
0.0
 10
12.002236114
 20
10.3078850154
 30
0.0
 10
12.0014280681
 20
10.3142364688
 30
0.0
 10
12.0006711877
 20
10.3180144102
 30
0.0
 10
12.0002207459
 20
10.3196645354
 30
0.0
 10
11.9998178286
 20
10.3206287604
 30
0.0
 10
11.9995230838
 20
10.3211615401
 30
0.0
 10
11.9991859469
 20
10.321489527
 30
0.0
 10
11.9989655509
 20
10.3214927268
 30
0.0
  0
SPLINE
  5
4D5
100
AcDbEntity
  8
0
100
AcDbSpline
 62
9
  6
CONTINUOUS
 70
0
 71
3
 72
12
 73
8
 74
0
 42
0.0000001
 43
0.0000001
 44
0.0000000001
 40
0.0
 40
0.0
 40
0.0
 40
0.0
 40
0.2241840152
 40
0.4669992871
 40
0.5958317536
 40
0.7286957752
 40
1.0
 40
1.0
 40
1.0
 40
1.0
 10
6.6235040151
 20
10.0240559992
 30
0.0
 10
6.6165385479
 20
10.0241074272
 30
0.0
 10
6.6019842815
 20
10.0265139342
 30
0.0
 10
6.5851007523
 20
10.0347843058
 30
0.0
 10
6.5728980826
 20
10.0447070891
 30
0.0
 10
6.5615575776
 20
10.0568217028
 30
0.0
 10
6.5547655507
 20
10.0675935532
 30
0.0
 10
6.5512015401
 20
10.0752328128
 30
0.0
  0
SPLINE
  5
4D6
100
AcDbEntity
  8
0
100
AcDbSpline
 62
9
  6
CONTINUOUS
 70
0
 71
3
 72
11
 73
7
 74
0
 42
0.0000001
 43
0.0000001
 44
0.0000000001
 40
0.0
 40
0.0
 40
0.0
 40
0.0
 40
0.2328243775
 40
0.4795757412
 40
0.7379379206
 40
1.0
 40
1.0
 40
1.0
 40
1.0
 10
6.6234906316
 20
9.3440526817
 30
0.0
 10
6.616262503
 20
9.3439971827
 30
0.0
 10
6.6013271401
 20
9.3413989332
 30
0.0
 10
6.5805703143
 20
9.330921187
 30
0.0
 10
6.5632744456
 20
9.3141073884
 30
0.0
 10
6.5546413488
 20
9.3002490928
 30
0.0
 10
6.5512015022
 20
9.2928759655
 30
0.0
  0
SPLINE
  5
4D7
100
AcDbEntity
  8
0
100
AcDbSpline
 62
9
  6
CONTINUOUS
 70
0
 71
3
 72
9
 73
5
 74
0
 42
0.0000001
 43
0.0000001
 44
0.0000000001
 40
0.0
 40
0.0
 40
0.0
 40
0.0
 40
0.5329472925
 40
1.0
 40
1.0
 40
1.0
 40
1.0
 10
11.9350421351
 20
10.2440151931
 30
0.0
 10
11.924074334
 20
10.2440151931
 30
0.0
 10
11.9034944148
 20
10.2436690045
 30
0.0
 10
11.8829335006
 20
10.2426073559
 30
0.0
 10
11.8733546222
 20
10.2418134488
 30
0.0
  0
SPLINE
  5
4D8
100
AcDbEntity
  8
0
100
AcDbSpline
 62
9
  6
CONTINUOUS
 70
0
 71
3
 72
14
 73
10
 74
0
 42
0.0000001
 43
0.0000001
 44
0.0000000001
 40
0.0
 40
0.0
 40
0.0
 40
0.0
 40
0.3866055798
 40
0.5487934916
 40
0.6880984403
 40
0.8031549266
 40
0.893355442
 40
0.9585944627
 40
1.0
 40
1.0
 40
1.0
 40
1.0
 10
11.8733546222
 20
10.2418134488
 30
0.0
 10
11.8695379227
 20
10.2414971169
 30
0.0
 10
11.8641243102
 20
10.240978775
 30
0.0
 10
11.857365056
 20
10.240096473
 30
0.0
 10
11.8532888337
 20
10.2394430631
 30
0.0
 10
11.8499451057
 20
10.2387655446
 30
0.0
 10
11.8473460049
 20
10.238073631
 30
0.0
 10
11.8455334026
 20
10.2373884445
 30
0.0
 10
11.8445965273
 20
10.2368204994
 30
0.0
 10
11.8443431235
 20
10.2364979677
 30
0.0
  0
SPLINE
  5
4D9
100
AcDbEntity
  8
0
100
AcDbSpline
 62
9
  6
CONTINUOUS
 70
0
 71
3
 72
17
 73
13
 74
0
 42
0.0000001
 43
0.0000001
 44
0.0000000001
 40
0.0
 40
0.0
 40
0.0
 40
0.0
 40
0.168607011
 40
0.318058938
 40
0.385802545
 40
0.4499112509
 40
0.5113004481
 40
0.5707375827
 40
0.6849508969
 40
0.7940042516
 40
0.8988104575
 40
1.0
 40
1.0
 40
1.0
 40
1.0
 10
8.7925357883
 20
2.6840543762
 30
0.0
 10
8.7925357883
 20
2.695419153
 30
0.0
 10
8.7944067883
 20
2.7169005476
 30
0.0
 10
8.8006909167
 20
2.7422222264
 30
0.0
 10
8.807059626
 20
2.7600927965
 30
0.0
 10
8.8122007105
 20
2.7720697323
 30
0.0
 10
8.8177660496
 20
2.7832300029
 30
0.0
 10
8.8254982726
 20
2.797062596
 30
0.0
 10
8.8358794689
 20
2.8130722419
 30
0.0
 10
8.8494001748
 20
2.8305976881
 30
0.0
 10
8.8635444732
 20
2.8464558602
 30
0.0
 10
8.8733688978
 20
2.8562783585
 30
0.0
 10
8.8783166176
 20
2.8609730679
 30
0.0
  0
SPLINE
  5
4DA
100
AcDbEntity
  8
0
100
AcDbSpline
 62
9
  6
CONTINUOUS
 70
0
 71
3
 72
10
 73
6
 74
0
 42
0.0000001
 43
0.0000001
 44
0.0000000001
 40
0.0
 40
0.0
 40
0.0
 40
0.0
 40
0.514647206
 40
0.7620996102
 40
1.0
 40
1.0
 40
1.0
 40
1.0
 10
13.2226847527
 20
7.3141723034
 30
0.0
 10
13.214593689
 20
7.3173429921
 30
0.0
 10
13.2030461142
 20
7.3231791541
 30
0.0
 10
13.1887429649
 20
7.3321513995
 30
0.0
 10
13.1819879114
 20
7.336798565
 30
0.0
 10
13.1787254101
 20
7.3391423145
 30
0.0
  0
SPLINE
  5
4DB
100
AcDbEntity
  8
0
100
AcDbSpline
 62
9
  6
CONTINUOUS
 70
0
 71
3
 72
9
 73
5
 74
0
 42
0.0000001
 43
0.0000001
 44
0.0000000001
 40
0.0
 40
0.0
 40
0.0
 40
0.0
 40
0.2510815558
 40
1.0
 40
1.0
 40
1.0
 40
1.0
 10
13.2526003509
 20
7.3089121163
 30
0.0
 10
13.2500496248
 20
7.3088615414
 30
0.0
 10
13.2398884934
 20
7.3091498128
 30
0.0
 10
13.2297699456
 20
7.3113966426
 30
0.0
 10
13.2226844012
 20
7.3141720631
 30
0.0
  0
SPLINE
  5
4DC
100
AcDbEntity
  8
0
100
AcDbSpline
 62
9
  6
CONTINUOUS
 70
0
 71
3
 72
12
 73
8
 74
0
 42
0.0000001
 43
0.0000001
 44
0.0000000001
 40
0.0
 40
0.0
 40
0.0
 40
0.0
 40
0.2569843124
 40
0.3843111147
 40
0.5101096378
 40
0.7577780117
 40
1.0
 40
1.0
 40
1.0
 40
1.0
 10
13.205276669
 20
7.2792107141
 30
0.0
 10
13.2003807242
 20
7.283540805
 30
0.0
 10
13.1934993139
 20
7.2905457812
 30
0.0
 10
13.1854896121
 20
7.3007639084
 30
0.0
 10
13.1784158795
 20
7.3113702487
 30
0.0
 10
13.1709505476
 20
7.3251628088
 30
0.0
 10
13.1657788787
 20
7.3365107581
 30
0.0
 10
13.1634724589
 20
7.3422233154
 30
0.0
  0
SPLINE
  5
4DD
100
AcDbEntity
  8
0
100
AcDbSpline
 62
9
  6
CONTINUOUS
 70
0
 71
3
 72
9
 73
5
 74
0
 42
0.0000001
 43
0.0000001
 44
0.0000000001
 40
0.0
 40
0.0
 40
0.0
 40
0.0
 40
0.5000098003
 40
1.0
 40
1.0
 40
1.0
 40
1.0
 10
13.2513330598
 20
7.2690493718
 30
0.0
 10
13.2434248626
 20
7.2690451021
 30
0.0
 10
13.2275612662
 20
7.2707463946
 30
0.0
 10
13.2124368851
 20
7.2758542273
 30
0.0
 10
13.205276669
 20
7.2792107141
 30
0.0
  0
SPLINE
  5
4DE
100
AcDbEntity
  8
0
100
AcDbSpline
 62
9
  6
CONTINUOUS
 70
0
 71
3
 72
12
 73
8
 74
0
 42
0.0000001
 43
0.0000001
 44
0.0000000001
 40
0.0
 40
0.0
 40
0.0
 40
0.0
 40
0.3286782654
 40
0.633895337
 40
0.8645054032
 40
0.9449416145
 40
1.0
 40
1.0
 40
1.0
 40
1.0
 10
13.2052768319
 20
7.2792106384
 30
0.0
 10
13.2070918412
 20
7.2830865452
 30
0.0
 10
13.210633568
 20
7.2905424995
 30
0.0
 10
13.215565118
 20
7.300661735
 30
0.0
 10
13.2191898628
 20
7.3078222633
 30
0.0
 10
13.221443235
 20
7.3120230918
 30
0.0
 10
13.2223105882
 20
7.3135602519
 30
0.0
 10
13.2226844964
 20
7.3141719591
 30
0.0
  0
SPLINE
  5
4DF
100
AcDbEntity
  8
0
100
AcDbSpline
 62
9
  6
CONTINUOUS
 70
0
 71
3
 72
17
 73
13
 74
0
 42
0.0000001
 43
0.0000001
 44
0.0000000001
 40
0.0
 40
0.0
 40
0.0
 40
0.0
 40
0.1749761697
 40
0.3535007523
 40
0.5249581077
 40
0.678736342
 40
0.8057114612
 40
0.9026829498
 40
0.9393856947
 40
0.9679560641
 40
0.9882036034
 40
1.0
 40
1.0
 40
1.0
 40
1.0
 10
13.251333067
 20
7.2690493718
 30
0.0
 10
13.2513318094
 20
7.2713772793
 30
0.0
 10
13.2513460405
 20
7.2760803191
 30
0.0
 10
13.2514105801
 20
7.2830641946
 30
0.0
 10
13.2515181355
 20
7.2897654484
 30
0.0
 10
13.2516651398
 20
7.295780154
 30
0.0
 10
13.2518557357
 20
7.3008017397
 30
0.0
 10
13.2520469533
 20
7.304265079
 30
0.0
 10
13.2522204175
 20
7.3064160521
 30
0.0
 10
13.2523352902
 20
7.3075494457
 30
0.0
 10
13.2524531233
 20
7.3083448492
 30
0.0
 10
13.2525370144
 20
7.3087671827
 30
0.0
 10
13.2525979154
 20
7.3089118254
 30
0.0
  0
SPLINE
  5
4E0
100
AcDbEntity
  8
0
100
AcDbSpline
 62
9
  6
CONTINUOUS
 70
0
 71
3
 72
11
 73
7
 74
0
 42
0.0000001
 43
0.0000001
 44
0.0000000001
 40
0.0
 40
0.0
 40
0.0
 40
0.0
 40
0.2437510407
 40
0.4858183994
 40
0.7347633148
 40
1.0
 40
1.0
 40
1.0
 40
1.0
 10
6.5512016383
 20
10.075232877
 30
0.0
 10
6.5614998926
 20
10.0752287615
 30
0.0
 10
6.5820923409
 20
10.0732844698
 30
0.0
 10
6.6119478462
 20
10.0639899638
 30
0.0
 10
6.6399632328
 20
10.0481629087
 30
0.0
 10
6.6564781923
 20
10.0338187074
 30
0.0
 10
6.6642875515
 20
10.0257820149
 30
0.0
  0
SPLINE
  5
4E1
100
AcDbEntity
  8
0
100
AcDbSpline
 62
9
  6
CONTINUOUS
 70
0
 71
3
 72
9
 73
5
 74
0
 42
0.0000001
 43
0.0000001
 44
0.0000000001
 40
0.0
 40
0.0
 40
0.0
 40
0.0
 40
0.5000188613
 40
1.0
 40
1.0
 40
1.0
 40
1.0
 10
13.2537790242
 20
7.001090829
 30
0.0
 10
13.2454756979
 20
7.0013138847
 30
0.0
 10
13.2287650199
 20
6.9998785155
 30
0.0
 10
13.2128109205
 20
6.9946668134
 30
0.0
 10
13.205276669
 20
6.9911711553
 30
0.0
  0
SPLINE
  5
4E2
100
AcDbEntity
  8
0
100
AcDbSpline
 62
9
  6
CONTINUOUS
 70
0
 71
3
 72
11
 73
7
 74
0
 42
0.0000001
 43
0.0000001
 44
0.0000000001
 40
0.0
 40
0.0
 40
0.0
 40
0.0
 40
0.2652467902
 40
0.514194447
 40
0.7562724308
 40
1.0
 40
1.0
 40
1.0
 40
1.0
 10
6.664311509
 20
9.3423509094
 30
0.0
 10
6.6565014214
 20
9.3343100482
 30
0.0
 10
6.6399835135
 20
9.3199589498
 30
0.0
 10
6.6119612621
 20
9.3041244735
 30
0.0
 10
6.5821000479
 20
9.2948210597
 30
0.0
 10
6.5615017233
 20
9.2928765521
 30
0.0
 10
6.5512016383
 20
9.2928758755
 30
0.0
  0
SPLINE
  5
4E3
100
AcDbEntity
  8
0
100
AcDbSpline
 62
9
  6
CONTINUOUS
 70
0
 71
3
 72
51
 73
47
 74
0
 42
0.0000001
 43
0.0000001
 44
0.0000000001
 40
0.0
 40
0.0
 40
0.0
 40
0.0
 40
0.0215203792
 40
0.0443535944
 40
0.0685048313
 40
0.0940616162
 40
0.1211321134
 40
0.1497255929
 40
0.1797982227
 40
0.2112836791
 40
0.2440824065
 40
0.2780756483
 40
0.3131390405
 40
0.3491483744
 40
0.3859736552
 40
0.4046240165
 40
0.4234122201
 40
0.4423962693
 40
0.4616127415
 40
0.4712312019
 40
0.4808310354
 40
0.4904381034
 40
0.5000865542
 40
0.5097631015
 40
0.5194347316
 40
0.5290607652
 40
0.538644021
 40
0.5577523017
 40
0.5767177558
 40
0.5955163535
 40
0.6141735483
 40
0.6326684756
 40
0.6509751206
 40
0.686967325
 40
0.722022027
 40
0.756001602
 40
0.7887873737
 40
0.8202608573
 40
0.8503223368
 40
0.878903319
 40
0.9059619854
 40
0.93149701
 40
0.9437239491
 40
0.9556167738
 40
0.9784374373
 40
1.0
 40
1.0
 40
1.0
 40
1.0
 10
6.5512016383
 20
10.075232877
 30
0.0
 10
6.5423578526
 20
10.0749108187
 30
0.0
 10
6.5241542057
 20
10.0732320332
 30
0.0
 10
6.4964936429
 20
10.0676210498
 30
0.0
 10
6.4680345579
 20
10.0584645215
 30
0.0
 10
6.4391834464
 20
10.0455119771
 30
0.0
 10
6.4099512448
 20
10.0292978443
 30
0.0
 10
6.3802621206
 20
10.0102446946
 30
0.0
 10
6.3502103331
 20
9.988507052
 30
0.0
 10
6.3199351733
 20
9.9642159224
 30
0.0
 10
6.289525508
 20
9.9375808525
 30
0.0
 10
6.2591064384
 20
9.9087738522
 30
0.0
 10
6.2288497042
 20
9.8779160735
 30
0.0
 10
6.1990856867
 20
9.8449955377
 30
0.0
 10
6.1751504264
 20
9.815939687
 30
0.0
 10
6.1570067872
 20
9.7913667878
 30
0.0
 10
6.144042947
 20
9.7721090427
 30
0.0
 10
6.1322661798
 20
9.7518279804
 30
0.0
 10
6.1238625564
 20
9.7339988763
 30
0.0
 10
6.1186309232
 20
9.7190688117
 30
0.0
 10
6.1156586495
 20
9.7075764256
 30
0.0
 10
6.1138555622
 20
9.695825042
 30
0.0
 10
6.1133430959
 20
9.6839162437
 30
0.0
 10
6.1140263921
 20
9.6719931811
 30
0.0
 10
6.1158463669
 20
9.6601997817
 30
0.0
 10
6.1187620158
 20
9.6486693625
 30
0.0
 10
6.1239465351
 20
9.6337719336
 30
0.0
 10
6.1323737172
 20
9.6160242041
 30
0.0
 10
6.1441918118
 20
9.5958256096
 30
0.0
 10
6.1571248729
 20
9.5765485137
 30
0.0
 10
6.1708167341
 20
9.5580505488
 30
0.0
 10
6.185026071
 20
9.5402075937
 30
0.0
 10
6.2043129512
 20
9.5173110211
 30
0.0
 10
6.228985688
 20
9.4900651349
 30
0.0
 10
6.2592257197
 20
9.4592159848
 30
0.0
 10
6.2896371959
 20
9.4304212098
 30
0.0
 10
6.3200464957
 20
9.4038097766
 30
0.0
 10
6.350311651
 20
9.3795310189
 30
0.0
 10
6.3803343178
 20
9.3577773655
 30
0.0
 10
6.4100452144
 20
9.338781093
 30
0.0
 10
6.4392932981
 20
9.3226411375
 30
0.0
 10
6.4636186015
 20
9.3116382472
 30
0.0
 10
6.4828440984
 20
9.3047273285
 30
0.0
 10
6.501373343
 20
9.2992821247
 30
0.0
 10
6.5241097453
 20
9.2946915351
 30
0.0
 10
6.5423382025
 20
9.2931270688
 30
0.0
 10
6.5512016383
 20
9.2928758755
 30
0.0
  0
SPLINE
  5
4E4
100
AcDbEntity
  8
0
100
AcDbSpline
 62
9
  6
CONTINUOUS
 70
0
 71
3
 72
9
 73
5
 74
0
 42
0.0000001
 43
0.0000001
 44
0.0000000001
 40
0.0
 40
0.0
 40
0.0
 40
0.0
 40
0.257757369
 40
1.0
 40
1.0
 40
1.0
 40
1.0
 10
7.666338997
 20
10.2440151931
 30
0.0
 10
7.6635891206
 20
10.2440151931
 30
0.0
 10
7.6529207783
 20
10.2439674277
 30
0.0
 10
7.6422526695
 20
10.2437417179
 30
0.0
 10
7.6343397146
 20
10.2434429784
 30
0.0
  0
SPLINE
  5
4E5
100
AcDbEntity
  8
0
100
AcDbSpline
 62
9
  6
CONTINUOUS
 70
0
 71
3
 72
16
 73
12
 74
0
 42
0.0000001
 43
0.0000001
 44
0.0000000001
 40
0.0
 40
0.0
 40
0.0
 40
0.0
 40
0.4032700438
 40
0.5727450702
 40
0.7165066104
 40
0.8321933403
 40
0.8788568405
 40
0.9177723151
 40
0.9489264114
 40
0.9725318532
 40
1.0
 40
1.0
 40
1.0
 40
1.0
 10
7.6343397146
 20
10.2434429784
 30
0.0
 10
7.6278818791
 20
10.2431991743
 30
0.0
 10
7.6187126054
 20
10.242732376
 30
0.0
 10
7.6072701837
 20
10.2417687874
 30
0.0
 10
7.6004388899
 20
10.2409926388
 30
0.0
 10
7.5955895683
 20
10.24024783
 30
0.0
 10
7.5924289944
 20
10.2395835837
 30
0.0
 10
7.5906248598
 20
10.2391148284
 30
0.0
 10
7.5891835005
 20
10.2386191784
 30
0.0
 10
7.5880385025
 20
10.238093854
 30
0.0
 10
7.5872579754
 20
10.237464486
 30
0.0
 10
7.5872503614
 20
10.2370243725
 30
0.0
  0
SPLINE
  5
4E6
100
AcDbEntity
  8
0
100
AcDbSpline
 62
9
  6
CONTINUOUS
 70
0
 71
3
 72
14
 73
10
 74
0
 42
0.0000001
 43
0.0000001
 44
0.0000000001
 40
0.0
 40
0.0
 40
0.0
 40
0.0
 40
0.0414055373
 40
0.106644558
 40
0.1968450734
 40
0.3119015597
 40
0.4512065084
 40
0.6133944202
 40
1.0
 40
1.0
 40
1.0
 40
1.0
 10
7.8268674922
 20
10.2364979677
 30
0.0
 10
7.8266140884
 20
10.2368204994
 30
0.0
 10
7.825677213
 20
10.2373884445
 30
0.0
 10
7.8238646108
 20
10.238073631
 30
0.0
 10
7.82126551
 20
10.2387655446
 30
0.0
 10
7.8179217819
 20
10.2394430631
 30
0.0
 10
7.8138455596
 20
10.240096473
 30
0.0
 10
7.8070863054
 20
10.240978775
 30
0.0
 10
7.8016726929
 20
10.2414971169
 30
0.0
 10
7.7978559935
 20
10.2418134488
 30
0.0
  0
SPLINE
  5
4E7
100
AcDbEntity
  8
0
100
AcDbSpline
 62
9
  6
CONTINUOUS
 70
0
 71
3
 72
9
 73
5
 74
0
 42
0.0000001
 43
0.0000001
 44
0.0000000001
 40
0.0
 40
0.0
 40
0.0
 40
0.0
 40
0.4670527075
 40
1.0
 40
1.0
 40
1.0
 40
1.0
 10
7.7978559935
 20
10.2418134488
 30
0.0
 10
7.7882771151
 20
10.2426073559
 30
0.0
 10
7.7677162009
 20
10.2436690045
 30
0.0
 10
7.7471362817
 20
10.2440151931
 30
0.0
 10
7.7361684805
 20
10.2440151931
 30
0.0
  0
SPLINE
  5
4E8
100
AcDbEntity
  8
0
100
AcDbSpline
 62
9
  6
CONTINUOUS
 70
0
 71
3
 72
18
 73
14
 74
0
 42
0.0000001
 43
0.0000001
 44
0.0000000001
 40
0.0
 40
0.0
 40
0.0
 40
0.0
 40
0.1973707156
 40
0.3856028356
 40
0.5571497882
 40
0.7063212764
 40
0.8282305686
 40
0.9190593206
 40
0.9518527598
 40
0.9759222218
 40
0.9847508423
 40
0.9915420409
 40
1.0
 40
1.0
 40
1.0
 40
1.0
 10
7.7361684805
 20
10.2440151931
 30
0.0
 10
7.7362003362
 20
10.2491586889
 30
0.0
 10
7.7363279295
 20
10.2592072362
 30
0.0
 10
7.736706751
 20
10.2737224716
 30
0.0
 10
7.7372642053
 20
10.2869748247
 30
0.0
 10
7.7379687916
 20
10.298489718
 30
0.0
 10
7.7388039852
 20
10.3078850154
 30
0.0
 10
7.7396120311
 20
10.3142364688
 30
0.0
 10
7.7403689115
 20
10.3180144102
 30
0.0
 10
7.7408193533
 20
10.3196645354
 30
0.0
 10
7.7412222706
 20
10.3206287604
 30
0.0
 10
7.7415170153
 20
10.3211615401
 30
0.0
 10
7.7418541522
 20
10.321489527
 30
0.0
 10
7.7420745483
 20
10.3214927268
 30
0.0
  0
SPLINE
  5
4E9
100
AcDbEntity
  8
0
100
AcDbSpline
 62
9
  6
CONTINUOUS
 70
0
 71
3
 72
13
 73
9
 74
0
 42
0.0000001
 43
0.0000001
 44
0.0000000001
 40
0.0
 40
0.0
 40
0.0
 40
0.0
 40
0.0589685357
 40
0.1361516395
 40
0.2322797118
 40
0.3476037171
 40
0.6358670659
 40
1.0
 40
1.0
 40
1.0
 40
1.0
 10
7.8617842367
 20
10.1920560373
 30
0.0
 10
7.8624174157
 20
10.1912501288
 30
0.0
 10
7.8636213816
 20
10.1891927968
 30
0.0
 10
7.8651977714
 20
10.1854731633
 30
0.0
 10
7.866773178
 20
10.1807051002
 30
0.0
 10
7.8690321531
 20
10.1723162389
 30
0.0
 10
7.8716892178
 20
10.1592292418
 30
0.0
 10
7.8734411621
 20
10.1480249602
 30
0.0
 10
7.8743303225
 20
10.1417589848
 30
0.0
  0
SPLINE
  5
4EA
100
AcDbEntity
  8
0
100
AcDbSpline
 62
9
  6
CONTINUOUS
 70
0
 71
3
 72
9
 73
5
 74
0
 42
0.0000001
 43
0.0000001
 44
0.0000000001
 40
0.0
 40
0.0
 40
0.0
 40
0.0
 40
0.4649719172
 40
1.0
 40
1.0
 40
1.0
 40
1.0
 10
7.8743303225
 20
10.1417589848
 30
0.0
 10
7.8753246641
 20
10.1347517896
 30
0.0
 10
7.8772236027
 20
10.1196475656
 30
0.0
 10
7.8787962328
 20
10.1045070308
 30
0.0
 10
7.8795729961
 20
10.0964004331
 30
0.0
  0
SPLINE
  5
4EB
100
AcDbEntity
  8
0
100
AcDbSpline
 62
9
  6
CONTINUOUS
 70
0
 71
3
 72
10
 73
6
 74
0
 42
0.0000001
 43
0.0000001
 44
0.0000000001
 40
0.0
 40
0.0
 40
0.0
 40
0.0
 40
0.5612223528
 40
0.7964259498
 40
1.0
 40
1.0
 40
1.0
 40
1.0
 10
7.8795722698
 20
9.2717007386
 30
0.0
 10
7.8784006106
 20
9.2594735063
 30
0.0
 10
7.8765417313
 20
9.2421372016
 30
0.0
 10
7.8735286631
 20
9.2204576077
 30
0.0
 10
7.8719576279
 20
9.2109816687
 30
0.0
 10
7.871143283
 20
9.2066011796
 30
0.0
  0
SPLINE
  5
4EC
100
AcDbEntity
  8
0
100
AcDbSpline
 62
9
  6
CONTINUOUS
 70
0
 71
3
 72
12
 73
8
 74
0
 42
0.0000001
 43
0.0000001
 44
0.0000000001
 40
0.0
 40
0.0
 40
0.0
 40
0.0
 40
0.3503816308
 40
0.6333973273
 40
0.8491851601
 40
0.9324325241
 40
1.0
 40
1.0
 40
1.0
 40
1.0
 10
7.871143283
 20
9.2066011796
 30
0.0
 10
7.8704572569
 20
9.2029109377
 30
0.0
 10
7.8691092288
 20
9.1962573545
 30
0.0
 10
7.8668405086
 20
9.1874460378
 30
0.0
 10
7.8648155928
 20
9.1815298176
 30
0.0
 10
7.863101715
 20
9.1779917973
 30
0.0
 10
7.8622314115
 20
9.176621878
 30
0.0
 10
7.8617842367
 20
9.1760527152
 30
0.0
  0
SPLINE
  5
4ED
100
AcDbEntity
  8
0
100
AcDbSpline
 62
9
  6
CONTINUOUS
 70
0
 71
3
 72
12
 73
8
 74
0
 42
0.0000001
 43
0.0000001
 44
0.0000000001
 40
0.0
 40
0.0
 40
0.0
 40
0.0
 40
0.0673721286
 40
0.1504816196
 40
0.3661685553
 40
0.6493024477
 40
1.0
 40
1.0
 40
1.0
 40
1.0
 10
7.8616608543
 20
9.195974349
 30
0.0
 10
7.8620937428
 20
9.1965253282
 30
0.0
 10
7.8629359227
 20
9.19785305
 30
0.0
 10
7.8645941429
 20
9.2012857088
 30
0.0
 10
7.8665523565
 20
9.207030863
 30
0.0
 10
7.8687459839
 20
9.2155912426
 30
0.0
 10
7.8700488531
 20
9.2220567276
 30
0.0
 10
7.8707119041
 20
9.2256433267
 30
0.0
  0
SPLINE
  5
4EE
100
AcDbEntity
  8
0
100
AcDbSpline
 62
9
  6
CONTINUOUS
 70
0
 71
3
 72
9
 73
5
 74
0
 42
0.0000001
 43
0.0000001
 44
0.0000000001
 40
0.0
 40
0.0
 40
0.0
 40
0.0
 40
0.4563074206
 40
1.0
 40
1.0
 40
1.0
 40
1.0
 10
7.8713818742
 20
9.2293839933
 30
0.0
 10
7.8724611537
 20
9.2355992823
 30
0.0
 10
7.8745023936
 20
9.2492761852
 30
0.0
 10
7.8761480394
 20
9.2630037495
 30
0.0
 10
7.876968373
 20
9.2704752222
 30
0.0
  0
SPLINE
  5
4EF
100
AcDbEntity
  8
0
100
AcDbSpline
 62
9
  6
CONTINUOUS
 70
0
 71
3
 72
9
 73
5
 74
0
 42
0.0000001
 43
0.0000001
 44
0.0000000001
 40
0.0
 40
0.0
 40
0.0
 40
0.0
 40
0.5499489002
 40
1.0
 40
1.0
 40
1.0
 40
1.0
 10
7.876968373
 20
10.0976335303
 30
0.0
 10
7.8760625854
 20
10.1058833052
 30
0.0
 10
7.874251401
 20
10.1208667875
 30
0.0
 10
7.8719465727
 20
10.1357868122
 30
0.0
 10
7.8707119041
 20
10.1424654257
 30
0.0
  0
SPLINE
  5
4F0
100
AcDbEntity
  8
0
100
AcDbSpline
 62
9
  6
CONTINUOUS
 70
0
 71
3
 72
12
 73
8
 74
0
 42
0.0000001
 43
0.0000001
 44
0.0000000001
 40
0.0
 40
0.0
 40
0.0
 40
0.0
 40
0.3506975523
 40
0.6338314447
 40
0.8495183804
 40
0.9326278714
 40
1.0
 40
1.0
 40
1.0
 40
1.0
 10
7.8707119041
 20
10.1424654257
 30
0.0
 10
7.8700488531
 20
10.1460520249
 30
0.0
 10
7.8687459839
 20
10.1525175099
 30
0.0
 10
7.8665523565
 20
10.1610778895
 30
0.0
 10
7.8645941429
 20
10.1668230437
 30
0.0
 10
7.8629359227
 20
10.1702557025
 30
0.0
 10
7.8620937428
 20
10.1715834243
 30
0.0
 10
7.8616608543
 20
10.1721344035
 30
0.0
  0
SPLINE
  5
4F1
100
AcDbEntity
  8
0
100
AcDbSpline
 62
9
  6
CONTINUOUS
 70
0
 71
3
 72
11
 73
7
 74
0
 42
0.0000001
 43
0.0000001
 44
0.0000000001
 40
0.0
 40
0.0
 40
0.0
 40
0.0
 40
0.2496223555
 40
0.499761144
 40
0.750039686
 40
1.0
 40
1.0
 40
1.0
 40
1.0
 10
7.8267441098
 20
10.216576334
 30
0.0
 10
7.8266758248
 20
10.205550857
 30
0.0
 10
7.8221099662
 20
10.1832665239
 30
0.0
 10
7.8030715812
 20
10.1551529875
 30
0.0
 10
7.7747999992
 20
10.1363261304
 30
0.0
 10
7.7524674063
 20
10.1319093905
 30
0.0
 10
7.7414267904
 20
10.1319093905
 30
0.0
  0
SPLINE
  5
4F2
100
AcDbEntity
  8
0
100
AcDbSpline
 62
9
  6
CONTINUOUS
 70
0
 71
3
 72
18
 73
14
 74
0
 42
0.0000001
 43
0.0000001
 44
0.0000000001
 40
0.0
 40
0.0
 40
0.0
 40
0.0
 40
0.0138259625
 40
0.0357609393
 40
0.0658748499
 40
0.1040241652
 40
0.1499557794
 40
0.2031953053
 40
0.3294425643
 40
0.4781894479
 40
0.6439073505
 40
0.8204294483
 40
1.0
 40
1.0
 40
1.0
 40
1.0
 10
7.7414267904
 20
10.1319093905
 30
0.0
 10
7.7411631338
 20
10.1322449718
 30
0.0
 10
7.7407352034
 20
10.1332876072
 30
0.0
 10
7.7401994858
 20
10.1352402302
 30
0.0
 10
7.7396714718
 20
10.1379804819
 30
0.0
 10
7.7391549926
 20
10.1414660246
 30
0.0
 10
7.7386637246
 20
10.1456773228
 30
0.0
 10
7.7380088529
 20
10.1526045205
 30
0.0
 10
7.737317466
 20
10.1627142107
 30
0.0
 10
7.7366879663
 20
10.1763036973
 30
0.0
 10
7.7362473488
 20
10.1914533217
 30
0.0
 10
7.7360193926
 20
10.2075589326
 30
0.0
 10
7.73601077
 20
10.2185508546
 30
0.0
 10
7.7360450981
 20
10.2240935594
 30
0.0
  0
SPLINE
  5
4F3
100
AcDbEntity
  8
0
100
AcDbSpline
 62
9
  6
CONTINUOUS
 70
0
 71
3
 72
9
 73
5
 74
0
 42
0.0000001
 43
0.0000001
 44
0.0000000001
 40
0.0
 40
0.0
 40
0.0
 40
0.0
 40
0.5329472925
 40
1.0
 40
1.0
 40
1.0
 40
1.0
 10
7.7360450981
 20
10.2240935594
 30
0.0
 10
7.7470128993
 20
10.2240935594
 30
0.0
 10
7.7675928185
 20
10.2237473707
 30
0.0
 10
7.7881537327
 20
10.2226857221
 30
0.0
 10
7.7977326111
 20
10.221891815
 30
0.0
  0
SPLINE
  5
4F4
100
AcDbEntity
  8
0
100
AcDbSpline
 62
9
  6
CONTINUOUS
 70
0
 71
3
 72
14
 73
10
 74
0
 42
0.0000001
 43
0.0000001
 44
0.0000000001
 40
0.0
 40
0.0
 40
0.0
 40
0.0
 40
0.3866055798
 40
0.5487934916
 40
0.6880984403
 40
0.8031549266
 40
0.893355442
 40
0.9585944627
 40
1.0
 40
1.0
 40
1.0
 40
1.0
 10
7.7977326111
 20
10.221891815
 30
0.0
 10
7.8015493106
 20
10.2215754831
 30
0.0
 10
7.8069629231
 20
10.2210571412
 30
0.0
 10
7.8137221773
 20
10.2201748392
 30
0.0
 10
7.8177983995
 20
10.2195214293
 30
0.0
 10
7.8211421276
 20
10.2188439109
 30
0.0
 10
7.8237412284
 20
10.2181519973
 30
0.0
 10
7.8255538306
 20
10.2174668108
 30
0.0
 10
7.826490706
 20
10.2168988656
 30
0.0
 10
7.8267441098
 20
10.216576334
 30
0.0
  0
SPLINE
  5
4F5
100
AcDbEntity
  8
0
100
AcDbSpline
 62
9
  6
CONTINUOUS
 70
0
 71
3
 72
41
 73
37
 74
0
 42
0.0000001
 43
0.0000001
 44
0.0000000001
 40
0.0
 40
0.0
 40
0.0
 40
0.0
 40
0.0490053889
 40
0.0751467845
 40
0.102465424
 40
0.1606422131
 40
0.2233424475
 40
0.2562104267
 40
0.2899530597
 40
0.3244500991
 40
0.3595435629
 40
0.3950533498
 40
0.4128819148
 40
0.4306931533
 40
0.4484164766
 40
0.4659361961
 40
0.4746314318
 40
0.4832258779
 40
0.4999995792
 40
0.5167733309
 40
0.5253678205
 40
0.5340630928
 40
0.5515828296
 40
0.5693061657
 40
0.5871175228
 40
0.604946201
 40
0.6404558268
 40
0.6755492355
 40
0.7100464214
 40
0.7437892259
 40
0.7766572466
 40
0.8393570638
 40
0.8975334733
 40
0.9248518495
 40
0.9509931332
 40
1.0
 40
1.0
 40
1.0
 40
1.0
 10
6.6239849553
 20
10.0240542486
 30
0.0
 10
6.6034779628
 20
10.0240535828
 30
0.0
 10
6.5719716793
 20
10.0201533045
 30
0.0
 10
6.5304777918
 20
10.0092881739
 30
0.0
 10
6.4862997875
 20
9.9939506674
 30
0.0
 10
6.4299633855
 20
9.967662191
 30
0.0
 10
6.3745632486
 20
9.934798723
 30
0.0
 10
6.3296838779
 20
9.9045500807
 30
0.0
 10
6.2954818217
 20
9.8796277514
 30
0.0
 10
6.2614252216
 20
9.852966999
 30
0.0
 10
6.2278704898
 20
9.8245190593
 30
0.0
 10
6.2007059083
 20
9.7993586656
 30
0.0
 10
6.1799177691
 20
9.7780330503
 30
0.0
 10
6.1650672577
 20
9.7613448824
 30
0.0
 10
6.1512611429
 20
9.7439342496
 30
0.0
 10
6.1414117759
 20
9.7283347107
 30
0.0
 10
6.1351742428
 20
9.7151463931
 30
0.0
 10
6.1303512377
 20
9.7017229011
 30
0.0
 10
6.1273528215
 20
9.6840549264
 30
0.0
 10
6.1303512093
 20
9.6663869375
 30
0.0
 10
6.1351741159
 20
9.6529633547
 30
0.0
 10
6.1414114833
 20
9.639774917
 30
0.0
 10
6.151260508
 20
9.6241751331
 30
0.0
 10
6.165066416
 20
9.6067642402
 30
0.0
 10
6.1799171683
 20
9.5900761415
 30
0.0
 10
6.2007055853
 20
9.5687507647
 30
0.0
 10
6.2278697557
 20
9.5435900049
 30
0.0
 10
6.2614245004
 20
9.5151421054
 30
0.0
 10
6.2954813316
 20
9.4884814743
 30
0.0
 10
6.329683502
 20
9.4635590503
 30
0.0
 10
6.3745627134
 20
9.4333103247
 30
0.0
 10
6.4299625773
 20
9.4004470045
 30
0.0
 10
6.4862985442
 20
9.3741586756
 30
0.0
 10
6.5304761502
 20
9.3588209998
 30
0.0
 10
6.5719704379
 20
9.3479555344
 30
0.0
 10
6.6034773112
 20
9.3440553209
 30
0.0
 10
6.6239849221
 20
9.3440545804
 30
0.0
  0
SPLINE
  5
4F6
100
AcDbEntity
  8
0
100
AcDbSpline
 62
7
  6
CONTINUOUS
 70
0
 71
3
 72
11
 73
7
 74
0
 42
0.0000001
 43
0.0000001
 44
0.0000000001
 40
0.0
 40
0.0
 40
0.0
 40
0.0
 40
0.1417661883
 40
0.3443945768
 40
0.6234202406
 40
1.0
 40
1.0
 40
1.0
 40
1.0
 10
7.8444046097
 20
10.1340555814
 30
0.0
 10
7.8431383647
 20
10.1340555814
 30
0.0
 10
7.8400958517
 20
10.1332662256
 30
0.0
 10
7.8350658573
 20
10.1308967779
 30
0.0
 10
7.8283717814
 20
10.1271450248
 30
0.0
 10
7.8232347923
 20
10.1243374697
 30
0.0
 10
7.8202519768
 20
10.122782961
 30
0.0
  0
SPLINE
  5
4F7
100
AcDbEntity
  8
0
100
AcDbSpline
 62
7
  6
CONTINUOUS
 70
0
 71
3
 72
9
 73
5
 74
0
 42
0.0000001
 43
0.0000001
 44
0.0000000001
 40
0.0
 40
0.0
 40
0.0
 40
0.0
 40
0.4428789513
 40
1.0
 40
1.0
 40
1.0
 40
1.0
 10
7.8202519768
 20
10.122782961
 30
0.0
 10
7.8170842652
 20
10.1211320928
 30
0.0
 10
7.8098423083
 20
10.1175680205
 30
0.0
 10
7.802297087
 20
10.1146712551
 30
0.0
 10
7.7980318028
 20
10.1132573973
 30
0.0
  0
SPLINE
  5
4F8
100
AcDbEntity
  8
0
100
AcDbSpline
 62
9
  6
CONTINUOUS
 70
0
 71
3
 72
13
 73
9
 74
0
 42
0.0000001
 43
0.0000001
 44
0.0000000001
 40
0.0
 40
0.0
 40
0.0
 40
0.0
 40
0.2353865454
 40
0.3590299953
 40
0.4856575998
 40
0.6142216832
 40
0.7435488859
 40
1.0
 40
1.0
 40
1.0
 40
1.0
 10
9.3861339736
 20
8.973039883
 30
0.0
 10
9.3840654235
 20
8.9881140557
 30
0.0
 10
9.379129351
 20
9.0109062387
 30
0.0
 10
9.3691301513
 20
9.040686072
 30
0.0
 10
9.3595262439
 20
9.0632415088
 30
0.0
 10
9.3480213362
 20
9.085304686
 30
0.0
 10
9.3303515958
 20
9.1134957765
 30
0.0
 10
9.3144567216
 20
9.1329174756
 30
0.0
 10
9.3028841982
 20
9.1447865756
 30
0.0
  0
SPLINE
  5
4F9
100
AcDbEntity
  8
0
100
AcDbSpline
 62
7
  6
CONTINUOUS
 70
0
 71
3
 72
10
 73
6
 74
0
 42
0.0000001
 43
0.0000001
 44
0.0000000001
 40
0.0
 40
0.0
 40
0.0
 40
0.0
 40
0.2963256919
 40
0.626726843
 40
1.0
 40
1.0
 40
1.0
 40
1.0
 10
7.7980318028
 20
9.2548513552
 30
0.0
 10
7.7946769273
 20
9.2559634304
 30
0.0
 10
7.7875449541
 20
9.2582083111
 30
0.0
 10
7.776021362
 20
9.2613036146
 30
0.0
 10
7.7678230014
 20
9.2631060387
 30
0.0
 10
7.7634870037
 20
9.2641164546
 30
0.0
  0
SPLINE
  5
4FA
100
AcDbEntity
  8
0
100
AcDbSpline
 62
7
  6
CONTINUOUS
 70
0
 71
3
 72
10
 73
6
 74
0
 42
0.0000001
 43
0.0000001
 44
0.0000000001
 40
0.0
 40
0.0
 40
0.0
 40
0.0
 40
0.373272779
 40
0.7036768997
 40
1.0
 40
1.0
 40
1.0
 40
1.0
 10
7.7634870042
 20
10.1039922976
 30
0.0
 10
7.7678229974
 20
10.1050027125
 30
0.0
 10
7.7760213888
 20
10.1068051407
 30
0.0
 10
7.7875449781
 20
10.1099004541
 30
0.0
 10
7.7946769567
 20
10.1121453318
 30
0.0
 10
7.7980318028
 20
10.1132573973
 30
0.0
  0
SPLINE
  5
4FB
100
AcDbEntity
  8
0
100
AcDbSpline
 62
7
  6
CONTINUOUS
 70
0
 71
3
 72
11
 73
7
 74
0
 42
0.0000001
 43
0.0000001
 44
0.0000000001
 40
0.0
 40
0.0
 40
0.0
 40
0.0
 40
0.3498391219
 40
0.6234349087
 40
0.8364050683
 40
1.0
 40
1.0
 40
1.0
 40
1.0
 10
7.7980318028
 20
9.2548513552
 30
0.0
 10
7.8025644746
 20
9.2533488636
 30
0.0
 10
7.8105176778
 20
9.2502657377
 30
0.0
 10
7.8207294277
 20
9.2451445922
 30
0.0
 10
7.8285127409
 20
9.2408821098
 30
0.0
 10
7.8329982449
 20
9.23836987
 30
0.0
 10
7.8349804786
 20
9.2373416917
 30
0.0
  0
SPLINE
  5
4FC
100
AcDbEntity
  8
0
100
AcDbSpline
 62
7
  6
CONTINUOUS
 70
0
 71
3
 72
9
 73
5
 74
0
 42
0.0000001
 43
0.0000001
 44
0.0000000001
 40
0.0
 40
0.0
 40
0.0
 40
0.0
 40
0.5932771975
 40
1.0
 40
1.0
 40
1.0
 40
1.0
 10
7.8349804786
 20
9.2373416917
 30
0.0
 10
7.8367429483
 20
9.2364275043
 30
0.0
 10
7.8397399318
 20
9.2349643082
 30
0.0
 10
7.8430434277
 20
9.2340531803
 30
0.0
 10
7.8444045629
 20
9.234053171
 30
0.0
  0
SPLINE
  5
4FD
100
AcDbEntity
  8
0
100
AcDbSpline
 62
9
  6
CONTINUOUS
 70
0
 71
3
 72
11
 73
7
 74
0
 42
0.0000001
 43
0.0000001
 44
0.0000000001
 40
0.0
 40
0.0
 40
0.0
 40
0.0
 40
0.249960314
 40
0.500238856
 40
0.7503776445
 40
1.0
 40
1.0
 40
1.0
 40
1.0
 10
7.7414267904
 20
9.236199362
 30
0.0
 10
7.7524674063
 20
9.236199362
 30
0.0
 10
7.7747999992
 20
9.2317826221
 30
0.0
 10
7.8030715812
 20
9.212955765
 30
0.0
 10
7.8221099662
 20
9.1848422286
 30
0.0
 10
7.8266758248
 20
9.1625578955
 30
0.0
 10
7.8267441098
 20
9.1515324185
 30
0.0
  0
SPLINE
  5
4FE
100
AcDbEntity
  8
0
100
AcDbSpline
 62
9
  6
CONTINUOUS
 70
0
 71
3
 72
14
 73
10
 74
0
 42
0.0000001
 43
0.0000001
 44
0.0000000001
 40
0.0
 40
0.0
 40
0.0
 40
0.0
 40
0.0414055373
 40
0.106644558
 40
0.1968450734
 40
0.3119015597
 40
0.4512065084
 40
0.6133944202
 40
1.0
 40
1.0
 40
1.0
 40
1.0
 10
7.8267441098
 20
9.1515324185
 30
0.0
 10
7.826490706
 20
9.1512098869
 30
0.0
 10
7.8255538306
 20
9.1506419417
 30
0.0
 10
7.8237412284
 20
9.1499567552
 30
0.0
 10
7.8211421276
 20
9.1492648416
 30
0.0
 10
7.8177983995
 20
9.1485873232
 30
0.0
 10
7.8137221773
 20
9.1479339133
 30
0.0
 10
7.8069629231
 20
9.1470516112
 30
0.0
 10
7.8015493106
 20
9.1465332694
 30
0.0
 10
7.7977326111
 20
9.1462169375
 30
0.0
  0
SPLINE
  5
4FF
100
AcDbEntity
  8
0
100
AcDbSpline
 62
9
  6
CONTINUOUS
 70
0
 71
3
 72
9
 73
5
 74
0
 42
0.0000001
 43
0.0000001
 44
0.0000000001
 40
0.0
 40
0.0
 40
0.0
 40
0.0
 40
0.4670527075
 40
1.0
 40
1.0
 40
1.0
 40
1.0
 10
7.7977326111
 20
9.1462169375
 30
0.0
 10
7.7881537327
 20
9.1454230304
 30
0.0
 10
7.7675928185
 20
9.1443613818
 30
0.0
 10
7.7470128993
 20
9.1440151931
 30
0.0
 10
7.7360450981
 20
9.1440151931
 30
0.0
  0
SPLINE
  5
500
100
AcDbEntity
  8
0
100
AcDbSpline
 62
9
  6
CONTINUOUS
 70
0
 71
3
 72
18
 73
14
 74
0
 42
0.0000001
 43
0.0000001
 44
0.0000000001
 40
0.0
 40
0.0
 40
0.0
 40
0.0
 40
0.1795705517
 40
0.3560926495
 40
0.5218105521
 40
0.6705574357
 40
0.7968046947
 40
0.8500442206
 40
0.8959758348
 40
0.9341251501
 40
0.9642390607
 40
0.9861740375
 40
1.0
 40
1.0
 40
1.0
 40
1.0
 10
7.7360450981
 20
9.1440151931
 30
0.0
 10
7.73601077
 20
9.1495578979
 30
0.0
 10
7.7360193926
 20
9.1605498198
 30
0.0
 10
7.7362473488
 20
9.1766554308
 30
0.0
 10
7.7366879663
 20
9.1918050552
 30
0.0
 10
7.737317466
 20
9.2053945418
 30
0.0
 10
7.7380088529
 20
9.215504232
 30
0.0
 10
7.7386637246
 20
9.2224314297
 30
0.0
 10
7.7391549926
 20
9.2266427279
 30
0.0
 10
7.7396714718
 20
9.2301282705
 30
0.0
 10
7.7401994858
 20
9.2328685223
 30
0.0
 10
7.7407352034
 20
9.2348211453
 30
0.0
 10
7.7411631338
 20
9.2358637806
 30
0.0
 10
7.7414267904
 20
9.236199362
 30
0.0
  0
SPLINE
  5
501
100
AcDbEntity
  8
0
100
AcDbSpline
 62
9
  6
CONTINUOUS
 70
0
 71
3
 72
9
 73
5
 74
0
 42
0.0000001
 43
0.0000001
 44
0.0000000001
 40
0.0
 40
0.0
 40
0.0
 40
0.0
 40
0.5329472925
 40
1.0
 40
1.0
 40
1.0
 40
1.0
 10
7.7361684805
 20
9.1240935594
 30
0.0
 10
7.7471362817
 20
9.1240935594
 30
0.0
 10
7.7677162009
 20
9.124439748
 30
0.0
 10
7.7882771151
 20
9.1255013966
 30
0.0
 10
7.7978559935
 20
9.1262953037
 30
0.0
  0
SPLINE
  5
502
100
AcDbEntity
  8
0
100
AcDbSpline
 62
9
  6
CONTINUOUS
 70
0
 71
3
 72
14
 73
10
 74
0
 42
0.0000001
 43
0.0000001
 44
0.0000000001
 40
0.0
 40
0.0
 40
0.0
 40
0.0
 40
0.3866055798
 40
0.5487934916
 40
0.6880984403
 40
0.8031549266
 40
0.893355442
 40
0.9585944627
 40
1.0
 40
1.0
 40
1.0
 40
1.0
 10
7.7978559935
 20
9.1262953037
 30
0.0
 10
7.8016726929
 20
9.1266116356
 30
0.0
 10
7.8070863054
 20
9.1271299775
 30
0.0
 10
7.8138455596
 20
9.1280122795
 30
0.0
 10
7.8179217819
 20
9.1286656894
 30
0.0
 10
7.82126551
 20
9.1293432078
 30
0.0
 10
7.8238646108
 20
9.1300351215
 30
0.0
 10
7.825677213
 20
9.1307203079
 30
0.0
 10
7.8266140884
 20
9.1312882531
 30
0.0
 10
7.8268674922
 20
9.1316107847
 30
0.0
  0
SPLINE
  5
503
100
AcDbEntity
  8
0
100
AcDbSpline
 62
9
  6
CONTINUOUS
 70
0
 71
3
 72
15
 73
11
 74
0
 42
0.0000001
 43
0.0000001
 44
0.0000000001
 40
0.0
 40
0.0
 40
0.0
 40
0.0
 40
0.0344721224
 40
0.0592055747
 40
0.0902781967
 40
0.1729222868
 40
0.2839766833
 40
0.42334827
 40
0.5899896194
 40
1.0
 40
1.0
 40
1.0
 40
1.0
 10
7.5872503614
 20
9.13108438
 30
0.0
 10
7.5872546995
 20
9.1308336248
 30
0.0
 10
7.5875311523
 20
9.1304323967
 30
0.0
 10
7.588056415
 20
9.1300527454
 30
0.0
 10
7.5889488663
 20
9.1295713201
 30
0.0
 10
7.5904938771
 20
9.1290242484
 30
0.0
 10
7.5928419514
 20
9.1284187388
 30
0.0
 10
7.5958212464
 20
9.1278371843
 30
0.0
 10
7.6009694403
 20
9.127037213
 30
0.0
 10
7.6051417084
 20
9.126578268
 30
0.0
 10
7.6081111782
 20
9.1262953037
 30
0.0
  0
SPLINE
  5
504
100
AcDbEntity
  8
0
100
AcDbSpline
 62
9
  6
CONTINUOUS
 70
0
 71
3
 72
9
 73
5
 74
0
 42
0.0000001
 43
0.0000001
 44
0.0000000001
 40
0.0
 40
0.0
 40
0.0
 40
0.0
 40
0.4621236854
 40
1.0
 40
1.0
 40
1.0
 40
1.0
 10
7.6081111782
 20
9.1262953037
 30
0.0
 10
7.6121413763
 20
9.1259112613
 30
0.0
 10
7.6208797812
 20
9.1252631581
 30
0.0
 10
7.6296309802
 20
9.124843544
 30
0.0
 10
7.6343397146
 20
9.1246657741
 30
0.0
  0
SPLINE
  5
505
100
AcDbEntity
  8
0
100
AcDbSpline
 62
7
  6
CONTINUOUS
 70
0
 71
3
 72
12
 73
8
 74
0
 42
0.0000001
 43
0.0000001
 44
0.0000000001
 40
0.0
 40
0.0
 40
0.0
 40
0.0
 40
0.311080221
 40
0.5900659276
 40
0.8239470824
 40
0.919835842
 40
1.0
 40
1.0
 40
1.0
 40
1.0
 10
7.7634870063
 20
9.2641165488
 30
0.0
 10
7.7602301092
 20
9.2648708253
 30
0.0
 10
7.754063099
 20
9.266352159
 30
0.0
 10
7.7455201726
 20
9.268681491
 30
0.0
 10
7.7392971474
 20
9.2707319442
 30
0.0
 10
7.7352506813
 20
9.2724799725
 30
0.0
 10
7.7335815274
 20
9.2733821595
 30
0.0
 10
7.7328584914
 20
9.273850569
 30
0.0
  0
SPLINE
  5
506
100
AcDbEntity
  8
0
100
AcDbSpline
 62
7
  6
CONTINUOUS
 70
0
 71
3
 72
12
 73
8
 74
0
 42
0.0000001
 43
0.0000001
 44
0.0000000001
 40
0.0
 40
0.0
 40
0.0
 40
0.0
 40
0.0757407213
 40
0.1686053242
 40
0.4007851613
 40
0.682817995
 40
1.0
 40
1.0
 40
1.0
 40
1.0
 10
7.7321267928
 20
10.0937507367
 30
0.0
 10
7.732796635
 20
10.0942516051
 30
0.0
 10
7.734402453
 20
10.0952107004
 30
0.0
 10
7.7384255015
 20
10.0970626898
 30
0.0
 10
7.744789266
 20
10.0992150361
 30
0.0
 10
7.7536395256
 20
10.1016545263
 30
0.0
 10
7.7600747164
 20
10.10320195
 30
0.0
 10
7.7634870069
 20
10.1039922034
 30
0.0
  0
SPLINE
  5
507
100
AcDbEntity
  8
0
100
AcDbSpline
 62
9
  6
CONTINUOUS
 70
0
 71
3
 72
18
 73
14
 74
0
 42
0.0000001
 43
0.0000001
 44
0.0000000001
 40
0.0
 40
0.0
 40
0.0
 40
0.0
 40
0.1973707156
 40
0.3856028356
 40
0.5571497882
 40
0.7063212764
 40
0.8282305686
 40
0.9190593206
 40
0.9518527598
 40
0.9759222218
 40
0.9847508423
 40
0.9915420409
 40
1.0
 40
1.0
 40
1.0
 40
1.0
 10
7.666338997
 20
9.1240935594
 30
0.0
 10
7.6663708526
 20
9.1189500636
 30
0.0
 10
7.666498446
 20
9.1089015163
 30
0.0
 10
7.6668772674
 20
9.0943862809
 30
0.0
 10
7.6674347218
 20
9.0811339278
 30
0.0
 10
7.668139308
 20
9.0696190345
 30
0.0
 10
7.6689745017
 20
9.0602237371
 30
0.0
 10
7.6697825476
 20
9.0538722837
 30
0.0
 10
7.670539428
 20
9.0500943423
 30
0.0
 10
7.6709898698
 20
9.0484442171
 30
0.0
 10
7.6713927871
 20
9.0474799921
 30
0.0
 10
7.6716875318
 20
9.0469472124
 30
0.0
 10
7.6720246687
 20
9.0466192255
 30
0.0
 10
7.6722450648
 20
9.0466160257
 30
0.0
  0
SPLINE
  5
508
100
AcDbEntity
  8
0
100
AcDbSpline
 62
9
  6
CONTINUOUS
 70
0
 71
3
 72
14
 73
10
 74
0
 42
0.0000001
 43
0.0000001
 44
0.0000000001
 40
0.0
 40
0.0
 40
0.0
 40
0.0
 40
0.0419677479
 40
0.1085498449
 40
0.199958527
 40
0.3157581214
 40
0.455180343
 40
0.6167852223
 40
1.0
 40
1.0
 40
1.0
 40
1.0
 10
7.6715973069
 20
9.236199362
 30
0.0
 10
7.6713336503
 20
9.2358637806
 30
0.0
 10
7.6709057199
 20
9.2348211453
 30
0.0
 10
7.6703700022
 20
9.2328685224
 30
0.0
 10
7.6698419888
 20
9.2301282703
 30
0.0
 10
7.6693255063
 20
9.2266427291
 30
0.0
 10
7.6688342544
 20
9.2224314235
 30
0.0
 10
7.6681792771
 20
9.215504275
 30
0.0
 10
7.6678017848
 20
9.2099757626
 30
0.0
 10
7.6675746725
 20
9.2060855074
 30
0.0
  0
SPLINE
  5
509
100
AcDbEntity
  8
0
100
AcDbSpline
 62
9
  6
CONTINUOUS
 70
0
 71
3
 72
9
 73
5
 74
0
 42
0.0000001
 43
0.0000001
 44
0.0000000001
 40
0.0
 40
0.0
 40
0.0
 40
0.0
 40
0.4689562967
 40
1.0
 40
1.0
 40
1.0
 40
1.0
 10
7.6675746725
 20
9.2060855074
 30
0.0
 10
7.6670089891
 20
9.1963957945
 30
0.0
 10
7.6662961968
 20
9.1757053154
 30
0.0
 10
7.6661475428
 20
9.1550062459
 30
0.0
 10
7.6662156146
 20
9.1440151931
 30
0.0
  0
SPLINE
  5
50A
100
AcDbEntity
  8
0
100
AcDbSpline
 62
9
  6
CONTINUOUS
 70
0
 71
3
 72
9
 73
5
 74
0
 42
0.0000001
 43
0.0000001
 44
0.0000000001
 40
0.0
 40
0.0
 40
0.0
 40
0.0
 40
0.257757369
 40
1.0
 40
1.0
 40
1.0
 40
1.0
 10
7.6662156146
 20
9.1440151931
 30
0.0
 10
7.6634657382
 20
9.1440151931
 30
0.0
 10
7.6527973959
 20
9.1440629586
 30
0.0
 10
7.6421292871
 20
9.1442886683
 30
0.0
 10
7.6342163323
 20
9.1445874078
 30
0.0
  0
SPLINE
  5
50B
100
AcDbEntity
  8
0
100
AcDbSpline
 62
9
  6
CONTINUOUS
 70
0
 71
3
 72
12
 73
8
 74
0
 42
0.0000001
 43
0.0000001
 44
0.0000000001
 40
0.0
 40
0.0
 40
0.0
 40
0.0
 40
0.3292223441
 40
0.6120781584
 40
0.8382308927
 40
0.9275832418
 40
1.0
 40
1.0
 40
1.0
 40
1.0
 10
7.6342163323
 20
9.1445874078
 30
0.0
 10
7.6295075978
 20
9.1447651777
 30
0.0
 10
7.6207558851
 20
9.1451837774
 30
0.0
 10
7.6087906968
 20
9.1460751203
 30
0.0
 10
7.6002742286
 20
9.1470217282
 30
0.0
 10
7.5947936312
 20
9.1479163811
 30
0.0
 10
7.5925267396
 20
9.1483969851
 30
0.0
 10
7.5915230622
 20
9.1486557009
 30
0.0
  0
SPLINE
  5
50C
100
AcDbEntity
  8
0
100
AcDbSpline
 62
9
  6
CONTINUOUS
 70
0
 71
3
 72
12
 73
8
 74
0
 42
0.0000001
 43
0.0000001
 44
0.0000000001
 40
0.0
 40
0.0
 40
0.0
 40
0.0
 40
0.3849315481
 40
0.6732215353
 40
0.7828494013
 40
0.8714204012
 40
1.0
 40
1.0
 40
1.0
 40
1.0
 10
7.5915230622
 20
9.1486557009
 30
0.0
 10
7.5908803066
 20
9.1488213827
 30
0.0
 10
7.5897643281
 20
9.1491443062
 30
0.0
 10
7.5885051552
 20
9.149642941
 30
0.0
 10
7.5877813257
 20
9.1500766608
 30
0.0
 10
7.5873466352
 20
9.1504273278
 30
0.0
 10
7.5871308142
 20
9.1507843276
 30
0.0
 10
7.5871269791
 20
9.1510060137
 30
0.0
  0
SPLINE
  5
50D
100
AcDbEntity
  8
0
100
AcDbSpline
 62
9
  6
CONTINUOUS
 70
0
 71
3
 72
9
 73
5
 74
0
 42
0.0000001
 43
0.0000001
 44
0.0000000001
 40
0.0
 40
0.0
 40
0.0
 40
0.0
 40
0.4401367119
 40
1.0
 40
1.0
 40
1.0
 40
1.0
 10
7.7065140514
 20
10.08746746
 30
0.0
 10
7.7069425881
 20
10.0869220198
 30
0.0
 10
7.7077672581
 20
10.085568063
 30
0.0
 10
7.7084167526
 20
10.0841304799
 30
0.0
 10
7.708750906
 20
10.0833138658
 30
0.0
  0
SPLINE
  5
50E
100
AcDbEntity
  8
0
100
AcDbSpline
 62
9
  6
CONTINUOUS
 70
0
 71
3
 72
9
 73
5
 74
0
 42
0.0000001
 43
0.0000001
 44
0.0000000001
 40
0.0
 40
0.0
 40
0.0
 40
0.0
 40
0.5598632881
 40
1.0
 40
1.0
 40
1.0
 40
1.0
 10
7.708750906
 20
9.2847948867
 30
0.0
 10
7.7084167526
 20
9.2839782726
 30
0.0
 10
7.7077672581
 20
9.2825406895
 30
0.0
 10
7.7069425881
 20
9.2811867327
 30
0.0
 10
7.7065140514
 20
9.2806412925
 30
0.0
  0
SPLINE
  5
50F
100
AcDbEntity
  8
0
100
AcDbSpline
 62
9
  6
CONTINUOUS
 70
0
 71
3
 72
9
 73
5
 74
0
 42
0.0000001
 43
0.0000001
 44
0.0000000001
 40
0.0
 40
0.0
 40
0.0
 40
0.0
 40
0.5310437033
 40
1.0
 40
1.0
 40
1.0
 40
1.0
 10
7.6662156146
 20
10.2240935594
 30
0.0
 10
7.6661475428
 20
10.2131025066
 30
0.0
 10
7.6662961968
 20
10.1924034371
 30
0.0
 10
7.6670089891
 20
10.171712958
 30
0.0
 10
7.6675746725
 20
10.1620232451
 30
0.0
  0
SPLINE
  5
510
100
AcDbEntity
  8
0
100
AcDbSpline
 62
9
  6
CONTINUOUS
 70
0
 71
3
 72
14
 73
10
 74
0
 42
0.0000001
 43
0.0000001
 44
0.0000000001
 40
0.0
 40
0.0
 40
0.0
 40
0.0
 40
0.3832147777
 40
0.544819657
 40
0.6842418786
 40
0.800041473
 40
0.891450155
 40
0.9580322521
 40
1.0
 40
1.0
 40
1.0
 40
1.0
 10
7.6675746725
 20
10.1620232451
 30
0.0
 10
7.6678017848
 20
10.1581329899
 30
0.0
 10
7.6681792771
 20
10.1526044774
 30
0.0
 10
7.6688342544
 20
10.145677329
 30
0.0
 10
7.6693255063
 20
10.1414660234
 30
0.0
 10
7.6698419888
 20
10.1379804822
 30
0.0
 10
7.6703700022
 20
10.1352402301
 30
0.0
 10
7.6709057199
 20
10.1332876072
 30
0.0
 10
7.6713336503
 20
10.1322449718
 30
0.0
 10
7.6715973069
 20
10.1319093905
 30
0.0
  0
SPLINE
  5
511
100
AcDbEntity
  8
0
100
AcDbSpline
 62
9
  6
CONTINUOUS
 70
0
 71
3
 72
10
 73
6
 74
0
 42
0.0000001
 43
0.0000001
 44
0.0000000001
 40
0.0
 40
0.0
 40
0.0
 40
0.0
 40
0.2378688028
 40
0.4853036075
 40
1.0
 40
1.0
 40
1.0
 40
1.0
 10
6.4925283289
 20
7.3391733018
 30
0.0
 10
6.4892632787
 20
7.3368268053
 30
0.0
 10
6.4825025363
 20
7.3321742189
 30
0.0
 10
6.4681858761
 20
7.3231902686
 30
0.0
 10
6.4566261594
 20
7.3173465918
 30
0.0
 10
6.4485258196
 20
7.3141723531
 30
0.0
  0
ENDSEC
  0
SECTION
  2
OBJECTS
  0
DICTIONARY
  5
C
100
AcDbDictionary
280
0
281
1
  3
ACAD_GROUP
350
D
  3
ACAD_MLINESTYLE
350
17
  3
ACAD_LAYOUT
350
1A
  3
ACAD_PLOTSETTINGS
350
19
  3
ACAD_PLOTSTYLENAME
350
E
  0
DICTIONARY
  5
D
102
{ACAD_REACTORS
330
C
102
}
100
AcDbDictionary
280
0
281
1
  0
ACDBDICTIONARYWDFLT
  5
E
102
{ACAD_REACTORS
330
C
102
}
100
AcDbDictionary
281
1
  3
Normal
350
F
100
AcDbDictionaryWithDefault
340
F
  0
DICTIONARY
  5
17
102
{ACAD_REACTORS
330
C
102
}
100
AcDbDictionary
280
0
281
1
  3
Standard
350
18
  0
DICTIONARY
  5
19
102
{ACAD_REACTORS
330
C
102
}
100
AcDbDictionary
281
1
  0
DICTIONARY
  5
1A
102
{ACAD_REACTORS
330
C
102
}
100
AcDbDictionary
281
1
  3
Model
350
512
  3
Layout1
350
513
  0
ACDBPLACEHOLDER
  5
F
102
{ACAD_REACTORS
330
E
102
}
  0
MLINESTYLE
  5
18
102
{ACAD_REACTORS
330
17
102
}
100
AcDbMlineStyle
  2
STANDARD
 70
0
  3

 62
256
 51
90.0
 52
90.0
 71
2
 49
0.5
 62
256
  6
BYLAYER
 49
-0.5
 62
256
  6
BYLAYER
  0
LAYOUT
  5
512
102
{ACAD_REACTORS
330
1A
102
}
100
AcDbPlotSettings
  1

  2
none_device
  4
ANSI_C_(22.00_x_17.00_Inches)
  6

 40
0.0
 41
0.0
 42
0.0
 43
0.0
 44
558.8
 45
431.8
 46
0.0
 47
0.0
 48
0.0
 49
0.0
140
0.0
141
0.0
142
1.0
143
1.0
 70
1024
 72
0
 73
0
 74
0
  7

 75
0
147
1.0
148
0.0
149
0.0
100
AcDbLayout
  1
Model
 70
0
 71
0
 10
0.0
 20
0.0
 11
22.0
 21
17.0
 12
0.0
 22
0.0
 32
0.0
 14
0.0
 24
0.0
 34
0.0
 15
0.0
 25
0.0
 35
0.0
146
0.0
 13
0.0
 23
0.0
 33
0.0
 16
1.0
 26
0.0
 36
0.0
 17
0.0
 27
1.0
 37
0.0
 76
0
330
202
345
0
346
0
  0
LAYOUT
  5
513
102
{ACAD_REACTORS
330
1A
102
}
100
AcDbPlotSettings
  1

  2
none_device
  4
ANSI_C_(22.00_x_17.00_Inches)
  6

 40
0.0
 41
0.0
 42
0.0
 43
0.0
 44
558.8
 45
431.8
 46
0.0
 47
0.0
 48
0.0
 49
0.0
140
0.0
141
0.0
142
1.0
143
1.0
 70
0
 72
0
 73
0
 74
0
  7

 75
0
147
1.0
148
0.0
149
0.0
100
AcDbLayout
  1
Layout1
 70
0
 71
1
 10
0.0
 20
0.0
 11
22.0
 21
17.0
 12
0.0
 22
0.0
 32
0.0
 14
0.0
 24
0.0
 34
0.0
 15
0.0
 25
0.0
 35
0.0
146
0.0
 13
0.0
 23
0.0
 33
0.0
 16
1.0
 26
0.0
 36
0.0
 17
0.0
 27
1.0
 37
0.0
 76
0
330
203
345
0
346
0
  0
ENDSEC
  0
EOF
