  0
SECTION
  2
HEADER
  9
$ACADVER
  1
AC1015
  9
$DWGCODEPAGE
  3
ANSI_1252
  9
$EXTMAX
 10
11.0
 20
8.5
 30
0.0
  9
$EXTMIN
 10
0.0
 20
0.0
 30
0.0
  9
$LIMMIN
 10
0.0
 20
0.0
  9
$LIMMAX
 10
11.0
 20
8.5
  9
$VIEWCTR
 10
5.5
 20
4.25
  9
$VIEWSIZE
 40
8.5
  9
$CLAYER
  8
0
  9
$LTSCALE
 40
0.605
  9
$CELTYPE
  6
BYLAYER
  9
$DIMSCALE
 40
1.0
  9
$DIMASZ
 40
0.1
  9
$DIMEXO
 40
0.06875
  9
$DIMDLI
 40
0.418
  9
$DIMEXE
 40
0.198
  9
$DIMCEN
 40
0.099
  9
$DIMLFAC
 40
1.0
  9
$DIMBLK
  1
_FILLED
  9
$DIMTXT
 40
0.08
  9
$DIMTOL
 70
1
  9
$DIMLIM
 70
0
  9
$DIMTFAC
 40
1.0
  9
$DIMTP
 40
0.01
  9
$DIMTM
 40
0.01
  9
$PDMODE
 70
3
  9
$PDSIZE
 40
0.06
  9
$HANDSEED
  5
3BE
  9
$TILEMODE
 70
1
  9
$MEASUREMENT
 70
0
  9
$INSUNITS
 70
1
  0
ENDSEC
  0
SECTION
  2
CLASSES
  0
CLASS
  1
ACDBDICTIONARYWDFLT
  2
AcDbDictionaryWithDefault
  3
AutoCAD 2000
 90
0
280
0
281
0
  0
CLASS
  1
ACDBPLACEHOLDER
  2
AcDbPlaceHolder
  3
AutoCAD 2000
 90
0
280
0
281
0
  0
CLASS
  1
LAYOUT
  2
AcDbLayout
  3
AutoCAD 2000
 90
0
280
0
281
0
  0
ENDSEC
  0
SECTION
  2
TABLES
  0
TABLE
  2
VPORT
  5
8
100
AcDbSymbolTable
 70
2
  0
VPORT
  5
1F4
100
AcDbSymbolTableRecord
100
AcDbViewportTableRecord
  2
*ACTIVE
 70
0
 10
0.0
 20
0.0
 11
1.0
 21
1.0
 12
5.5
 22
4.25
 13
0.0
 23
0.0
 14
1.0
 24
1.0
 15
0.0
 25
0.0
 16
0.0
 26
0.0
 36
1.0
 17
0.0
 27
0.0
 37
0.0
 40
8.5
 41
1.2941176471
 42
50.0
 43
0.0
 44
0.0
 50
0.0
 51
0.0
 71
0
 72
100
 73
1
 74
1
 75
0
 76
0
 77
0
 78
0
  0
ENDTAB
  0
TABLE
  2
LTYPE
  5
5
100
AcDbSymbolTable
 70
6
  0
LTYPE
  5
14
100
AcDbSymbolTableRecord
100
AcDbLinetypeTableRecord
  2
BYBLOCK
 70
0
  3

 72
65
 73
0
 40
0.0
  0
LTYPE
  5
15
100
AcDbSymbolTableRecord
100
AcDbLinetypeTableRecord
  2
BYLAYER
 70
0
  3

 72
65
 73
0
 40
0.0
  0
LTYPE
  5
16
100
AcDbSymbolTableRecord
100
AcDbLinetypeTableRecord
  2
CONTINUOUS
 70
64
  3
Solid line
 72
65
 73
0
 40
0.0
  0
LTYPE
  5
1F5
100
AcDbSymbolTableRecord
100
AcDbLinetypeTableRecord
  2
CENTER
 70
64
  3
____ _ ____ _ ____ _ ____ _ ____ _ ____ _ ____
 72
65
 73
4
 40
0.6
 49
0.375
 74
0
 49
-0.075
 74
0
 49
0.075
 74
0
 49
-0.075
 74
0
  0
LTYPE
  5
1F6
100
AcDbSymbolTableRecord
100
AcDbLinetypeTableRecord
  2
HIDDEN
 70
64
  3
- - - - - - - - - - - - - - - - - - - -
 72
65
 73
2
 40
0.2
 49
0.1
 74
0
 49
-0.1
 74
0
  0
LTYPE
  5
1F7
100
AcDbSymbolTableRecord
100
AcDbLinetypeTableRecord
  2
PHANTOM
 70
64
  3
_____ _ _ _____ _ _ _____ _ _ _____
 72
65
 73
6
 40
0.8
 49
0.45
 74
0
 49
-0.05
 74
0
 49
0.1
 74
0
 49
-0.05
 74
0
 49
0.1
 74
0
 49
-0.05
 74
0
  0
LTYPE
  5
1F8
100
AcDbSymbolTableRecord
100
AcDbLinetypeTableRecord
  2
DOT
 70
64
  3
. . . . . . . . . . . . . . . . . . . .
 72
65
 73
2
 40
0.2
 49
0.1
 74
0
 49
-0.1
 74
0
  0
LTYPE
  5
1F9
100
AcDbSymbolTableRecord
100
AcDbLinetypeTableRecord
  2
DASHED
 70
64
  3
- - - - - - - - - - - - - - - - - - - -
 72
65
 73
2
 40
0.2
 49
0.1
 74
0
 49
-0.1
 74
0
  0
ENDTAB
  0
TABLE
  2
LAYER
  5
2
100
AcDbSymbolTable
 70
36
  0
LAYER
  5
10
100
AcDbSymbolTableRecord
100
AcDbLayerTableRecord
  2
0
 70
0
 62
7
  6
CONTINUOUS
370
-3
390
F
  0
LAYER
  5
1FA
100
AcDbSymbolTableRecord
100
AcDbLayerTableRecord
  2
DEFAULT_1
 70
0
 62
7
  6
CENTER
370
-3
390
F
  0
LAYER
  5
1FB
100
AcDbSymbolTableRecord
100
AcDbLayerTableRecord
  2
DEFAULT_2
 70
0
 62
8
  6
HIDDEN
370
-3
390
F
  0
LAYER
  5
1FC
100
AcDbSymbolTableRecord
100
AcDbLayerTableRecord
  2
DEFAULT_3
 70
0
 62
7
  6
PHANTOM
370
-3
390
F
  0
LAYER
  5
1FD
100
AcDbSymbolTableRecord
100
AcDbLayerTableRecord
  2
DEFAULT_COORDINATE_SYSTEM
 70
0
 62
7
  6
CONTINUOUS
370
-3
390
F
  0
LAYER
  5
1FE
100
AcDbSymbolTableRecord
100
AcDbLayerTableRecord
  2
DEFAULT_DATUM_AXES
 70
0
 62
7
  6
CONTINUOUS
370
-3
390
F
  0
LAYER
  5
1FF
100
AcDbSymbolTableRecord
100
AcDbLayerTableRecord
  2
DEFAULT_DATUM_CURVES
 70
0
 62
7
  6
CONTINUOUS
370
-3
390
F
  0
LAYER
  5
200
100
AcDbSymbolTableRecord
100
AcDbLayerTableRecord
  2
DEFAULT_DATUM_PLANES
 70
0
 62
7
  6
CONTINUOUS
370
-3
390
F
  0
ENDTAB
  0
TABLE
  2
STYLE
  5
3
100
AcDbSymbolTable
 70
1
  0
STYLE
  5
11
100
AcDbSymbolTableRecord
100
AcDbTextStyleTableRecord
  2
STANDARD
 70
0
 40
0.0
 41
0.8
 50
0.0
 71
0
 42
0.2
  3
txt
  4

  0
STYLE
  5
201
100
AcDbSymbolTableRecord
100
AcDbTextStyleTableRecord
  2
TEXTSTYLE_1
 70
0
 40
0.0
 41
0.8
 50
0.0
 71
0
 42
0.2
  3
gdt
  4

  0
ENDTAB
  0
TABLE
  2
VIEW
  5
6
100
AcDbSymbolTable
 70
0
  0
ENDTAB
  0
TABLE
  2
UCS
  5
7
100
AcDbSymbolTable
 70
0
  0
ENDTAB
  0
TABLE
  2
APPID
  5
9
100
AcDbSymbolTable
 70
1
  0
APPID
  5
202
100
AcDbSymbolTableRecord
100
AcDbRegAppTableRecord
  2
ACAD
 70
0
  0
ENDTAB
  0
TABLE
  2
BLOCK_RECORD
  5
1
100
AcDbSymbolTable
 70
0
  0
BLOCK_RECORD
  5
203
100
AcDbSymbolTableRecord
100
AcDbBlockTableRecord
  2
*Model_Space
  0
BLOCK_RECORD
  5
204
100
AcDbSymbolTableRecord
100
AcDbBlockTableRecord
  2
*Paper_Space
  0
ENDTAB
  0
TABLE
  2
DIMSTYLE
  5
A
100
AcDbSymbolTable
 70
1
100
AcDbDimStyleTable
 71
0
  0
DIMSTYLE
105
205
100
AcDbSymbolTableRecord
100
AcDbDimStyleTableRecord
  2
STANDARD
 70
0
  3

  4

 40
1.0
 41
0.1
 42
0.0625
 43
0.38
 44
0.18
 45
0.0
 46
0.0
 47
0.01
 48
0.01
140
0.08
141
0.09
142
0.0
143
25.4
144
1.0
145
0.0
146
1.0
147
0.09
 71
1.0
 72
0.0
 73
1
 74
1
 75
0
 76
0
 77
0
 78
4
170
0
171
2
172
0
173
0
174
0
175
0
176
0
177
0
178
0
270
2
271
2
272
2
273
2
274
2
275
0
280
0
281
0
282
0
283
1
284
4
285
0
286
0
287
3
288
0
340
11
  0
ENDTAB
  0
ENDSEC
  0
SECTION
  2
BLOCKS
  0
BLOCK
  5
20
100
AcDbEntity
  8
0
100
AcDbBlockBegin
  2
*Model_Space
 70
0
 10
0.0
 20
0.0
 30
0.0
  3
*Model_Space
  1

  0
ENDBLK
  5
21
100
AcDbEntity
  8
0
100
AcDbBlockEnd
  0
BLOCK
  5
1C
100
AcDbEntity
  8
0
100
AcDbBlockBegin
  2
*Paper_Space
 70
0
 10
0.0
 20
0.0
 30
0.0
  3
*Paper_Space
  1

  0
ENDBLK
  5
1D
100
AcDbEntity
  8
0
100
AcDbBlockEnd
  0
ENDSEC
  0
SECTION
  2
ENTITIES
  0
LINE
  5
206
100
AcDbEntity
  8
0
100
AcDbLine
 62
6
  6
CONTINUOUS
 10
5.2212021093
 20
7.0653093515
 11
5.1848508399
 21
7.0442956051
  0
LINE
  5
207
100
AcDbEntity
  8
0
100
AcDbLine
 62
6
  6
CONTINUOUS
 10
5.2193883473
 20
6.993875191
 11
5.1848488946
 21
6.9739090361
  0
LINE
  5
208
100
AcDbEntity
  8
0
100
AcDbLine
 62
6
  6
CONTINUOUS
 10
5.2176886986
 20
6.922441361
 11
5.1848470418
 21
6.9034568485
  0
LINE
  5
209
100
AcDbEntity
  8
0
100
AcDbLine
 62
6
  6
CONTINUOUS
 10
5.2156001141
 20
6.8510104795
 11
5.184850833
 21
6.8332354323
  0
LINE
  5
20A
100
AcDbEntity
  8
0
100
AcDbLine
 62
6
  6
CONTINUOUS
 10
5.2137645696
 20
6.7795763678
 11
5.1848488576
 21
6.7628614282
  0
LINE
  5
20B
100
AcDbEntity
  8
0
100
AcDbLine
 62
6
  6
CONTINUOUS
 10
5.2120315086
 20
6.7081414082
 11
5.1848451484
 21
6.6924263745
  0
LINE
  5
20C
100
AcDbEntity
  8
0
100
AcDbLine
 62
6
  6
CONTINUOUS
 10
5.2212021093
 20
7.0653093515
 11
5.2206791498
 21
7.0647048073
  0
LINE
  5
20D
100
AcDbEntity
  8
0
100
AcDbLine
 62
6
  6
CONTINUOUS
 10
5.1848508399
 20
7.0442956063
 11
5.1843872218
 21
7.0437627553
  0
LINE
  5
20E
100
AcDbEntity
  8
0
100
AcDbLine
 62
6
  6
CONTINUOUS
 10
5.224387207
 20
7.1316800914
 11
5.1918973234
 21
7.0991902078
  0
LINE
  5
20F
100
AcDbEntity
  8
0
100
AcDbLine
 62
6
  6
CONTINUOUS
 10
5.959140421
 20
7.1176711757
 11
5.9662516966
 21
7.1217828083
  0
LINE
  5
210
100
AcDbEntity
  8
0
100
AcDbLine
 62
6
  6
CONTINUOUS
 10
5.2099969002
 20
6.6367117348
 11
5.1848506181
 21
6.6221758502
  0
LINE
  5
211
100
AcDbEntity
  8
0
100
AcDbLine
 62
6
  6
CONTINUOUS
 10
5.9609419789
 20
7.0462459725
 11
5.9963966732
 21
7.0667428577
  0
LINE
  5
212
100
AcDbEntity
  8
0
100
AcDbLine
 62
6
  6
CONTINUOUS
 10
5.2081407649
 20
6.5652778182
 11
5.1917058287
 21
6.5557774571
  0
LINE
  5
213
100
AcDbEntity
  8
0
100
AcDbLine
 62
6
  6
CONTINUOUS
 10
5.9628492381
 20
6.974818747
 11
5.9963961164
 21
6.9942125933
  0
LINE
  5
214
100
AcDbEntity
  8
0
100
AcDbLine
 62
6
  6
CONTINUOUS
 10
5.2066810061
 20
6.5290004528
 11
5.184387207
 21
6.516129122
  0
LINE
  5
215
100
AcDbEntity
  8
0
100
AcDbLine
 62
6
  6
CONTINUOUS
 10
5.184850833
 20
6.8332354336
 11
5.18438722
 21
6.8326967415
  0
LINE
  5
216
100
AcDbEntity
  8
0
100
AcDbLine
 62
6
  6
CONTINUOUS
 10
5.1848488946
 20
6.9739090358
 11
5.1843872142
 21
6.9733733118
  0
LINE
  5
217
100
AcDbEntity
  8
0
100
AcDbLine
 62
6
  6
CONTINUOUS
 10
5.2176886986
 20
6.922441361
 11
5.2171704776
 21
6.9218423176
  0
LINE
  5
218
100
AcDbEntity
  8
0
100
AcDbLine
 62
6
  6
CONTINUOUS
 10
5.2156001141
 20
6.8510104795
 11
5.2150849022
 21
6.8504149117
  0
LINE
  5
219
100
AcDbEntity
  8
0
100
AcDbLine
 62
6
  6
CONTINUOUS
 10
5.2137645696
 20
6.7795763678
 11
5.2132518461
 21
6.7789836875
  0
LINE
  5
21A
100
AcDbEntity
  8
0
100
AcDbLine
 62
6
  6
CONTINUOUS
 10
5.1848470418
 20
6.9034568403
 11
5.1843872278
 21
6.9029290006
  0
LINE
  5
21B
100
AcDbEntity
  8
0
100
AcDbLine
 62
6
  6
CONTINUOUS
 10
5.1848488576
 20
6.7628614281
 11
5.1843872271
 21
6.7623313766
  0
LINE
  5
21C
100
AcDbEntity
  8
0
100
AcDbLine
 62
6
  6
CONTINUOUS
 10
5.9647820763
 20
6.9033911936
 11
5.9963949794
 21
6.9216669173
  0
LINE
  5
21D
100
AcDbEntity
  8
0
100
AcDbLine
 62
6
  6
CONTINUOUS
 10
5.9665586
 20
6.8319649572
 11
5.9963964871
 21
6.8492143516
  0
LINE
  5
21E
100
AcDbEntity
  8
0
100
AcDbLine
 62
6
  6
CONTINUOUS
 10
5.9684704239
 20
6.7605378446
 11
5.9963962339
 21
6.7766817646
  0
LINE
  5
21F
100
AcDbEntity
  8
0
100
AcDbLine
 62
6
  6
CONTINUOUS
 10
5.9704111395
 20
6.6891107667
 11
5.9963960079
 21
6.7041325373
  0
LINE
  5
220
100
AcDbEntity
  8
0
100
AcDbLine
 62
6
  6
CONTINUOUS
 10
5.1848451485
 20
6.692426366
 11
5.1843872249
 21
6.6918938184
  0
LINE
  5
221
100
AcDbEntity
  8
0
100
AcDbLine
 62
6
  6
CONTINUOUS
 10
5.2120315086
 20
6.7081414082
 11
5.2115210242
 21
6.7075513314
  0
LINE
  5
222
100
AcDbEntity
  8
0
100
AcDbLine
 62
6
  6
CONTINUOUS
 10
5.2099969002
 20
6.6367117348
 11
5.2094892128
 21
6.6361248847
  0
LINE
  5
223
100
AcDbEntity
  8
0
100
AcDbLine
 62
6
  6
CONTINUOUS
 10
5.2081407649
 20
6.5652778182
 11
5.2076355331
 21
6.5646938164
  0
LINE
  5
224
100
AcDbEntity
  8
0
100
AcDbLine
 62
6
  6
CONTINUOUS
 10
5.1848506181
 20
6.622175851
 11
5.1843872278
 21
6.6216438374
  0
LINE
  5
225
100
AcDbEntity
  8
0
100
AcDbLine
 62
6
  6
CONTINUOUS
 10
5.9721768707
 20
6.6176836969
 11
5.9963963265
 21
6.6316847931
  0
LINE
  5
226
100
AcDbEntity
  8
0
100
AcDbLine
 62
9
  6
CONTINUOUS
 10
5.9968869615
 20
6.5597317837
 11
5.9745931759
 21
6.5468604528
  0
LINE
  5
227
100
AcDbEntity
  8
0
100
AcDbLine
 62
6
  6
CONTINUOUS
 10
5.9596644689
 20
7.1182770528
 11
5.959140421
 21
7.1176711757
  0
LINE
  5
228
100
AcDbEntity
  8
0
100
AcDbLine
 62
6
  6
CONTINUOUS
 10
5.9614635969
 20
7.0468490264
 11
5.9609419789
 21
7.0462459725
  0
LINE
  5
229
100
AcDbEntity
  8
0
100
AcDbLine
 62
6
  6
CONTINUOUS
 10
5.996887207
 20
7.0673098474
 11
5.9963966732
 21
7.0667428577
  0
LINE
  5
22A
100
AcDbEntity
  8
0
100
AcDbLine
 62
6
  6
CONTINUOUS
 10
5.9963949794
 20
6.9216669174
 11
5.9968872051
 21
6.9222370183
  0
LINE
  5
22B
100
AcDbEntity
  8
0
100
AcDbLine
 62
6
  6
CONTINUOUS
 10
5.9963962339
 20
6.7766817645
 11
5.9968872066
 21
6.7772498114
  0
LINE
  5
22C
100
AcDbEntity
  8
0
100
AcDbLine
 62
6
  6
CONTINUOUS
 10
5.9633681822
 20
6.9754187032
 11
5.9628492381
 21
6.974818747
  0
LINE
  5
22D
100
AcDbEntity
  8
0
100
AcDbLine
 62
6
  6
CONTINUOUS
 10
5.9652982985
 20
6.9039879977
 11
5.9647820763
 21
6.9033911936
  0
LINE
  5
22E
100
AcDbEntity
  8
0
100
AcDbLine
 62
6
  6
CONTINUOUS
 10
5.967072478
 20
6.8325590413
 11
5.9665586
 21
6.8319649572
  0
LINE
  5
22F
100
AcDbEntity
  8
0
100
AcDbLine
 62
6
  6
CONTINUOUS
 10
5.9689817014
 20
6.7611289158
 11
5.9684704239
 21
6.7605378446
  0
LINE
  5
230
100
AcDbEntity
  8
0
100
AcDbLine
 62
6
  6
CONTINUOUS
 10
5.9963961164
 20
6.9942125933
 11
5.9968872034
 21
6.9947786788
  0
LINE
  5
231
100
AcDbEntity
  8
0
100
AcDbLine
 62
6
  6
CONTINUOUS
 10
5.9963964871
 20
6.8492143519
 11
5.9968872026
 21
6.8497798426
  0
LINE
  5
232
100
AcDbEntity
  8
0
100
AcDbLine
 62
6
  6
CONTINUOUS
 10
5.9963963265
 20
6.6316847931
 11
5.9968872066
 21
6.632252707
  0
LINE
  5
233
100
AcDbEntity
  8
0
100
AcDbLine
 62
6
  6
CONTINUOUS
 10
5.9709197811
 20
6.6896987837
 11
5.9704111395
 21
6.6891107667
  0
LINE
  5
234
100
AcDbEntity
  8
0
100
AcDbLine
 62
6
  6
CONTINUOUS
 10
5.9726832322
 20
6.6182690712
 11
5.9721768707
 21
6.6176836969
  0
LINE
  5
235
100
AcDbEntity
  8
0
100
AcDbLine
 62
6
  6
CONTINUOUS
 10
5.9963960079
 20
6.7041325361
 11
5.9968872065
 21
6.7046997249
  0
LINE
  5
236
100
AcDbEntity
  8
0
100
AcDbLine
 62
6
  6
CONTINUOUS
 10
5.9662516971
 20
7.1217828078
 11
5.9663955006
 21
7.1221717896
  0
LINE
  5
237
100
AcDbEntity
  8
0
100
AcDbLine
 62
6
  6
CONTINUOUS
 10
5.1917059822
 20
6.555506287
 11
5.1917058288
 21
6.5557774571
  0
LINE
  5
238
100
AcDbEntity
  8
0
100
AcDbLine
 62
6
  6
CONTINUOUS
 10
5.184387207
 20
7.0437597253
 11
5.184387207
 21
7.0310504437
  0
LINE
  5
239
100
AcDbEntity
  8
0
100
AcDbLine
 62
6
  6
CONTINUOUS
 10
5.184387207
 20
6.9733754263
 11
5.184387207
 21
6.9586402057
  0
LINE
  5
23A
100
AcDbEntity
  8
0
100
AcDbLine
 62
6
  6
CONTINUOUS
 10
5.184387207
 20
6.9029257166
 11
5.184387207
 21
6.8860063134
  0
LINE
  5
23B
100
AcDbEntity
  8
0
100
AcDbLine
 62
6
  6
CONTINUOUS
 10
5.184387207
 20
6.8326995928
 11
5.184387207
 21
6.8135180107
  0
LINE
  5
23C
100
AcDbEntity
  8
0
100
AcDbLine
 62
6
  6
CONTINUOUS
 10
5.184387207
 20
6.7623278579
 11
5.184387207
 21
6.7410886269
  0
LINE
  5
23D
100
AcDbEntity
  8
0
100
AcDbLine
 62
6
  6
CONTINUOUS
 10
5.184387207
 20
6.6918972921
 11
5.184387207
 21
6.6684856221
  0
LINE
  5
23E
100
AcDbEntity
  8
0
100
AcDbLine
 62
6
  6
CONTINUOUS
 10
5.184387207
 20
6.6216402833
 11
5.184387207
 21
6.5959854329
  0
LINE
  5
23F
100
AcDbEntity
  8
0
100
AcDbLine
 62
6
  6
CONTINUOUS
 10
5.184387207
 20
6.516129122
 11
5.184387207
 21
2.1169403561
  0
LINE
  5
240
100
AcDbEntity
  8
0
100
AcDbLine
 62
6
  6
CONTINUOUS
 10
5.2066810061
 20
6.5468604528
 11
5.2066810061
 21
6.5290004528
  0
LINE
  5
241
100
AcDbEntity
  8
0
100
AcDbLine
 62
6
  6
CONTINUOUS
 10
5.2076355331
 20
6.5825538164
 11
5.2076355331
 21
6.5646938164
  0
LINE
  5
242
100
AcDbEntity
  8
0
100
AcDbLine
 62
6
  6
CONTINUOUS
 10
5.2094892128
 20
6.6539848847
 11
5.2094892128
 21
6.6361248847
  0
LINE
  5
243
100
AcDbEntity
  8
0
100
AcDbLine
 62
6
  6
CONTINUOUS
 10
5.2115210242
 20
6.7254113314
 11
5.2115210242
 21
6.7075513314
  0
LINE
  5
244
100
AcDbEntity
  8
0
100
AcDbLine
 62
6
  6
CONTINUOUS
 10
5.2132518461
 20
6.7968436875
 11
5.2132518461
 21
6.7789836875
  0
LINE
  5
245
100
AcDbEntity
  8
0
100
AcDbLine
 62
6
  6
CONTINUOUS
 10
5.2150849022
 20
6.8682749117
 11
5.2150849022
 21
6.8504149117
  0
LINE
  5
246
100
AcDbEntity
  8
0
100
AcDbLine
 62
6
  6
CONTINUOUS
 10
5.2171704776
 20
6.9397023176
 11
5.2171704776
 21
6.9218423176
  0
LINE
  5
247
100
AcDbEntity
  8
0
100
AcDbLine
 62
6
  6
CONTINUOUS
 10
5.2188679075
 20
7.0111335711
 11
5.2188679075
 21
6.9932735711
  0
LINE
  5
248
100
AcDbEntity
  8
0
100
AcDbLine
 62
6
  6
CONTINUOUS
 10
5.2206791498
 20
7.0825648073
 11
5.2206791498
 21
7.0647048073
  0
LINE
  5
249
100
AcDbEntity
  8
0
100
AcDbLine
 62
6
  6
CONTINUOUS
 10
5.1843874526
 20
2.0864244731
 11
5.184387207
 21
2.0861086185
  0
LINE
  5
24A
100
AcDbEntity
  8
0
100
AcDbLine
 62
9
  6
CONTINUOUS
 10
5.996887207
 20
4.1316800914
 11
5.184387207
 21
4.1316800914
  0
LINE
  5
24B
100
AcDbEntity
  8
0
100
AcDbLine
 62
6
  6
CONTINUOUS
 10
5.9596644689
 20
7.1004170528
 11
5.9596644689
 21
7.1182770528
  0
LINE
  5
24C
100
AcDbEntity
  8
0
100
AcDbLine
 62
6
  6
CONTINUOUS
 10
5.9614635969
 20
7.0289890264
 11
5.9614635969
 21
7.0468490264
  0
LINE
  5
24D
100
AcDbEntity
  8
0
100
AcDbLine
 62
6
  6
CONTINUOUS
 10
5.9633681822
 20
6.9575587032
 11
5.9633681822
 21
6.9754187032
  0
LINE
  5
24E
100
AcDbEntity
  8
0
100
AcDbLine
 62
6
  6
CONTINUOUS
 10
5.9652982985
 20
6.8861279977
 11
5.9652982985
 21
6.9039879977
  0
LINE
  5
24F
100
AcDbEntity
  8
0
100
AcDbLine
 62
6
  6
CONTINUOUS
 10
5.967072478
 20
6.8146990413
 11
5.967072478
 21
6.8325590413
  0
LINE
  5
250
100
AcDbEntity
  8
0
100
AcDbLine
 62
6
  6
CONTINUOUS
 10
5.9689817014
 20
6.7432689158
 11
5.9689817014
 21
6.7611289158
  0
LINE
  5
251
100
AcDbEntity
  8
0
100
AcDbLine
 62
6
  6
CONTINUOUS
 10
5.9709197811
 20
6.6718387837
 11
5.9709197811
 21
6.6896987837
  0
LINE
  5
252
100
AcDbEntity
  8
0
100
AcDbLine
 62
6
  6
CONTINUOUS
 10
5.9726832322
 20
6.6004090712
 11
5.9726832322
 21
6.6182690712
  0
LINE
  5
253
100
AcDbEntity
  8
0
100
AcDbLine
 62
9
  6
CONTINUOUS
 10
5.9745931759
 20
6.5468604528
 11
5.9745931759
 21
6.5290004528
  0
LINE
  5
254
100
AcDbEntity
  8
0
100
AcDbLine
 62
6
  6
CONTINUOUS
 10
5.996887207
 20
7.0789371346
 11
5.996887207
 21
7.0673098226
  0
LINE
  5
255
100
AcDbEntity
  8
0
100
AcDbLine
 62
6
  6
CONTINUOUS
 10
5.996887207
 20
7.008546074
 11
5.996887207
 21
6.9947802393
  0
LINE
  5
256
100
AcDbEntity
  8
0
100
AcDbLine
 62
6
  6
CONTINUOUS
 10
5.996887207
 20
6.9382156451
 11
5.996887207
 21
6.9222360394
  0
LINE
  5
257
100
AcDbEntity
  8
0
100
AcDbLine
 62
6
  6
CONTINUOUS
 10
5.996887207
 20
6.8678998629
 11
5.996887207
 21
6.8497815319
  0
LINE
  5
258
100
AcDbEntity
  8
0
100
AcDbLine
 62
6
  6
CONTINUOUS
 10
5.996887207
 20
6.7974943568
 11
5.996887207
 21
6.7772492771
  0
LINE
  5
259
100
AcDbEntity
  8
0
100
AcDbLine
 62
6
  6
CONTINUOUS
 10
5.996887207
 20
6.7271666166
 11
5.996887207
 21
6.7047004359
  0
LINE
  5
25A
100
AcDbEntity
  8
0
100
AcDbLine
 62
6
  6
CONTINUOUS
 10
5.996887207
 20
6.6568554663
 11
5.996887207
 21
6.6322521624
  0
LINE
  5
25B
100
AcDbEntity
  8
0
100
AcDbLine
 62
6
  6
CONTINUOUS
 10
5.996887207
 20
6.5864437217
 11
5.996887207
 21
6.5597317837
  0
LINE
  5
25C
100
AcDbEntity
  8
0
100
AcDbLine
 62
6
  6
CONTINUOUS
 10
5.996887207
 20
6.516129122
 11
5.9968869615
 21
2.1166245013
  0
LINE
  5
25D
100
AcDbEntity
  8
0
100
AcDbLine
 62
6
  6
CONTINUOUS
 10
5.1848785176
 20
6.5954175433
 11
5.1843872239
 21
6.5959821073
  0
LINE
  5
25E
100
AcDbEntity
  8
0
100
AcDbLine
 62
6
  6
CONTINUOUS
 10
5.1848826032
 20
6.7405162073
 11
5.1843872249
 21
6.7410853576
  0
LINE
  5
25F
100
AcDbEntity
  8
0
100
AcDbLine
 62
6
  6
CONTINUOUS
 10
5.2076355331
 20
6.5825538164
 11
5.2081406261
 21
6.5819699109
  0
LINE
  5
260
100
AcDbEntity
  8
0
100
AcDbLine
 62
6
  6
CONTINUOUS
 10
5.2094892128
 20
6.6539848847
 11
5.2099967763
 21
6.6533981206
  0
LINE
  5
261
100
AcDbEntity
  8
0
100
AcDbLine
 62
6
  6
CONTINUOUS
 10
5.2115210242
 20
6.7254113314
 11
5.2120313216
 21
6.7248213856
  0
LINE
  5
262
100
AcDbEntity
  8
0
100
AcDbLine
 62
6
  6
CONTINUOUS
 10
5.2132518461
 20
6.7968436875
 11
5.2137644247
 21
6.7962511078
  0
LINE
  5
263
100
AcDbEntity
  8
0
100
AcDbLine
 62
6
  6
CONTINUOUS
 10
5.1848767481
 20
6.6679198243
 11
5.1843872278
 21
6.6684893469
  0
LINE
  5
264
100
AcDbEntity
  8
0
100
AcDbLine
 62
6
  6
CONTINUOUS
 10
5.1848785088
 20
6.8129501349
 11
5.1843872271
 21
6.8135216464
  0
LINE
  5
265
100
AcDbEntity
  8
0
100
AcDbLine
 62
6
  6
CONTINUOUS
 10
5.1848764958
 20
6.885440785
 11
5.18438722
 21
6.8860034172
  0
LINE
  5
266
100
AcDbEntity
  8
0
100
AcDbLine
 62
6
  6
CONTINUOUS
 10
5.1848784745
 20
7.0304826111
 11
5.1843872142
 21
7.0310482747
  0
LINE
  5
267
100
AcDbEntity
  8
0
100
AcDbLine
 62
6
  6
CONTINUOUS
 10
5.2150849022
 20
6.8682749117
 11
5.2155999886
 21
6.8676794308
  0
LINE
  5
268
100
AcDbEntity
  8
0
100
AcDbLine
 62
6
  6
CONTINUOUS
 10
5.2171704776
 20
6.9397023176
 11
5.2176885215
 21
6.9391033982
  0
LINE
  5
269
100
AcDbEntity
  8
0
100
AcDbLine
 62
6
  6
CONTINUOUS
 10
5.2188679075
 20
7.0111335711
 11
5.2193881963
 21
7.0105320561
  0
LINE
  5
26A
100
AcDbEntity
  8
0
100
AcDbLine
 62
6
  6
CONTINUOUS
 10
5.2206791498
 20
7.0825648073
 11
5.2212019784
 21
7.0819603537
  0
LINE
  5
26B
100
AcDbEntity
  8
0
100
AcDbLine
 62
6
  6
CONTINUOUS
 10
5.1848808167
 20
6.9580699968
 11
5.1843872278
 21
6.9586441857
  0
LINE
  5
26C
100
AcDbEntity
  8
0
100
AcDbLine
 62
6
  6
CONTINUOUS
 10
5.1917062892
 20
6.5555061096
 11
5.2066810061
 21
6.5468604528
  0
LINE
  5
26D
100
AcDbEntity
  8
0
100
AcDbLine
 62
6
  6
CONTINUOUS
 10
5.1848785176
 20
6.5954175434
 11
5.2081406261
 21
6.5819699109
  0
LINE
  5
26E
100
AcDbEntity
  8
0
100
AcDbLine
 62
6
  6
CONTINUOUS
 10
5.1848767481
 20
6.6679198242
 11
5.2099967763
 21
6.6533981206
  0
LINE
  5
26F
100
AcDbEntity
  8
0
100
AcDbLine
 62
6
  6
CONTINUOUS
 10
5.1848826032
 20
6.7405162105
 11
5.2120313216
 21
6.7248213856
  0
LINE
  5
270
100
AcDbEntity
  8
0
100
AcDbLine
 62
6
  6
CONTINUOUS
 10
5.9964252665
 20
6.7277005392
 11
5.9968872066
 21
6.7271671547
  0
LINE
  5
271
100
AcDbEntity
  8
0
100
AcDbLine
 62
6
  6
CONTINUOUS
 10
5.9721767351
 20
6.6009945395
 11
5.9726832322
 21
6.6004090712
  0
LINE
  5
272
100
AcDbEntity
  8
0
100
AcDbLine
 62
6
  6
CONTINUOUS
 10
5.996887207
 20
6.5864437068
 11
5.9964251241
 21
6.5869777734
  0
LINE
  5
273
100
AcDbEntity
  8
0
100
AcDbLine
 62
6
  6
CONTINUOUS
 10
5.9704109998
 20
6.6724268974
 11
5.9709197811
 21
6.6718387837
  0
LINE
  5
274
100
AcDbEntity
  8
0
100
AcDbLine
 62
6
  6
CONTINUOUS
 10
5.9684702831
 20
6.7438600847
 11
5.9689817014
 21
6.7432689158
  0
LINE
  5
275
100
AcDbEntity
  8
0
100
AcDbLine
 62
6
  6
CONTINUOUS
 10
5.9665584598
 20
6.8152932227
 11
5.967072478
 21
6.8146990413
  0
LINE
  5
276
100
AcDbEntity
  8
0
100
AcDbLine
 62
6
  6
CONTINUOUS
 10
5.9964256297
 20
6.6573890967
 11
5.9968872065
 21
6.6568550071
  0
LINE
  5
277
100
AcDbEntity
  8
0
100
AcDbLine
 62
6
  6
CONTINUOUS
 10
5.1848785088
 20
6.812950135
 11
5.2131234843
 21
6.7966216634
  0
LINE
  5
278
100
AcDbEntity
  8
0
100
AcDbLine
 62
6
  6
CONTINUOUS
 10
5.1848764958
 20
6.8854407838
 11
5.214955912
 21
6.8680518024
  0
LINE
  5
279
100
AcDbEntity
  8
0
100
AcDbLine
 62
6
  6
CONTINUOUS
 10
5.1848808167
 20
6.9580699988
 11
5.2170407402
 21
6.939477922
  0
LINE
  5
27A
100
AcDbEntity
  8
0
100
AcDbLine
 62
6
  6
CONTINUOUS
 10
5.9964247802
 20
7.0090805165
 11
5.9968872015
 21
7.0085479032
  0
LINE
  5
27B
100
AcDbEntity
  8
0
100
AcDbLine
 62
6
  6
CONTINUOUS
 10
5.9964266649
 20
6.8684323271
 11
5.9968872051
 21
6.8679010893
  0
LINE
  5
27C
100
AcDbEntity
  8
0
100
AcDbLine
 62
6
  6
CONTINUOUS
 10
5.9647819199
 20
6.8867249102
 11
5.9652982985
 21
6.8861279977
  0
LINE
  5
27D
100
AcDbEntity
  8
0
100
AcDbLine
 62
6
  6
CONTINUOUS
 10
5.9628490898
 20
6.9581587624
 11
5.9633681822
 21
6.9575587032
  0
LINE
  5
27E
100
AcDbEntity
  8
0
100
AcDbLine
 62
6
  6
CONTINUOUS
 10
5.9609418343
 20
7.0295921806
 11
5.9614635969
 21
7.0289890264
  0
LINE
  5
27F
100
AcDbEntity
  8
0
100
AcDbLine
 62
6
  6
CONTINUOUS
 10
5.9591402445
 20
7.101023052
 11
5.9596644689
 21
7.1004170528
  0
LINE
  5
280
100
AcDbEntity
  8
0
100
AcDbLine
 62
6
  6
CONTINUOUS
 10
5.9964249644
 20
6.7980285895
 11
5.9968872026
 21
6.7974926746
  0
LINE
  5
281
100
AcDbEntity
  8
0
100
AcDbLine
 62
6
  6
CONTINUOUS
 10
5.9964253766
 20
6.9387494379
 11
5.9968872034
 21
6.938214148
  0
LINE
  5
282
100
AcDbEntity
  8
0
100
AcDbLine
 62
6
  6
CONTINUOUS
 10
5.9964279072
 20
7.0794681903
 11
5.9968871969
 21
7.0789348134
  0
LINE
  5
283
100
AcDbEntity
  8
0
100
AcDbLine
 62
6
  6
CONTINUOUS
 10
5.996887207
 20
6.516129122
 11
5.1843874526
 21
6.516129122
  0
LINE
  5
284
100
AcDbEntity
  8
0
100
AcDbLine
 62
6
  6
CONTINUOUS
 10
5.974593408
 20
6.5290004528
 11
5.2066812381
 21
6.5290004528
  0
LINE
  5
285
100
AcDbEntity
  8
0
100
AcDbLine
 62
6
  6
CONTINUOUS
 10
5.974593408
 20
6.5468604528
 11
5.2066812381
 21
6.5468604528
  0
LINE
  5
286
100
AcDbEntity
  8
0
100
AcDbLine
 62
6
  6
CONTINUOUS
 10
5.996887207
 20
6.5597317837
 11
5.2948268696
 21
6.5597317837
  0
LINE
  5
287
100
AcDbEntity
  8
0
100
AcDbLine
 62
6
  6
CONTINUOUS
 10
5.9968869615
 20
6.516129122
 11
5.9745931759
 21
6.5290004528
  0
LINE
  5
288
100
AcDbEntity
  8
0
100
AcDbLine
 62
6
  6
CONTINUOUS
 10
5.9964251241
 20
6.5869777735
 11
5.9721767351
 21
6.6009945395
  0
LINE
  5
289
100
AcDbEntity
  8
0
100
AcDbLine
 62
6
  6
CONTINUOUS
 10
5.9964256297
 20
6.6573890928
 11
5.9704109998
 21
6.6724268974
  0
LINE
  5
28A
100
AcDbEntity
  8
0
100
AcDbLine
 62
6
  6
CONTINUOUS
 10
5.9964252665
 20
6.7277005392
 11
5.9691097481
 21
6.7434904139
  0
LINE
  5
28B
100
AcDbEntity
  8
0
100
AcDbLine
 62
6
  6
CONTINUOUS
 10
5.1848784745
 20
7.0304826111
 11
5.218737608
 21
7.0109082039
  0
LINE
  5
28C
100
AcDbEntity
  8
0
100
AcDbLine
 62
6
  6
CONTINUOUS
 10
5.1920303696
 20
7.0988252861
 11
5.2205482137
 21
7.082338341
  0
LINE
  5
28D
100
AcDbEntity
  8
0
100
AcDbLine
 62
6
  6
CONTINUOUS
 10
5.956887207
 20
7.1316800914
 11
5.966393863
 21
7.1221734354
  0
LINE
  5
28E
100
AcDbEntity
  8
0
100
AcDbLine
 62
6
  6
CONTINUOUS
 10
5.9964249644
 20
6.7980285902
 11
5.9672011779
 21
6.8149216662
  0
LINE
  5
28F
100
AcDbEntity
  8
0
100
AcDbLine
 62
6
  6
CONTINUOUS
 10
5.9964266649
 20
6.8684323248
 11
5.9654275899
 21
6.8863516443
  0
LINE
  5
290
100
AcDbEntity
  8
0
100
AcDbLine
 62
6
  6
CONTINUOUS
 10
5.9964253766
 20
6.9387494378
 11
5.9634981566
 21
6.9577835283
  0
LINE
  5
291
100
AcDbEntity
  8
0
100
AcDbLine
 62
6
  6
CONTINUOUS
 10
5.956887207
 20
7.1316800914
 11
5.224387207
 21
7.1316800914
  0
LINE
  5
292
100
AcDbEntity
  8
0
100
AcDbLine
 62
6
  6
CONTINUOUS
 10
5.9964247802
 20
7.0090805168
 11
5.9615942425
 21
7.029215009
  0
LINE
  5
293
100
AcDbEntity
  8
0
100
AcDbLine
 62
6
  6
CONTINUOUS
 10
5.9964279072
 20
7.0794681857
 11
5.9597957303
 21
7.1006440998
  0
ARC
  5
294
100
AcDbEntity
  8
0
100
AcDbCircle
 62
6
  6
CONTINUOUS
 10
4.3140655115
 20
54.1399199664
 40
47.2366156302
100
AcDbArc
 50
271.5486096288
 51
271.7952524451
  0
ARC
  5
295
100
AcDbEntity
  8
0
100
AcDbCircle
 62
6
  6
CONTINUOUS
 10
4.4603845288
 20
48.9009558744
 40
41.9394589195
100
AcDbArc
 50
271.5442864777
 51
271.8220829311
  0
ARC
  5
296
100
AcDbEntity
  8
0
100
AcDbCircle
 62
6
  6
CONTINUOUS
 10
5.4413240944
 20
1.9639858575
 40
0.2650773378
100
AcDbArc
 50
215.4838437379
 51
220.135161446
  0
ARC
  5
297
100
AcDbEntity
  8
0
100
AcDbCircle
 62
6
  6
CONTINUOUS
 10
5.435233492
 20
1.9448655755
 40
0.2573935731
100
AcDbArc
 50
215.0698647448
 51
217.440488479
  0
ARC
  5
298
100
AcDbEntity
  8
0
100
AcDbCircle
 62
6
  6
CONTINUOUS
 10
5.4317960471
 20
1.8429524914
 40
0.2531989515
100
AcDbArc
 50
214.9685599719
 51
215.7025169463
  0
ARC
  5
299
100
AcDbEntity
  8
0
100
AcDbCircle
 62
6
  6
CONTINUOUS
 10
5.4290383577
 20
1.8907221276
 40
0.2498213775
100
AcDbArc
 50
213.0179867558
 51
215.4852457499
  0
ARC
  5
29A
100
AcDbEntity
  8
0
100
AcDbCircle
 62
6
  6
CONTINUOUS
 10
5.4283264688
 20
1.840543675
 40
0.2489751909
100
AcDbArc
 50
213.4826482286
 51
214.9719114764
  0
ARC
  5
29B
100
AcDbEntity
  8
0
100
AcDbCircle
 62
6
  6
CONTINUOUS
 10
5.4278731201
 20
1.9397375357
 40
0.2484230211
100
AcDbArc
 50
212.6260350404
 51
215.0772520916
  0
ARC
  5
29C
100
AcDbEntity
  8
0
100
AcDbCircle
 62
6
  6
CONTINUOUS
 10
5.4155271126
 20
1.8324449395
 40
0.2338321048
100
AcDbArc
 50
205.0345252149
 51
213.5577329821
  0
ARC
  5
29D
100
AcDbEntity
  8
0
100
AcDbCircle
 62
6
  6
CONTINUOUS
 10
5.3973985391
 20
1.8864385418
 40
0.2137643226
100
AcDbArc
 50
197.6222842362
 51
205.7063440724
  0
ARC
  5
29E
100
AcDbEntity
  8
0
100
AcDbCircle
 62
6
  6
CONTINUOUS
 10
5.39160698
 20
1.7818781202
 40
0.2076311209
100
AcDbArc
 50
197.0919228585
 51
199.9884187094
  0
ARC
  5
29F
100
AcDbEntity
  8
0
100
AcDbCircle
 62
6
  6
CONTINUOUS
 10
5.3840534321
 20
1.8196276388
 40
0.1997610864
100
AcDbArc
 50
191.5841253054
 51
194.3095492511
  0
ARC
  5
2A0
100
AcDbEntity
  8
0
100
AcDbCircle
 62
6
  6
CONTINUOUS
 10
5.3840230616
 20
1.769918258
 40
0.199736311
100
AcDbArc
 50
191.8955231146
 51
194.1624675733
  0
ARC
  5
2A1
100
AcDbEntity
  8
0
100
AcDbCircle
 62
6
  6
CONTINUOUS
 10
5.3833645202
 20
1.8692151899
 40
0.199060497
100
AcDbArc
 50
191.0276303107
 51
194.1364026433
  0
ARC
  5
2A2
100
AcDbEntity
  8
0
100
AcDbCircle
 62
6
  6
CONTINUOUS
 10
5.3833190595
 20
1.9686990462
 40
0.19901062
100
AcDbArc
 50
191.6026862601
 51
194.093410078
  0
ARC
  5
2A3
100
AcDbEntity
  8
0
100
AcDbCircle
 62
6
  6
CONTINUOUS
 10
5.3829775794
 20
1.9189162188
 40
0.1986646702
100
AcDbArc
 50
190.6510324048
 51
194.1201074565
  0
ARC
  5
2A4
100
AcDbEntity
  8
0
100
AcDbCircle
 62
6
  6
CONTINUOUS
 10
5.3814695188
 20
1.9683158266
 40
0.1971217985
100
AcDbArc
 50
190.4253431432
 51
191.6016974076
  0
ARC
  5
2A5
100
AcDbEntity
  8
0
100
AcDbCircle
 62
6
  6
CONTINUOUS
 10
5.3781698592
 20
1.9677902496
 40
0.1937815225
100
AcDbArc
 50
180.018863237
 51
190.4490521046
  0
ARC
  5
2A6
100
AcDbEntity
  8
0
100
AcDbCircle
 62
6
  6
CONTINUOUS
 10
5.3781131742
 20
1.7688060561
 40
0.1937241258
100
AcDbArc
 50
180.0035172523
 51
191.9339346801
  0
ARC
  5
2A7
100
AcDbEntity
  8
0
100
AcDbCircle
 62
6
  6
CONTINUOUS
 10
5.3780662836
 20
1.8185438618
 40
0.193678312
100
AcDbArc
 50
180.0300922574
 51
191.6257061856
  0
ARC
  5
2A8
100
AcDbEntity
  8
0
100
AcDbCircle
 62
6
  6
CONTINUOUS
 10
5.3779200454
 20
1.868245066
 40
0.1935310071
100
AcDbArc
 50
180.0053805784
 51
191.054044703
  0
ARC
  5
2A9
100
AcDbEntity
  8
0
100
AcDbCircle
 62
6
  6
CONTINUOUS
 10
5.3779011566
 20
1.9180319035
 40
0.1935122757
100
AcDbArc
 50
180.0260984427
 51
190.6715152442
  0
ARC
  5
2AA
100
AcDbEntity
  8
0
100
AcDbCircle
 62
6
  6
CONTINUOUS
 10
5.3767514214
 20
1.9323288138
 40
0.192363075
100
AcDbArc
 50
180.0048097118
 51
184.2542802601
  0
ARC
  5
2AB
100
AcDbEntity
  8
0
100
AcDbCircle
 62
6
  6
CONTINUOUS
 10
5.3766847668
 20
1.7784604848
 40
0.1922967692
100
AcDbArc
 50
174.2673248912
 51
180.0046201084
  0
ARC
  5
2AC
100
AcDbEntity
  8
0
100
AcDbCircle
 62
6
  6
CONTINUOUS
 10
5.3766513265
 20
1.8810126552
 40
0.1922624299
100
AcDbArc
 50
174.205295758
 51
183.7966979392
  0
ARC
  5
2AD
100
AcDbEntity
  8
0
100
AcDbCircle
 62
6
  6
CONTINUOUS
 10
5.3765677923
 20
1.8297794322
 40
0.1921787549
100
AcDbArc
 50
174.4893978032
 51
183.3683897831
  0
ARC
  5
2AE
100
AcDbEntity
  8
0
100
AcDbCircle
 62
6
  6
CONTINUOUS
 10
5.3765421236
 20
1.7272139991
 40
0.1921534678
100
AcDbArc
 50
180.0051207506
 51
182.4554724839
  0
ARC
  5
2AF
100
AcDbEntity
  8
0
100
AcDbCircle
 62
6
  6
CONTINUOUS
 10
5.3762099122
 20
1.9323195288
 40
0.1918215652
100
AcDbArc
 50
174.2301112042
 51
180.0020498992
  0
ARC
  5
2B0
100
AcDbEntity
  8
0
100
AcDbCircle
 62
6
  6
CONTINUOUS
 10
5.3760734718
 20
1.7784654442
 40
0.1916854746
100
AcDbArc
 50
180.0061172054
 51
183.8181730198
  0
ARC
  5
2B1
100
AcDbEntity
  8
0
100
AcDbCircle
 62
6
  6
CONTINUOUS
 10
5.558870937
 20
2.0348530347
 40
0.4771314267
100
AcDbArc
 50
249.3758503088
 51
250.9597623007
  0
ARC
  5
2B2
100
AcDbEntity
  8
0
100
AcDbCircle
 62
6
  6
CONTINUOUS
 10
5.5569957126
 20
2.0178324155
 40
0.4713628438
100
AcDbArc
 50
248.9099902275
 51
251.0151852953
  0
ARC
  5
2B3
100
AcDbEntity
  8
0
100
AcDbCircle
 62
6
  6
CONTINUOUS
 10
5.5700236459
 20
2.0108180324
 40
0.4690649929
100
AcDbArc
 50
254.4001430611
 51
255.4226963251
  0
ARC
  5
2B4
100
AcDbEntity
  8
0
100
AcDbCircle
 62
6
  6
CONTINUOUS
 10
5.5626584223
 20
1.9861927466
 40
0.443366437
100
AcDbArc
 50
249.0312817208
 51
254.4611061052
  0
ARC
  5
2B5
100
AcDbEntity
  8
0
100
AcDbCircle
 62
6
  6
CONTINUOUS
 10
5.5338174849
 20
2.126632132
 40
0.381030442
100
AcDbArc
 50
240.6568738107
 51
242.6041894817
  0
ARC
  5
2B6
100
AcDbEntity
  8
0
100
AcDbCircle
 62
6
  6
CONTINUOUS
 10
5.5251499443
 20
2.1627383797
 40
0.3656224619
100
AcDbArc
 50
237.3619462845
 51
241.1900179261
  0
ARC
  5
2B7
100
AcDbEntity
  8
0
100
AcDbCircle
 62
6
  6
CONTINUOUS
 10
5.4646513306
 20
2.0199037206
 40
0.2962319625
100
AcDbArc
 50
223.7318443146
 51
225.4351595356
  0
ARC
  5
2B8
100
AcDbEntity
  8
0
100
AcDbCircle
 62
6
  6
CONTINUOUS
 10
5.4640513982
 20
2.0353957401
 40
0.2954325469
100
AcDbArc
 50
222.3262973515
 51
225.890343146
  0
ARC
  5
2B9
100
AcDbEntity
  8
0
100
AcDbCircle
 62
6
  6
CONTINUOUS
 10
5.4535232217
 20
2.0094521296
 40
0.2809659959
100
AcDbArc
 50
220.1187598932
 51
223.7605043371
  0
ARC
  5
2BA
100
AcDbEntity
  8
0
100
AcDbCircle
 62
6
  6
CONTINUOUS
 10
5.4380673367
 20
1.9965887622
 40
0.2608579276
100
AcDbArc
 50
214.7063341118
 51
220.1456924969
  0
ARC
  5
2BB
100
AcDbEntity
  8
0
100
AcDbCircle
 62
6
  6
CONTINUOUS
 10
5.432823154
 20
2.13446443
 40
0.2521033778
100
AcDbArc
 50
210.3111924574
 51
211.9988744524
  0
ARC
  5
2BC
100
AcDbEntity
  8
0
100
AcDbCircle
 62
6
  6
CONTINUOUS
 10
5.4293157696
 20
2.1323882515
 40
0.2480276249
100
AcDbArc
 50
209.9896644234
 51
210.3060653369
  0
ARC
  5
2BD
100
AcDbEntity
  8
0
100
AcDbCircle
 62
6
  6
CONTINUOUS
 10
5.4269772984
 20
1.9888704875
 40
0.2473464614
100
AcDbArc
 50
212.2532059677
 51
214.6992208332
  0
ARC
  5
2BE
100
AcDbEntity
  8
0
100
AcDbCircle
 62
6
  6
CONTINUOUS
 10
5.4257533583
 20
2.0875683066
 40
0.2458806863
100
AcDbArc
 50
211.4821988116
 51
213.9917022505
  0
ARC
  5
2BF
100
AcDbEntity
  8
0
100
AcDbCircle
 62
6
  6
CONTINUOUS
 10
5.4255364573
 20
2.0376510196
 40
0.2456288072
100
AcDbArc
 50
211.837184448
 51
214.3119225231
  0
ARC
  5
2C0
100
AcDbEntity
  8
0
100
AcDbCircle
 62
6
  6
CONTINUOUS
 10
5.4184802253
 20
2.1264688387
 40
0.235684187
100
AcDbArc
 50
201.3190821084
 51
210.0599661536
  0
ARC
  5
2C1
100
AcDbEntity
  8
0
100
AcDbCircle
 62
6
  6
CONTINUOUS
 10
5.4135981715
 20
2.0801972917
 40
0.2316653295
100
AcDbArc
 50
204.6123473949
 51
211.4974901443
  0
ARC
  5
2C2
100
AcDbEntity
  8
0
100
AcDbCircle
 62
6
  6
CONTINUOUS
 10
5.4062567774
 20
2.090557292
 40
0.22245195
100
AcDbArc
 50
197.9246872996
 51
203.1034681948
  0
ARC
  5
2C3
100
AcDbEntity
  8
0
100
AcDbCircle
 62
6
  6
CONTINUOUS
 10
5.4061241785
 20
2.1213730299
 40
0.2223211682
100
AcDbArc
 50
198.284732168
 51
201.2533848889
  0
ARC
  5
2C4
100
AcDbEntity
  8
0
100
AcDbCircle
 62
6
  6
CONTINUOUS
 10
5.4007761697
 20
2.1195746782
 40
0.2166789732
100
AcDbArc
 50
195.6373476148
 51
198.2768866376
  0
ARC
  5
2C5
100
AcDbEntity
  8
0
100
AcDbCircle
 62
6
  6
CONTINUOUS
 10
5.3990433577
 20
1.989711433
 40
0.2155429514
100
AcDbArc
 50
198.4635765448
 51
205.5179786705
  0
ARC
  5
2C6
100
AcDbEntity
  8
0
100
AcDbCircle
 62
6
  6
CONTINUOUS
 10
5.3989705572
 20
2.0409262865
 40
0.2154710699
100
AcDbArc
 50
198.855415355
 51
205.22296936
  0
ARC
  5
2C7
100
AcDbEntity
  8
0
100
AcDbCircle
 62
6
  6
CONTINUOUS
 10
5.3972702025
 20
2.1185675166
 40
0.2130312956
100
AcDbArc
 50
193.7159931831
 51
195.6306617644
  0
ARC
  5
2C8
100
AcDbEntity
  8
0
100
AcDbCircle
 62
6
  6
CONTINUOUS
 10
5.3937834911
 20
2.0711090226
 40
0.2098658322
100
AcDbArc
 50
194.2304028234
 51
204.6095589279
  0
ARC
  5
2C9
100
AcDbEntity
  8
0
100
AcDbCircle
 62
6
  6
CONTINUOUS
 10
5.3941638586
 20
2.1178195027
 40
0.2098361746
100
AcDbArc
 50
188.5711265987
 51
193.718685559
  0
ARC
  5
2CA
100
AcDbEntity
  8
0
100
AcDbCircle
 62
6
  6
CONTINUOUS
 10
5.3886230257
 20
2.1170049565
 40
0.2042358273
100
AcDbArc
 50
180.0181228256
 51
188.5768328305
  0
ARC
  5
2CB
100
AcDbEntity
  8
0
100
AcDbCircle
 62
6
  6
CONTINUOUS
 10
5.384900985
 20
2.0361833123
 40
0.2006236801
100
AcDbArc
 50
188.5486901325
 51
198.8721415729
  0
ARC
  5
2CC
100
AcDbEntity
  8
0
100
AcDbCircle
 62
6
  6
CONTINUOUS
 10
5.3832261657
 20
2.0681927372
 40
0.1989157063
100
AcDbArc
 50
189.3879230273
 51
194.1636986817
  0
ARC
  5
2CD
100
AcDbEntity
  8
0
100
AcDbCircle
 62
6
  6
CONTINUOUS
 10
5.3824084946
 20
2.018237194
 40
0.1980821155
100
AcDbArc
 50
189.783239411
 51
194.1156336936
  0
ARC
  5
2CE
100
AcDbEntity
  8
0
100
AcDbCircle
 62
6
  6
CONTINUOUS
 10
5.3797445437
 20
2.0177630457
 40
0.1953763374
100
AcDbArc
 50
188.7328565883
 51
189.778960385
  0
ARC
  5
2CF
100
AcDbEntity
  8
0
100
AcDbCircle
 62
6
  6
CONTINUOUS
 10
5.3794077599
 20
2.0675029569
 40
0.195035935
100
AcDbArc
 50
187.9274968436
 51
189.3709751281
  0
ARC
  5
2D0
100
AcDbEntity
  8
0
100
AcDbCircle
 62
6
  6
CONTINUOUS
 10
5.3780108457
 20
2.0349535451
 40
0.1936273815
100
AcDbArc
 50
185.1742288917
 51
188.4919095296
  0
ARC
  5
2D1
100
AcDbEntity
  8
0
100
AcDbCircle
 62
6
  6
CONTINUOUS
 10
5.3775046928
 20
2.0174557339
 40
0.1931157981
100
AcDbArc
 50
180.0113454501
 51
188.7436330839
  0
ARC
  5
2D2
100
AcDbEntity
  8
0
100
AcDbCircle
 62
6
  6
CONTINUOUS
 10
5.3772981741
 20
2.0672308813
 40
0.1929089863
100
AcDbArc
 50
180.0030787531
 51
187.9338760978
  0
ARC
  5
2D3
100
AcDbEntity
  8
0
100
AcDbCircle
 62
6
  6
CONTINUOUS
 10
5.3766196404
 20
2.0348265889
 40
0.1922306097
100
AcDbArc
 50
175.4151775717
 51
185.1725753804
  0
ARC
  5
2D4
100
AcDbEntity
  8
0
100
AcDbCircle
 62
6
  6
CONTINUOUS
 10
5.3766188646
 20
1.983599432
 40
0.1922299665
100
AcDbArc
 50
174.8650043563
 51
184.7151657758
  0
ARC
  5
2D5
100
AcDbEntity
  8
0
100
AcDbCircle
 62
6
  6
CONTINUOUS
 10
5.3758217925
 20
2.0861110452
 40
0.1914345965
100
AcDbArc
 50
175.4068324051
 51
179.9061919472
  0
ARC
  5
2D6
100
AcDbEntity
  8
0
100
AcDbCircle
 62
6
  6
CONTINUOUS
 10
5.7336301601
 20
1.8627134176
 40
0.2673672547
100
AcDbArc
 50
327.328714796
 51
329.6292773983
  0
ARC
  5
2D7
100
AcDbEntity
  8
0
100
AcDbCircle
 62
6
  6
CONTINUOUS
 10
5.7347006603
 20
1.9116823515
 40
0.2661006033
100
AcDbArc
 50
327.6706509937
 51
330.0209818179
  0
ARC
  5
2D8
100
AcDbEntity
  8
0
100
AcDbCircle
 62
6
  6
CONTINUOUS
 10
5.7357817812
 20
1.9608164614
 40
0.2648479765
100
AcDbArc
 50
328.0294842553
 51
330.3436590906
  0
ARC
  5
2D9
100
AcDbEntity
  8
0
100
AcDbCircle
 62
6
  6
CONTINUOUS
 10
5.763843435
 20
1.9619726247
 40
0.2335500583
100
AcDbArc
 50
336.6662580378
 51
343.5730917974
  0
ARC
  5
2DA
100
AcDbEntity
  8
0
100
AcDbCircle
 62
6
  6
CONTINUOUS
 10
5.7749183353
 20
1.9588190887
 40
0.2220354525
100
AcDbArc
 50
343.5454600139
 51
352.7034252271
  0
ARC
  5
2DB
100
AcDbEntity
  8
0
100
AcDbCircle
 62
6
  6
CONTINUOUS
 10
5.7755073959
 20
1.7946067864
 40
0.2214583128
100
AcDbArc
 50
347.2157854759
 51
349.4770271234
  0
ARC
  5
2DC
100
AcDbEntity
  8
0
100
AcDbCircle
 62
6
  6
CONTINUOUS
 10
5.7758825531
 20
1.8939926437
 40
0.2210737706
100
AcDbArc
 50
347.2374110707
 51
350.2495460433
  0
ARC
  5
2DD
100
AcDbEntity
  8
0
100
AcDbCircle
 62
6
  6
CONTINUOUS
 10
5.7759825392
 20
1.8443242656
 40
0.2209733999
100
AcDbArc
 50
347.2641712943
 51
349.7802401645
  0
ARC
  5
2DE
100
AcDbEntity
  8
0
100
AcDbCircle
 62
6
  6
CONTINUOUS
 10
5.7764059362
 20
1.9436470413
 40
0.2205400376
100
AcDbArc
 50
347.2824647222
 51
350.5658470635
  0
ARC
  5
2DF
100
AcDbEntity
  8
0
100
AcDbCircle
 62
6
  6
CONTINUOUS
 10
5.7773281966
 20
1.907093892
 40
0.2195760073
100
AcDbArc
 50
343.9264347646
 51
356.3803825423
  0
ARC
  5
2E0
100
AcDbEntity
  8
0
100
AcDbCircle
 62
6
  6
CONTINUOUS
 10
5.777593487
 20
1.855801682
 40
0.2193084264
100
AcDbArc
 50
344.2435629111
 51
356.7524129796
  0
ARC
  5
2E1
100
AcDbEntity
  8
0
100
AcDbCircle
 62
6
  6
CONTINUOUS
 10
5.7780406967
 20
1.8043604523
 40
0.2188558579
100
AcDbArc
 50
344.6672477021
 51
357.2149691867
  0
ARC
  5
2E2
100
AcDbEntity
  8
0
100
AcDbCircle
 62
6
  6
CONTINUOUS
 10
5.7785378673
 20
1.8438472987
 40
0.2183739885
100
AcDbArc
 50
349.7844440997
 51
350.9056728687
  0
ARC
  5
2E3
100
AcDbEntity
  8
0
100
AcDbCircle
 62
6
  6
CONTINUOUS
 10
5.7789934407
 20
1.9431866166
 40
0.217912062
100
AcDbArc
 50
350.5737531205
 51
350.9017636532
  0
ARC
  5
2E4
100
AcDbEntity
  8
0
100
AcDbCircle
 62
6
  6
CONTINUOUS
 10
5.7809182472
 20
1.957909496
 40
0.2159686501
100
AcDbArc
 50
352.7406214689
 51
355.9893247382
  0
ARC
  5
2E5
100
AcDbEntity
  8
0
100
AcDbCircle
 62
6
  6
CONTINUOUS
 10
5.7810786852
 20
1.7936537071
 40
0.2158066771
100
AcDbArc
 50
349.4556725116
 51
0.0057025496
  0
ARC
  5
2E6
100
AcDbEntity
  8
0
100
AcDbCircle
 62
6
  6
CONTINUOUS
 10
5.7811476207
 20
1.9428885451
 40
0.2157378561
100
AcDbArc
 50
350.8894635468
 51
359.9655841463
  0
ARC
  5
2E7
100
AcDbEntity
  8
0
100
AcDbCircle
 62
6
  6
CONTINUOUS
 10
5.7811683357
 20
1.8434710687
 40
0.2157171241
100
AcDbArc
 50
350.8939139291
 51
359.9653291347
  0
ARC
  5
2E8
100
AcDbEntity
  8
0
100
AcDbCircle
 62
6
  6
CONTINUOUS
 10
5.7812581859
 20
1.8931150237
 40
0.2156271638
100
AcDbArc
 50
350.2374664886
 51
0.0138197625
  0
ARC
  5
2E9
100
AcDbEntity
  8
0
100
AcDbCircle
 62
6
  6
CONTINUOUS
 10
5.781315004
 20
1.7528227018
 40
0.2155703687
100
AcDbArc
 50
0.0186382721
 51
4.9969667998
  0
ARC
  5
2EA
100
AcDbEntity
  8
0
100
AcDbCircle
 62
6
  6
CONTINUOUS
 10
5.7813525278
 20
1.9578581504
 40
0.2155328408
100
AcDbArc
 50
0.0266707489
 51
4.1450095312
  0
ARC
  5
2EB
100
AcDbEntity
  8
0
100
AcDbCircle
 62
6
  6
CONTINUOUS
 10
5.7813844518
 20
1.8553851782
 40
0.2155009097
100
AcDbArc
 50
0.0234872447
 51
4.5376692689
  0
ARC
  5
2EC
100
AcDbEntity
  8
0
100
AcDbCircle
 62
6
  6
CONTINUOUS
 10
5.7815252574
 20
1.8040460924
 40
0.2153601872
100
AcDbArc
 50
357.2534602125
 51
5.8788994287
  0
ARC
  5
2ED
100
AcDbEntity
  8
0
100
AcDbCircle
 62
6
  6
CONTINUOUS
 10
5.7815577285
 20
1.9066623863
 40
0.2153277329
100
AcDbArc
 50
356.4239209618
 51
5.405922204
  0
ARC
  5
2EE
100
AcDbEntity
  8
0
100
AcDbCircle
 62
6
  6
CONTINUOUS
 10
5.7815875933
 20
1.9578641637
 40
0.2152977725
100
AcDbArc
 50
355.9889004604
 51
0.0250996022
  0
ARC
  5
2EF
100
AcDbEntity
  8
0
100
AcDbCircle
 62
6
  6
CONTINUOUS
 10
5.7816295171
 20
1.7528323552
 40
0.2152558526
100
AcDbArc
 50
357.5951207603
 51
0.0160960064
  0
ARC
  5
2F0
100
AcDbEntity
  8
0
100
AcDbCircle
 62
6
  6
CONTINUOUS
 10
5.7816437641
 20
1.8553933308
 40
0.2152415942
100
AcDbArc
 50
356.7998603273
 51
0.0213453981
  0
ARC
  5
2F1
100
AcDbEntity
  8
0
100
AcDbCircle
 62
6
  6
CONTINUOUS
 10
5.579502469
 20
2.1641169968
 40
0.5708517286
100
AcDbArc
 50
271.1176526708
 51
271.241629968
  0
ARC
  5
2F2
100
AcDbEntity
  8
0
100
AcDbCircle
 62
6
  6
CONTINUOUS
 10
5.5795258505
 20
2.2230023184
 40
0.5345223202
100
AcDbArc
 50
271.1733937596
 51
271.9020474111
  0
ARC
  5
2F3
100
AcDbEntity
  8
0
100
AcDbCircle
 62
6
  6
CONTINUOUS
 10
5.5795900049
 20
2.1191325151
 40
0.5292026784
100
AcDbArc
 50
271.1810123051
 51
271.6704162453
  0
ARC
  5
2F4
100
AcDbEntity
  8
0
100
AcDbCircle
 62
6
  6
CONTINUOUS
 10
5.5957898222
 20
2.1051339796
 40
0.4638198678
100
AcDbArc
 50
289.9518975742
 51
290.3944776007
  0
ARC
  5
2F5
100
AcDbEntity
  8
0
100
AcDbCircle
 62
6
  6
CONTINUOUS
 10
5.7367614772
 20
2.0100434229
 40
0.2637060632
100
AcDbArc
 50
328.3459421735
 51
330.711727355
  0
ARC
  5
2F6
100
AcDbEntity
  8
0
100
AcDbCircle
 62
6
  6
CONTINUOUS
 10
5.7379358744
 20
2.0590063476
 40
0.2623399802
100
AcDbArc
 50
328.7524757531
 51
331.0827481995
  0
ARC
  5
2F7
100
AcDbEntity
  8
0
100
AcDbCircle
 62
6
  6
CONTINUOUS
 10
5.7468545504
 20
2.0947596374
 40
0.2451502366
100
AcDbArc
 50
330.8376038489
 51
333.3090672059
  0
ARC
  5
2F8
100
AcDbEntity
  8
0
100
AcDbCircle
 62
6
  6
CONTINUOUS
 10
5.7532544992
 20
2.0508414451
 40
0.2449833301
100
AcDbArc
 50
331.0218549744
 51
339.5918094617
  0
ARC
  5
2F9
100
AcDbEntity
  8
0
100
AcDbCircle
 62
6
  6
CONTINUOUS
 10
5.7532091983
 20
2.0915857323
 40
0.2380470777
100
AcDbArc
 50
333.3045749736
 51
335.5526889397
  0
ARC
  5
2FA
100
AcDbEntity
  8
0
100
AcDbCircle
 62
6
  6
CONTINUOUS
 10
5.7636368791
 20
2.1262074284
 40
0.2348116315
100
AcDbArc
 50
332.9602582996
 51
335.8252446727
  0
ARC
  5
2FB
100
AcDbEntity
  8
0
100
AcDbCircle
 62
6
  6
CONTINUOUS
 10
5.7631470135
 20
2.0648517531
 40
0.2342952089
100
AcDbArc
 50
336.6590840977
 51
342.8376830544
  0
ARC
  5
2FC
100
AcDbEntity
  8
0
100
AcDbCircle
 62
6
  6
CONTINUOUS
 10
5.7644839604
 20
2.0464148451
 40
0.2329152523
100
AcDbArc
 50
339.6491189697
 51
342.6478025057
  0
ARC
  5
2FD
100
AcDbEntity
  8
0
100
AcDbCircle
 62
6
  6
CONTINUOUS
 10
5.763087007
 20
2.0872959582
 40
0.227279615
100
AcDbArc
 50
335.5065985079
 51
342.155002987
  0
ARC
  5
2FE
100
AcDbEntity
  8
0
100
AcDbCircle
 62
6
  6
CONTINUOUS
 10
5.7705679396
 20
2.0445035618
 40
0.2265381286
100
AcDbArc
 50
342.6502776132
 51
347.2897375964
  0
ARC
  5
2FF
100
AcDbEntity
  8
0
100
AcDbCircle
 62
6
  6
CONTINUOUS
 10
5.7723897868
 20
2.1223881357
 40
0.2252622895
100
AcDbArc
 50
335.7997695334
 51
340.6461073469
  0
ARC
  5
300
100
AcDbEntity
  8
0
100
AcDbCircle
 62
6
  6
CONTINUOUS
 10
5.7744443944
 20
2.0615189382
 40
0.2225174746
100
AcDbArc
 50
342.7992620054
 51
352.6756495507
  0
ARC
  5
301
100
AcDbEntity
  8
0
100
AcDbCircle
 62
6
  6
CONTINUOUS
 10
5.7762740832
 20
1.9934849573
 40
0.2206746846
100
AcDbArc
 50
347.1950501593
 51
350.9735174967
  0
ARC
  5
302
100
AcDbEntity
  8
0
100
AcDbCircle
 62
6
  6
CONTINUOUS
 10
5.7765403871
 20
2.0097869668
 40
0.2203740931
100
AcDbArc
 50
343.1638604262
 51
355.5841465225
  0
ARC
  5
303
100
AcDbEntity
  8
0
100
AcDbCircle
 62
6
  6
CONTINUOUS
 10
5.7765844959
 20
2.0430855633
 40
0.2203570257
100
AcDbArc
 50
347.3052037905
 51
350.9194885747
  0
ARC
  5
304
100
AcDbEntity
  8
0
100
AcDbCircle
 62
6
  6
CONTINUOUS
 10
5.7711610831
 20
2.0846721004
 40
0.218789929
100
AcDbArc
 50
342.1611250103
 51
345.343570535
  0
ARC
  5
305
100
AcDbEntity
  8
0
100
AcDbCircle
 62
6
  6
CONTINUOUS
 10
5.7792662235
 20
2.0426203357
 40
0.2176354865
100
AcDbArc
 50
350.9290084967
 51
351.1979838726
  0
ARC
  5
306
100
AcDbEntity
  8
0
100
AcDbCircle
 62
6
  6
CONTINUOUS
 10
5.7803409224
 20
2.1196129876
 40
0.2168407863
100
AcDbArc
 50
340.641695065
 51
344.2153040667
  0
ARC
  5
307
100
AcDbEntity
  8
0
100
AcDbCircle
 62
6
  6
CONTINUOUS
 10
5.7807557958
 20
2.0604358976
 40
0.2161295815
100
AcDbArc
 50
0.0327800424
 51
9.3014759489
  0
ARC
  5
308
100
AcDbEntity
  8
0
100
AcDbCircle
 62
6
  6
CONTINUOUS
 10
5.7808100798
 20
2.0605291476
 40
0.2160776134
100
AcDbArc
 50
352.7207743332
 51
355.1594078013
  0
ARC
  5
309
100
AcDbEntity
  8
0
100
AcDbCircle
 62
6
  6
CONTINUOUS
 10
5.7811787375
 20
2.0423666352
 40
0.2157066788
100
AcDbArc
 50
351.1868434582
 51
359.9661196669
  0
ARC
  5
30A
100
AcDbEntity
  8
0
100
AcDbCircle
 62
6
  6
CONTINUOUS
 10
5.781488723
 20
1.9926691739
 40
0.2153966345
100
AcDbArc
 50
350.9702060037
 51
0.0194124942
  0
ARC
  5
30B
100
AcDbEntity
  8
0
100
AcDbCircle
 62
6
  6
CONTINUOUS
 10
5.7815284975
 20
2.0092094678
 40
0.2153569022
100
AcDbArc
 50
355.6335184329
 51
4.9205002607
  0
ARC
  5
30C
100
AcDbEntity
  8
0
100
AcDbCircle
 62
6
  6
CONTINUOUS
 10
5.7815942152
 20
2.0604683679
 40
0.2152911459
100
AcDbArc
 50
355.1579160422
 51
0.0242663403
  0
ARC
  5
30D
100
AcDbEntity
  8
0
100
AcDbCircle
 62
6
  6
CONTINUOUS
 10
5.7831114941
 20
2.1188122127
 40
0.2139568623
100
AcDbArc
 50
344.2198346441
 51
344.4986441673
  0
ARC
  5
30E
100
AcDbEntity
  8
0
100
AcDbCircle
 62
6
  6
CONTINUOUS
 10
5.7784874863
 20
2.082862029
 40
0.2112439602
100
AcDbArc
 50
345.3157501584
 51
352.9434425636
  0
LINE
  5
30F
100
AcDbEntity
  8
0
100
AcDbLine
 62
6
  6
CONTINUOUS
 10
5.590637207
 20
1.4441356673
 11
5.59143444
 21
1.4441517675
  0
SPLINE
  5
310
100
AcDbEntity
  8
0
100
AcDbSpline
 62
6
  6
CONTINUOUS
 70
0
 71
3
 72
25
 73
21
 74
19
 42
0.0000001
 43
0.0000001
 44
0.0000000001
 12
0.5545736106
 22
0.0115871705
 32
0.0
 13
0.0002189428
 23
0.5546946044
 33
0.0
 40
0.0
 40
0.0
 40
0.0
 40
0.0
 40
0.0717460161
 40
0.143321202
 40
0.2142852669
 40
0.2843217442
 40
0.3531653737
 40
0.4205661445
 40
0.4863008915
 40
0.5502111165
 40
0.6121976439
 40
0.672234187
 40
0.7015431673
 40
0.730388198
 40
0.7867488719
 40
0.8143420142
 40
0.8415796242
 40
0.8951279867
 40
0.947792667
 40
1.0
 40
1.0
 40
1.0
 40
1.0
 10
5.59143444
 20
1.4441517675
 30
0.0
 10
5.6046972557
 20
1.4444288787
 30
0.0
 10
5.6311809943
 20
1.44590453
 30
0.0
 10
5.6705242532
 20
1.4508403463
 30
0.0
 10
5.7091132087
 20
1.4584839894
 30
0.0
 10
5.746564784
 20
1.4687552467
 30
0.0
 10
5.7825261733
 20
1.4815739079
 30
0.0
 10
5.8166630582
 20
1.4968155785
 30
0.0
 10
5.8486448097
 20
1.5143560525
 30
0.0
 10
5.8781685609
 20
1.534031731
 30
0.0
 10
5.9049482815
 20
1.5556691376
 30
0.0
 10
5.9249273269
 20
1.5753340295
 30
0.0
 10
5.9392506673
 20
1.5918516387
 30
0.0
 10
5.9522392575
 20
1.6085831767
 30
0.0
 10
5.9636456299
 20
1.6261094068
 30
0.0
 10
5.9732798027
 20
1.6442835561
 30
0.0
 10
5.9815711166
 20
1.6625385202
 30
0.0
 10
5.9896564359
 20
1.6859287307
 30
0.0
 10
5.995561864
 20
1.7147008657
 30
0.0
 10
5.9968816472
 20
1.7341167254
 30
0.0
 10
5.9968854574
 20
1.7437697674
 30
0.0
 11
5.59143444
 21
1.4441517675
 31
0.0
 11
5.6311700496
 21
1.4463637747
 31
0.0
 11
5.6705619914
 21
1.4513189035
 31
0.0
 11
5.7091724075
 21
1.4589812795
 31
0.0
 11
5.7466314153
 21
1.4692796573
 31
0.0
 11
5.7825926388
 21
1.4821269177
 31
0.0
 11
5.8167158236
 21
1.4974038471
 31
0.0
 11
5.8486662691
 21
1.5149736627
 31
0.0
 11
5.878139315
 21
1.5346736334
 31
0.0
 11
5.9048510394
 21
1.556323469
 31
0.0
 11
5.9285470038
 21
1.5797226375
 31
0.0
 11
5.9391921836
 21
1.5920103376
 31
0.0
 11
5.9489982277
 21
1.6046534145
 31
0.0
 11
5.9660069031
 21
1.6308846533
 31
0.0
 11
5.973169775
 21
1.644410917
 31
0.0
 11
5.9794121032
 21
1.6581696167
 31
0.0
 11
5.9890806863
 21
1.6862549531
 31
0.0
 11
5.9949258724
 21
1.7148770151
 31
0.0
 11
5.9968854574
 21
1.7437697674
 31
0.0
  0
LINE
  5
311
100
AcDbEntity
  8
0
100
AcDbLine
 62
6
  6
CONTINUOUS
 10
5.590637207
 20
1.4939240191
 11
5.591577852
 21
1.4939431233
  0
SPLINE
  5
312
100
AcDbEntity
  8
0
100
AcDbSpline
 62
6
  6
CONTINUOUS
 70
0
 71
3
 72
23
 73
19
 74
17
 42
0.0000001
 43
0.0000001
 44
0.0000000001
 12
0.506130368
 22
0.0106965727
 32
0.0
 13
0.1120104838
 23
0.4936962807
 33
0.0
 40
0.0
 40
0.0
 40
0.0
 40
0.0
 40
0.0704206496
 40
0.1407351488
 40
0.2105860873
 40
0.2796980306
 40
0.3478550687
 40
0.4148551843
 40
0.4805076536
 40
0.5446466477
 40
0.6071590575
 40
0.6679735702
 40
0.7270699379
 40
0.7844829971
 40
0.8403011023
 40
0.894678757
 40
0.9478225837
 40
1.0
 40
1.0
 40
1.0
 40
1.0
 10
5.591577852
 20
1.4939431233
 30
0.0
 10
5.6034585285
 20
1.4941942098
 30
0.0
 10
5.6271927784
 20
1.4954365522
 30
0.0
 10
5.6625189677
 20
1.4994889275
 30
0.0
 10
5.697304536
 20
1.5057202811
 30
0.0
 10
5.7312648585
 20
1.514085813
 30
0.0
 10
5.7641442714
 20
1.5245215853
 30
0.0
 10
5.7956932341
 20
1.5369625195
 30
0.0
 10
5.8256759204
 20
1.5513064462
 30
0.0
 10
5.8538545244
 20
1.5674639261
 30
0.0
 10
5.880015898
 20
1.5853094122
 30
0.0
 10
5.9039595606
 20
1.6047159719
 30
0.0
 10
5.9254975567
 20
1.6255466291
 30
0.0
 10
5.9444709982
 20
1.6476427144
 30
0.0
 10
5.9607176846
 20
1.6708534547
 30
0.0
 10
5.9741218195
 20
1.6949987965
 30
0.0
 10
5.9845615802
 20
1.7199016518
 30
0.0
 10
5.9895276967
 20
1.7370159304
 30
0.0
 10
5.9914758359
 20
1.7456025292
 30
0.0
 11
5.591577852
 21
1.4939431233
 31
0.0
 11
5.6271792129
 21
1.4958045095
 31
0.0
 11
5.6625426126
 21
1.4998693576
 31
0.0
 11
5.6973482649
 21
1.5061149634
 31
0.0
 11
5.7313169262
 21
1.5144966523
 31
0.0
 11
5.7641980816
 21
1.5249541409
 31
0.0
 11
5.795744177
 21
1.5374160578
 31
0.0
 11
5.8257130368
 21
1.5517864325
 31
0.0
 11
5.8538661844
 21
1.5679634961
 31
0.0
 11
5.8799898659
 21
1.5858255747
 31
0.0
 11
5.9038830581
 21
1.6052408094
 31
0.0
 11
5.9253614889
 21
1.6260665769
 31
0.0
 11
5.9442632467
 21
1.6481459044
 31
0.0
 11
5.9604369013
 21
1.6713170466
 31
0.0
 11
5.9737640421
 21
1.6954043081
 31
0.0
 11
5.9841361883
 21
1.7202282529
 31
0.0
 11
5.9914758359
 21
1.7456025292
 31
0.0
  0
LINE
  5
313
100
AcDbEntity
  8
0
100
AcDbLine
 62
6
  6
CONTINUOUS
 10
5.590637207
 20
1.5437038465
 11
5.591714387
 21
1.5437260512
  0
SPLINE
  5
314
100
AcDbEntity
  8
0
100
AcDbSpline
 62
6
  6
CONTINUOUS
 70
0
 71
3
 72
21
 73
17
 74
15
 42
0.0000001
 43
0.0000001
 44
0.0000000001
 12
0.421905889
 22
0.0090951925
 32
0.0
 13
0.2277872817
 23
0.3552467537
 33
0.0
 40
0.0
 40
0.0
 40
0.0
 40
0.0
 40
0.0680059991
 40
0.1359824232
 40
0.2036991398
 40
0.270949621
 40
0.4034306417
 40
0.4684489884
 40
0.5324720817
 40
0.5953865256
 40
0.6571000779
 40
0.7766166586
 40
0.8344154723
 40
0.8908867225
 40
0.9460604977
 40
1.0
 40
1.0
 40
1.0
 40
1.0
 10
5.591714387
 20
1.5437260512
 30
0.0
 10
5.6012784308
 20
1.5439322271
 30
0.0
 10
5.6203954752
 20
1.5448245386
 30
0.0
 10
5.6489270738
 20
1.5475867027
 30
0.0
 10
5.6771810699
 20
1.5517641194
 30
0.0
 10
5.7140782614
 20
1.5591692994
 30
0.0
 10
5.7499981432
 20
1.5693184628
 30
0.0
 10
5.7844718123
 20
1.5822031661
 30
0.0
 10
5.8092092244
 20
1.593064938
 30
0.0
 10
5.8328609823
 20
1.6051364558
 30
0.0
 10
5.8624601645
 20
1.6225811902
 30
0.0
 10
5.8898072798
 20
1.6423447958
 30
0.0
 10
5.9143169309
 20
1.6643054083
 30
0.0
 10
5.9308912509
 20
1.6814667489
 30
0.0
 10
5.9457678334
 20
1.6994181688
 30
0.0
 10
5.9545993718
 20
1.7119963456
 30
0.0
 10
5.9586949493
 20
1.7183836233
 30
0.0
 11
5.591714387
 21
1.5437260512
 31
0.0
 11
5.6203820387
 21
1.5450627393
 31
0.0
 11
5.6489346264
 21
1.547829418
 31
0.0
 11
5.6772031442
 21
1.5520150823
 31
0.0
 11
5.7050272995
 21
1.5576042558
 31
0.0
 11
5.7588084874
 21
1.5728762366
 31
0.0
 11
5.7845064016
 21
1.5824918939
 31
0.0
 11
5.8092391655
 21
1.5933667497
 31
0.0
 11
5.8328801575
 21
1.6054503546
 31
0.0
 11
5.8553088687
 21
1.6186870287
 31
0.0
 11
5.8960972957
 21
1.6483542022
 31
0.0
 11
5.9142508297
 21
1.6646448732
 31
0.0
 11
5.9307904207
 21
1.6818018749
 31
0.0
 11
5.9456303213
 21
1.6997434747
 31
0.0
 11
5.9586949493
 21
1.7183836233
 31
0.0
  0
SPLINE
  5
315
100
AcDbEntity
  8
0
100
AcDbSpline
 62
6
  6
CONTINUOUS
 70
0
 71
3
 72
11
 73
7
 74
5
 42
0.0000001
 43
0.0000001
 44
0.0000000001
 12
0.03719427
 22
0.0634929159
 32
0.0
 13
0.0162202479
 23
0.0717751186
 33
0.0
 40
0.0
 40
0.0
 40
0.0
 40
0.0
 40
0.2554534619
 40
0.5068772153
 40
0.7548444648
 40
1.0
 40
1.0
 40
1.0
 40
1.0
 10
5.9643071768
 20
1.7275344146
 30
0.0
 10
5.9674743118
 20
1.7329409097
 30
0.0
 10
5.9733773414
 20
1.7438980107
 30
0.0
 10
5.9809188313
 20
1.7608266949
 30
0.0
 10
5.9870473122
 20
1.7780491291
 30
0.0
 10
5.9901938089
 20
1.7897439556
 30
0.0
 10
5.9915193034
 20
1.7956093114
 30
0.0
 11
5.9643071768
 21
1.7275344146
 31
0.0
 11
5.973211191
 21
1.7440893815
 31
0.0
 11
5.9807306273
 21
1.7609934181
 31
0.0
 11
5.9868397282
 21
1.7781870385
 31
0.0
 11
5.9915193034
 21
1.7956093114
 31
0.0
  0
SPLINE
  5
316
100
AcDbEntity
  8
0
100
AcDbSpline
 62
6
  6
CONTINUOUS
 70
0
 71
3
 72
23
 73
19
 74
17
 42
0.0000001
 43
0.0000001
 44
0.0000000001
 12
0.4233848378
 22
0.0091763638
 32
0.0
 13
0.2264543998
 23
0.3578509904
 33
0.0
 40
0.0
 40
0.0
 40
0.0
 40
0.0
 40
0.0680425842
 40
0.136055083
 40
0.2038068685
 40
0.2710893191
 40
0.3377524383
 40
0.4036615809
 40
0.4686892485
 40
0.53271276
 40
0.5956183183
 40
0.6573111679
 40
0.7177273703
 40
0.7768215833
 40
0.8345727721
 40
0.8909917397
 40
0.9461124884
 40
1.0
 40
1.0
 40
1.0
 40
1.0
 10
5.5918721608
 20
1.5933993024
 30
0.0
 10
5.6014748937
 20
1.5936074303
 30
0.0
 10
5.6206690677
 20
1.5945076929
 30
0.0
 10
5.6493150312
 20
1.5972939036
 30
0.0
 10
5.677678821
 20
1.6015068972
 30
0.0
 10
5.7056014005
 20
1.6071374098
 30
0.0
 10
5.7329408122
 20
1.6141514278
 30
0.0
 10
5.7595644734
 20
1.6225173147
 30
0.0
 10
5.7853401375
 20
1.6322021828
 30
0.0
 10
5.8101416688
 20
1.6431533677
 30
0.0
 10
5.833843472
 20
1.6553197256
 30
0.0
 10
5.8563215009
 20
1.6686506121
 30
0.0
 10
5.8774668801
 20
1.6830750847
 30
0.0
 10
5.8971740985
 20
1.6985255949
 30
0.0
 10
5.9153395557
 20
1.7149337975
 30
0.0
 10
5.9318776898
 20
1.732215198
 30
0.0
 10
5.9467020785
 20
1.7502875387
 30
0.0
 10
5.9554847908
 20
1.7629477732
 30
0.0
 10
5.9595524788
 20
1.769375673
 30
0.0
 11
5.5918721608
 21
1.5933993024
 31
0.0
 11
5.6206555477
 21
1.5947479292
 31
0.0
 11
5.6493222544
 21
1.5975386279
 31
0.0
 11
5.677701791
 21
1.6017602597
 31
0.0
 11
5.7056316597
 21
1.6073973575
 31
0.0
 11
5.7329748579
 21
1.6144206462
 31
0.0
 11
5.759599456
 21
1.6227981026
 31
0.0
 11
5.7853743984
 21
1.6324936938
 31
0.0
 11
5.8101715984
 21
1.6434577682
 31
0.0
 11
5.8338635992
 21
1.6556377858
 31
0.0
 11
5.8563270248
 21
1.6689779448
 31
0.0
 11
5.8774526058
 21
1.6834111698
 31
0.0
 11
5.8971341237
 21
1.6988679477
 31
0.0
 11
5.9152703067
 21
1.7152755685
 31
0.0
 11
5.9317739888
 21
1.7325522059
 31
0.0
 11
5.9465605299
 21
1.750614407
 31
0.0
 11
5.9595524788
 21
1.769375673
 31
0.0
  0
SPLINE
  5
317
100
AcDbEntity
  8
0
100
AcDbSpline
 62
6
  6
CONTINUOUS
 70
0
 71
3
 72
9
 73
5
 74
3
 42
0.0000001
 43
0.0000001
 44
0.0000000001
 12
0.0357953173
 22
0.062074407
 32
0.0
 13
0.0158268707
 23
0.0698859564
 33
0.0
 40
0.0
 40
0.0
 40
0.0
 40
0.0
 40
0.5066694233
 40
1.0
 40
1.0
 40
1.0
 40
1.0
 10
5.9651992505
 20
1.77871645
 30
0.0
 10
5.9712447148
 20
1.7892001847
 30
0.0
 10
5.9817532015
 20
1.8107550634
 30
0.0
 10
5.9888918058
 20
1.8336625614
 30
0.0
 10
5.9914944322
 20
1.8451548545
 30
0.0
 11
5.9651992505
 21
1.77871645
 31
0.0
 11
5.9810282769
 21
1.8113898168
 31
0.0
 11
5.9914944322
 21
1.8451548545
 31
0.0
  0
SPLINE
  5
318
100
AcDbEntity
  8
0
100
AcDbSpline
 62
6
  6
CONTINUOUS
 70
0
 71
3
 72
20
 73
16
 74
14
 42
0.0000001
 43
0.0000001
 44
0.0000000001
 12
0.4262565964
 22
0.0083047099
 32
0.0
 13
0.2257196999
 23
0.3616825559
 33
0.0
 40
0.0
 40
0.0
 40
0.0
 40
0.0
 40
0.0680862317
 40
0.1361480341
 40
0.2039497626
 40
0.2712797106
 40
0.4038874304
 40
0.4689480462
 40
0.5329953726
 40
0.6575529113
 40
0.7769753979
 40
0.8347013403
 40
0.8910853843
 40
0.9461616377
 40
1.0
 40
1.0
 40
1.0
 40
1.0
 10
5.590637207
 20
1.6431581547
 30
0.0
 10
5.6003112755
 20
1.6433466335
 30
0.0
 10
5.6196499494
 20
1.6442150662
 30
0.0
 10
5.648513546
 20
1.6469749614
 30
0.0
 10
5.6770956659
 20
1.6511833366
 30
0.0
 10
5.71441267
 20
1.6586727379
 30
0.0
 10
5.7507277599
 20
1.6689692494
 30
0.0
 10
5.785556824
 20
1.6820646039
 30
0.0
 10
5.8185407721
 20
1.6966525223
 30
0.0
 10
5.8569701253
 20
1.7178483996
 30
0.0
 10
5.8916883389
 20
1.7432470298
 30
0.0
 10
5.9162583237
 20
1.7655948591
 30
0.0
 10
5.9328264904
 20
1.783051261
 30
0.0
 10
5.9476467645
 20
1.8013070728
 30
0.0
 10
5.9564070034
 20
1.8140932168
 30
0.0
 10
5.9604577964
 20
1.8205840157
 30
0.0
 11
5.590637207
 21
1.6431581547
 31
0.0
 11
5.6196357665
 21
1.6444587979
 31
0.0
 11
5.6485210804
 21
1.6472232543
 31
0.0
 11
5.677118264
 21
1.6514401402
 31
0.0
 11
5.7052613428
 21
1.6570934819
 31
0.0
 11
5.7596321319
 21
1.6725885176
 31
0.0
 11
5.7855916607
 21
1.6823602768
 31
0.0
 11
5.8105580561
 21
1.69341851
 31
0.0
 11
5.8569948094
 21
1.7191792316
 31
0.0
 11
5.8979939138
 21
1.7493676011
 31
0.0
 11
5.9161868657
 21
1.7659418188
 31
0.0
 11
5.932718648
 21
1.7833933514
 31
0.0
 11
5.9475008134
 21
1.8016374821
 31
0.0
 11
5.9604577964
 21
1.8205840157
 31
0.0
  0
SPLINE
  5
319
100
AcDbEntity
  8
0
100
AcDbSpline
 62
6
  6
CONTINUOUS
 70
0
 71
3
 72
11
 73
7
 74
5
 42
0.0000001
 43
0.0000001
 44
0.0000000001
 12
0.0348256352
 22
0.0611862091
 32
0.0
 13
0.0154955634
 23
0.0686765213
 33
0.0
 40
0.0
 40
0.0
 40
0.0
 40
0.0
 40
0.2551458231
 40
0.506493286
 40
0.7545794852
 40
1.0
 40
1.0
 40
1.0
 40
1.0
 10
5.9659370032
 20
1.8297705747
 30
0.0
 10
5.9688988749
 20
1.8349743766
 30
0.0
 10
5.9744241501
 20
1.8455115227
 30
0.0
 10
5.9815002449
 20
1.8617612845
 30
0.0
 10
5.9872783743
 20
1.878275282
 30
0.0
 10
5.9902678693
 20
1.8894780997
 30
0.0
 10
5.9915355124
 20
1.8950963088
 30
0.0
 11
5.9659370032
 21
1.8297705747
 31
0.0
 11
5.9742687625
 21
1.8456844659
 31
0.0
 11
5.9813258893
 21
1.8619119558
 31
0.0
 11
5.9870870734
 21
1.8784004375
 31
0.0
 11
5.9915355124
 21
1.8950963088
 31
0.0
  0
SPLINE
  5
31A
100
AcDbEntity
  8
0
100
AcDbSpline
 62
6
  6
CONTINUOUS
 70
0
 71
3
 72
20
 73
16
 74
14
 42
0.0000001
 43
0.0000001
 44
0.0000000001
 12
0.4296202146
 22
0.0083850433
 32
0.0
 13
0.2228829978
 23
0.3673785609
 33
0.0
 40
0.0
 40
0.0
 40
0.0
 40
0.0
 40
0.0681791256
 40
0.136331509
 40
0.2042165785
 40
0.2716197795
 40
0.4043361258
 40
0.4694291551
 40
0.5334907019
 40
0.6580157396
 40
0.7773300484
 40
0.8349795867
 40
0.8912757441
 40
0.946257054
 40
1.0
 40
1.0
 40
1.0
 40
1.0
 10
5.590637207
 20
1.7426143055
 30
0.0
 10
5.6004009172
 20
1.7428048672
 30
0.0
 10
5.6199184192
 20
1.7436866281
 30
0.0
 10
5.6490460163
 20
1.746493411
 30
0.0
 10
5.6778837962
 20
1.7507754833
 30
0.0
 10
5.7155197105
 20
1.7583963069
 30
0.0
 10
5.7521266907
 20
1.7688744799
 30
0.0
 10
5.7872065912
 20
1.7822007759
 30
0.0
 10
5.8203932459
 20
1.7970392517
 30
0.0
 10
5.8590030213
 20
1.8185922934
 30
0.0
 10
5.8937983564
 20
1.8444127461
 30
0.0
 10
5.918344912
 20
1.8671172263
 30
0.0
 10
5.9348517773
 20
1.8848419821
 30
0.0
 10
5.9495664608
 20
1.9033703428
 30
0.0
 10
5.9582265218
 20
1.9163397371
 30
0.0
 10
5.9622193181
 20
1.9229210725
 30
0.0
 11
5.590637207
 21
1.7426143055
 31
0.0
 11
5.619904137
 21
1.7439348982
 31
0.0
 11
5.6490540776
 21
1.7467464705
 31
0.0
 11
5.6779071296
 21
1.7510372577
 31
0.0
 11
5.7062932646
 21
1.7567904875
 31
0.0
 11
5.7610982439
 21
1.7725595147
 31
0.0
 11
5.7872418334
 21
1.7825027329
 31
0.0
 11
5.8123653023
 21
1.793752968
 31
0.0
 11
5.8590214473
 21
1.8199518428
 31
0.0
 11
5.9000963322
 21
1.8506345062
 31
0.0
 11
5.9182680933
 21
1.8674703376
 31
0.0
 11
5.9347368318
 21
1.8851893807
 31
0.0
 11
5.9494122683
 21
1.9037042295
 31
0.0
 11
5.9622193181
 21
1.9229210725
 31
0.0
  0
SPLINE
  5
31B
100
AcDbEntity
  8
0
100
AcDbSpline
 62
6
  6
CONTINUOUS
 70
0
 71
3
 72
22
 73
18
 74
16
 42
0.0000001
 43
0.0000001
 44
0.0000000001
 12
0.4277748151
 22
0.0083725044
 32
0.0
 13
0.22451543
 23
0.3642172606
 33
0.0
 40
0.0
 40
0.0
 40
0.0
 40
0.0
 40
0.0681174178
 40
0.1362117415
 40
0.2040465846
 40
0.2714077853
 40
0.3381413798
 40
0.4041094469
 40
0.4691813993
 40
0.5332316015
 40
0.5961438906
 40
0.6578229827
 40
0.7771775132
 40
0.8348575535
 40
0.8911907544
 40
0.9462144897
 40
1.0
 40
1.0
 40
1.0
 40
1.0
 10
5.590637207
 20
1.6929668146
 30
0.0
 10
5.600350179
 20
1.6931569191
 30
0.0
 10
5.6197666955
 20
1.6940324919
 30
0.0
 10
5.6487462141
 20
1.6968146781
 30
0.0
 10
5.6774404848
 20
1.7010563354
 30
0.0
 10
5.7056848503
 20
1.7067480386
 30
0.0
 10
5.7333323313
 20
1.7138547161
 30
0.0
 10
5.7602455982
 20
1.7223437471
 30
0.0
 10
5.7862880565
 20
1.7321807869
 30
0.0
 10
5.8113286679
 20
1.7433105759
 30
0.0
 10
5.8352397115
 20
1.7556822787
 30
0.0
 10
5.8651045943
 20
1.7735582253
 30
0.0
 10
5.8926231824
 20
1.7938132235
 30
0.0
 10
5.91718024
 20
1.8163139066
 30
0.0
 10
5.9337202367
 20
1.8338864536
 30
0.0
 10
5.948495312
 20
1.8522581296
 30
0.0
 10
5.9572113389
 20
1.8651234412
 30
0.0
 10
5.9612365646
 20
1.8716533116
 30
0.0
 11
5.590637207
 21
1.6929668146
 31
0.0
 11
5.6197521875
 21
1.694278144
 31
0.0
 11
5.6487532238
 21
1.6970648458
 31
0.0
 11
5.677463879
 21
1.701315416
 31
0.0
 11
5.7057158429
 21
1.7070139543
 31
0.0
 11
5.7333672189
 21
1.7141302731
 31
0.0
 11
5.7602814674
 21
1.7226312849
 31
0.0
 11
5.7863230241
 21
1.7324793798
 31
0.0
 11
5.8113593467
 21
1.7436229341
 31
0.0
 11
5.8352584823
 21
1.756007613
 31
0.0
 11
5.8578935656
 21
1.7695750505
 31
0.0
 11
5.8989242658
 21
1.7999770802
 31
0.0
 11
5.9171065953
 21
1.8166637747
 31
0.0
 11
5.933609562
 21
1.8342303484
 31
0.0
 11
5.9483455155
 21
1.8525903712
 31
0.0
 11
5.9612365646
 21
1.8716533116
 31
0.0
  0
SPLINE
  5
31C
100
AcDbEntity
  8
0
100
AcDbSpline
 62
6
  6
CONTINUOUS
 70
0
 71
3
 72
11
 73
7
 74
5
 42
0.0000001
 43
0.0000001
 44
0.0000000001
 12
0.0334489184
 22
0.0596560608
 32
0.0
 13
0.0151542228
 23
0.0666935174
 33
0.0
 40
0.0
 40
0.0
 40
0.0
 40
0.0
 40
0.2549701671
 40
0.5062796394
 40
0.7544338829
 40
1.0
 40
1.0
 40
1.0
 40
1.0
 10
5.9667578418
 20
1.8810373764
 30
0.0
 10
5.9696006672
 20
1.8861075483
 30
0.0
 10
5.9749086952
 20
1.8963687858
 30
0.0
 10
5.9817243277
 20
1.9121756377
 30
0.0
 10
5.987310877
 20
1.9282310192
 30
0.0
 10
5.9902201803
 20
1.9391169994
 30
0.0
 10
5.9914606349
 20
1.9445762221
 30
0.0
 11
5.9667578418
 21
1.8810373764
 31
0.0
 11
5.9747608497
 21
1.8965308125
 31
0.0
 11
5.9815586481
 21
1.912317368
 31
0.0
 11
5.9871299951
 21
1.928349019
 31
0.0
 11
5.9914606349
 21
1.9445762221
 31
0.0
  0
SPLINE
  5
31D
100
AcDbEntity
  8
0
100
AcDbSpline
 62
6
  6
CONTINUOUS
 70
0
 71
3
 72
11
 73
7
 74
5
 42
0.0000001
 43
0.0000001
 44
0.0000000001
 12
0.1796843962
 22
-0.0618534628
 32
0.0
 13
0.1899957009
 23
0.0037372107
 33
0.0
 40
0.0
 40
0.0
 40
0.0
 40
0.0
 40
0.2432752593
 40
0.4921049315
 40
0.7449815546
 40
1.0
 40
1.0
 40
1.0
 40
1.0
 10
5.4036531075
 20
1.5721094343
 30
0.0
 10
5.4182240302
 20
1.5670936286
 30
0.0
 10
5.4481989492
 20
1.5583499713
 30
0.0
 10
5.4945618473
 20
1.5492434616
 30
0.0
 10
5.542277373
 20
1.5441109153
 30
0.0
 10
5.5744864043
 20
1.5433861606
 30
0.0
 10
5.590637207
 20
1.5437038465
 30
0.0
 11
5.4036531075
 21
1.5721094343
 31
0.0
 11
5.4480196081
 21
1.5591154168
 31
0.0
 11
5.4944113989
 21
1.5499644392
 31
0.0
 11
5.542187819
 21
1.5447997402
 31
0.0
 11
5.590637207
 21
1.5437038465
 31
0.0
  0
SPLINE
  5
31E
100
AcDbEntity
  8
0
100
AcDbSpline
 62
6
  6
CONTINUOUS
 70
0
 71
3
 72
17
 73
13
 74
11
 42
0.0000001
 43
0.0000001
 44
0.0000000001
 12
0.2581107776
 22
-0.2542787732
 32
0.0
 13
0.3622548799
 23
0.0070901336
 33
0.0
 40
0.0
 40
0.0
 40
0.0
 40
0.0
 40
0.1105806274
 40
0.1677618007
 40
0.2261730881
 40
0.3465357877
 40
0.4712996096
 40
0.5351606626
 40
0.5998714195
 40
0.7314103195
 40
0.8651360824
 40
1.0
 40
1.0
 40
1.0
 40
1.0
 10
5.2567806269
 20
1.8088512482
 30
0.0
 10
5.2662946442
 20
1.7994784794
 30
0.0
 10
5.2816901978
 20
1.7862011828
 30
0.0
 10
5.3038791467
 20
1.770253856
 30
0.0
 10
5.3279417749
 20
1.7549589252
 30
0.0
 10
5.3604687372
 20
1.7378913154
 30
0.0
 10
5.3951569493
 20
1.7239620777
 30
0.0
 10
5.4242969158
 20
1.7146031443
 30
0.0
 10
5.4546298628
 20
1.7063922372
 30
0.0
 10
5.4937780005
 20
1.6986251662
 30
0.0
 10
5.5418750562
 20
1.6933925171
 30
0.0
 10
5.5743521696
 20
1.6926480802
 30
0.0
 10
5.590637207
 20
1.6929668146
 30
0.0
 11
5.2567806269
 21
1.8088512482
 31
0.0
 11
5.2870524913
 21
1.7826043037
 31
0.0
 11
5.3038680353
 21
1.7705014846
 31
0.0
 11
5.3217228472
 21
1.7591386839
 31
0.0
 11
5.3602988007
 21
1.7387976826
 31
0.0
 11
5.4022219949
 21
1.7218880958
 31
0.0
 11
5.4242496247
 21
1.7148050541
 31
0.0
 11
5.4468798516
 21
1.7086731105
 31
0.0
 11
5.4936205963
 21
1.6993589778
 31
0.0
 11
5.5417857303
 21
1.6940935546
 31
0.0
 11
5.590637207
 21
1.6929668146
 31
0.0
  0
SPLINE
  5
31F
100
AcDbEntity
  8
0
100
AcDbSpline
 62
6
  6
CONTINUOUS
 70
0
 71
3
 72
30
 73
26
 74
24
 42
0.0000001
 43
0.0000001
 44
0.0000000001
 12
-0.5782264026
 22
-0.4507896714
 32
0.0
 13
-0.4098630626
 23
0.6079221746
 33
0.0
 40
0.0
 40
0.0
 40
0.0
 40
0.0
 40
0.0598605901
 40
0.1219223729
 40
0.1536845681
 40
0.1858792727
 40
0.2513879789
 40
0.3853480493
 40
0.4529768212
 40
0.4867277703
 40
0.5203478742
 40
0.5537748155
 40
0.5869479574
 40
0.6198101224
 40
0.6523058796
 40
0.7159728713
 40
0.7776035186
 40
0.807573136
 40
0.8369376203
 40
0.8656787771
 40
0.8937851189
 40
0.9212568616
 40
0.9481032848
 40
0.9743414166
 40
1.0
 40
1.0
 40
1.0
 40
1.0
 10
5.8864475444
 20
1.8892135869
 30
0.0
 10
5.8749098865
 20
1.8802187416
 30
0.0
 10
5.8503030634
 20
1.8632857925
 30
0.0
 10
5.8172000704
 20
1.845395815
 30
0.0
 10
5.7890728975
 20
1.8328245067
 30
0.0
 10
5.7595792788
 20
1.8213329115
 30
0.0
 10
5.7054199576
 20
1.804591082
 30
0.0
 10
5.6406176593
 20
1.7938979477
 30
0.0
 10
5.5830826067
 20
1.7918778164
 30
0.0
 10
5.5500933901
 20
1.7928579421
 30
0.0
 10
5.5255168235
 20
1.7946539325
 30
0.0
 10
5.5011818852
 20
1.7975033167
 30
0.0
 10
5.4771799971
 20
1.8013987748
 30
0.0
 10
5.4535989753
 20
1.8063199625
 30
0.0
 10
5.4230481752
 20
1.8141652247
 30
0.0
 10
5.3863974181
 20
1.8263571468
 30
0.0
 10
5.3516771316
 20
1.8418455092
 30
0.0
 10
5.3257197311
 20
1.8560207381
 30
0.0
 10
5.3074134349
 20
1.8673656713
 30
0.0
 10
5.2901578707
 20
1.8794769065
 30
0.0
 10
5.2740203697
 20
1.8923131427
 30
0.0
 10
5.259059975
 20
1.905823095
 30
0.0
 10
5.2453294513
 20
1.9199530614
 30
0.0
 10
5.2328836636
 20
1.934650758
 30
0.0
 10
5.2253946226
 20
1.9449036206
 30
0.0
 10
5.2218891207
 20
1.9501030945
 30
0.0
 11
5.8864475444
 21
1.8892135869
 31
0.0
 11
5.8503484362
 21
1.8642520665
 31
0.0
 11
5.8103533512
 21
1.8425522281
 31
0.0
 11
5.7890966843
 21
1.8330410962
 31
0.0
 11
5.7671051808
 21
1.8244648984
 31
0.0
 11
5.7212328071
 21
1.8102313879
 31
0.0
 11
5.6243590166
 21
1.7940421204
 31
0.0
 11
5.5748053108
 21
1.7923018042
 31
0.0
 11
5.5500706293
 21
1.7930374012
 31
0.0
 11
5.5254866738
 21
1.794836302
 31
0.0
 11
5.501145394
 21
1.7976906178
 31
0.0
 11
5.4771381294
 21
1.8015906054
 31
0.0
 11
5.4535533126
 21
1.8065176834
 31
0.0
 11
5.4304785108
 21
1.8124506399
 31
0.0
 11
5.3862044079
 21
1.8272419855
 31
0.0
 11
5.3449716433
 21
1.8457266269
 31
0.0
 11
5.3256918773
 21
1.8562676216
 31
0.0
 11
5.3073980781
 21
1.8676191788
 31
0.0
 11
5.2901582043
 21
1.8797368517
 31
0.0
 11
5.2740393691
 21
1.8925756689
 31
0.0
 11
5.2591001153
 21
1.9060853408
 31
0.0
 11
5.2453940004
 21
1.9202124841
 31
0.0
 11
5.2329744494
 21
1.9349036491
 31
0.0
 11
5.2218891207
 21
1.9501030945
 31
0.0
  0
SPLINE
  5
320
100
AcDbEntity
  8
0
100
AcDbSpline
 62
6
  6
CONTINUOUS
 70
0
 71
3
 72
23
 73
19
 74
17
 42
0.0000001
 43
0.0000001
 44
0.0000000001
 12
-0.0697521961
 22
-0.5090591341
 32
0.0
 13
-0.5138156974
 23
-0.0
 33
0.0
 40
0.0
 40
0.0
 40
0.0
 40
0.0
 40
0.0517677434
 40
0.1043536892
 40
0.1580945757
 40
0.2132736162
 40
0.2701013001
 40
0.3287198688
 40
0.3891986013
 40
0.4515385997
 40
0.5156817143
 40
0.5815116343
 40
0.6488633669
 40
0.717518486
 40
0.7872390572
 40
0.8577754502
 40
0.9288319592
 40
1.0
 40
1.0
 40
1.0
 40
1.0
 10
5.9875170071
 20
1.6817354276
 30
0.0
 10
5.9863133691
 20
1.6729511467
 30
0.0
 10
5.9827565502
 20
1.6553788958
 30
0.0
 10
5.9741145828
 20
1.6296507685
 30
0.0
 10
5.9622264498
 20
1.6046037106
 30
0.0
 10
5.9471819064
 20
1.5804619081
 30
0.0
 10
5.9291237733
 20
1.5574182111
 30
0.0
 10
5.9081982122
 20
1.53567139
 30
0.0
 10
5.8845894937
 20
1.5153975939
 30
0.0
 10
5.858496148
 20
1.4967673812
 30
0.0
 10
5.8301399396
 20
1.4799370709
 30
0.0
 10
5.7997629787
 20
1.4650461435
 30
0.0
 10
5.7676249518
 20
1.4522255602
 30
0.0
 10
5.7340057234
 20
1.4415764788
 30
0.0
 10
5.6991899462
 20
1.4331989517
 30
0.0
 10
5.6634767927
 20
1.427158599
 30
0.0
 10
5.6271929467
 20
1.4235196689
 30
0.0
 10
5.6028262925
 20
1.4227022328
 30
0.0
 10
5.590637207
 20
1.4227022328
 30
0.0
 11
5.9875170071
 21
1.6817354276
 31
0.0
 11
5.98225595
 21
1.6556618338
 31
0.0
 11
5.9736850117
 21
1.6300377913
 31
0.0
 11
5.9618773081
 21
1.6050768019
 31
0.0
 11
5.9469219708
 21
1.580990173
 31
0.0
 11
5.9289465596
 21
1.5579800964
 31
0.0
 11
5.9080970669
 21
1.5362439215
 31
0.0
 11
5.8845504135
 21
1.5159657091
 31
0.0
 11
5.8585055866
 21
1.4973198187
 31
0.0
 11
5.8301830295
 21
1.4804661743
 31
0.0
 11
5.799825323
 21
1.4655496458
 31
0.0
 11
5.7676927856
 21
1.452700467
 31
0.0
 11
5.7340695934
 21
1.4420288868
 31
0.0
 11
5.699244363
 21
1.4336307804
 31
0.0
 11
5.6635108442
 21
1.427576908
 31
0.0
 11
5.6271840234
 21
1.4239247144
 31
0.0
 11
5.590637207
 21
1.4227022328
 31
0.0
  0
SPLINE
  5
321
100
AcDbEntity
  8
0
100
AcDbSpline
 62
6
  6
CONTINUOUS
 70
0
 71
3
 72
19
 73
15
 74
13
 42
0.0000001
 43
0.0000001
 44
0.0000000001
 12
-0.3685872116
 22
0.0
 32
0.0
 13
-0.2274122143
 23
0.290069332
 33
0.0
 40
0.0
 40
0.0
 40
0.0
 40
0.0
 40
0.0684250876
 40
0.1367011306
 40
0.2046294817
 40
0.272021227
 40
0.3387360237
 40
0.4046563066
 40
0.5336259617
 40
0.6581312341
 40
0.7185210875
 40
0.7775784038
 40
0.8915140377
 40
1.0
 40
1.0
 40
1.0
 40
1.0
 10
5.590637207
 20
1.4227022328
 30
0.0
 10
5.5822303363
 20
1.4227022328
 30
0.0
 10
5.565432326
 20
1.4230914349
 30
0.0
 10
5.5403430105
 20
1.4248344539
 30
0.0
 10
5.515487218
 20
1.4277283276
 30
0.0
 10
5.4909862399
 20
1.431768282
 30
0.0
 10
5.46694889
 20
1.4369333186
 30
0.0
 10
5.4358841649
 20
1.4452241853
 30
0.0
 10
5.3987682323
 20
1.4581888149
 30
0.0
 10
5.3638520716
 20
1.4747605852
 30
0.0
 10
5.337998286
 20
1.4899569702
 30
0.0
 10
5.3141914082
 20
1.5059664026
 30
0.0
 10
5.2873600761
 20
1.527947246
 30
0.0
 10
5.2687662996
 20
1.5481330921
 30
0.0
 10
5.260542622
 20
1.5586225757
 30
0.0
 11
5.590637207
 21
1.4227022328
 31
0.0
 11
5.5654233537
 21
1.4232860841
 31
0.0
 11
5.5403183384
 21
1.4250323575
 31
0.0
 11
5.5154494223
 21
1.4279331323
 31
0.0
 11
5.4909414115
 21
1.4319791013
 31
0.0
 11
5.4669011926
 21
1.4371508361
 31
0.0
 11
5.4434277082
 21
1.4434244216
 31
0.0
 11
5.3985749869
 21
1.4591711185
 31
0.0
 11
5.3571610864
 21
1.4789417387
 31
0.0
 11
5.3379783053
 21
1.490232477
 31
0.0
 11
5.3199242086
 21
1.5023932939
 31
0.0
 11
5.2875249538
 21
1.5291119501
 31
0.0
 11
5.260542622
 21
1.5586225757
 31
0.0
  0
SPLINE
  5
322
100
AcDbEntity
  8
0
100
AcDbSpline
 62
6
  6
CONTINUOUS
 70
0
 71
3
 72
11
 73
7
 74
5
 42
0.0000001
 43
0.0000001
 44
0.0000000001
 12
-0.055776497
 22
-0.0999944957
 32
0.0
 13
-0.0892945811
 23
-0.0716686442
 33
0.0
 40
0.0
 40
0.0
 40
0.0
 40
0.0
 40
0.2392207458
 40
0.4854138814
 40
0.7390392014
 40
1.0
 40
1.0
 40
1.0
 40
1.0
 10
5.9609300521
 20
1.975301201
 30
0.0
 10
5.9564824204
 20
1.967327615
 30
0.0
 10
5.9465635007
 20
1.9516319364
 30
0.0
 10
5.9291057818
 20
1.9294209969
 30
0.0
 10
5.9090228371
 20
1.9083938122
 30
0.0
 10
5.8942150062
 20
1.8954478224
 30
0.0
 10
5.8864475444
 20
1.8892135869
 30
0.0
 11
5.9609300521
 21
1.975301201
 31
0.0
 11
5.9463301052
 21
1.9521262779
 31
0.0
 11
5.9289447504
 21
1.9299371953
 31
0.0
 11
5.9089191744
 21
1.9089066881
 31
0.0
 11
5.8864475444
 21
1.8892135869
 31
0.0
  0
SPLINE
  5
323
100
AcDbEntity
  8
0
100
AcDbSpline
 62
6
  6
CONTINUOUS
 70
0
 71
3
 72
9
 73
5
 74
3
 42
0.0000001
 43
0.0000001
 44
0.0000000001
 12
-0.0000865243
 22
-0.0556434165
 32
0.0
 13
-0.0148713119
 23
-0.0536194122
 33
0.0
 40
0.0
 40
0.0
 40
0.0
 40
0.0
 40
0.4974490994
 40
1.0
 40
1.0
 40
1.0
 40
1.0
 10
5.9968869615
 20
2.1166245013
 30
0.0
 10
5.9968726143
 20
2.1073979121
 30
0.0
 10
5.9955675823
 20
2.0888311968
 30
0.0
 10
5.9917766863
 20
2.0706120107
 30
0.0
 10
5.9892854892
 20
2.0616298494
 30
0.0
 11
5.9968869615
 21
2.1166245013
 31
0.0
 11
5.9949590993
 21
2.0890119185
 31
0.0
 11
5.9892854892
 21
2.0616298494
 31
0.0
  0
SPLINE
  5
324
100
AcDbEntity
  8
0
100
AcDbSpline
 62
6
  6
CONTINUOUS
 70
0
 71
3
 72
21
 73
17
 74
15
 42
0.0000001
 43
0.0000001
 44
0.0000000001
 12
-0.203222127
 22
-0.3983556922
 32
0.0
 13
-0.4471984911
 23
0.0
 33
0.0
 40
0.0
 40
0.0
 40
0.0
 40
0.0
 40
0.0524898172
 40
0.1062862022
 40
0.1615073615
 40
0.2182364603
 40
0.2765140744
 40
0.3363441947
 40
0.397699169
 40
0.4605135457
 40
0.5246987463
 40
0.5901347681
 40
0.7241111038
 40
0.8612521094
 40
0.9305626661
 40
1.0
 40
1.0
 40
1.0
 40
1.0
 10
5.9727815826
 20
2.0194600851
 30
0.0
 10
5.9692258851
 20
2.0124902126
 30
0.0
 10
5.9613271657
 20
1.9987231111
 30
0.0
 10
5.9474457098
 20
1.9790150487
 30
0.0
 10
5.9314822778
 20
1.9601170029
 30
0.0
 10
5.9135247929
 20
1.9421491158
 30
0.0
 10
5.8936855142
 20
1.9252086222
 30
0.0
 10
5.8720799569
 20
1.909393013
 30
0.0
 10
5.8488316769
 20
1.8947975924
 30
0.0
 10
5.8240808277
 20
1.8814983018
 30
0.0
 10
5.7979664424
 20
1.8695799696
 30
0.0
 10
5.7612565536
 20
1.8555078761
 30
0.0
 10
5.7128651451
 20
1.8418172455
 30
0.0
 10
5.6626813271
 20
1.8335756584
 30
0.0
 10
5.6216754834
 20
1.8302403611
 30
0.0
 10
5.600987964
 20
1.8296782262
 30
0.0
 10
5.590637207
 20
1.8296782262
 30
0.0
 11
5.9727815826
 21
2.0194600851
 31
0.0
 11
5.9611226893
 21
1.9990868387
 31
0.0
 11
5.9472930684
 21
1.9794014966
 31
0.0
 11
5.9313774976
 21
1.9605195291
 31
0.0
 11
5.9134647829
 21
1.9425548609
 31
0.0
 11
5.8936627745
 21
1.9256111114
 31
0.0
 11
5.8720874995
 21
1.9097874642
 31
0.0
 11
5.848862792
 21
1.8951775815
 31
0.0
 11
5.8241274024
 21
1.881864566
 31
0.0
 11
5.7980230259
 21
1.869929162
 31
0.0
 11
5.770704751
 21
1.8594397101
 31
0.0
 11
5.7130799358
 21
1.8430363603
 31
0.0
 11
5.6525712333
 21
1.8330376645
 31
0.0
 11
5.6216780612
 21
1.8305201912
 31
0.0
 11
5.590637207
 21
1.8296782262
 31
0.0
  0
SPLINE
  5
325
100
AcDbEntity
  8
0
100
AcDbSpline
 62
6
  6
CONTINUOUS
 70
0
 71
3
 72
22
 73
18
 74
16
 42
0.0000001
 43
0.0000001
 44
0.0000000001
 12
-0.425874307
 22
0.0
 32
0.0
 13
-0.2256609621
 23
0.3611731656
 33
0.0
 40
0.0
 40
0.0
 40
0.0
 40
0.0
 40
0.0687642184
 40
0.1374249701
 40
0.2057395342
 40
0.2734995313
 40
0.4067120824
 40
0.4719366249
 40
0.5360455617
 40
0.5989207039
 40
0.6604726042
 40
0.7206318484
 40
0.7793526352
 40
0.8366218088
 40
0.8924504719
 40
0.9468836095
 40
1.0
 40
1.0
 40
1.0
 40
1.0
 10
5.590637207
 20
1.8296782262
 30
0.0
 10
5.5808755691
 20
1.8296782262
 30
0.0
 10
5.5613632942
 20
1.8301782273
 30
0.0
 10
5.5322307137
 20
1.8324129664
 30
0.0
 10
5.5033904097
 20
1.8361247804
 30
0.0
 10
5.4657709863
 20
1.8429842832
 30
0.0
 10
5.4291596945
 20
1.8527005303
 30
0.0
 10
5.3940549718
 20
1.8652676463
 30
0.0
 10
5.3689223848
 20
1.875933331
 30
0.0
 10
5.3449423742
 20
1.8878567056
 30
0.0
 10
5.3222363989
 20
1.9009712812
 30
0.0
 10
5.3009213453
 20
1.9152089313
 30
0.0
 10
5.2811117838
 20
1.9305026441
 30
0.0
 10
5.2629059272
 20
1.9467672536
 30
0.0
 10
5.2464015216
 20
1.9639243325
 30
0.0
 10
5.2316892274
 20
1.9818849087
 30
0.0
 10
5.223020172
 20
1.9944794552
 30
0.0
 10
5.2190247401
 20
2.0008741935
 30
0.0
 11
5.590637207
 21
1.8296782262
 31
0.0
 11
5.5613618712
 21
1.8304271542
 31
0.0
 11
5.532206923
 21
1.8326668648
 31
0.0
 11
5.5033522878
 21
1.8363866739
 31
0.0
 11
5.4749641849
 21
1.8415689533
 31
0.0
 11
5.4201511155
 21
1.8561985426
 31
0.0
 11
5.3940029079
 21
1.8655718207
 31
0.0
 11
5.3688764804
 21
1.8762526872
 31
0.0
 11
5.3449068941
 21
1.8881884197
 31
0.0
 11
5.3222168874
 21
1.9013149011
 31
0.0
 11
5.3009241674
 21
1.9155633621
 31
0.0
 11
5.2811417455
 21
1.9308617137
 31
0.0
 11
5.2629691675
 21
1.9471283555
 31
0.0
 11
5.2465033263
 21
1.9642798548
 31
0.0
 11
5.2318308696
 21
1.9822272518
 31
0.0
 11
5.2190247401
 21
2.0008741935
 31
0.0
  0
SPLINE
  5
326
100
AcDbEntity
  8
0
100
AcDbSpline
 62
6
  6
CONTINUOUS
 70
0
 71
3
 72
11
 73
7
 74
5
 42
0.0000001
 43
0.0000001
 44
0.0000000001
 12
0.0164599597
 22
-0.0655265215
 32
0.0
 13
0.0356358847
 23
-0.0573998172
 33
0.0
 40
0.0
 40
0.0
 40
0.0
 40
0.0
 40
0.2444776369
 40
0.4921910994
 40
0.7438297223
 40
1.0
 40
1.0
 40
1.0
 40
1.0
 10
5.1903073683
 20
1.9699289987
 30
0.0
 10
5.1916487323
 20
1.9645890757
 30
0.0
 10
5.1947919715
 20
1.953944741
 30
0.0
 10
5.2008066882
 20
1.9382923912
 30
0.0
 10
5.208132212
 20
1.9229172447
 30
0.0
 10
5.2138194239
 20
1.9129814169
 30
0.0
 10
5.2168623754
 20
1.9080800412
 30
0.0
 11
5.1903073683
 21
1.9699289987
 31
0.0
 11
5.1949777382
 21
1.9540855785
 31
0.0
 11
5.2009727691
 21
1.938460093
 31
0.0
 11
5.2082757594
 21
1.923107262
 31
0.0
 11
5.2168623754
 21
1.9080800412
 31
0.0
  0
SPLINE
  5
327
100
AcDbEntity
  8
0
100
AcDbSpline
 62
6
  6
CONTINUOUS
 70
0
 71
3
 72
22
 73
18
 74
16
 42
0.0000001
 43
0.0000001
 44
0.0000000001
 12
0.2341629273
 22
-0.3432578168
 32
0.0
 13
0.4154424873
 23
0.0081083318
 33
0.0
 40
0.0
 40
0.0
 40
0.0
 40
0.0
 40
0.0527116223
 40
0.1068171342
 40
0.1623860812
 40
0.2194523085
 40
0.3380172905
 40
0.3995114778
 40
0.4623748073
 40
0.5265104712
 40
0.5918010936
 40
0.6581204869
 40
0.7253371763
 40
0.7933131984
 40
0.8618951185
 40
0.9308690253
 40
1.0
 40
1.0
 40
1.0
 40
1.0
 10
5.2226517261
 20
1.8991905677
 30
0.0
 10
5.2267660954
 20
1.8931593422
 30
0.0
 10
5.2356412152
 20
1.8812958457
 30
0.0
 10
5.2505662912
 20
1.8644396579
 30
0.0
 10
5.2671935163
 20
1.8483778036
 30
0.0
 10
5.2918207255
 20
1.8278731946
 30
0.0
 10
5.3192554232
 20
1.8096028136
 30
0.0
 10
5.348900364
 20
1.7936594142
 30
0.0
 10
5.3726222598
 20
1.7827148039
 30
0.0
 10
5.3974301717
 20
1.7729853473
 30
0.0
 10
5.4232012808
 20
1.764518675
 30
0.0
 10
5.4498092159
 20
1.7573669606
 30
0.0
 10
5.4771231346
 20
1.7515631571
 30
0.0
 10
5.5050111275
 20
1.7471385951
 30
0.0
 10
5.5333314827
 20
1.7441264459
 30
0.0
 10
5.5619262013
 20
1.7425349569
 30
0.0
 10
5.5810638923
 20
1.7424274599
 30
0.0
 10
5.590637207
 20
1.7426143055
 30
0.0
 11
5.2226517261
 21
1.8991905677
 31
0.0
 11
5.2357549302
 21
1.8816395142
 31
0.0
 11
5.250640195
 21
1.8647910831
 31
0.0
 11
5.26723063
 21
1.8487315035
 31
0.0
 11
5.2854401183
 21
1.8335431738
 31
0.0
 11
5.3263531317
 21
1.8060969571
 31
0.0
 11
5.348849308
 21
1.7939794034
 31
0.0
 11
5.3725605622
 21
1.7830209907
 31
0.0
 11
5.3973651597
 21
1.7732772062
 31
0.0
 11
5.4231360805
 21
1.7647990975
 31
0.0
 11
5.4497457885
 21
1.7576353381
 31
0.0
 11
5.4770640654
 21
1.7518219131
 31
0.0
 11
5.5049597949
 21
1.7473905614
 31
0.0
 11
5.5332965324
 21
1.7443700178
 31
0.0
 11
5.5619122406
 21
1.7427746008
 31
0.0
 11
5.590637207
 21
1.7426143055
 31
0.0
  0
SPLINE
  5
328
100
AcDbEntity
  8
0
100
AcDbSpline
 62
6
  6
CONTINUOUS
 70
0
 71
3
 72
11
 73
7
 74
5
 42
0.0000001
 43
0.0000001
 44
0.0000000001
 12
0.0168809249
 22
-0.067264343
 32
0.0
 13
0.0370058926
 23
-0.0586516954
 33
0.0
 40
0.0
 40
0.0
 40
0.0
 40
0.0
 40
0.2442292655
 40
0.4918248051
 40
0.7435456731
 40
1.0
 40
1.0
 40
1.0
 40
1.0
 10
5.1902986535
 20
1.9202392717
 30
0.0
 10
5.1916729255
 20
1.914763298
 30
0.0
 10
5.1949070882
 20
1.903847565
 30
0.0
 10
5.2011266784
 20
1.8878047656
 30
0.0
 10
5.2087245298
 20
1.8720530822
 30
0.0
 10
5.2146334596
 20
1.8618849475
 30
0.0
 10
5.2177969
 20
1.8568711204
 30
0.0
 11
5.1902986535
 21
1.9202392717
 31
0.0
 11
5.1951019113
 21
1.9039972609
 31
0.0
 11
5.2012994574
 21
1.887983915
 31
0.0
 11
5.2088732807
 21
1.8722555726
 31
0.0
 11
5.2177969
 21
1.8568711204
 31
0.0
  0
SPLINE
  5
329
100
AcDbEntity
  8
0
100
AcDbSpline
 62
6
  6
CONTINUOUS
 70
0
 71
3
 72
9
 73
5
 74
3
 42
0.0000001
 43
0.0000001
 44
0.0000000001
 12
0.0103466379
 22
-0.0411604155
 32
0.0
 13
0.0183617805
 23
-0.0382632688
 33
0.0
 40
0.0
 40
0.0
 40
0.0
 40
0.0
 40
0.4955873677
 40
1.0
 40
1.0
 40
1.0
 40
1.0
 10
5.190315272
 20
1.8704509067
 30
0.0
 10
5.192024493
 20
1.8636513793
 30
0.0
 10
5.1961934479
 20
1.8501032871
 30
0.0
 10
5.2017034444
 20
1.837045497
 30
0.0
 10
5.2047907491
 20
1.830612005
 30
0.0
 11
5.190315272
 21
1.8704509067
 31
0.0
 11
5.1964860248
 21
1.8503432742
 31
0.0
 11
5.2047907491
 21
1.830612005
 31
0.0
  0
SPLINE
  5
32A
100
AcDbEntity
  8
0
100
AcDbSpline
 62
6
  6
CONTINUOUS
 70
0
 71
3
 72
9
 73
5
 74
3
 42
0.0000001
 43
0.0000001
 44
0.0000000001
 12
0.0123002832
 22
-0.0256319937
 32
0.0
 13
0.0153269075
 23
-0.0239453957
 33
0.0
 40
0.0
 40
0.0
 40
0.0
 40
0.0
 40
0.2472448739
 40
1.0
 40
1.0
 40
1.0
 40
1.0
 10
5.2047907491
 20
1.830612005
 30
0.0
 10
5.2058044764
 20
1.8284995453
 30
0.0
 10
5.2100393252
 20
1.8200206882
 30
0.0
 10
5.2148035873
 20
1.8118077249
 30
0.0
 10
5.21864939
 20
1.8057993851
 30
0.0
 11
5.2047907491
 21
1.830612005
 31
0.0
 11
5.2079309288
 21
1.8243230915
 31
0.0
 11
5.21864939
 21
1.8057993851
 31
0.0
  0
SPLINE
  5
32B
100
AcDbEntity
  8
0
100
AcDbSpline
 62
6
  6
CONTINUOUS
 70
0
 71
3
 72
23
 73
19
 74
17
 42
0.0000001
 43
0.0000001
 44
0.0000000001
 12
0.2440545347
 22
-0.3188626974
 32
0.0
 13
0.4014658846
 23
0.0078217153
 33
0.0
 40
0.0
 40
0.0
 40
0.0
 40
0.0
 40
0.0532078453
 40
0.107789977
 40
0.1637889027
 40
0.2212233796
 40
0.2800892024
 40
0.3403523925
 40
0.4019609794
 40
0.4648448146
 40
0.5289067064
 40
0.5940362762
 40
0.6601167803
 40
0.7270267163
 40
0.794639081
 40
0.8628084961
 40
0.9313338906
 40
1.0
 40
1.0
 40
1.0
 40
1.0
 10
5.2308668003
 20
1.7883864816
 30
0.0
 10
5.235195339
 20
1.7827311492
 30
0.0
 10
5.2444343831
 20
1.7716270718
 30
0.0
 10
5.2597185327
 20
1.7558841637
 30
0.0
 10
5.276524879
 20
1.7409130971
 30
0.0
 10
5.2947769868
 20
1.7267881887
 30
0.0
 10
5.3143933179
 20
1.7135795451
 30
0.0
 10
5.335279249
 20
1.701343293
 30
0.0
 10
5.3573409092
 20
1.6901397835
 30
0.0
 10
5.3804783843
 20
1.6800269821
 30
0.0
 10
5.4045811637
 20
1.6710464962
 30
0.0
 10
5.4295386832
 20
1.6632435909
 30
0.0
 10
5.4552386666
 20
1.6566611121
 30
0.0
 10
5.481564931
 20
1.6513258417
 30
0.0
 10
5.5084004851
 20
1.6472666141
 30
0.0
 10
5.5356182805
 20
1.6445108263
 30
0.0
 10
5.5630772703
 20
1.6430644339
 30
0.0
 10
5.5814481736
 20
1.6429791258
 30
0.0
 10
5.590637207
 20
1.6431581547
 30
0.0
 11
5.2308668003
 21
1.7883864816
 31
0.0
 11
5.2445162728
 21
1.7719498402
 31
0.0
 11
5.2597671638
 21
1.7562092498
 31
0.0
 11
5.2765445022
 21
1.7412380199
 31
0.0
 11
5.2947719477
 21
1.7271088788
 31
0.0
 11
5.3143677624
 21
1.7138908322
 31
0.0
 11
5.335238518
 21
1.701644823
 31
0.0
 11
5.357289242
 21
1.690430726
 31
0.0
 11
5.3804203051
 21
1.6803044262
 31
0.0
 11
5.4045209756
 21
1.6713122944
 31
0.0
 11
5.4294789012
 21
1.6634993064
 31
0.0
 11
5.4551808664
 21
1.6569063116
 31
0.0
 11
5.4815113569
 21
1.6515631611
 31
0.0
 11
5.5083544779
 21
1.6474978932
 31
0.0
 11
5.535587546
 21
1.6447347413
 31
0.0
 11
5.5630651679
 21
1.6432852123
 31
0.0
 11
5.590637207
 21
1.6431581547
 31
0.0
  0
SPLINE
  5
32C
100
AcDbEntity
  8
0
100
AcDbSpline
 62
6
  6
CONTINUOUS
 70
0
 71
3
 72
9
 73
5
 74
3
 42
0.0000001
 43
0.0000001
 44
0.0000000001
 12
0.0097829837
 22
-0.0388656914
 32
0.0
 13
0.0169647388
 23
-0.0363104169
 33
0.0
 40
0.0
 40
0.0
 40
0.0
 40
0.0
 40
0.4958873897
 40
1.0
 40
1.0
 40
1.0
 40
1.0
 10
5.1903321643
 20
1.8205984125
 30
0.0
 10
5.1919492504
 20
1.814174077
 30
0.0
 10
5.1958521673
 20
1.8013728207
 30
0.0
 10
5.2009563079
 20
1.7890033194
 30
0.0
 10
5.2038070208
 20
1.7829018063
 30
0.0
 11
5.1903321643
 21
1.8205984125
 31
0.0
 11
5.1961154511
 21
1.8015842843
 31
0.0
 11
5.2038070208
 21
1.7829018063
 31
0.0
  0
SPLINE
  5
32D
100
AcDbEntity
  8
0
100
AcDbSpline
 62
6
  6
CONTINUOUS
 70
0
 71
3
 72
9
 73
5
 74
3
 42
0.0000001
 43
0.0000001
 44
0.0000000001
 12
0.013719901
 22
-0.0293653402
 32
0.0
 13
0.0176598079
 23
-0.0271788534
 33
0.0
 40
0.0
 40
0.0
 40
0.0
 40
0.0
 40
0.2468864059
 40
1.0
 40
1.0
 40
1.0
 40
1.0
 10
5.2038070208
 20
1.7829018063
 30
0.0
 10
5.2049361065
 20
1.7804851719
 30
0.0
 10
5.2096862834
 20
1.7707800392
 30
0.0
 10
5.2151299648
 20
1.7614168081
 30
0.0
 10
5.2195632453
 20
1.7545938868
 30
0.0
 11
5.2038070208
 21
1.7829018063
 31
0.0
 11
5.2073238858
 21
1.7757138811
 31
0.0
 11
5.2195632453
 21
1.7545938868
 31
0.0
  0
SPLINE
  5
32E
100
AcDbEntity
  8
0
100
AcDbSpline
 62
6
  6
CONTINUOUS
 70
0
 71
3
 72
23
 73
19
 74
17
 42
0.0000001
 43
0.0000001
 44
0.0000000001
 12
0.2381529876
 22
-0.334195336
 32
0.0
 13
0.4102917224
 23
0.0080044149
 33
0.0
 40
0.0
 40
0.0
 40
0.0
 40
0.0
 40
0.0528857266
 40
0.1071600007
 40
0.16288115
 40
0.2200789565
 40
0.2787587414
 40
0.3388924878
 40
0.4004308989
 40
0.4633053586
 40
0.5274164553
 40
0.5926489406
 40
0.6588801024
 40
0.7259821234
 40
0.7938209402
 40
0.8622458172
 40
0.9310477296
 40
1.0
 40
1.0
 40
1.0
 40
1.0
 10
5.2256175467
 20
1.7457024934
 30
0.0
 10
5.2298158446
 20
1.7398111057
 30
0.0
 10
5.2388346423
 20
1.7282306364
 30
0.0
 10
5.2539047018
 20
1.7117908905
 30
0.0
 10
5.2706068623
 20
1.6961365978
 30
0.0
 10
5.2888598327
 20
1.6813475002
 30
0.0
 10
5.3085790495
 20
1.6675018363
 30
0.0
 10
5.329664156
 20
1.6546618914
 30
0.0
 10
5.352014963
 20
1.6428932045
 30
0.0
 10
5.3755255364
 20
1.6322609408
 30
0.0
 10
5.400077085
 20
1.6228112344
 30
0.0
 10
5.4255502543
 20
1.6145932811
 30
0.0
 10
5.4518242703
 20
1.6076555441
 30
0.0
 10
5.4787734841
 20
1.6020278539
 30
0.0
 10
5.5062716927
 20
1.5977408872
 30
0.0
 10
5.5341826425
 20
1.5948255162
 30
0.0
 10
5.5623548434
 20
1.5932888799
 30
0.0
 10
5.5812070251
 20
1.5931898986
 30
0.0
 10
5.590637207
 20
1.5933738728
 30
0.0
 11
5.2256175467
 21
1.7457024934
 31
0.0
 11
5.2389359729
 21
1.728566948
 31
0.0
 11
5.2539683524
 21
1.7121324467
 31
0.0
 11
5.2706373237
 21
1.6964795875
 31
0.0
 11
5.2888620991
 21
1.6816875565
 31
0.0
 11
5.3085574993
 21
1.6678326868
 31
0.0
 11
5.3296247909
 21
1.6549825052
 31
0.0
 11
5.3519626303
 21
1.6432028426
 31
0.0
 11
5.3754652995
 21
1.632555949
 31
0.0
 11
5.4000139371
 21
1.6230933158
 31
0.0
 11
5.4254872231
 21
1.6148644217
 31
0.0
 11
5.4517630607
 21
1.6079151062
 31
0.0
 11
5.4787166421
 21
1.6022785176
 31
0.0
 11
5.5062225695
 21
1.5979850397
 31
0.0
 11
5.5341494786
 21
1.5950616484
 31
0.0
 11
5.5623416627
 21
1.593521417
 31
0.0
 11
5.590637207
 21
1.5933738728
 31
0.0
  0
SPLINE
  5
32F
100
AcDbEntity
  8
0
100
AcDbSpline
 62
6
  6
CONTINUOUS
 70
0
 71
3
 72
9
 73
5
 74
3
 42
0.0000001
 43
0.0000001
 44
0.0000000001
 12
0.0096580098
 22
-0.0378785313
 32
0.0
 13
0.0164943956
 23
-0.0354400226
 33
0.0
 40
0.0
 40
0.0
 40
0.0
 40
0.0
 40
0.4959633199
 40
1.0
 40
1.0
 40
1.0
 40
1.0
 10
5.190490023
 20
1.7702545866
 30
0.0
 10
5.1920866959
 20
1.7639924659
 30
0.0
 10
5.1959156729
 20
1.7515145115
 30
0.0
 10
5.2008915813
 20
1.7394498961
 30
0.0
 10
5.2036628415
 20
1.733495539
 30
0.0
 11
5.190490023
 21
1.7702545866
 31
0.0
 11
5.1961668819
 21
1.7517169235
 31
0.0
 11
5.2036628415
 21
1.733495539
 31
0.0
  0
SPLINE
  5
330
100
AcDbEntity
  8
0
100
AcDbSpline
 62
6
  6
CONTINUOUS
 70
0
 71
3
 72
13
 73
9
 74
7
 42
0.0000001
 43
0.0000001
 44
0.0000000001
 12
0.1178305604
 22
-0.16397016
 32
0.0
 13
0.1883648735
 23
-0.0727250216
 33
0.0
 40
0.0
 40
0.0
 40
0.0
 40
0.0
 40
0.2303259971
 40
0.4737390102
 40
0.6005710099
 40
0.7307209972
 40
0.8639751358
 40
1.0
 40
1.0
 40
1.0
 40
1.0
 10
5.2261838403
 20
1.6951914361
 30
0.0
 10
5.2352303207
 20
1.6826025725
 30
0.0
 10
5.2562238797
 20
1.6583688206
 30
0.0
 10
5.2873097772
 20
1.6322945484
 30
0.0
 10
5.3152646436
 20
1.6134725925
 30
0.0
 10
5.3380174035
 20
1.6003100329
 30
0.0
 10
5.3621236424
 20
1.5883717356
 30
0.0
 10
5.3788425047
 20
1.5813406739
 30
0.0
 10
5.3873832735
 20
1.5780432035
 30
0.0
 11
5.2261838403
 21
1.6951914361
 31
0.0
 11
5.2564777445
 21
1.6599048379
 31
0.0
 11
5.2940010001
 21
1.6281615147
 31
0.0
 11
5.3152319887
 21
1.6138405526
 31
0.0
 11
5.3379680312
 21
1.6006617632
 31
0.0
 11
5.3620708827
 21
1.5887036565
 31
0.0
 11
5.3873832735
 21
1.5780432035
 31
0.0
  0
SPLINE
  5
331
100
AcDbEntity
  8
0
100
AcDbSpline
 62
6
  6
CONTINUOUS
 70
0
 71
3
 72
15
 73
11
 74
9
 42
0.0000001
 43
0.0000001
 44
0.0000000001
 12
0.0689256604
 22
-0.2732288309
 32
0.0
 13
0.2619416281
 23
-0.1038812984
 33
0.0
 40
0.0
 40
0.0
 40
0.0
 40
0.0
 40
0.1098803812
 40
0.2229572479
 40
0.3401169026
 40
0.4619868059
 40
0.5889182469
 40
0.7210177301
 40
0.8581522489
 40
1.0
 40
1.0
 40
1.0
 40
1.0
 10
5.1903575692
 20
1.7210483185
 30
0.0
 10
5.1928820952
 20
1.7110408225
 30
0.0
 10
5.1995784223
 20
1.6911002942
 30
0.0
 10
5.214092979
 20
1.6625282742
 30
0.0
 10
5.2329879192
 20
1.6352662271
 30
0.0
 10
5.2560384868
 20
1.6096522844
 30
0.0
 10
5.2829547353
 20
1.5859684947
 30
0.0
 10
5.3134317696
 20
1.5645008657
 30
0.0
 10
5.3471037314
 20
1.5454859638
 30
0.0
 10
5.3710627001
 20
1.5347688946
 30
0.0
 10
5.3834479771
 20
1.5298571184
 30
0.0
 11
5.1903575692
 21
1.7210483185
 31
0.0
 11
5.2001669644
 21
1.6916802298
 31
0.0
 11
5.2145289387
 21
1.6632367295
 31
0.0
 11
5.23327058
 21
1.6360578609
 31
0.0
 11
5.2561780379
 21
1.6104729184
 31
0.0
 11
5.2829792388
 21
1.5867867977
 31
0.0
 11
5.3133672362
 21
1.5652878662
 31
0.0
 11
5.346985232
 21
1.5462325235
 31
0.0
 11
5.3834479771
 21
1.5298571184
 31
0.0
  0
SPLINE
  5
332
100
AcDbEntity
  8
0
100
AcDbSpline
 62
6
  6
CONTINUOUS
 70
0
 71
3
 72
14
 73
10
 74
8
 42
0.0000001
 43
0.0000001
 44
0.0000000001
 12
0.1967050887
 22
-0.0780096702
 32
0.0
 13
0.2115689152
 23
0.00412246
 33
0.0
 40
0.0
 40
0.0
 40
0.0
 40
0.0
 40
0.2416049565
 40
0.3651440947
 40
0.4901880984
 40
0.6165062062
 40
0.7438289931
 40
0.8717894838
 40
1.0
 40
1.0
 40
1.0
 40
1.0
 10
5.3834479771
 20
1.5298571184
 30
0.0
 10
5.3992896185
 20
1.5235746107
 30
0.0
 10
5.4237773202
 20
1.5153914817
 30
0.0
 10
5.4573192341
 20
1.506961943
 30
0.0
 10
5.4832669821
 20
1.5018004736
 30
0.0
 10
5.5096987043
 20
1.4978774208
 30
0.0
 10
5.5364942674
 20
1.4952170788
 30
0.0
 10
5.5635182217
 20
1.4938247918
 30
0.0
 10
5.5815954204
 20
1.4937478382
 30
0.0
 10
5.590637207
 20
1.4939240191
 30
0.0
 11
5.3834479771
 21
1.5298571184
 31
0.0
 11
5.431913155
 21
1.5135790938
 31
0.0
 11
5.4572644938
 21
1.5071983468
 31
0.0
 11
5.483215282
 21
1.5020300016
 31
0.0
 11
5.5096550009
 21
1.498100974
 31
0.0
 11
5.5364653039
 21
1.4954336852
 31
0.0
 11
5.5635069401
 21
1.4940385544
 31
0.0
 11
5.590637207
 21
1.4939240191
 31
0.0
  0
SPLINE
  5
333
100
AcDbEntity
  8
0
100
AcDbSpline
 62
6
  6
CONTINUOUS
 70
0
 71
3
 72
25
 73
21
 74
19
 42
0.0000001
 43
0.0000001
 44
0.0000000001
 12
0.0001907026
 22
-0.5415511381
 32
0.0
 13
0.5414482765
 23
0.0105562993
 33
0.0
 40
0.0
 40
0.0
 40
0.0
 40
0.0
 40
0.0506813278
 40
0.1018872195
 40
0.1541049346
 40
0.1807425018
 40
0.2077857915
 40
0.2632127661
 40
0.2916819513
 40
0.3206787718
 40
0.3802868361
 40
0.4421120786
 40
0.506128619
 40
0.5722327176
 40
0.6402582842
 40
0.7099719487
 40
0.7811133306
 40
0.853405708
 40
0.9265197804
 40
1.0
 40
1.0
 40
1.0
 40
1.0
 10
5.1843888577
 20
1.7189125703
 30
0.0
 10
5.1843920794
 20
1.7097637267
 30
0.0
 10
5.1857165847
 20
1.6913445853
 30
0.0
 10
5.1916439421
 20
1.6640778634
 30
0.0
 10
5.1997506591
 20
1.6419615977
 30
0.0
 10
5.2080557565
 20
1.6247312863
 30
0.0
 10
5.2177261108
 20
1.6075600163
 30
0.0
 10
5.2291660717
 20
1.5910539069
 30
0.0
 10
5.2421714314
 20
1.5753540025
 30
0.0
 10
5.2565469696
 20
1.5598489118
 30
0.0
 10
5.2765999326
 20
1.5414594755
 30
0.0
 10
5.3034429153
 20
1.5213719063
 30
0.0
 10
5.3330323283
 20
1.5032523906
 30
0.0
 10
5.3650816036
 20
1.4872746565
 30
0.0
 10
5.39928658
 20
1.4736021412
 30
0.0
 10
5.435316399
 20
1.4623597275
 30
0.0
 10
5.4728349161
 20
1.4536718427
 30
0.0
 10
5.5114882542
 20
1.4476195794
 30
0.0
 10
5.5508906023
 20
1.4442820186
 30
0.0
 10
5.5773752943
 20
1.4438771076
 30
0.0
 10
5.590637207
 20
1.4441356673
 30
0.0
 11
5.1843888577
 21
1.7189125703
 31
0.0
 11
5.186351703
 21
1.6915363145
 31
0.0
 11
5.1922101091
 21
1.6644315946
 31
0.0
 11
5.2019016095
 21
1.6378656004
 31
0.0
 11
5.2081588438
 21
1.6248677113
 31
0.0
 11
5.2153389083
 21
1.6121032206
 31
0.0
 11
5.2323883488
 21
1.587398779
 31
0.0
 11
5.2422176865
 21
1.5755208977
 31
0.0
 11
5.2528879846
 21
1.5639997355
 31
0.0
 11
5.2766391376
 21
1.5421380366
 31
0.0
 11
5.3034115499
 21
1.5220320433
 31
0.0
 11
5.3329495853
 21
1.5038829165
 31
0.0
 11
5.364968069
 21
1.4878714409
 31
0.0
 11
5.399160871
 21
1.4741605628
 31
0.0
 11
5.4351919788
 21
1.4628872629
 31
0.0
 11
5.4727196994
 21
1.4541708011
 31
0.0
 11
5.5113960221
 21
1.4480990417
 31
0.0
 11
5.5508485414
 21
1.4447429044
 31
0.0
 11
5.590637207
 21
1.4441356673
 31
0.0
  0
SPLINE
  5
334
100
AcDbEntity
  8
0
100
AcDbSpline
 62
6
  6
CONTINUOUS
 70
0
 71
3
 72
12
 73
8
 74
6
 42
0.0000001
 43
0.0000001
 44
0.0000000001
 12
-0.0004081943
 22
0.0002355255
 32
0.0
 13
0.0003348102
 23
0.000331658
 33
0.0
 40
0.0
 40
0.0
 40
0.0
 40
0.0
 40
0.332279619
 40
0.5696769774
 40
0.6684550293
 40
0.7666358809
 40
1.0
 40
1.0
 40
1.0
 40
1.0
 10
5.1920307447
 20
7.0988252843
 30
0.0
 10
5.1919855331
 20
7.0988513711
 30
0.0
 10
5.1919106496
 20
7.0989006843
 30
0.0
 10
5.1918415324
 20
7.0989855034
 30
0.0
 10
5.1918276219
 20
7.0990537539
 30
0.0
 10
5.1918387714
 20
7.0991217801
 30
0.0
 10
5.1918724534
 20
7.0991653242
 30
0.0
 10
5.1918984976
 20
7.0991911233
 30
0.0
 11
5.1920307447
 21
7.0988252843
 31
0.0
 11
5.1919036139
 21
7.0989167131
 31
0.0
 11
5.1918391645
 21
7.0990081624
 31
0.0
 11
5.1918304728
 21
7.0990538949
 31
0.0
 11
5.1918374692
 21
7.0990996325
 31
0.0
 11
5.1918984976
 21
7.0991911233
 31
0.0
  0
LINE
  5
335
100
AcDbEntity
  8
0
100
AcDbLine
 62
6
  6
CONTINUOUS
 10
5.2193888314
 20
6.9938751941
 11
5.2188681738
 21
6.9932735686
  0
SPLINE
  5
336
100
AcDbEntity
  8
0
100
AcDbSpline
 62
6
  6
CONTINUOUS
 70
0
 71
3
 72
9
 73
5
 74
3
 42
0.0000001
 43
0.0000001
 44
0.0000000001
 12
-0.0157658657
 22
-0.0366026987
 32
0.0
 13
-0.0212743271
 23
-0.0337004908
 33
0.0
 40
0.0
 40
0.0
 40
0.0
 40
0.0
 40
0.4956236745
 40
1.0
 40
1.0
 40
1.0
 40
1.0
 10
5.9782683651
 20
1.9720236914
 30
0.0
 10
5.9756637196
 20
1.9659766368
 30
0.0
 10
5.9699066516
 20
1.953986558
 30
0.0
 10
5.9632311973
 20
1.942484263
 30
0.0
 10
5.9596544416
 20
1.9368183531
 30
0.0
 11
5.9782683651
 21
1.9720236914
 31
0.0
 11
5.9697314462
 21
1.9542113236
 31
0.0
 11
5.9596544416
 21
1.9368183531
 31
0.0
  0
SPLINE
  5
337
100
AcDbEntity
  8
0
100
AcDbSpline
 62
6
  6
CONTINUOUS
 70
0
 71
3
 72
23
 73
19
 74
17
 42
0.0000001
 43
0.0000001
 44
0.0000000001
 12
-0.2268827429
 22
-0.3594031309
 32
0.0
 13
-0.4249393831
 23
-0.0085387472
 33
0.0
 40
0.0
 40
0.0
 40
0.0
 40
0.0
 40
0.0538890707
 40
0.1090125664
 40
0.1654357861
 40
0.223192673
 40
0.2822938259
 40
0.3427180424
 40
0.4044196736
 40
0.4673342147
 40
0.5313659815
 40
0.5964002227
 40
0.6623133413
 40
0.7289769117
 40
0.7962553147
 40
0.8639964057
 40
0.931988676
 40
1.0
 40
1.0
 40
1.0
 40
1.0
 10
5.9596544416
 20
1.9368183531
 30
0.0
 10
5.9555789415
 20
1.9303623862
 30
0.0
 10
5.9467762121
 20
1.9176469153
 30
0.0
 10
5.9319102416
 20
1.8994969404
 30
0.0
 10
5.9153193264
 20
1.8821429158
 30
0.0
 10
5.8970908537
 20
1.8656678577
 30
0.0
 10
5.8773112432
 20
1.8501570875
 30
0.0
 10
5.8560851036
 20
1.8356795925
 30
0.0
 10
5.833518988
 20
1.8223034878
 30
0.0
 10
5.8097229313
 20
1.8101002284
 30
0.0
 10
5.784822278
 20
1.7991207784
 30
0.0
 10
5.7589438307
 20
1.7894168446
 30
0.0
 10
5.7322150509
 20
1.7810413685
 30
0.0
 10
5.7047695405
 20
1.7740272025
 30
0.0
 10
5.6767412691
 20
1.7684064753
 30
0.0
 10
5.6482740578
 20
1.7642130555
 30
0.0
 10
5.6195288807
 20
1.7614557685
 30
0.0
 10
5.6002707704
 20
1.7605811806
 30
0.0
 10
5.590637207
 20
1.7603876035
 30
0.0
 11
5.9596544416
 21
1.9368183531
 31
0.0
 11
5.9466332121
 21
1.9179755702
 31
0.0
 11
5.9318054157
 21
1.8998358752
 31
0.0
 11
5.9152492454
 21
1.8824866561
 31
0.0
 11
5.8970502705
 21
1.8660121905
 31
0.0
 11
5.8772965723
 21
1.850495118
 31
0.0
 11
5.8560903885
 21
1.8360088051
 31
0.0
 11
5.8335389702
 21
1.8226233342
 31
0.0
 11
5.8097527308
 21
1.8104062772
 31
0.0
 11
5.7848563612
 21
1.7994138656
 31
0.0
 11
5.7589785875
 21
1.7896991264
 31
0.0
 11
5.7322488071
 21
1.7813119839
 31
0.0
 11
5.7047994008
 21
1.7742885689
 31
0.0
 11
5.6767635784
 21
1.7686611803
 31
0.0
 11
5.6482802092
 21
1.7644590571
 31
0.0
 11
5.6195140393
 21
1.7616974476
 31
0.0
 11
5.590637207
 21
1.7603876035
 31
0.0
  0
SPLINE
  5
338
100
AcDbEntity
  8
0
100
AcDbSpline
 62
6
  6
CONTINUOUS
 70
0
 71
3
 72
9
 73
5
 74
3
 42
0.0000001
 43
0.0000001
 44
0.0000000001
 12
-0.0192495876
 22
-0.0639154022
 32
0.0
 13
-0.0356575865
 23
-0.0564292636
 33
0.0
 40
0.0
 40
0.0
 40
0.0
 40
0.0
 40
0.4931750038
 40
1.0
 40
1.0
 40
1.0
 40
1.0
 10
5.9874685852
 20
1.9459587901
 30
0.0
 10
5.9843041134
 20
1.9354516305
 30
0.0
 10
5.9763440816
 20
1.9145852864
 30
0.0
 10
5.9656235718
 20
1.8950062215
 30
0.0
 10
5.9595995198
 20
1.8854729678
 30
0.0
 11
5.9874685852
 21
1.9459587901
 31
0.0
 11
5.9757813282
 21
1.9151832059
 31
0.0
 11
5.9595995198
 21
1.8854729678
 31
0.0
  0
SPLINE
  5
339
100
AcDbEntity
  8
0
100
AcDbSpline
 62
6
  6
CONTINUOUS
 70
0
 71
3
 72
21
 73
17
 74
15
 42
0.0000001
 43
0.0000001
 44
0.0000000001
 12
-0.2269575326
 22
-0.3591675068
 32
0.0
 13
-0.424780445
 23
-0.0085201581
 33
0.0
 40
0.0
 40
0.0
 40
0.0
 40
0.0
 40
0.0538988606
 40
0.1090330489
 40
0.1654690542
 40
0.2232389369
 40
0.3427205536
 40
0.4044306333
 40
0.4673504692
 40
0.5313869937
 40
0.5964251122
 40
0.7289567285
 40
0.7962357782
 40
0.8639801834
 40
0.9319794671
 40
1.0
 40
1.0
 40
1.0
 40
1.0
 10
5.9595995198
 20
1.8854729678
 30
0.0
 10
5.9555219356
 20
1.8790200613
 30
0.0
 10
5.9467156121
 20
1.8663106099
 30
0.0
 10
5.9318469932
 20
1.848168378
 30
0.0
 10
5.9152513429
 20
1.8308228816
 30
0.0
 10
5.8906746206
 20
1.8086234926
 30
0.0
 10
5.8632090943
 20
1.7886461079
 30
0.0
 10
5.8334530172
 20
1.7710176438
 30
0.0
 10
5.8096604069
 20
1.7588206451
 30
0.0
 10
5.7847645208
 20
1.7478499321
 30
0.0
 10
5.7500575008
 20
1.7348421414
 30
0.0
 10
5.713882433
 20
1.724608981
 30
0.0
 10
5.6767182002
 20
1.7171595929
 30
0.0
 10
5.648258795
 20
1.7129692503
 30
0.0
 10
5.6195217562
 20
1.7102145584
 30
0.0
 10
5.6002684711
 20
1.7093410383
 30
0.0
 10
5.590637207
 20
1.7091478564
 30
0.0
 11
5.9595995198
 21
1.8854729678
 31
0.0
 11
5.9465731935
 21
1.8666390868
 31
0.0
 11
5.9317420704
 21
1.8485075854
 31
0.0
 11
5.9151821816
 21
1.8311668307
 31
0.0
 11
5.8969808805
 21
1.814700417
 31
0.0
 11
5.8560207625
 21
1.7847134501
 31
0.0
 11
5.8334717206
 21
1.7713361989
 31
0.0
 11
5.8096902069
 21
1.7591269517
 31
0.0
 11
5.7847991159
 21
1.7481428322
 31
0.0
 11
5.758927891
 21
1.7384354357
 31
0.0
 11
5.7047661937
 21
1.7230367444
 31
0.0
 11
5.676740087
 21
1.7174140091
 31
0.0
 11
5.6482657042
 21
1.7132152536
 31
0.0
 11
5.6195071844
 21
1.7104561038
 31
0.0
 11
5.590637207
 21
1.7091478564
 31
0.0
  0
SPLINE
  5
33A
100
AcDbEntity
  8
0
100
AcDbSpline
 62
6
  6
CONTINUOUS
 70
0
 71
3
 72
12
 73
8
 74
6
 42
0.0000001
 43
0.0000001
 44
0.0000000001
 12
0.0044108025
 22
-0.0007952838
 32
0.0
 13
0.0038805317
 23
-0.0022425719
 33
0.0
 40
0.0
 40
0.0
 40
0.0
 40
0.0
 40
0.3411297382
 40
0.6208302455
 40
0.8398445618
 40
0.9271015398
 40
1.0
 40
1.0
 40
1.0
 40
1.0
 10
5.9921162853
 20
6.939932795
 30
0.0
 10
5.9926178373
 20
6.9398423634
 30
0.0
 10
5.9935286645
 20
6.939665795
 30
0.0
 10
5.9947496975
 20
6.9393759868
 30
0.0
 10
5.9955888124
 20
6.9391217378
 30
0.0
 10
5.9961147699
 20
6.9389105067
 30
0.0
 10
5.9963295168
 20
6.9388039313
 30
0.0
 10
5.9964238117
 20
6.9387494379
 30
0.0
 11
5.9921162853
 21
6.939932795
 31
0.0
 11
5.9936163079
 21
6.9396369526
 31
0.0
 11
5.9948344966
 21
6.9393411127
 31
0.0
 11
5.9957704613
 21
6.9390452747
 31
0.0
 11
5.9961324877
 21
6.9388973562
 31
0.0
 11
5.9964238117
 21
6.9387494379
 31
0.0
  0
SPLINE
  5
33B
100
AcDbEntity
  8
0
100
AcDbSpline
 62
6
  6
CONTINUOUS
 70
0
 71
3
 72
9
 73
5
 74
3
 42
0.0000001
 43
0.0000001
 44
0.0000000001
 12
-0.0160234771
 22
-0.0372295555
 32
0.0
 13
-0.0217129217
 23
-0.0342248544
 33
0.0
 40
0.0
 40
0.0
 40
0.0
 40
0.0
 40
0.4955469319
 40
1.0
 40
1.0
 40
1.0
 40
1.0
 10
5.9782922005
 20
1.8694666428
 30
0.0
 10
5.9756454055
 20
1.8633169788
 30
0.0
 10
5.9697852169
 20
1.8511249443
 30
0.0
 10
5.9629764652
 20
1.8394380465
 30
0.0
 10
5.9593254153
 20
1.8336831022
 30
0.0
 11
5.9782922005
 21
1.8694666428
 31
0.0
 11
5.969604473
 21
1.851357573
 31
0.0
 11
5.9593254153
 21
1.8336831022
 31
0.0
  0
SPLINE
  5
33C
100
AcDbEntity
  8
0
100
AcDbSpline
 62
6
  6
CONTINUOUS
 70
0
 71
3
 72
23
 73
19
 74
17
 42
0.0000001
 43
0.0000001
 44
0.0000000001
 12
-0.2273605076
 22
-0.3583755509
 32
0.0
 13
-0.4243274602
 23
-0.0084877795
 33
0.0
 40
0.0
 40
0.0
 40
0.0
 40
0.0
 40
0.0539093846
 40
0.1090525272
 40
0.1654935098
 40
0.2232655224
 40
0.2823785495
 40
0.3428109343
 40
0.4045169735
 40
0.4674321129
 40
0.5314606646
 40
0.5964881723
 40
0.6623914582
 40
0.7290425616
 40
0.7963063733
 40
0.8640311924
 40
0.93200614
 40
1.0
 40
1.0
 40
1.0
 40
1.0
 10
5.9593254153
 20
1.8336831022
 30
0.0
 10
5.9552397936
 20
1.8272431671
 30
0.0
 10
5.9464196118
 20
1.8145601945
 30
0.0
 10
5.9315355113
 20
1.7964584543
 30
0.0
 10
5.9149344144
 20
1.7791519862
 30
0.0
 10
5.8967031653
 20
1.7627235783
 30
0.0
 10
5.8769279811
 20
1.7472580238
 30
0.0
 10
5.8557131758
 20
1.7328236949
 30
0.0
 10
5.8331647237
 20
1.7194884809
 30
0.0
 10
5.809392277
 20
1.7073233007
 30
0.0
 10
5.7845206683
 20
1.6963786821
 30
0.0
 10
5.7586760516
 20
1.6867061647
 30
0.0
 10
5.7319852982
 20
1.6783583203
 30
0.0
 10
5.7045813605
 20
1.6713677156
 30
0.0
 10
5.6765975379
 20
1.6657663694
 30
0.0
 10
5.6481769929
 20
1.6615879129
 30
0.0
 10
5.6194799358
 20
1.6588410729
 30
0.0
 10
5.6002544277
 20
1.6579704329
 30
0.0
 10
5.590637207
 20
1.6577780606
 30
0.0
 11
5.9593254153
 21
1.8336831022
 31
0.0
 11
5.946278017
 21
1.8148881289
 31
0.0
 11
5.9314318553
 21
1.796796362
 31
0.0
 11
5.9148651858
 21
1.7794945835
 31
0.0
 11
5.8966631982
 21
1.7630666618
 31
0.0
 11
5.8769137098
 21
1.7475947382
 31
0.0
 11
5.8557186678
 21
1.7331516457
 31
0.0
 11
5.8331847811
 21
1.7198070798
 31
0.0
 11
5.8094220312
 21
1.7076281442
 31
0.0
 11
5.7845546316
 21
1.6966706674
 31
0.0
 11
5.7587106679
 21
1.6869874106
 31
0.0
 11
5.7320189093
 21
1.6786279661
 31
0.0
 11
5.7046110877
 21
1.6716281911
 31
0.0
 11
5.6766197375
 21
1.6660202222
 31
0.0
 11
5.6481830978
 21
1.6618331122
 31
0.0
 11
5.6194651661
 21
1.6590819911
 31
0.0
 11
5.590637207
 21
1.6577780606
 31
0.0
  0
SPLINE
  5
33D
100
AcDbEntity
  8
0
100
AcDbSpline
 62
6
  6
CONTINUOUS
 70
0
 71
3
 72
9
 73
5
 74
3
 42
0.0000001
 43
0.0000001
 44
0.0000000001
 12
-0.0194164205
 22
-0.0677013957
 32
0.0
 13
-0.0377681612
 23
-0.0594478121
 33
0.0
 40
0.0
 40
0.0
 40
0.0
 40
0.0
 40
0.492858359
 40
1.0
 40
1.0
 40
1.0
 40
1.0
 10
5.9883203185
 20
1.8462995874
 30
0.0
 10
5.9851304701
 20
1.8351771878
 30
0.0
 10
5.9769245037
 20
1.8130766455
 30
0.0
 10
5.9656279534
 20
1.7924002102
 30
0.0
 10
5.959243351
 20
1.7823507232
 30
0.0
 11
5.9883203185
 21
1.8462995874
 31
0.0
 11
5.9762909801
 21
1.8137382427
 31
0.0
 11
5.959243351
 21
1.7823507232
 31
0.0
  0
SPLINE
  5
33E
100
AcDbEntity
  8
0
100
AcDbSpline
 62
6
  6
CONTINUOUS
 70
0
 71
3
 72
22
 73
18
 74
16
 42
0.0000001
 43
0.0000001
 44
0.0000000001
 12
-0.227491339
 22
-0.3580757426
 32
0.0
 13
-0.4241437517
 23
-0.0085220058
 33
0.0
 40
0.0
 40
0.0
 40
0.0
 40
0.0
 40
0.0539174744
 40
0.1090695857
 40
0.1655216285
 40
0.223304846
 40
0.3428029348
 40
0.4045148482
 40
0.4674320162
 40
0.5314616408
 40
0.5964893903
 40
0.6623914285
 40
0.7290400509
 40
0.7963011589
 40
0.8640251334
 40
0.9320022209
 40
1.0
 40
1.0
 40
1.0
 40
1.0
 10
5.959243351
 20
1.7823507232
 30
0.0
 10
5.9551547648
 20
1.77591521
 30
0.0
 10
5.9463295258
 20
1.7632409597
 30
0.0
 10
5.9314413176
 20
1.7451508445
 30
0.0
 10
5.9148345807
 20
1.7278567183
 30
0.0
 10
5.8902545643
 20
1.7057255973
 30
0.0
 10
5.8628013566
 20
1.6858112828
 30
0.0
 10
5.8330697137
 20
1.6682391878
 30
0.0
 10
5.8093027904
 20
1.6560820638
 30
0.0
 10
5.7844393804
 20
1.6451478435
 30
0.0
 10
5.7586043454
 20
1.6354834402
 30
0.0
 10
5.7319249228
 20
1.6271415761
 30
0.0
 10
5.7045331734
 20
1.6201562127
 30
0.0
 10
5.6765621404
 20
1.6145581577
 30
0.0
 10
5.6481541225
 20
1.610381099
 30
0.0
 10
5.6194688171
 20
1.6076343141
 30
0.0
 10
5.6002508181
 20
1.6067626375
 30
0.0
 10
5.590637207
 20
1.6065694783
 30
0.0
 11
5.959243351
 21
1.7823507232
 31
0.0
 11
5.9461886535
 21
1.7635686525
 31
0.0
 11
5.9313376751
 21
1.7454889729
 31
0.0
 11
5.9147663878
 21
1.7281994228
 31
0.0
 11
5.8965618312
 21
1.7117830341
 31
0.0
 11
5.8556183459
 21
1.6818903393
 31
0.0
 11
5.8330884354
 21
1.6685563297
 31
0.0
 11
5.8093326828
 21
1.6563870968
 31
0.0
 11
5.7844733233
 21
1.6454393023
 31
0.0
 11
5.7586389065
 21
1.6357641881
 31
0.0
 11
5.7319583799
 21
1.6274110006
 31
0.0
 11
5.7045629268
 21
1.6204163376
 31
0.0
 11
5.6765846221
 21
1.6148117487
 31
0.0
 11
5.6481606494
 21
1.6106261427
 31
0.0
 11
5.6194543042
 21
1.6078749904
 31
0.0
 11
5.590637207
 21
1.6065694783
 31
0.0
  0
SPLINE
  5
33F
100
AcDbEntity
  8
0
100
AcDbSpline
 62
6
  6
CONTINUOUS
 70
0
 71
3
 72
10
 73
6
 74
4
 42
0.0000001
 43
0.0000001
 44
0.0000000001
 12
-0.0195118979
 22
-0.0694809897
 32
0.0
 13
-0.0388056749
 23
-0.0608476925
 33
0.0
 40
0.0
 40
0.0
 40
0.0
 40
0.0
 40
0.2448989048
 40
0.4928907277
 40
1.0
 40
1.0
 40
1.0
 40
1.0
 10
5.9886613411
 20
1.7962487905
 30
0.0
 10
5.9870685269
 20
1.7905768511
 30
0.0
 10
5.9834168218
 20
1.7792806211
 30
0.0
 10
5.9743002402
 20
1.7570021704
 30
0.0
 10
5.9655503004
 20
1.7409894871
 30
0.0
 10
5.9589907279
 20
1.7307040107
 30
0.0
 11
5.9886613411
 21
1.7962487905
 31
0.0
 11
5.9832319259
 21
1.7794293662
 31
0.0
 11
5.976461237
 21
1.7628622515
 31
0.0
 11
5.9589907279
 21
1.7307040107
 31
0.0
  0
SPLINE
  5
340
100
AcDbEntity
  8
0
100
AcDbSpline
 62
6
  6
CONTINUOUS
 70
0
 71
3
 72
23
 73
19
 74
17
 42
0.0000001
 43
0.0000001
 44
0.0000000001
 12
-0.2278694106
 22
-0.3573015512
 32
0.0
 13
-0.4236939758
 23
-0.0085018641
 33
0.0
 40
0.0
 40
0.0
 40
0.0
 40
0.0
 40
0.0539230918
 40
0.1090801601
 40
0.1655342877
 40
0.2233182774
 40
0.2824416789
 40
0.3428820235
 40
0.4045932343
 40
0.4675103359
 40
0.5315374331
 40
0.596560363
 40
0.662456376
 40
0.7290978783
 40
0.7963501305
 40
0.8640615931
 40
0.9320217031
 40
1.0
 40
1.0
 40
1.0
 40
1.0
 10
5.9589907279
 20
1.7307040107
 30
0.0
 10
5.9548949202
 20
1.7242817426
 30
0.0
 10
5.9460572061
 20
1.7116344595
 30
0.0
 10
5.9311552634
 20
1.6935854232
 30
0.0
 10
5.9145443651
 20
1.6763305087
 30
0.0
 10
5.8963106105
 20
1.6599522768
 30
0.0
 10
5.8765400532
 20
1.6445348565
 30
0.0
 10
5.8553368101
 20
1.6301458713
 30
0.0
 10
5.8328062007
 20
1.6168532457
 30
0.0
 10
5.8090575998
 20
1.6047273455
 30
0.0
 10
5.7842153978
 20
1.593818155
 30
0.0
 10
5.7584050235
 20
1.5841771328
 30
0.0
 10
5.7317527464
 20
1.5758563876
 30
0.0
 10
5.7043908567
 20
1.568888108
 30
0.0
 10
5.6764519727
 20
1.5633042664
 30
0.0
 10
5.648078645
 20
1.5591382151
 30
0.0
 10
5.6194303612
 20
1.5563985132
 30
0.0
 10
5.600237872
 20
1.555529113
 30
0.0
 10
5.590637207
 20
1.5553364656
 30
0.0
 11
5.9589907279
 21
1.7307040107
 31
0.0
 11
5.9459171962
 21
1.7119617246
 31
0.0
 11
5.9310529632
 21
1.6939223737
 31
0.0
 11
5.9144762014
 21
1.6766720697
 31
0.0
 11
5.8962715121
 21
1.6602941998
 31
0.0
 11
5.8765264097
 21
1.6448702712
 31
0.0
 11
5.8553426721
 21
1.6304725727
 31
0.0
 11
5.8328264533
 21
1.6171705645
 31
0.0
 11
5.8090874039
 21
1.605030913
 31
0.0
 11
5.78424932
 21
1.5941089803
 31
0.0
 11
5.7584395768
 21
1.5844572684
 31
0.0
 11
5.7317862706
 21
1.576124968
 31
0.0
 11
5.7044204777
 21
1.5691475996
 31
0.0
 11
5.6764740429
 21
1.5635571564
 31
0.0
 11
5.6480846311
 21
1.5593824819
 31
0.0
 11
5.6194155588
 21
1.5566385385
 31
0.0
 11
5.590637207
 21
1.5553364656
 31
0.0
  0
SPLINE
  5
341
100
AcDbEntity
  8
0
100
AcDbSpline
 62
6
  6
CONTINUOUS
 70
0
 71
3
 72
30
 73
26
 74
24
 42
0.0000001
 43
0.0000001
 44
0.0000000001
 12
0.4061932034
 22
0.0115268202
 32
0.0
 13
0.3516874139
 23
0.2035724663
 33
0.0
 40
0.0
 40
0.0
 40
0.0
 40
0.0
 40
0.1890636563
 40
0.2814954936
 40
0.3713527568
 40
0.4578550466
 40
0.5402355015
 40
0.6177392483
 40
0.6896574304
 40
0.7553535045
 40
0.8142284714
 40
0.8657674506
 40
0.8886322015
 40
0.9094932542
 40
0.9283080101
 40
0.9450342538
 40
0.9596308056
 40
0.9720677143
 40
0.9823274261
 40
0.9866367004
 40
0.9903974321
 40
0.9936096656
 40
0.9962751958
 40
0.9984000011
 40
1.0
 40
1.0
 40
1.0
 40
1.0
 10
5.590637207
 20
6.9041069606
 30
0.0
 10
5.6162359978
 20
6.9048333949
 30
0.0
 10
5.6543498576
 20
6.9059148184
 30
0.0
 10
5.7046290439
 20
6.9073812603
 30
0.0
 10
5.7410210879
 20
6.9084725227
 30
0.0
 10
5.7760510286
 20
6.9095634683
 30
0.0
 10
5.8094068272
 20
6.910653961
 30
0.0
 10
5.8407860915
 20
6.911743705
 30
0.0
 10
5.8699039959
 20
6.9128326001
 30
0.0
 10
5.8964967705
 20
6.9139196185
 30
0.0
 10
5.9203266569
 20
6.915004998
 30
0.0
 10
5.938355564
 20
6.9159394111
 30
0.0
 10
5.9512370959
 20
6.9166985628
 30
0.0
 10
5.9596907966
 20
6.9172445294
 30
0.0
 10
5.9673111808
 20
6.9177897388
 30
0.0
 10
5.9740806864
 20
6.9183339593
 30
0.0
 10
5.9799833314
 20
6.9188767262
 30
0.0
 10
5.9850059135
 20
6.9194178419
 30
0.0
 10
5.9886340718
 20
6.9198887162
 30
0.0
 10
5.9910868139
 20
6.9202748309
 30
0.0
 10
5.9925908409
 20
6.9205466992
 30
0.0
 10
5.9938681676
 20
6.9208176137
 30
0.0
 10
5.9949187978
 20
6.9210870858
 30
0.0
 10
5.9957422543
 20
6.9213546966
 30
0.0
 10
5.9962064516
 20
6.9215583491
 30
0.0
 10
5.9963940181
 20
6.921666921
 30
0.0
 11
5.590637207
 21
6.9041069606
 31
0.0
 11
5.6674331978
 21
6.9062996635
 31
0.0
 11
5.7049774742
 21
6.9073966279
 31
0.0
 11
5.7414751044
 21
6.9084933082
 31
0.0
 11
5.7766087749
 21
6.9095901327
 31
0.0
 11
5.8100666443
 21
6.9106872277
 31
0.0
 11
5.8415416936
 21
6.911784463
 31
0.0
 11
5.8707455224
 21
6.9128817737
 31
0.0
 11
5.8974189971
 21
6.9139792119
 31
0.0
 11
5.9213180437
 21
6.9150768285
 31
0.0
 11
5.9422324617
 21
6.9161746426
 31
0.0
 11
5.951507474
 21
6.916723628
 31
0.0
 11
5.9599667042
 21
6.9172726671
 31
0.0
 11
5.9675924636
 21
6.9178217607
 31
0.0
 11
5.9743670646
 21
6.9183709096
 31
0.0
 11
5.9802729907
 21
6.9189201145
 31
0.0
 11
5.9852968761
 21
6.9194693745
 31
0.0
 11
5.9894296323
 21
6.9200186874
 31
0.0
 11
5.9911590581
 21
6.920293363
 31
0.0
 11
5.992662367
 21
6.9205680508
 31
0.0
 11
5.9939384474
 21
6.9208427507
 31
0.0
 11
5.9949861881
 21
6.9211174623
 31
0.0
 11
5.9958047458
 21
6.9213921855
 31
0.0
 11
5.9963940181
 21
6.921666921
 31
0.0
  0
SPLINE
  5
342
100
AcDbEntity
  8
0
100
AcDbSpline
 62
6
  6
CONTINUOUS
 70
0
 71
3
 72
21
 73
17
 74
15
 42
0.0000001
 43
0.0000001
 44
0.0000000001
 12
-0.130999913
 22
-0.4799610772
 32
0.0
 13
-0.4974189173
 23
-0.0099011901
 33
0.0
 40
0.0
 40
0.0
 40
0.0
 40
0.0
 40
0.0523025058
 40
0.1056420038
 40
0.1602556037
 40
0.2163225911
 40
0.2739732214
 40
0.3332741666
 40
0.3942442771
 40
0.4568518672
 40
0.5210191548
 40
0.5866308899
 40
0.7214412241
 40
0.8598620162
 40
0.9298873507
 40
1.0
 40
1.0
 40
1.0
 40
1.0
 10
5.9891066915
 20
1.7464896273
 30
0.0
 10
5.9868228169
 20
1.738121905
 30
0.0
 10
5.9812337911
 20
1.7214715677
 30
0.0
 10
5.9700275619
 20
1.6973188585
 30
0.0
 10
5.9560182239
 20
1.6739463311
 30
0.0
 10
5.9393213047
 20
1.6515192482
 30
0.0
 10
5.9200522449
 20
1.6302040416
 30
0.0
 10
5.8983684396
 20
1.6101386858
 30
0.0
 10
5.8744221853
 20
1.5914714721
 30
0.0
 10
5.8483945655
 20
1.574327778
 30
0.0
 10
5.8204753886
 20
1.5588239491
 30
0.0
 10
5.7806491496
 20
1.540329235
 30
0.0
 10
5.7273361409
 20
1.5220122182
 30
0.0
 10
5.6714243235
 20
1.5105131452
 30
0.0
 10
5.6254908961
 20
1.505392769
 30
0.0
 10
5.6022623264
 20
1.5042206081
 30
0.0
 10
5.590637207
 20
1.5039892085
 30
0.0
 11
5.9891066915
 21
1.7464896273
 31
0.0
 11
5.9808478795
 21
1.7218136113
 31
0.0
 11
5.9697085465
 21
1.6977274078
 31
0.0
 11
5.9557710541
 21
1.6744031406
 31
0.0
 11
5.9391417214
 21
1.6520076606
 31
0.0
 11
5.9199375644
 21
1.6307034676
 31
0.0
 11
5.8983067284
 21
1.610639844
 31
0.0
 11
5.8744052094
 21
1.5919623074
 31
0.0
 11
5.8484102111
 21
1.5748018608
 31
0.0
 11
5.820513659
 21
1.5592794189
 31
0.0
 11
5.7909185535
 21
1.5455064716
 31
0.0
 11
5.7275351838
 21
1.5235747694
 31
0.0
 11
5.6600988464
 21
1.5096115689
 31
0.0
 11
5.6254752624
 21
1.5057448892
 31
0.0
 11
5.590637207
 21
1.5039892085
 31
0.0
  0
SPLINE
  5
343
100
AcDbEntity
  8
0
100
AcDbSpline
 62
6
  6
CONTINUOUS
 70
0
 71
3
 72
24
 73
20
 74
18
 42
0.0000001
 43
0.0000001
 44
0.0000000001
 12
-0.0229421745
 22
-0.5462664609
 32
0.0
 13
-0.5466377108
 23
-0.0109819305
 33
0.0
 40
0.0
 40
0.0
 40
0.0
 40
0.0
 40
0.0260388475
 40
0.0521679711
 40
0.1048813547
 40
0.1585616614
 40
0.2135509095
 40
0.2701136036
 40
0.3284425567
 40
0.3886447656
 40
0.450755645
 40
0.5147355571
 40
0.5804835208
 40
0.6478342075
 40
0.7165672099
 40
0.7864415035
 40
0.8571996563
 40
0.9285280652
 40
1.0
 40
1.0
 40
1.0
 40
1.0
 10
5.9966957854
 20
1.7438000609
 30
0.0
 10
5.9964966561
 20
1.7390586779
 30
0.0
 10
5.9957832214
 20
1.7295693328
 30
0.0
 10
5.9930943023
 20
1.7106338164
 30
0.0
 10
5.9873500145
 20
1.6870989899
 30
0.0
 10
5.9767940156
 20
1.6595675376
 30
0.0
 10
5.9626456719
 20
1.6329046141
 30
0.0
 10
5.9450645534
 20
1.6073422414
 30
0.0
 10
5.9242040128
 20
1.5831169686
 30
0.0
 10
5.9002769716
 20
1.5604274425
 30
0.0
 10
5.8734954253
 20
1.5394816455
 30
0.0
 10
5.8441150894
 20
1.5204497664
 30
0.0
 10
5.8124000565
 20
1.5035057583
 30
0.0
 10
5.7786482479
 20
1.4887895632
 30
0.0
 10
5.7431700608
 20
1.4764269612
 30
0.0
 10
5.7062858761
 20
1.4665280999
 30
0.0
 10
5.6683307576
 20
1.4591703362
 30
0.0
 10
5.6296709021
 20
1.4544258755
 30
0.0
 10
5.603660292
 20
1.4530134201
 30
0.0
 10
5.590637207
 20
1.4527517868
 30
0.0
 11
5.9966957854
 21
1.7438000609
 31
0.0
 11
5.9956289872
 21
1.7296033982
 31
0.0
 11
5.9936225216
 21
1.715458957
 31
0.0
 11
5.9868156779
 21
1.6874533624
 31
0.0
 11
5.9763435316
 21
1.6600356084
 31
0.0
 11
5.9622961696
 21
1.6334538175
 31
0.0
 11
5.9448115924
 21
1.6079454145
 31
0.0
 11
5.924044964
 21
1.5837421445
 31
0.0
 11
5.9001948089
 21
1.5610574323
 31
0.0
 11
5.8734768039
 21
1.5400964714
 31
0.0
 11
5.844140548
 21
1.5210426858
 31
0.0
 11
5.812453309
 21
1.5040678055
 31
0.0
 11
5.7787116823
 21
1.4893199629
 31
0.0
 11
5.7432333254
 21
1.4769298471
 31
0.0
 11
5.7063410677
 21
1.4670062006
 31
0.0
 11
5.6683637938
 21
1.4596304762
 31
0.0
 11
5.6296569917
 21
1.4548681869
 31
0.0
 11
5.590637207
 21
1.4527517868
 31
0.0
  0
SPLINE
  5
344
100
AcDbEntity
  8
0
100
AcDbSpline
 62
6
  6
CONTINUOUS
 70
0
 71
3
 72
19
 73
15
 74
13
 42
0.0000001
 43
0.0000001
 44
0.0000000001
 12
0.0540817864
 22
0.0030764975
 32
0.0
 13
0.0468973615
 23
0.0271098125
 33
0.0
 40
0.0
 40
0.0
 40
0.0
 40
0.0
 40
0.2104181483
 40
0.397605211
 40
0.5607889028
 40
0.6992420248
 40
0.812540345
 40
0.8596771572
 40
0.9004370771
 40
0.9348048534
 40
0.9627895166
 40
0.98445894
 40
0.9929767252
 40
1.0
 40
1.0
 40
1.0
 40
1.0
 10
5.9426088282
 20
6.7712147939
 30
0.0
 10
5.9464020913
 20
6.7714305775
 30
0.0
 10
5.9535687465
 20
6.7718578707
 30
0.0
 10
5.9636720334
 20
6.7725347408
 30
0.0
 10
5.9724728239
 20
6.773209427
 30
0.0
 10
5.9799350583
 20
6.7738817434
 30
0.0
 10
5.9853006803
 20
6.7744674363
 30
0.0
 10
5.9889017157
 20
6.7749488041
 30
0.0
 10
5.9910835658
 20
6.775286424
 30
0.0
 10
5.9929153284
 20
6.7756222653
 30
0.0
 10
5.9943954763
 20
6.7759564211
 30
0.0
 10
5.9954057966
 20
6.7762498505
 30
0.0
 10
5.9960319219
 20
6.7764946448
 30
0.0
 10
5.99628453
 20
6.7766182942
 30
0.0
 10
5.996394321
 20
6.7766817608
 30
0.0
 11
5.9426088282
 21
6.7712147939
 31
0.0
 11
5.9539865469
 21
6.7718975721
 31
0.0
 11
5.9641032637
 21
6.7725810365
 31
0.0
 11
5.9729163154
 21
6.7732647543
 31
0.0
 11
5.9803849955
 21
6.7739483355
 31
0.0
 11
5.9864841105
 21
6.7746317268
 31
0.0
 11
5.9890145135
 21
6.7749733849
 31
0.0
 11
5.9911958532
 21
6.775315036
 31
0.0
 11
5.9930259096
 21
6.7756566938
 31
0.0
 11
5.9945028096
 21
6.7759983682
 31
0.0
 11
5.9956257929
 21
6.7763400583
 31
0.0
 11
5.9960543975
 21
6.7765109082
 31
0.0
 11
5.996394321
 21
6.7766817608
 31
0.0
  0
SPLINE
  5
345
100
AcDbEntity
  8
0
100
AcDbSpline
 62
6
  6
CONTINUOUS
 70
0
 71
3
 72
11
 73
7
 74
5
 42
0.0000001
 43
0.0000001
 44
0.0000000001
 12
0.0000006596
 22
-0.0650733167
 32
0.0
 13
0.0200160272
 23
-0.0619184561
 33
0.0
 40
0.0
 40
0.0
 40
0.0
 40
0.0
 40
0.2478421444
 40
0.4967177993
 40
0.7472392227
 40
1.0
 40
1.0
 40
1.0
 40
1.0
 10
5.1843872086
 20
2.0861086185
 30
0.0
 10
5.1843872631
 20
2.0807326484
 30
0.0
 10
5.1848184252
 20
2.0699535078
 30
0.0
 10
5.1867468202
 20
2.0538439756
 30
0.0
 10
5.1899496061
 20
2.0378300149
 30
0.0
 10
5.1929158039
 20
2.0273108624
 30
0.0
 10
5.1946022261
 20
2.0220940101
 30
0.0
 11
5.1843872086
 21
2.0861086185
 31
0.0
 11
5.1850293225
 21
2.0699934958
 31
0.0
 11
5.1869506217
 21
2.0539127011
 31
0.0
 11
5.1901440326
 21
2.0379262754
 31
0.0
 11
5.1946022261
 21
2.0220940101
 31
0.0
  0
SPLINE
  5
346
100
AcDbEntity
  8
0
100
AcDbSpline
 62
6
  6
CONTINUOUS
 70
0
 71
3
 72
9
 73
5
 74
3
 42
0.0000001
 43
0.0000001
 44
0.0000000001
 12
0.0172811621
 22
-0.0405715754
 32
0.0
 13
0.0243149921
 23
-0.0367895699
 33
0.0
 40
0.0
 40
0.0
 40
0.0
 40
0.0
 40
0.4946571531
 40
1.0
 40
1.0
 40
1.0
 40
1.0
 10
5.201645975
 20
2.0032687498
 30
0.0
 10
5.2044953918
 20
1.9965790765
 30
0.0
 10
5.2109029212
 20
1.9833229344
 30
0.0
 10
5.2184860768
 20
1.9707053193
 30
0.0
 10
5.2225818792
 20
1.9645082039
 30
0.0
 11
5.201645975
 21
2.0032687498
 31
0.0
 11
5.2111221112
 21
1.9836208239
 31
0.0
 11
5.2225818792
 21
1.9645082039
 31
0.0
  0
SPLINE
  5
347
100
AcDbEntity
  8
0
100
AcDbSpline
 62
6
  6
CONTINUOUS
 70
0
 71
3
 72
27
 73
23
 74
21
 42
0.0000001
 43
0.0000001
 44
0.0000000001
 12
0.4044753839
 22
-0.6119876733
 32
0.0
 13
0.586523741
 23
0.4405895479
 33
0.0
 40
0.0
 40
0.0
 40
0.0
 40
0.0
 40
0.052840281
 40
0.107981285
 40
0.1655189375
 40
0.1951899403
 40
0.2254317053
 40
0.2562184492
 40
0.2875196371
 40
0.3192969427
 40
0.3515065485
 40
0.4170139735
 40
0.4836347862
 40
0.5172258895
 40
0.5509173255
 40
0.6183354967
 40
0.7515221436
 40
0.8164742993
 40
0.8483468392
 40
0.8797573846
 40
0.9410308273
 40
1.0
 40
1.0
 40
1.0
 40
1.0
 10
5.2225818792
 20
1.9645082039
 30
0.0
 10
5.2297060769
 20
1.9537290037
 30
0.0
 10
5.2459228937
 20
1.9327603535
 30
0.0
 10
5.2748292376
 20
1.9042850238
 30
0.0
 10
5.3025051162
 20
1.8830292112
 30
0.0
 10
5.3266838418
 20
1.8675105431
 30
0.0
 10
5.3459826923
 20
1.8565592311
 30
0.0
 10
5.3661848204
 20
1.8464580409
 30
0.0
 10
5.3872187422
 20
1.8372480854
 30
0.0
 10
5.4090050285
 20
1.8289597195
 30
0.0
 10
5.4391131784
 20
1.819121822
 30
0.0
 10
5.4781517478
 20
1.8093432945
 30
0.0
 10
5.5182348673
 20
1.8030274094
 30
0.0
 10
5.5508503537
 20
1.8000506892
 30
0.0
 10
5.5837611426
 20
1.7984741344
 30
0.0
 10
5.6410981992
 20
1.7994317827
 30
0.0
 10
5.7057474146
 20
1.8088650894
 30
0.0
 10
5.7598506182
 20
1.8244877322
 30
0.0
 10
5.7892869149
 20
1.8353288255
 30
0.0
 10
5.8173293181
 20
1.8472404332
 30
0.0
 10
5.8503361231
 20
1.8642906537
 30
0.0
 10
5.8749186045
 20
1.8805531865
 30
0.0
 10
5.8864475444
 20
1.8892135869
 30
0.0
 11
5.2225818792
 21
1.9645082039
 31
0.0
 11
5.246209808
 21
1.9337798924
 31
0.0
 11
5.2749444602
 21
1.9053102937
 31
0.0
 11
5.3083573364
 21
1.8795207527
 31
0.0
 11
5.3266679476
 21
1.8677532762
 31
0.0
 11
5.3459570427
 21
1.8567949626
 31
0.0
 11
5.3661528944
 21
1.846686591
 31
0.0
 11
5.3871827169
 21
1.8374677827
 31
0.0
 11
5.4089672561
 21
1.8291710825
 31
0.0
 11
5.4314248155
 21
1.8218263634
 31
0.0
 11
5.478027657
 21
1.8101042634
 31
0.0
 11
5.5262992297
 21
1.8024719697
 31
0.0
 11
5.5508385006
 21
1.8002294499
 31
0.0
 11
5.5755252836
 21
1.7990461604
 31
0.0
 11
5.6249744798
 21
1.7998752128
 31
0.0
 11
5.7216223235
 21
1.8141894867
 31
0.0
 11
5.7673845239
 21
1.8274586723
 31
0.0
 11
5.7893221535
 21
1.8355459299
 31
0.0
 11
5.8105263012
 21
1.8445633837
 31
0.0
 11
5.8504252982
 21
1.8652622051
 31
0.0
 11
5.8864475444
 21
1.8892135869
 31
0.0
  0
SPLINE
  5
348
100
AcDbEntity
  8
0
100
AcDbSpline
 62
6
  6
CONTINUOUS
 70
0
 71
3
 72
15
 73
11
 74
9
 42
0.0000001
 43
0.0000001
 44
0.0000000001
 12
0.3520424453
 22
0.0099587076
 32
0.0
 13
0.3516315852
 23
0.0197050099
 33
0.0
 40
0.0
 40
0.0
 40
0.0
 40
0.0
 40
0.2988838172
 40
0.4419062143
 40
0.577381743
 40
0.7029685098
 40
0.8165104265
 40
0.9161027919
 40
0.9601207453
 40
1.0
 40
1.0
 40
1.0
 40
1.0
 10
5.590637207
 20
6.7592326675
 30
0.0
 10
5.6257104703
 20
6.760224833
 30
0.0
 10
5.6775671434
 20
6.7616890173
 30
0.0
 10
5.745318695
 20
6.7637009014
 30
0.0
 10
5.7927328149
 20
6.7651842245
 30
0.0
 10
5.8366844561
 20
6.7666630076
 30
0.0
 10
5.8764212062
 20
6.7681361317
 30
0.0
 10
5.9065830829
 20
6.7694031043
 30
0.0
 10
5.9280991084
 20
6.7704340289
 30
0.0
 10
5.9379345597
 20
6.7709528535
 30
0.0
 10
5.9426088282
 20
6.7712147939
 30
0.0
 11
5.590637207
 21
6.7592326675
 31
0.0
 11
5.695856119
 21
6.7622400385
 31
0.0
 11
5.7462038503
 21
6.7637408839
 31
0.0
 11
5.7938925094
 21
6.765239982
 31
0.0
 11
5.8380967253
 21
6.7667370364
 31
0.0
 11
5.8780563437
 21
6.7682317521
 31
0.0
 11
5.9130993223
 21
6.7697246753
 31
0.0
 11
5.9285837655
 21
6.7704703446
 31
0.0
 11
5.9426088282
 21
6.7712147939
 31
0.0
  0
LINE
  5
349
100
AcDbEntity
  8
0
100
AcDbLine
 62
6
  6
CONTINUOUS
 10
5.9949400534
 20
6.7985911915
 11
5.9964240938
 21
6.7980285866
  0
LINE
  5
34A
100
AcDbEntity
  8
0
100
AcDbLine
 62
6
  6
CONTINUOUS
 10
5.9945050218
 20
6.8691110677
 11
5.9964254296
 21
6.8684323214
  0
SPLINE
  5
34B
100
AcDbEntity
  8
0
100
AcDbSpline
 62
6
  6
CONTINUOUS
 70
0
 71
3
 72
15
 73
11
 74
9
 42
0.0000001
 43
0.0000001
 44
0.0000000001
 12
-0.2473254192
 22
0.0953179492
 32
0.0
 13
-0.0905930292
 23
0.2490949167
 33
0.0
 40
0.0
 40
0.0
 40
0.0
 40
0.0
 40
0.1405102413
 40
0.2769264498
 40
0.408723677
 40
0.5357654333
 40
0.6581075889
 40
0.7759565591
 40
0.8897077085
 40
1.0
 40
1.0
 40
1.0
 40
1.0
 10
5.3873832735
 20
1.5383028343
 30
0.0
 10
5.3757993553
 20
1.542767217
 30
0.0
 10
5.3533102045
 20
1.5524880966
 30
0.0
 10
5.3214619295
 20
1.5696049682
 30
0.0
 10
5.2922946149
 20
1.5889038753
 30
0.0
 10
5.2661057331
 20
1.6101700186
 30
0.0
 10
5.2431608209
 20
1.6332006691
 30
0.0
 10
5.2236798786
 20
1.6577565701
 30
0.0
 10
5.2078885144
 20
1.6835957707
 30
0.0
 10
5.1998137686
 20
1.701745784
 30
0.0
 10
5.1964831976
 20
1.7109035337
 30
0.0
 11
5.3873832735
 21
1.5383028343
 31
0.0
 11
5.3532121816
 21
1.5531149011
 31
0.0
 11
5.3213884008
 21
1.5702804502
 31
0.0
 11
5.2922852155
 21
1.5896033957
 31
0.0
 11
5.266185654
 21
1.61088031
 31
0.0
 11
5.2433437521
 21
1.6338977398
 31
0.0
 11
5.22398515
 21
1.6584125894
 31
0.0
 11
5.2083147898
 21
1.6841710222
 31
0.0
 11
5.1964831976
 21
1.7109035337
 31
0.0
  0
SPLINE
  5
34C
100
AcDbEntity
  8
0
100
AcDbSpline
 62
6
  6
CONTINUOUS
 70
0
 71
3
 72
9
 73
5
 74
3
 42
0.0000001
 43
0.0000001
 44
0.0000000001
 12
-0.0134229002
 22
0.0436749217
 32
0.0
 13
-0.0030424798
 23
0.0455896518
 33
0.0
 40
0.0
 40
0.0
 40
0.0
 40
0.0
 40
0.5027209288
 40
1.0
 40
1.0
 40
1.0
 40
1.0
 10
5.1931460003
 20
1.7208541748
 30
0.0
 10
5.190896676
 20
1.7281729406
 30
0.0
 10
5.1872357054
 20
1.7429951204
 30
0.0
 10
5.1853177833
 20
1.7581441092
 30
0.0
 10
5.1848134628
 20
1.7657010358
 30
0.0
 11
5.1931460003
 21
1.7208541748
 31
0.0
 11
5.1876563006
 21
1.7431583745
 31
0.0
 11
5.1848134628
 21
1.7657010358
 31
0.0
  0
SPLINE
  5
34D
100
AcDbEntity
  8
0
100
AcDbSpline
 62
6
  6
CONTINUOUS
 70
0
 71
3
 72
13
 73
9
 74
7
 42
0.0000001
 43
0.0000001
 44
0.0000000001
 12
-0.2073182693
 22
-0.0041266979
 32
0.0
 13
-0.1934649092
 23
0.074627229
 33
0.0
 40
0.0
 40
0.0
 40
0.0
 40
0.0
 40
0.1281534795
 40
0.2560245293
 40
0.5093912976
 40
0.7580079087
 40
0.8799931628
 40
1.0
 40
1.0
 40
1.0
 40
1.0
 10
5.590637207
 20
1.5039892085
 30
0.0
 10
5.5817810212
 20
1.5038129249
 30
0.0
 10
5.564076904
 20
1.5038717995
 30
0.0
 10
5.5289013453
 20
1.5056160714
 30
0.0
 10
5.4856070453
 20
1.5108005545
 30
0.0
 10
5.4433974951
 20
1.5200115952
 30
0.0
 10
5.4108926975
 20
1.5297157076
 30
0.0
 10
5.3951223107
 20
1.535317575
 30
0.0
 10
5.3873832735
 20
1.5383028343
 30
0.0
 11
5.590637207
 21
1.5039892085
 31
0.0
 11
5.5640635308
 21
1.5040767687
 31
0.0
 11
5.53758094
 21
1.5053925146
 31
0.0
 11
5.485419936
 21
1.5116748251
 31
0.0
 11
5.4350635864
 21
1.5227178017
 31
0.0
 11
5.4108283375
 21
1.5299620184
 31
0.0
 11
5.3873832735
 21
1.5383028343
 31
0.0
  0
SPLINE
  5
34E
100
AcDbEntity
  8
0
100
AcDbSpline
 62
6
  6
CONTINUOUS
 70
0
 71
3
 72
12
 73
8
 74
6
 42
0.0000001
 43
0.0000001
 44
0.0000000001
 12
-0.1904585545
 22
-0.0038217507
 32
0.0
 13
-0.1800730365
 23
0.0621511729
 33
0.0
 40
0.0
 40
0.0
 40
0.0
 40
0.0
 40
0.2549772319
 40
0.5079536151
 40
0.6330186614
 40
0.7568453842
 40
1.0
 40
1.0
 40
1.0
 40
1.0
 10
5.590637207
 20
1.5553364656
 30
0.0
 10
5.5744496754
 20
1.5550116458
 30
0.0
 10
5.5421588625
 20
1.5557318426
 30
0.0
 10
5.5021417066
 20
1.5600307484
 30
0.0
 10
5.4707383819
 20
1.5655118451
 30
0.0
 10
5.4402201508
 20
1.5722400694
 30
0.0
 10
5.4178105496
 20
1.5787881622
 30
0.0
 10
5.4032153529
 20
1.5838256104
 30
0.0
 11
5.590637207
 21
1.5553364656
 31
0.0
 11
5.5420769771
 21
1.5564224099
 31
0.0
 11
5.4941645545
 21
1.5615986053
 31
0.0
 11
5.4706954467
 21
1.5656983512
 31
0.0
 11
5.4476612769
 21
1.5707825781
 31
0.0
 11
5.4032153529
 21
1.5838256104
 31
0.0
  0
SPLINE
  5
34F
100
AcDbEntity
  8
0
100
AcDbSpline
 62
6
  6
CONTINUOUS
 70
0
 71
3
 72
14
 73
10
 74
8
 42
0.0000001
 43
0.0000001
 44
0.0000000001
 12
-0.192655833
 22
0.0725260907
 32
0.0
 13
-0.1199792716
 23
0.1672760539
 33
0.0
 40
0.0
 40
0.0
 40
0.0
 40
0.0
 40
0.2694684549
 40
0.3996164783
 40
0.5264521057
 40
0.6498831224
 40
0.7698985302
 40
0.8865598688
 40
1.0
 40
1.0
 40
1.0
 40
1.0
 10
5.3908079962
 20
1.5883004104
 30
0.0
 10
5.3735031063
 20
1.5948149083
 30
0.0
 10
5.3483630169
 20
1.6060044868
 30
0.0
 10
5.3169677502
 20
1.623914519
 30
0.0
 10
5.2952159682
 20
1.6383868841
 30
0.0
 10
5.2751213242
 20
1.6539739494
 30
0.0
 10
5.2567935231
 20
1.6705858884
 30
0.0
 10
5.2403334098
 20
1.6881213867
 30
0.0
 10
5.2305388847
 20
1.7005365115
 30
0.0
 10
5.2260020633
 20
1.706861784
 30
0.0
 11
5.3908079962
 21
1.5883004104
 31
0.0
 11
5.3401933812
 21
1.6109993488
 31
0.0
 11
5.3169321234
 21
1.6242924015
 31
0.0
 11
5.2952083941
 21
1.6387768378
 31
0.0
 11
5.2751470611
 21
1.6543702678
 31
0.0
 11
5.2568590756
 21
1.6709812603
 31
0.0
 11
5.2404450033
 21
1.6885116376
 31
0.0
 11
5.2260020633
 21
1.706861784
 31
0.0
  0
SPLINE
  5
350
100
AcDbEntity
  8
0
100
AcDbSpline
 62
6
  6
CONTINUOUS
 70
0
 71
3
 72
10
 73
6
 74
4
 42
0.0000001
 43
0.0000001
 44
0.0000000001
 12
-0.0425536937
 22
0.0593286979
 32
0.0
 13
-0.0215749808
 23
0.069751211
 33
0.0
 40
0.0
 40
0.0
 40
0.0
 40
0.0
 40
0.5090712919
 40
0.7565129058
 40
1.0
 40
1.0
 40
1.0
 40
1.0
 10
5.2260020633
 20
1.706861784
 30
0.0
 10
5.2187811087
 20
1.7169292963
 30
0.0
 10
5.2091140906
 20
1.7327151698
 30
0.0
 10
5.1990295506
 20
1.7548857685
 30
0.0
 10
5.1950028088
 20
1.7661538512
 30
0.0
 10
5.1932517323
 20
1.7718150244
 30
0.0
 11
5.2260020633
 21
1.706861784
 31
0.0
 11
5.2066936989
 21
1.7386211915
 31
0.0
 11
5.1992244199
 21
1.7550709698
 31
0.0
 11
5.1932517323
 21
1.7718150244
 31
0.0
  0
SPLINE
  5
351
100
AcDbEntity
  8
0
100
AcDbSpline
 62
6
  6
CONTINUOUS
 70
0
 71
3
 72
9
 73
5
 74
3
 42
0.0000001
 43
0.0000001
 44
0.0000000001
 12
-0.014045953
 22
0.0454101091
 32
0.0
 13
-0.002792547
 23
0.0474506953
 33
0.0
 40
0.0
 40
0.0
 40
0.0
 40
0.0
 40
0.5027986853
 40
1.0
 40
1.0
 40
1.0
 40
1.0
 10
5.1932517323
 20
1.7718150244
 30
0.0
 10
5.1908976368
 20
1.7794257388
 30
0.0
 10
5.1870920383
 20
1.7948495765
 30
0.0
 10
5.1851838656
 20
1.810623665
 30
0.0
 10
5.1847210463
 20
1.8184878477
 30
0.0
 11
5.1932517323
 21
1.7718150244
 31
0.0
 11
5.1875504185
 21
1.7950244551
 31
0.0
 11
5.1847210463
 21
1.8184878477
 31
0.0
  0
SPLINE
  5
352
100
AcDbEntity
  8
0
100
AcDbSpline
 62
6
  6
CONTINUOUS
 70
0
 71
3
 72
23
 73
19
 74
17
 42
0.0000001
 43
0.0000001
 44
0.0000000001
 12
-0.4100829315
 22
-0.0082394921
 32
0.0
 13
-0.2383222227
 23
0.3338239329
 33
0.0
 40
0.0
 40
0.0
 40
0.0
 40
0.0
 40
0.068968939
 40
0.1377850068
 40
0.206220673
 40
0.2740667241
 40
0.3411729932
 40
0.4074057373
 40
0.4726373168
 40
0.5367450963
 40
0.5996142884
 40
0.6611476278
 40
0.7212769789
 40
0.7799516546
 40
0.8371443697
 40
0.8928597778
 40
0.9471255131
 40
1.0
 40
1.0
 40
1.0
 40
1.0
 10
5.590637207
 20
1.6065694783
 30
0.0
 10
5.5812095455
 20
1.6063800553
 30
0.0
 10
5.5623624742
 20
1.6064678767
 30
0.0
 10
5.5341976809
 20
1.6079869613
 30
0.0
 10
5.5062944364
 20
1.610884003
 30
0.0
 10
5.4788041713
 20
1.6151517356
 30
0.0
 10
5.4518629022
 20
1.6207591666
 30
0.0
 10
5.4255966494
 20
1.6276759443
 30
0.0
 10
5.4001306974
 20
1.6358716311
 30
0.0
 10
5.3755854938
 20
1.6452977543
 30
0.0
 10
5.352080557
 20
1.6559068066
 30
0.0
 10
5.3297337788
 20
1.667651751
 30
0.0
 10
5.3086501403
 20
1.6804666275
 30
0.0
 10
5.2889312878
 20
1.694288507
 30
0.0
 10
5.2706771222
 20
1.7090540272
 30
0.0
 10
5.2539712678
 20
1.7246838242
 30
0.0
 10
5.2388971821
 20
1.7411001334
 30
0.0
 10
5.2298749767
 20
1.7526652376
 30
0.0
 10
5.2256745883
 20
1.7585488273
 30
0.0
 11
5.590637207
 21
1.6065694783
 31
0.0
 11
5.5623488164
 21
1.6067002751
 31
0.0
 11
5.5341639277
 21
1.6082229673
 31
0.0
 11
5.5062446957
 21
1.6111280138
 31
0.0
 11
5.4787467773
 21
1.6154022284
 31
0.0
 11
5.4518011859
 21
1.6210186015
 31
0.0
 11
5.4255330931
 21
1.6279468462
 31
0.0
 11
5.4000669976
 21
1.6361534579
 31
0.0
 11
5.3755248484
 21
1.6455927406
 31
0.0
 11
5.3520279904
 21
1.656216111
 31
0.0
 11
5.329694082
 21
1.6679718267
 31
0.0
 11
5.308628315
 21
1.680797461
 31
0.0
 11
5.2889332449
 21
1.6946283287
 31
0.0
 11
5.2707069868
 21
1.7093966822
 31
0.0
 11
5.2540344177
 21
1.725025644
 31
0.0
 11
5.2389979552
 21
1.7414366413
 31
0.0
 11
5.2256745883
 21
1.7585488273
 31
0.0
  0
SPLINE
  5
353
100
AcDbEntity
  8
0
100
AcDbSpline
 62
6
  6
CONTINUOUS
 70
0
 71
3
 72
9
 73
5
 74
3
 42
0.0000001
 43
0.0000001
 44
0.0000000001
 12
-0.0237871217
 22
0.0333192198
 32
0.0
 13
-0.0177251149
 23
0.0369028165
 33
0.0
 40
0.0
 40
0.0
 40
0.0
 40
0.0
 40
0.5056224823
 40
1.0
 40
1.0
 40
1.0
 40
1.0
 10
5.2256745883
 20
1.7585488273
 30
0.0
 10
5.2216654871
 20
1.7641644762
 30
0.0
 10
5.2141835717
 20
1.775598165
 30
0.0
 10
5.2077116516
 20
1.7876350666
 30
0.0
 10
5.2047906855
 20
1.7937163742
 30
0.0
 11
5.2256745883
 21
1.7585488273
 31
0.0
 11
5.2143576473
 21
1.7758809503
 31
0.0
 11
5.2047906855
 21
1.7937163742
 31
0.0
  0
SPLINE
  5
354
100
AcDbEntity
  8
0
100
AcDbSpline
 62
6
  6
CONTINUOUS
 70
0
 71
3
 72
9
 73
5
 74
3
 42
0.0000001
 43
0.0000001
 44
0.0000000001
 12
-0.0143369778
 22
0.0452685951
 32
0.0
 13
-0.0031438165
 23
0.0473804923
 33
0.0
 40
0.0
 40
0.0
 40
0.0
 40
0.0
 40
0.5028997947
 40
1.0
 40
1.0
 40
1.0
 40
1.0
 10
5.1936655361
 20
1.8217234034
 30
0.0
 10
5.1912621817
 20
1.8293119258
 30
0.0
 10
5.1873533191
 20
1.8446930325
 30
0.0
 10
5.1853317967
 20
1.860436536
 30
0.0
 10
5.1848108661
 20
1.8682874868
 30
0.0
 11
5.1936655361
 21
1.8217234034
 31
0.0
 11
5.1878079731
 21
1.8448738898
 31
0.0
 11
5.1848108661
 21
1.8682874868
 31
0.0
  0
SPLINE
  5
355
100
AcDbEntity
  8
0
100
AcDbSpline
 62
6
  6
CONTINUOUS
 70
0
 71
3
 72
23
 73
19
 74
17
 42
0.0000001
 43
0.0000001
 44
0.0000000001
 12
0.0228398046
 22
-0.5326750534
 32
0.0
 13
0.5330569242
 23
0.010709093
 33
0.0
 40
0.0
 40
0.0
 40
0.0
 40
0.0
 40
0.0505744853
 40
0.1018005062
 40
0.1541317534
 40
0.2079574936
 40
0.2635819613
 40
0.3212209721
 40
0.3809986006
 40
0.4429521726
 40
0.5070439478
 40
0.5731646128
 40
0.6411461685
 40
0.710758502
 40
0.7817485277
 40
0.8538505957
 40
0.9267475314
 40
1.0
 40
1.0
 40
1.0
 40
1.0
 10
5.1845650875
 20
1.7189815753
 30
0.0
 10
5.1849501246
 20
1.7100016531
 30
0.0
 10
5.1869988203
 20
1.6919556872
 30
0.0
 10
5.1938462966
 20
1.6653495168
 30
0.0
 10
5.2043857495
 20
1.6393539636
 30
0.0
 10
5.2185215814
 20
1.6142333156
 30
0.0
 10
5.2360993449
 20
1.590217499
 30
0.0
 10
5.2569563833
 20
1.5675371247
 30
0.0
 10
5.2808886417
 20
1.546398415
 30
0.0
 10
5.3076749208
 20
1.5269998303
 30
0.0
 10
5.3370667419
 20
1.5095226523
 30
0.0
 10
5.3687927426
 20
1.4941293781
 30
0.0
 10
5.402560986
 20
1.4809716018
 30
0.0
 10
5.438056966
 20
1.4701660457
 30
0.0
 10
5.4749614923
 20
1.4618282182
 30
0.0
 10
5.5129397066
 20
1.4560337337
 30
0.0
 10
5.5516263165
 20
1.452855437
 30
0.0
 10
5.5776212952
 20
1.4524902977
 30
0.0
 10
5.590637207
 20
1.4527517868
 30
0.0
 11
5.1845650875
 21
1.7189815753
 31
0.0
 11
5.1875962936
 21
1.6921879735
 31
0.0
 11
5.1943683712
 21
1.6657289754
 31
0.0
 11
5.2048121692
 21
1.639856172
 31
0.0
 11
5.2188362211
 21
1.6148182084
 31
0.0
 11
5.2363062592
 21
1.5908529237
 31
0.0
 11
5.2570633717
 21
1.5681914771
 31
0.0
 11
5.280913165
 21
1.5470498671
 31
0.0
 11
5.307634693
 21
1.5276324456
 31
0.0
 11
5.3369812027
 21
1.5101261344
 31
0.0
 11
5.3686802667
 21
1.4947002866
 31
0.0
 11
5.4024389034
 21
1.4815063514
 31
0.0
 11
5.4379371272
 21
1.470671857
 31
0.0
 11
5.4748507017
 21
1.4623075212
 31
0.0
 11
5.5128509628
 21
1.456494805
 31
0.0
 11
5.5515854297
 21
1.4532992644
 31
0.0
 11
5.590637207
 21
1.4527517868
 31
0.0
  0
SPLINE
  5
356
100
AcDbEntity
  8
0
100
AcDbSpline
 62
6
  6
CONTINUOUS
 70
0
 71
3
 72
10
 73
6
 74
4
 42
0.0000001
 43
0.0000001
 44
0.0000000001
 12
-0.0403651728
 22
0.0567060269
 32
0.0
 13
-0.0213783217
 23
0.0662411355
 33
0.0
 40
0.0
 40
0.0
 40
0.0
 40
0.0
 40
0.5087770723
 40
0.7563361862
 40
1.0
 40
1.0
 40
1.0
 40
1.0
 10
5.2254771232
 20
1.8101155223
 30
0.0
 10
5.2186314984
 20
1.8197324311
 30
0.0
 10
5.2094258307
 20
1.8347729923
 30
0.0
 10
5.1996908505
 20
1.8558518018
 30
0.0
 10
5.1957425135
 20
1.8665599167
 30
0.0
 10
5.194006139
 20
1.8719401059
 30
0.0
 11
5.2254771232
 21
1.8101155223
 31
0.0
 11
5.2070803005
 21
1.8403758022
 31
0.0
 11
5.1998646756
 21
1.8560237482
 31
0.0
 11
5.194006139
 21
1.8719401059
 31
0.0
  0
SPLINE
  5
357
100
AcDbEntity
  8
0
100
AcDbSpline
 62
6
  6
CONTINUOUS
 70
0
 71
3
 72
9
 73
5
 74
3
 42
0.0000001
 43
0.0000001
 44
0.0000000001
 12
-0.0144627614
 22
0.0448131406
 32
0.0
 13
-0.0034922674
 23
0.0469594836
 33
0.0
 40
0.0
 40
0.0
 40
0.0
 40
0.0
 40
0.5029399266
 40
1.0
 40
1.0
 40
1.0
 40
1.0
 10
5.194006139
 20
1.8719401059
 30
0.0
 10
5.1915815056
 20
1.8794528785
 30
0.0
 10
5.1876145477
 20
1.8946817517
 30
0.0
 10
5.185496997
 20
1.9102781845
 30
0.0
 10
5.1849183748
 20
1.9180587459
 30
0.0
 11
5.194006139
 21
1.8719401059
 31
0.0
 11
5.1880590275
 21
1.8948642689
 31
0.0
 11
5.1849183748
 21
1.9180587459
 31
0.0
  0
SPLINE
  5
358
100
AcDbEntity
  8
0
100
AcDbSpline
 62
6
  6
CONTINUOUS
 70
0
 71
3
 72
18
 73
14
 74
12
 42
0.0000001
 43
0.0000001
 44
0.0000000001
 12
-0.3888564323
 22
-0.0077782561
 32
0.0
 13
-0.250564035
 23
0.2974684698
 33
0.0
 40
0.0
 40
0.0
 40
0.0
 40
0.0
 40
0.0683224897
 40
0.1364935907
 40
0.2715833252
 40
0.4041057283
 40
0.4691229697
 40
0.5331412929
 40
0.5960540366
 40
0.6577724874
 40
0.7772870745
 40
0.8913995868
 40
1.0
 40
1.0
 40
1.0
 40
1.0
 10
5.590637207
 20
1.6577780606
 30
0.0
 10
5.5817813272
 20
1.6576009173
 30
0.0
 10
5.5640778942
 20
1.6576577802
 30
0.0
 10
5.5289017822
 20
1.6593980262
 30
0.0
 10
5.4856099995
 20
1.664579978
 30
0.0
 10
5.443404141
 20
1.6737823266
 30
0.0
 10
5.4108982745
 20
1.6834818898
 30
0.0
 10
5.3874372497
 20
1.691813584
 30
0.0
 10
5.364845558
 20
1.7012157728
 30
0.0
 10
5.3363219
 20
1.7149645462
 30
0.0
 10
5.3032703005
 20
1.7344908151
 30
0.0
 10
5.2680638916
 20
1.761678553
 30
0.0
 10
5.2477360384
 20
1.7823504807
 30
0.0
 10
5.2386655859
 20
1.7931188802
 30
0.0
 11
5.590637207
 21
1.6577780606
 31
0.0
 11
5.5640643878
 21
1.6578627365
 31
0.0
 11
5.5375828358
 21
1.6591755635
 31
0.0
 11
5.4854182644
 21
1.6654538041
 31
0.0
 11
5.4350705462
 21
1.6764872216
 31
0.0
 11
5.4108413592
 21
1.6837260482
 31
0.0
 11
5.3873819001
 21
1.6920692982
 31
0.0
 11
5.3647954081
 21
1.7014809064
 31
0.0
 11
5.3431777029
 21
1.7119157937
 31
0.0
 11
5.3032180913
 21
1.7356629573
 31
0.0
 11
5.2681751002
 21
1.7628984828
 31
0.0
 11
5.2386655859
 21
1.7931188802
 31
0.0
  0
SPLINE
  5
359
100
AcDbEntity
  8
0
100
AcDbSpline
 62
6
  6
CONTINUOUS
 70
0
 71
3
 72
21
 73
17
 74
15
 42
0.0000001
 43
0.0000001
 44
0.0000000001
 12
0.4571187065
 22
-0.2517622202
 32
0.0
 13
0.4340972916
 23
0.2896571573
 33
0.0
 40
0.0
 40
0.0
 40
0.0
 40
0.0
 40
0.1180848251
 40
0.2417310832
 40
0.3051916575
 40
0.3694173829
 40
0.4341659909
 40
0.4991832602
 40
0.5642142908
 40
0.6290057763
 40
0.6933089876
 40
0.7568908076
 40
0.8195321134
 40
0.8810366712
 40
0.9412387945
 40
1.0
 40
1.0
 40
1.0
 40
1.0
 10
5.3489541629
 20
1.8423716659
 30
0.0
 10
5.3669470904
 20
1.8324619
 30
0.0
 10
5.4054619422
 20
1.8151319364
 30
0.0
 10
5.456624382
 20
1.800351856
 30
0.0
 10
5.4996377777
 20
1.7923805017
 30
0.0
 10
5.5329007603
 20
1.7884115675
 30
0.0
 10
5.5666168032
 20
1.7865449889
 30
0.0
 10
5.6005240059
 20
1.786791459
 30
0.0
 10
5.6343561978
 20
1.7891677071
 30
0.0
 10
5.6678496189
 20
1.7936471018
 30
0.0
 10
5.7007414587
 20
1.800210618
 30
0.0
 10
5.7327747358
 20
1.8088083604
 30
0.0
 10
5.7637003829
 20
1.8193763573
 30
0.0
 10
5.7932738319
 20
1.8318477586
 30
0.0
 10
5.82126701
 20
1.8461173938
 30
0.0
 10
5.8389548102
 20
1.8569080235
 30
0.0
 10
5.8474575036
 20
1.8625815581
 30
0.0
 11
5.3489541629
 21
1.8423716659
 31
0.0
 11
5.4050552566
 21
1.8168725014
 31
0.0
 11
5.4669999964
 21
1.7988027008
 31
0.0
 11
5.4995608192
 21
1.7927545985
 31
0.0
 11
5.5328407105
 21
1.7887742527
 31
0.0
 11
5.5665786004
 21
1.7868993104
 31
0.0
 11
5.6005078513
 21
1.7871467442
 31
0.0
 11
5.6343617511
 21
1.7895250111
 31
0.0
 11
5.6678745329
 21
1.7940157523
 31
0.0
 11
5.7007811974
 21
1.8005928374
 31
0.0
 11
5.7328241722
 21
1.8092084895
 31
0.0
 11
5.763751265
 21
1.8197993192
 31
0.0
 11
5.7933178091
 21
1.8322907823
 31
0.0
 11
5.8212945724
 21
1.8465858043
 31
0.0
 11
5.8474575036
 21
1.8625815581
 31
0.0
  0
SPLINE
  5
35A
100
AcDbEntity
  8
0
100
AcDbSpline
 62
6
  6
CONTINUOUS
 70
0
 71
3
 72
37
 73
33
 74
31
 42
0.0000001
 43
0.0000001
 44
0.0000000001
 12
0.283500736
 22
0.2808316633
 32
0.0
 13
0.3989765912
 23
0.0075345928
 33
0.0
 40
0.0
 40
0.0
 40
0.0
 40
0.0
 40
0.0003701541
 40
0.0008653142
 40
0.0014945761
 40
0.0022622087
 40
0.0042203743
 40
0.0067492307
 40
0.009852066
 40
0.0135301317
 40
0.0177837415
 40
0.0226124097
 40
0.0280135623
 40
0.0339837957
 40
0.0476173044
 40
0.063484064
 40
0.0815543383
 40
0.1017899041
 40
0.12413963
 40
0.1485511434
 40
0.1749719577
 40
0.2033439629
 40
0.2335962118
 40
0.2994503006
 40
0.3719265555
 40
0.450329844
 40
0.5339227553
 40
0.6218842991
 40
0.7133702708
 40
0.8075200805
 40
0.9034245992
 40
1.0
 40
1.0
 40
1.0
 40
1.0
 10
5.1918984976
 20
7.0991911233
 30
0.0
 10
5.1919334772
 20
7.0992257736
 30
0.0
 10
5.1920292181
 20
7.0992920599
 30
0.0
 10
5.1922085985
 20
7.0993781197
 30
0.0
 10
5.1924452255
 20
7.099464873
 30
0.0
 10
5.1928733189
 20
7.0995914771
 30
0.0
 10
5.1935562933
 20
7.0997431722
 30
0.0
 10
5.1945510285
 20
7.0999162034
 30
0.0
 10
5.1957772615
 20
7.1000902736
 30
0.0
 10
5.1972346141
 20
7.1002653256
 30
0.0
 10
5.198922895
 20
7.1004409221
 30
0.0
 10
5.2008414001
 20
7.1006169222
 30
0.0
 10
5.2029890645
 20
7.1007932635
 30
0.0
 10
5.2063059904
 20
7.1010397883
 30
0.0
 10
5.2110144531
 20
7.1013434629
 30
0.0
 10
5.2173323533
 20
7.1016953022
 30
0.0
 10
5.2245295695
 20
7.1020481613
 30
0.0
 10
5.2325899935
 20
7.1024018864
 30
0.0
 10
5.2414946
 20
7.1027564032
 30
0.0
 10
5.2512225095
 20
7.1031115929
 30
0.0
 10
5.261751949
 20
7.1034673333
 30
0.0
 10
5.273058695
 20
7.1038235354
 30
0.0
 10
5.2896090639
 20
7.1043131064
 30
0.0
 10
5.3120250437
 20
7.1049202641
 30
0.0
 10
5.3408452923
 20
7.1056321419
 30
0.0
 10
5.3720256942
 20
7.1063463282
 30
0.0
 10
5.4052663476
 20
7.1070623442
 30
0.0
 10
5.4402475476
 20
7.1077802621
 30
0.0
 10
5.4766332327
 20
7.1084998219
 30
0.0
 10
5.5140756244
 20
7.1092211972
 30
0.0
 10
5.5521950873
 20
7.1099439714
 30
0.0
 10
5.5777934323
 20
7.1104264566
 30
0.0
 10
5.590637207
 20
7.1106690087
 30
0.0
 11
5.1918984976
 21
7.0991911233
 31
0.0
 11
5.192016872
 21
7.099279472
 31
0.0
 11
5.192193603
 21
7.0993678402
 31
0.0
 11
5.1924286383
 21
7.0994562279
 31
0.0
 11
5.1927219255
 21
7.0995446352
 31
0.0
 11
5.1934830457
 21
7.099721509
 31
0.0
 11
5.1944765445
 21
7.0998984621
 31
0.0
 11
5.1957020026
 21
7.100075495
 31
0.0
 11
5.1971590009
 21
7.1002526084
 31
0.0
 11
5.19884712
 21
7.1004298027
 31
0.0
 11
5.2007658169
 21
7.1006070786
 31
0.0
 11
5.2029138249
 21
7.1007844363
 31
0.0
 11
5.2052896161
 21
7.100961876
 31
0.0
 11
5.2107184339
 21
7.1013170019
 31
0.0
 11
5.2170400427
 21
7.1016724577
 31
0.0
 11
5.224242162
 21
7.1020282446
 31
0.0
 11
5.2323092621
 21
7.1023843634
 31
0.0
 11
5.2412207435
 21
7.102740814
 31
0.0
 11
5.2509555666
 21
7.1030975959
 31
0.0
 11
5.2614926828
 21
7.103454709
 31
0.0
 11
5.2728088232
 21
7.1038121532
 31
0.0
 11
5.2848756117
 21
7.1041699288
 31
0.0
 11
5.3111447654
 21
7.1048864768
 31
0.0
 11
5.3400573392
 21
7.1056043657
 31
0.0
 11
5.3713357245
 21
7.1063236383
 31
0.0
 11
5.4046854999
 21
7.1070443214
 31
0.0
 11
5.4397789271
 21
7.1077663609
 31
0.0
 11
5.4762790286
 21
7.1084897614
 31
0.0
 11
5.5138422996
 21
7.1092148069
 31
0.0
 11
5.5521058788
 21
7.1099415652
 31
0.0
 11
5.590637207
 21
7.1106690087
 31
0.0
  0
SPLINE
  5
35B
100
AcDbEntity
  8
0
100
AcDbSpline
 62
6
  6
CONTINUOUS
 70
0
 71
3
 72
19
 73
15
 74
13
 42
0.0000001
 43
0.0000001
 44
0.0000000001
 12
-0.3599384886
 22
-0.0072195716
 32
0.0
 13
-0.2584482111
 23
0.2506239413
 33
0.0
 40
0.0
 40
0.0
 40
0.0
 40
0.0
 40
0.1347141826
 40
0.2683717252
 40
0.3344492045
 40
0.3998734726
 40
0.4645489714
 40
0.528384217
 40
0.5912905991
 40
0.6531838637
 40
0.7736013384
 40
0.8320647183
 40
0.8893029222
 40
1.0
 40
1.0
 40
1.0
 40
1.0
 10
5.590637207
 20
1.7091478564
 30
0.0
 10
5.5744742673
 20
1.7088236635
 30
0.0
 10
5.5422326804
 20
1.7095409179
 30
0.0
 10
5.5022750483
 20
1.7138260617
 30
0.0
 10
5.470918439
 20
1.719289348
 30
0.0
 10
5.4479189199
 20
1.7243514328
 30
0.0
 10
5.425430579
 20
1.7303746197
 30
0.0
 10
5.4035325607
 20
1.7373393705
 30
0.0
 10
5.3823000546
 20
1.7452156913
 30
0.0
 10
5.3552328454
 20
1.7567825029
 30
0.0
 10
5.3295330008
 20
1.7701237282
 30
0.0
 10
5.3055258023
 20
1.785199922
 30
0.0
 10
5.2833610302
 20
1.8009276342
 30
0.0
 10
5.2679568405
 20
1.8140247345
 30
0.0
 10
5.2584203532
 20
1.8232725138
 30
0.0
 11
5.590637207
 21
1.7091478564
 31
0.0
 11
5.5421506964
 21
1.7102294268
 31
0.0
 11
5.4943099258
 21
1.7153887848
 31
0.0
 11
5.4708749696
 21
1.7194754561
 31
0.0
 11
5.4478732589
 21
1.7245436168
 31
0.0
 11
5.4253838778
 21
1.73057412
 31
0.0
 11
5.4034854815
 21
1.7375457927
 31
0.0
 11
5.3822550855
 21
1.7454297063
 31
0.0
 11
5.3617693127
 21
1.7541950776
 31
0.0
 11
5.3233306382
 21
1.7742407672
 31
0.0
 11
5.3055126811
 21
1.7854441457
 31
0.0
 11
5.2887151934
 21
1.7973801064
 31
0.0
 11
5.2584203532
 21
1.8232725138
 31
0.0
  0
SPLINE
  5
35C
100
AcDbEntity
  8
0
100
AcDbSpline
 62
6
  6
CONTINUOUS
 70
0
 71
3
 72
9
 73
5
 74
3
 42
0.0000001
 43
0.0000001
 44
0.0000000001
 12
-0.0218738023
 22
0.0240421802
 32
0.0
 13
-0.0188065409
 23
0.0265104447
 33
0.0
 40
0.0
 40
0.0
 40
0.0
 40
0.0
 40
0.2536808622
 40
1.0
 40
1.0
 40
1.0
 40
1.0
 10
5.245631581
 20
1.8364656688
 30
0.0
 10
5.243781926
 20
1.8384986825
 30
0.0
 10
5.2366073822
 20
1.8466179072
 30
0.0
 10
5.2299117482
 20
1.8551623543
 30
0.0
 10
5.2252331878
 20
1.8617574384
 30
0.0
 11
5.245631581
 21
1.8364656688
 31
0.0
 11
5.2401726568
 21
1.8426454311
 31
0.0
 11
5.2252331878
 21
1.8617574384
 31
0.0
  0
SPLINE
  5
35D
100
AcDbEntity
  8
0
100
AcDbSpline
 62
6
  6
CONTINUOUS
 70
0
 71
3
 72
9
 73
5
 74
3
 42
0.0000001
 43
0.0000001
 44
0.0000000001
 12
-0.0236007929
 22
0.0332686121
 32
0.0
 13
-0.0175593464
 23
0.0368166719
 33
0.0
 40
0.0
 40
0.0
 40
0.0
 40
0.0
 40
0.5055880607
 40
1.0
 40
1.0
 40
1.0
 40
1.0
 10
5.2252331878
 20
1.8617574384
 30
0.0
 10
5.2212557614
 20
1.867364176
 30
0.0
 10
5.2138347895
 20
1.8787780795
 30
0.0
 10
5.2074204389
 20
1.8907892251
 30
0.0
 10
5.2045265887
 20
1.8968567591
 30
0.0
 11
5.2252331878
 21
1.8617574384
 31
0.0
 11
5.2140091636
 21
1.8790583093
 31
0.0
 11
5.2045265887
 21
1.8968567591
 31
0.0
  0
SPLINE
  5
35E
100
AcDbEntity
  8
0
100
AcDbSpline
 62
6
  6
CONTINUOUS
 70
0
 71
3
 72
9
 73
5
 74
3
 42
0.0000001
 43
0.0000001
 44
0.0000000001
 12
-0.0149692419
 22
0.0449826572
 32
0.0
 13
-0.0038962314
 23
0.047247614
 33
0.0
 40
0.0
 40
0.0
 40
0.0
 40
0.0
 40
0.5031171149
 40
1.0
 40
1.0
 40
1.0
 40
1.0
 10
5.1945954416
 20
1.9214486065
 30
0.0
 10
5.1920850144
 20
1.9289924547
 30
0.0
 10
5.1879527589
 20
1.9442877985
 30
0.0
 10
5.1856851635
 20
1.9599714008
 30
0.0
 10
5.1850398399
 20
1.967796911
 30
0.0
 11
5.1945954416
 21
1.9214486065
 31
0.0
 11
5.188398993
 21
1.9444814318
 31
0.0
 11
5.1850398399
 21
1.967796911
 31
0.0
  0
SPLINE
  5
35F
100
AcDbEntity
  8
0
100
AcDbSpline
 62
6
  6
CONTINUOUS
 70
0
 71
3
 72
30
 73
26
 74
24
 42
0.0000001
 43
0.0000001
 44
0.0000000001
 12
0.4061936707
 22
0.0115418893
 32
0.0
 13
0.351704238
 23
0.2035451849
 33
0.0
 40
0.0
 40
0.0
 40
0.0
 40
0.0
 40
0.1890749418
 40
0.2815080639
 40
0.3713643268
 40
0.4578641824
 40
0.540241426
 40
0.6177413331
 40
0.6896612933
 40
0.7553597889
 40
0.814240559
 40
0.8657838425
 40
0.8886491712
 40
0.9095112829
 40
0.928326662
 40
0.9450521724
 40
0.9596463495
 40
0.972081218
 40
0.9823388302
 40
0.9866468016
 40
0.9904059389
 40
0.9936161952
 40
0.9962793325
 40
0.9984019311
 40
1.0
 40
1.0
 40
1.0
 40
1.0
 10
5.590637207
 20
6.8316525391
 30
0.0
 10
5.6162375552
 20
6.8323799665
 30
0.0
 10
5.6543531643
 20
6.8334627323
 30
0.0
 10
5.7046339848
 20
6.8349306939
 30
0.0
 10
5.7410257896
 20
6.8360228958
 30
0.0
 10
5.7760548828
 20
6.8371146099
 30
0.0
 10
5.8094094512
 20
6.8382056602
 30
0.0
 10
5.8407880535
 20
6.8392958739
 30
0.0
 10
5.8699060627
 20
6.8403849874
 30
0.0
 10
5.8965002441
 20
6.8414721917
 30
0.0
 10
5.9203318838
 20
6.8425575188
 30
0.0
 10
5.9383622897
 20
6.8434917389
 30
0.0
 10
5.9512446685
 20
6.8442506783
 30
0.0
 10
5.9596987111
 20
6.8447963871
 30
0.0
 10
5.9673192635
 20
6.8453412789
 30
0.0
 10
5.9740884777
 20
6.8458851111
 30
0.0
 10
5.9799904711
 20
6.846427485
 30
0.0
 10
5.9850122314
 20
6.8469680865
 30
0.0
 10
5.9886397189
 20
6.8474384529
 30
0.0
 10
5.9910918509
 20
6.847824125
 30
0.0
 10
5.9925952712
 20
6.8480956548
 30
0.0
 10
5.9938718527
 20
6.8483662033
 30
0.0
 10
5.9949216529
 20
6.8486353371
 30
0.0
 10
5.9957443009
 20
6.8489025728
 30
0.0
 10
5.996208017
 20
6.8491059282
 30
0.0
 10
5.9963953662
 20
6.8492143546
 30
0.0
 11
5.590637207
 21
6.8316525391
 31
0.0
 11
5.6674378766
 21
6.8338479814
 31
0.0
 11
5.7049827255
 21
6.8349460603
 31
0.0
 11
5.7414800013
 21
6.8360436784
 31
0.0
 11
5.7766127358
 21
6.8371412615
 31
0.0
 11
5.8100693547
 21
6.8382389285
 31
0.0
 11
5.8415428979
 21
6.8393365709
 31
0.0
 11
5.8707475039
 21
6.8404341515
 31
0.0
 11
5.8974220169
 21
6.8415317226
 31
0.0
 11
5.921323478
 21
6.8426293159
 31
0.0
 11
5.9422397048
 21
6.8437269168
 31
0.0
 11
5.9515149839
 21
6.8442757138
 31
0.0
 11
5.9599746802
 21
6.8448245053
 31
0.0
 11
5.9676007327
 21
6.8453732886
 31
0.0
 11
5.9743750802
 21
6.8459220612
 31
0.0
 11
5.9802800917
 21
6.8464708208
 31
0.0
 11
5.9853032106
 21
6.847019565
 31
0.0
 11
5.9894351933
 21
6.8475682921
 31
0.0
 11
5.9911641376
 21
6.8478426486
 31
0.0
 11
5.9926668527
 21
6.8481170002
 31
0.0
 11
5.9939421903
 21
6.8483913465
 31
0.0
 11
5.9949890254
 21
6.8486656873
 31
0.0
 11
5.9958067693
 21
6.848940023
 31
0.0
 11
5.9963953662
 21
6.8492143546
 31
0.0
  0
LINE
  5
360
100
AcDbEntity
  8
0
100
AcDbLine
 62
6
  6
CONTINUOUS
 10
5.9591397635
 20
7.1176711798
 11
5.9581888664
 21
7.1172601668
  0
SPLINE
  5
361
100
AcDbEntity
  8
0
100
AcDbSpline
 62
6
  6
CONTINUOUS
 70
0
 71
3
 72
55
 73
51
 74
49
 42
0.0000001
 43
0.0000001
 44
0.0000000001
 12
-0.6986202738
 22
-0.2408841733
 32
0.0
 13
0.000531186
 23
-0.7389825368
 33
0.0
 40
0.0
 40
0.0
 40
0.0
 40
0.0
 40
0.001261868
 40
0.0027969623
 40
0.0046070725
 40
0.0066927423
 40
0.0116897277
 40
0.0177834065
 40
0.0249658843
 40
0.0332223115
 40
0.0425324617
 40
0.0528755773
 40
0.0765739763
 40
0.1041037614
 40
0.1352147447
 40
0.1696284141
 40
0.2070274093
 40
0.2470776259
 40
0.289409683
 40
0.3336433964
 40
0.4261864066
 40
0.5213511298
 40
0.5688390595
 40
0.615688078
 40
0.6614727755
 40
0.7057792557
 40
0.7482024965
 40
0.7883624212
 40
0.8258897165
 40
0.8604502934
 40
0.8917267554
 40
0.9194403488
 40
0.943340662
 40
0.953791294
 40
0.963213216
 40
0.9715855855
 40
0.9788880455
 40
0.9851054036
 40
0.9878045693
 40
0.9902295873
 40
0.9923798711
 40
0.9942551721
 40
0.9958558146
 40
0.9971831742
 40
0.9982409502
 40
0.9990386683
 40
0.9993469447
 40
0.9996017106
 40
0.9998134422
 40
1.0
 40
1.0
 40
1.0
 40
1.0
 10
5.9581888664
 20
7.1172601668
 30
0.0
 10
5.9578950109
 20
7.1171588454
 30
0.0
 10
5.9572339093
 20
7.1169627342
 30
0.0
 10
5.9561307723
 20
7.1166953366
 30
0.0
 10
5.9548199546
 20
7.1164269441
 30
0.0
 10
5.9526628353
 20
7.1160447891
 30
0.0
 10
5.9494499806
 20
7.1155794411
 30
0.0
 10
5.9449803944
 20
7.1150451471
 30
0.0
 10
5.9397032526
 20
7.1145091049
 30
0.0
 10
5.9336305146
 20
7.113971482
 30
0.0
 10
5.9267766383
 20
7.1134327454
 30
0.0
 10
5.9161244961
 20
7.1126787772
 30
0.0
 10
5.9009857176
 20
7.1117535829
 30
0.0
 10
5.8807314741
 20
7.1106826423
 30
0.0
 10
5.8578346484
 20
7.1096090197
 30
0.0
 10
5.832504479
 20
7.1085335479
 30
0.0
 10
5.8049705831
 20
7.1074565392
 30
0.0
 10
5.7754848167
 20
7.1063788689
 30
0.0
 10
5.744314447
 20
7.1053003217
 30
0.0
 10
5.7002191807
 20
7.1038399098
 30
0.0
 10
5.6431139121
 20
7.1020408696
 30
0.0
 10
5.5852059596
 20
7.1002650689
 30
0.0
 10
5.538548684
 20
7.0988251891
 30
0.0
 10
5.504049726
 20
7.097746203
 30
0.0
 10
5.4703348276
 20
7.0966674895
 30
0.0
 10
5.4377106751
 20
7.0955893088
 30
0.0
 10
5.4064728288
 20
7.0945115458
 30
0.0
 10
5.3769058872
 20
7.0934347788
 30
0.0
 10
5.3492770639
 20
7.09235882
 30
0.0
 10
5.3238381958
 20
7.0912845247
 30
0.0
 10
5.3008189541
 20
7.0902121874
 30
0.0
 10
5.280428677
 20
7.0891426211
 30
0.0
 10
5.26516809
 20
7.088219069
 30
0.0
 10
5.2544118161
 20
7.087466838
 30
0.0
 10
5.2474750557
 20
7.0869289668
 30
0.0
 10
5.2413162415
 20
7.0863922971
 30
0.0
 10
5.235950085
 20
7.0858568733
 30
0.0
 10
5.2319815516
 20
7.0853933053
 30
0.0
 10
5.2292133138
 20
7.0850161088
 30
0.0
 10
5.2274416376
 20
7.0847470451
 30
0.0
 10
5.2258754277
 20
7.0844784527
 30
0.0
 10
5.2245154668
 20
7.0842105044
 30
0.0
 10
5.223362605
 20
7.0839434301
 30
0.0
 10
5.222416659
 20
7.0836778487
 30
0.0
 10
5.2216780687
 20
7.083413774
 30
0.0
 10
5.2211959411
 20
7.0831799279
 30
0.0
 10
5.2209229235
 20
7.0829838407
 30
0.0
 10
5.2207869192
 20
7.0828483131
 30
0.0
 10
5.2207014821
 20
7.0827095142
 30
0.0
 10
5.2206810098
 20
7.0826107602
 30
0.0
 10
5.2206810428
 20
7.0825648059
 30
0.0
 11
5.9581888664
 21
7.1172601668
 31
0.0
 11
5.9572967367
 21
7.1169887661
 31
0.0
 11
5.9561952709
 21
7.1167173717
 31
0.0
 11
5.9548854504
 21
7.1164459836
 31
0.0
 11
5.9533682565
 21
7.1161746017
 31
0.0
 11
5.9497156743
 21
7.1156318564
 31
0.0
 11
5.9452453752
 21
7.1150891352
 31
0.0
 11
5.9399654656
 21
7.1145464376
 31
0.0
 11
5.93388829
 21
7.1140037635
 31
0.0
 11
5.9270296835
 21
7.1134611126
 31
0.0
 11
5.9194055855
 21
7.1129184851
 31
0.0
 11
5.9019265324
 21
7.1118332993
 31
0.0
 11
5.8816114553
 21
7.1107482052
 31
0.0
 11
5.8586465928
 21
7.1096632013
 31
0.0
 11
5.8332386378
 21
7.1085782865
 31
0.0
 11
5.8056227256
 21
7.1074934596
 31
0.0
 11
5.7760461924
 21
7.1064087197
 31
0.0
 11
5.744782343
 21
7.1053240657
 31
0.0
 11
5.7121123904
 21
7.1042394966
 31
0.0
 11
5.6437591057
 21
7.1020706094
 31
0.0
 11
5.5734674619
 21
7.0999020513
 31
0.0
 11
5.5383914531
 21
7.0988178936
 31
0.0
 11
5.5037878147
 21
7.0977338158
 31
0.0
 11
5.4699710834
 21
7.0966498172
 31
0.0
 11
5.4372473064
 21
7.0955658972
 31
0.0
 11
5.4059160052
 21
7.0944820552
 31
0.0
 11
5.3762583097
 21
7.0933982906
 31
0.0
 11
5.3485474684
 21
7.0923146028
 31
0.0
 11
5.3230307974
 21
7.0912309914
 31
0.0
 11
5.2999434444
 21
7.090147456
 31
0.0
 11
5.2794922572
 21
7.0890639962
 31
0.0
 11
5.2618635973
 21
7.0879806115
 31
0.0
 11
5.2541597798
 21
7.0874389472
 31
0.0
 11
5.2472182423
 21
7.0868973016
 31
0.0
 11
5.2410549591
 21
7.0863556747
 31
0.0
 11
5.2356858153
 21
7.0858140664
 31
0.0
 11
5.2311233273
 21
7.0852724766
 31
0.0
 11
5.2291471568
 21
7.0850016887
 31
0.0
 11
5.2273756865
 21
7.0847309055
 31
0.0
 11
5.225809905
 21
7.0844601268
 31
0.0
 11
5.2244508006
 21
7.0841893528
 31
0.0
 11
5.2232993618
 21
7.0839185834
 31
0.0
 11
5.2223565771
 21
7.0836478187
 31
0.0
 11
5.2216232901
 21
7.0833770586
 31
0.0
 11
5.2210996475
 21
7.0831063031
 31
0.0
 11
5.2209164231
 21
7.082970927
 31
0.0
 11
5.2207855862
 21
7.0828355522
 31
0.0
 11
5.2207071287
 21
7.0827001784
 31
0.0
 11
5.2206810428
 21
7.0825648059
 31
0.0
  0
SPLINE
  5
362
100
AcDbEntity
  8
0
100
AcDbSpline
 62
6
  6
CONTINUOUS
 70
0
 71
3
 72
23
 73
19
 74
17
 42
0.0000001
 43
0.0000001
 44
0.0000000001
 12
-0.411088391
 22
-0.0082604249
 32
0.0
 13
-0.2375794488
 23
0.3355859135
 33
0.0
 40
0.0
 40
0.0
 40
0.0
 40
0.0
 40
0.0690003607
 40
0.1378468561
 40
0.2063113177
 40
0.2741840659
 40
0.3413141685
 40
0.4075669308
 40
0.4728138877
 40
0.5369314191
 40
0.5998035513
 40
0.6613309597
 40
0.7214454091
 40
0.7800975845
 40
0.8372602998
 40
0.8929397442
 40
0.9471662876
 40
1.0
 40
1.0
 40
1.0
 40
1.0
 10
5.590637207
 20
1.7603876035
 30
0.0
 10
5.5811821246
 20
1.7601976127
 30
0.0
 10
5.5622803154
 20
1.7602870028
 30
0.0
 10
5.5340343157
 20
1.7618165015
 30
0.0
 10
5.5060519199
 20
1.7647320055
 30
0.0
 10
5.4784856462
 20
1.7690261327
 30
0.0
 10
5.4514725907
 20
1.7746676073
 30
0.0
 10
5.4251398921
 20
1.7816257861
 30
0.0
 10
5.3996141451
 20
1.7898702858
 30
0.0
 10
5.3750169979
 20
1.7993519182
 30
0.0
 10
5.3514689175
 20
1.8100215262
 30
0.0
 10
5.3290894568
 20
1.8218323126
 30
0.0
 10
5.307984907
 20
1.8347179944
 30
0.0
 10
5.2882564755
 20
1.848613112
 30
0.0
 10
5.2700050915
 20
1.8634545192
 30
0.0
 10
5.2533153433
 20
1.8791626806
 30
0.0
 10
5.238269579
 20
1.895657685
 30
0.0
 10
5.2292750017
 20
1.9072761786
 30
0.0
 10
5.2250909336
 20
1.9131862618
 30
0.0
 11
5.590637207
 21
1.7603876035
 31
0.0
 11
5.5622665463
 21
1.7605207594
 31
0.0
 11
5.5340003867
 21
1.7620539143
 31
0.0
 11
5.5060019847
 21
1.7649774866
 31
0.0
 11
5.478428024
 21
1.7692781641
 31
0.0
 11
5.4514106085
 21
1.7749286842
 31
0.0
 11
5.4250760977
 21
1.7818985237
 31
0.0
 11
5.3995502162
 21
1.7901540577
 31
0.0
 11
5.374956069
 21
1.7996488547
 31
0.0
 11
5.3514160849
 21
1.8103331787
 31
0.0
 11
5.3290497978
 21
1.8221549234
 31
0.0
 11
5.3079633771
 21
1.8350510391
 31
0.0
 11
5.2882591386
 21
1.8489553208
 31
0.0
 11
5.2700362671
 21
1.8637994969
 31
0.0
 11
5.2533801967
 21
1.8795062188
 31
0.0
 11
5.2383725875
 21
1.8959956464
 31
0.0
 11
5.2250909336
 21
1.9131862618
 31
0.0
  0
SPLINE
  5
363
100
AcDbEntity
  8
0
100
AcDbSpline
 62
6
  6
CONTINUOUS
 70
0
 71
3
 72
9
 73
5
 74
3
 42
0.0000001
 43
0.0000001
 44
0.0000000001
 12
-0.0240783174
 22
0.0340111242
 32
0.0
 13
-0.0177475483
 23
0.0377034013
 33
0.0
 40
0.0
 40
0.0
 40
0.0
 40
0.0
 40
0.5056891968
 40
1.0
 40
1.0
 40
1.0
 40
1.0
 10
5.2250909336
 20
1.9131862618
 30
0.0
 10
5.2210322186
 20
1.9189192812
 30
0.0
 10
5.2134724349
 20
1.9305950309
 30
0.0
 10
5.2069675671
 20
1.9428926156
 30
0.0
 10
5.2040432988
 20
1.9491050151
 30
0.0
 11
5.2250909336
 21
1.9131862618
 31
0.0
 11
5.2136561815
 21
1.9308868988
 31
0.0
 11
5.2040432988
 21
1.9491050151
 31
0.0
  0
SPLINE
  5
364
100
AcDbEntity
  8
0
100
AcDbSpline
 62
6
  6
CONTINUOUS
 70
0
 71
3
 72
11
 73
7
 74
5
 42
0.0000001
 43
0.0000001
 44
0.0000000001
 12
-0.0030734434
 22
-0.0017778555
 32
0.0
 13
-0.0034735565
 23
-0.0007356835
 33
0.0
 40
0.0
 40
0.0
 40
0.0
 40
0.0
 40
0.1718909029
 40
0.3949597815
 40
0.6707390459
 40
1.0
 40
1.0
 40
1.0
 40
1.0
 10
5.9609400977
 20
7.0462459738
 30
0.0
 10
5.9607639987
 20
7.0461441081
 30
0.0
 10
5.9603363226
 20
7.045950843
 30
0.0
 10
5.9595845767
 20
7.0456946966
 30
0.0
 10
5.9586383869
 20
7.0454369961
 30
0.0
 10
5.9579399095
 20
7.0452785448
 30
0.0
 10
5.957558674
 20
7.0451978008
 30
0.0
 11
5.9609400977
 21
7.0462459738
 31
0.0
 11
5.9603889018
 21
7.0459839235
 31
0.0
 11
5.9596414767
 21
7.0457218778
 31
0.0
 11
5.9586980062
 21
7.045459837
 31
0.0
 11
5.957558674
 21
7.0451978008
 31
0.0
  0
SPLINE
  5
365
100
AcDbEntity
  8
0
100
AcDbSpline
 62
6
  6
CONTINUOUS
 70
0
 71
3
 72
53
 73
49
 74
47
 42
0.0000001
 43
0.0000001
 44
0.0000000001
 12
-0.7240158794
 22
-0.1533432836
 32
0.0
 13
0.0018187987
 23
-0.7400742181
 33
0.0
 40
0.0
 40
0.0
 40
0.0
 40
0.0
 40
0.0040095607
 40
0.0090859219
 40
0.0152211413
 40
0.022405048
 40
0.0306262055
 40
0.0398677807
 40
0.0613232243
 40
0.0865894889
 40
0.1154478787
 40
0.1476432098
 40
0.1828992686
 40
0.2209013987
 40
0.2613226747
 40
0.347977208
 40
0.4398337993
 40
0.5336818861
 40
0.5803271409
 40
0.6262421243
 40
0.6710230606
 40
0.714281472
 40
0.7556355572
 40
0.7947272153
 40
0.8312131755
 40
0.8647749843
 40
0.8951229101
 40
0.9219877926
 40
0.9451443761
 40
0.9552649547
 40
0.9643852223
 40
0.9724880692
 40
0.9795567468
 40
0.985575192
 40
0.9881867892
 40
0.9905325498
 40
0.9926123005
 40
0.9944262015
 40
0.9959749759
 40
0.9972603762
 40
0.9978054888
 40
0.9982865182
 40
0.9987047403
 40
0.9990621711
 40
0.9993621335
 40
0.9996104044
 40
0.9998172484
 40
1.0
 40
1.0
 40
1.0
 40
1.0
 10
5.957558674
 20
7.0451978008
 30
0.0
 10
5.9565910121
 20
7.0449928544
 30
0.0
 10
5.9543824007
 20
7.0446042671
 30
0.0
 10
5.9506636255
 20
7.0440825345
 30
0.0
 10
5.9461556752
 20
7.043557823
 30
0.0
 10
5.9408679048
 20
7.0430308412
 30
0.0
 10
5.9348106323
 20
7.0425026384
 30
0.0
 10
5.925238501
 20
7.0417597722
 30
0.0
 10
5.911462399
 20
7.040850066
 30
0.0
 10
5.8928468227
 20
7.0397999475
 30
0.0
 10
5.8715782801
 20
7.0387468892
 30
0.0
 10
5.8478428081
 20
7.0376912343
 30
0.0
 10
5.8218496794
 20
7.0366344043
 30
0.0
 10
5.7938257908
 20
7.0355761918
 30
0.0
 10
5.7531279868
 20
7.0341309368
 30
0.0
 10
5.6991482749
 20
7.0323532263
 30
0.0
 10
5.6319919418
 20
7.0302619891
 30
0.0
 10
5.5746996628
 20
7.0285150691
 30
0.0
 10
5.5287359928
 20
7.0270992238
 30
0.0
 10
5.4948715704
 20
7.0260397355
 30
0.0
 10
5.4618430652
 20
7.024980471
 30
0.0
 10
5.4299402736
 20
7.023921777
 30
0.0
 10
5.3994417683
 20
7.0228635367
 30
0.0
 10
5.3706149968
 20
7.021806166
 30
0.0
 10
5.3437118473
 20
7.020749835
 30
0.0
 10
5.3189674427
 20
7.0196947952
 30
0.0
 10
5.2965987058
 20
7.018642146
 30
0.0
 10
5.2767999264
 20
7.017591721
 30
0.0
 10
5.2619907916
 20
7.0166849475
 30
0.0
 10
5.2515577089
 20
7.0159463451
 30
0.0
 10
5.244832863
 20
7.0154182006
 30
0.0
 10
5.2388633557
 20
7.0148912025
 30
0.0
 10
5.2336623013
 20
7.0143655558
 30
0.0
 10
5.2298160329
 20
7.013910581
 30
0.0
 10
5.227133758
 20
7.0135401843
 30
0.0
 10
5.2254178866
 20
7.0132760131
 30
0.0
 10
5.2239013181
 20
7.0130122895
 30
0.0
 10
5.222584533
 20
7.0127492103
 30
0.0
 10
5.2214680672
 20
7.0124868982
 30
0.0
 10
5.2206656772
 20
7.0122586882
 30
0.0
 10
5.220126644
 20
7.0120721668
 30
0.0
 10
5.2197954944
 20
7.0119402105
 30
0.0
 10
5.2195146218
 20
7.0118084277
 30
0.0
 10
5.2192838342
 20
7.0116767259
 30
0.0
 10
5.2191027175
 20
7.011544829
 30
0.0
 10
5.2189707753
 20
7.0114117474
 30
0.0
 10
5.2188881105
 20
7.0112754279
 30
0.0
 10
5.2188684823
 20
7.0111786507
 30
0.0
 10
5.2188685931
 20
7.0111335674
 30
0.0
 11
5.957558674
 21
7.0451978008
 31
0.0
 11
5.9546395325
 21
7.0446649164
 31
0.0
 11
5.9509206189
 21
7.0441320517
 31
0.0
 11
5.9464114614
 21
7.0435992067
 31
0.0
 11
5.9411215881
 21
7.0430663814
 31
0.0
 11
5.935060677
 21
7.0425335758
 31
0.0
 11
5.928241988
 21
7.04200079
 31
0.0
 11
5.9123991095
 21
7.0409352777
 31
0.0
 11
5.8937305199
 21
7.0398698447
 31
0.0
 11
5.8723996928
 21
7.0388044911
 31
0.0
 11
5.8485965117
 21
7.0377392171
 31
0.0
 11
5.8225260847
 21
7.0366740228
 31
0.0
 11
5.794421779
 21
7.0356089083
 31
0.0
 11
5.7645259092
 21
7.0345438738
 31
0.0
 11
5.7004303058
 21
7.0324140454
 31
0.0
 11
5.6324827673
 21
7.0302845384
 31
0.0
 11
5.5630606515
 21
7.0281553537
 31
0.0
 11
5.5285560124
 21
7.0270908825
 31
0.0
 11
5.4945920886
 21
7.0260264923
 31
0.0
 11
5.4614678663
 21
7.024962183
 31
0.0
 11
5.4294710281
 21
7.0238979548
 31
0.0
 11
5.3988843492
 21
7.0228338078
 31
0.0
 11
5.3699731082
 21
7.021769742
 31
0.0
 11
5.3429916786
 21
7.0207057575
 31
0.0
 11
5.3181761698
 21
7.0196418545
 31
0.0
 11
5.295741593
 21
7.0185780329
 31
0.0
 11
5.2758880028
 21
7.0175142928
 31
0.0
 11
5.2587834008
 21
7.0164506343
 31
0.0
 11
5.2513123019
 21
7.0159188357
 31
0.0
 11
5.2445835874
 21
7.0153870575
 31
0.0
 11
5.2386104845
 21
7.0148552997
 31
0.0
 11
5.2334062168
 21
7.0143235623
 31
0.0
 11
5.2289839584
 21
7.0137918454
 31
0.0
 11
5.2270695477
 21
7.0135259946
 31
0.0
 11
5.2253539813
 21
7.0132601489
 31
0.0
 11
5.223837938
 21
7.0129943083
 31
0.0
 11
5.222522097
 21
7.0127284729
 31
0.0
 11
5.2214071374
 21
7.0124626425
 31
0.0
 11
5.2204937382
 21
7.0121968173
 31
0.0
 11
5.220112836
 21
7.0120639066
 31
0.0
 11
5.2197825785
 21
7.0119309971
 31
0.0
 11
5.2195030507
 21
7.011798089
 31
0.0
 11
5.2192743373
 21
7.0116651821
 31
0.0
 11
5.2190965229
 21
7.0115322765
 31
0.0
 11
5.2189696505
 21
7.0113993722
 31
0.0
 11
5.2188936874
 21
7.0112664692
 31
0.0
 11
5.2188685931
 21
7.0111335674
 31
0.0
  0
SPLINE
  5
366
100
AcDbEntity
  8
0
100
AcDbSpline
 62
6
  6
CONTINUOUS
 70
0
 71
3
 72
30
 73
26
 74
24
 42
0.0000001
 43
0.0000001
 44
0.0000000001
 12
-0.3517668477
 22
-0.2034356727
 32
0.0
 13
-0.4061930621
 23
-0.0115405526
 33
0.0
 40
0.0
 40
0.0
 40
0.0
 40
0.0
 40
0.0015983746
 40
0.0037204836
 40
0.0063819609
 40
0.0095903061
 40
0.0133486508
 40
0.0176567639
 40
0.0279159867
 40
0.0403517427
 40
0.0549432153
 40
0.0716657157
 40
0.0904803223
 40
0.1113420518
 40
0.1342055212
 40
0.1857437323
 40
0.2446238941
 40
0.310322158
 40
0.3822456718
 40
0.4597483716
 40
0.542130335
 40
0.6286329372
 40
0.7184883731
 40
0.8109186349
 40
1.0
 40
1.0
 40
1.0
 40
1.0
 10
5.9963948676
 20
7.0667428591
 30
0.0
 10
5.9962074492
 20
7.0666344703
 30
0.0
 10
5.9957437436
 20
7.0664311751
 30
0.0
 10
5.9949213479
 20
7.0661639772
 30
0.0
 10
5.9938721254
 20
7.0658948199
 30
0.0
 10
5.9925961488
 20
7.0656242677
 30
0.0
 10
5.9910930692
 20
7.0653528137
 30
0.0
 10
5.9886407978
 20
7.0649672159
 30
0.0
 10
5.985012936
 20
7.0644969982
 30
0.0
 10
5.9799911957
 20
7.0639565595
 30
0.0
 10
5.974089866
 20
7.0634142154
 30
0.0
 10
5.9673215362
 20
7.0628704767
 30
0.0
 10
5.9597015498
 20
7.062325749
 30
0.0
 10
5.9512479204
 20
7.0617801875
 30
0.0
 10
5.9383665457
 20
7.0610214005
 30
0.0
 10
5.9203371849
 20
7.060087301
 30
0.0
 10
5.8965063735
 20
7.0590022218
 30
0.0
 10
5.8699118635
 20
7.0579150963
 30
0.0
 10
5.840793066
 20
7.0568261399
 30
0.0
 10
5.8094130117
 20
7.055735987
 30
0.0
 10
5.7760571018
 20
7.054645067
 30
0.0
 10
5.7410271613
 20
7.053553459
 30
0.0
 10
5.7046355375
 20
7.0524614068
 30
0.0
 10
5.654354421
 20
7.0509936226
 30
0.0
 10
5.6162383866
 20
7.0499109724
 30
0.0
 10
5.590637207
 20
7.0491836046
 30
0.0
 11
5.9963948676
 21
7.0667428591
 31
0.0
 11
5.9958061173
 21
7.0664685651
 31
0.0
 11
5.9949885715
 21
7.0661942686
 31
0.0
 11
5.9939424245
 21
7.0659199697
 31
0.0
 11
5.9926678738
 21
7.0656456682
 31
0.0
 11
5.9911654798
 21
7.0653713642
 31
0.0
 11
5.9894364721
 21
7.0650970578
 31
0.0
 11
5.9853038218
 21
7.0645484376
 31
0.0
 11
5.9802803355
 21
7.063999808
 31
0.0
 11
5.9743764261
 21
7.063451169
 31
0.0
 11
5.9676033065
 21
7.062902521
 31
0.0
 11
5.9599775719
 21
7.0623538637
 31
0.0
 11
5.9515180366
 21
7.0618051969
 31
0.0
 11
5.942243522
 21
7.0612565206
 31
0.0
 11
5.9213293811
 21
7.0601591394
 31
0.0
 11
5.8974281972
 21
7.0590617264
 31
0.0
 11
5.8707538155
 21
7.0579642903
 31
0.0
 11
5.8415478069
 21
7.0568668154
 31
0.0
 11
5.8100731749
 21
7.0557692707
 31
0.0
 11
5.7766146872
 21
7.0546716997
 31
0.0
 11
5.7414808885
 21
7.0535742262
 31
0.0
 11
5.7049840024
 21
7.052476762
 31
0.0
 11
5.667440371
 21
7.0513788578
 31
0.0
 11
5.590637207
 21
7.0491836046
 31
0.0
  0
SPLINE
  5
367
100
AcDbEntity
  8
0
100
AcDbSpline
 62
6
  6
CONTINUOUS
 70
0
 71
3
 72
25
 73
21
 74
19
 42
0.0000001
 43
0.0000001
 44
0.0000000001
 12
-0.1611587983
 22
-0.0930563236
 32
0.0
 13
-0.1859805089
 23
-0.0065488894
 33
0.0
 40
0.0
 40
0.0
 40
0.0
 40
0.0
 40
0.0021086295
 40
0.004656009
 40
0.0111094871
 40
0.0194125539
 40
0.0295837627
 40
0.0416302546
 40
0.0555502416
 40
0.0889592283
 40
0.1296927578
 40
0.1776191774
 40
0.2325728733
 40
0.2943232895
 40
0.3626301927
 40
0.437247413
 40
0.5178924359
 40
0.604266695
 40
0.7929313995
 40
1.0
 40
1.0
 40
1.0
 40
1.0
 10
5.9628478007
 20
6.9748187421
 30
0.0
 10
5.962734526
 20
6.974753335
 30
0.0
 10
5.9624747075
 20
6.974625769
 30
0.0
 10
5.9618331057
 20
6.974373162
 30
0.0
 10
5.9608016332
 20
6.9740700007
 30
0.0
 10
5.9592940879
 20
6.9737246306
 30
0.0
 10
5.9574324581
 20
6.9733774485
 30
0.0
 10
5.9552179112
 20
6.9730285676
 30
0.0
 10
5.9515682026
 20
6.9725316014
 30
0.0
 10
5.946138405
 20
6.971926996
 30
0.0
 10
5.9385979108
 20
6.9712325973
 30
0.0
 10
5.9297163633
 20
6.9705356488
 30
0.0
 10
5.9195278462
 20
6.9698367572
 30
0.0
 10
5.9080725619
 20
6.9691364095
 30
0.0
 10
5.8953955368
 20
6.9684350694
 30
0.0
 10
5.8815448408
 20
6.9677332639
 30
0.0
 10
5.8665721004
 20
6.9670308822
 30
0.0
 10
5.8445294627
 20
6.9660649787
 30
0.0
 10
5.8146470804
 20
6.964872526
 30
0.0
 10
5.7901152104
 20
6.9639791426
 30
0.0
 10
5.7772783025
 20
6.9635271195
 30
0.0
 11
5.9628478007
 21
6.9748187421
 31
0.0
 11
5.9624973291
 21
6.9746422403
 31
0.0
 11
5.9620573546
 21
6.9744657407
 31
0.0
 11
5.9609094375
 21
6.9741127488
 31
0.0
 11
5.9594051302
 21
6.9737597665
 31
0.0
 11
5.9575455135
 21
6.9734067942
 31
0.0
 11
5.9553316728
 21
6.9730538324
 31
0.0
 11
5.9527653797
 21
6.9727008807
 31
0.0
 11
5.9465883092
 21
6.9719950035
 31
0.0
 11
5.9390409059
 21
6.9712891531
 31
0.0
 11
5.930149975
 21
6.9705833201
 31
0.0
 11
5.91994771
 21
6.9698775081
 31
0.0
 11
5.9084779112
 21
6.969171749
 31
0.0
 11
5.8957858874
 21
6.9684660784
 31
0.0
 11
5.8819178747
 21
6.9677605171
 31
0.0
 11
5.8669267702
 21
6.9670549789
 31
0.0
 11
5.850868382
 21
6.9663493309
 31
0.0
 11
5.8157870767
 21
6.9649374637
 31
0.0
 11
5.7772783025
 21
6.9635271195
 31
0.0
  0
SPLINE
  5
368
100
AcDbEntity
  8
0
100
AcDbSpline
 62
9
  6
CONTINUOUS
 70
0
 71
3
 72
23
 73
19
 74
17
 42
0.0000001
 43
0.0000001
 44
0.0000000001
 12
-0.5484772111
 22
0.0
 32
0.0
 13
0.0
 23
0.5484772111
 33
0.0
 40
0.0
 40
0.0
 40
0.0
 40
0.0
 40
0.0725974528
 40
0.1449336318
 40
0.2165572226
 40
0.2871433042
 40
0.3564223583
 40
0.4241395513
 40
0.4900650764
 40
0.5540344365
 40
0.6159458456
 40
0.6757720804
 40
0.7335645807
 40
0.7894628211
 40
0.8436992466
 40
0.8965921297
 40
0.9485405001
 40
1.0
 40
1.0
 40
1.0
 40
1.0
 10
5.590637207
 20
2.6069810945
 30
0.0
 10
5.5773645242
 20
2.6069810945
 30
0.0
 10
5.5508579355
 20
2.607904658
 30
0.0
 10
5.5114493292
 20
2.6120207783
 30
0.0
 10
5.4727899369
 20
2.6188523865
 30
0.0
 10
5.4352658071
 20
2.6283208417
 30
0.0
 10
5.3992307254
 20
2.640344739
 30
0.0
 10
5.3650208782
 20
2.6548003583
 30
0.0
 10
5.3329672949
 20
2.6715615025
 30
0.0
 10
5.3033769445
 20
2.6904663242
 30
0.0
 10
5.2765332734
 20
2.7113390564
 30
0.0
 10
5.2526966553
 20
2.7339864345
 30
0.0
 10
5.2320950764
 20
2.7581938398
 30
0.0
 10
5.214941248
 20
2.7837409746
 30
0.0
 10
5.2013981776
 20
2.8103788098
 30
0.0
 10
5.191623853
 20
2.8378606731
 30
0.0
 10
5.1857063006
 20
2.8659032205
 30
0.0
 10
5.1843892602
 20
2.8848351033
 30
0.0
 10
5.1843892602
 20
2.8942432243
 30
0.0
 11
5.590637207
 21
2.6069810945
 31
0.0
 11
5.5508432421
 21
2.6083657754
 31
0.0
 11
5.5113845717
 21
2.6125008415
 31
0.0
 11
5.4727026648
 21
2.6193517869
 31
0.0
 11
5.4351704933
 21
2.6288479059
 31
0.0
 11
5.3991350405
 21
2.6409016521
 31
0.0
 11
5.3649378032
 21
2.6553939911
 31
0.0
 11
5.3329154117
 21
2.6721872718
 31
0.0
 11
5.3033755489
 21
2.6911188696
 31
0.0
 11
5.2766026516
 21
2.7120064166
 31
0.0
 11
5.2528539579
 21
2.734649604
 31
0.0
 11
5.2323572268
 21
2.758828912
 31
0.0
 11
5.2153127554
 21
2.7843133155
 31
0.0
 11
5.2018804502
 21
2.8108554248
 31
0.0
 11
5.1921951421
 21
2.8382014719
 31
0.0
 11
5.1863434439
 21
2.866086594
 31
0.0
 11
5.1843892602
 21
2.8942432243
 31
0.0
  0
SPLINE
  5
369
100
AcDbEntity
  8
0
100
AcDbSpline
 62
6
  6
CONTINUOUS
 70
0
 71
3
 72
30
 73
26
 74
24
 42
0.0000001
 43
0.0000001
 44
0.0000000001
 12
0.4061934387
 22
0.0115220841
 32
0.0
 13
0.3516994849
 23
0.2035518125
 33
0.0
 40
0.0
 40
0.0
 40
0.0
 40
0.0
 40
0.1890709832
 40
0.281502995
 40
0.3713585145
 40
0.4578576869
 40
0.5402341456
 40
0.6177331828
 40
0.6896517132
 40
0.7553493716
 40
0.8142300864
 40
0.8657742332
 40
0.8886401609
 40
0.9095028206
 40
0.9283188529
 40
0.9450452785
 40
0.9596405968
 40
0.972076357
 40
0.9823348215
 40
0.9866432901
 40
0.9904030174
 40
0.9936139907
 40
0.9962779699
 40
0.9984013036
 40
1.0
 40
1.0
 40
1.0
 40
1.0
 10
5.590637207
 20
6.6865848057
 30
0.0
 10
5.6162370046
 20
6.6873109696
 30
0.0
 10
5.6543519034
 20
6.6883919352
 30
0.0
 10
5.7046319034
 20
6.689857655
 30
0.0
 10
5.7410233399
 20
6.6909483006
 30
0.0
 10
5.7760521099
 20
6.6920385726
 30
0.0
 10
5.8094063392
 20
6.6931283061
 30
0.0
 10
5.8407845038
 20
6.6942173184
 30
0.0
 10
5.8699020704
 20
6.6953053768
 30
0.0
 10
5.8964959223
 20
6.6963916677
 30
0.0
 10
5.9203275453
 20
6.6974762528
 30
0.0
 10
5.9383581329
 20
6.6984099707
 30
0.0
 10
5.9512407775
 20
6.6991686007
 30
0.0
 10
5.959695059
 20
6.6997141393
 30
0.0
 10
5.9673158926
 20
6.7002589085
 30
0.0
 10
5.9740854676
 20
6.700802667
 30
0.0
 10
5.979987854
 20
6.7013450036
 30
0.0
 10
5.9850099947
 20
6.7018856341
 30
0.0
 10
5.9886377728
 20
6.7023560687
 30
0.0
 10
5.9910901531
 20
6.7027418217
 30
0.0
 10
5.9925938057
 20
6.7030134243
 30
0.0
 10
5.9938706632
 20
6.7032840616
 30
0.0
 10
5.9949207604
 20
6.7035532792
 30
0.0
 10
5.9957436866
 20
6.7038206223
 30
0.0
 10
5.9962075642
 20
6.7040240681
 30
0.0
 10
5.9963949844
 20
6.7041325406
 30
0.0
 11
5.590637207
 21
6.6865848057
 31
0.0
 11
5.6674362212
 21
6.6887766063
 31
0.0
 11
5.7049805941
 21
6.6898730149
 31
0.0
 11
5.7414775431
 21
6.6909690734
 31
0.0
 11
5.7766099764
 21
6.6920652121
 31
0.0
 11
5.810066254
 21
6.6931615565
 31
0.0
 11
5.8415394237
 21
6.694258001
 31
0.0
 11
5.8707434312
 21
6.6953545167
 31
0.0
 11
5.8974175889
 21
6.6964511754
 31
0.0
 11
5.9213190149
 21
6.6975480247
 31
0.0
 11
5.9422355819
 21
6.698645056
 31
0.0
 11
5.9515110996
 21
6.6991936353
 31
0.0
 11
5.9599710135
 21
6.6997422555
 31
0.0
 11
5.967597326
 21
6.7002909155
 31
0.0
 11
5.9743720393
 21
6.7008396142
 31
0.0
 11
5.980277507
 21
6.7013883508
 31
0.0
 11
5.9853009775
 21
6.7019371235
 31
0.0
 11
5.9894332906
 21
6.7024859305
 31
0.0
 11
5.9911624266
 21
6.7027603462
 31
0.0
 11
5.9926653693
 21
6.7030347698
 31
0.0
 11
5.993940984
 21
6.7033092009
 31
0.0
 11
5.9949881451
 21
6.7035836395
 31
0.0
 11
5.9958061651
 21
6.7038580857
 31
0.0
 11
5.9963949844
 21
6.7041325406
 31
0.0
  0
SPLINE
  5
36A
100
AcDbEntity
  8
0
100
AcDbSpline
 62
6
  6
CONTINUOUS
 70
0
 71
3
 72
26
 73
22
 74
20
 42
0.0000001
 43
0.0000001
 44
0.0000000001
 12
0.374801874
 22
0.0070780581
 32
0.0
 13
0.3640502146
 23
0.0894090877
 33
0.0
 40
0.0
 40
0.0
 40
0.0
 40
0.0
 40
0.1860931269
 40
0.3654390914
 40
0.4506575204
 40
0.5319683269
 40
0.6086789699
 40
0.6801222922
 40
0.7456984871
 40
0.8048316713
 40
0.8570206314
 40
0.901796903
 40
0.9212793215
 40
0.9387698893
 40
0.9542283143
 40
0.9676151714
 40
0.9789018642
 40
0.9880703006
 40
0.995105315
 40
0.9978200749
 40
1.0
 40
1.0
 40
1.0
 40
1.0
 10
5.590637207
 20
7.1106690087
 30
0.0
 10
5.6138865579
 20
7.111108068
 30
0.0
 10
5.6595422538
 20
7.1119732305
 30
0.0
 10
5.7158438008
 20
7.1130829213
 30
0.0
 10
5.7590536381
 20
7.1139857577
 30
0.0
 10
5.7894406748
 20
7.1146523013
 30
0.0
 10
5.8181059744
 20
7.1153195584
 30
0.0
 10
5.8448045516
 20
7.1159875944
 30
0.0
 10
5.8693059688
 20
7.1166558365
 30
0.0
 10
5.8914004589
 20
7.1173242149
 30
0.0
 10
5.9108945519
 20
7.1179919649
 30
0.0
 10
5.9254340466
 20
7.1185703839
 30
0.0
 10
5.935638239
 20
7.1190426853
 30
0.0
 10
5.9421812118
 20
7.1193800933
 30
0.0
 10
5.9479614195
 20
7.1197169932
 30
0.0
 10
5.9529649305
 20
7.1200533388
 30
0.0
 10
5.9571806385
 20
7.1203881068
 30
0.0
 10
5.9605995964
 20
7.1207212191
 30
0.0
 10
5.9629462647
 20
7.1210131701
 30
0.0
 10
5.9644167702
 20
7.1212586505
 30
0.0
 10
5.9650159694
 20
7.1213830264
 30
0.0
 10
5.9652805035
 20
7.1214479948
 30
0.0
 11
5.590637207
 21
7.1106690087
 31
0.0
 11
5.6603850318
 21
7.1119981993
 31
0.0
 11
5.7276029753
 21
7.1133326822
 31
0.0
 11
5.7595416925
 21
7.114001626
 31
0.0
 11
5.790015198
 21
7.1146719197
 31
0.0
 11
5.8187637735
 21
7.1153435228
 31
0.0
 11
5.8455371847
 21
7.1160164055
 31
0.0
 11
5.8701104009
 21
7.1166905989
 31
0.0
 11
5.892267285
 21
7.11736614
 31
0.0
 11
5.9118195791
 21
7.1180430408
 31
0.0
 11
5.9285910925
 21
7.1187213036
 31
0.0
 11
5.9358865397
 21
7.119060946
 31
0.0
 11
5.9424343856
 21
7.1194009289
 31
0.0
 11
5.9482192634
 21
7.1197412521
 31
0.0
 11
5.953226001
 21
7.1200819157
 31
0.0
 11
5.9574432647
 21
7.1204229202
 31
0.0
 11
5.9608632318
 21
7.1207642672
 31
0.0
 11
5.9634782092
 21
7.1211059582
 31
0.0
 11
5.9644814225
 21
7.1212769332
 31
0.0
 11
5.9652805035
 21
7.1214479948
 31
0.0
  0
LINE
  5
36B
100
AcDbEntity
  8
0
100
AcDbLine
 62
6
  6
CONTINUOUS
 10
5.9652805035
 20
7.1214479948
 11
5.9662508726
 21
7.12178281
  0
SPLINE
  5
36C
100
AcDbEntity
  8
0
100
AcDbSpline
 62
6
  6
CONTINUOUS
 70
0
 71
3
 72
58
 73
54
 74
52
 42
0.0000001
 43
0.0000001
 44
0.0000000001
 12
-0.0014454338
 22
-0.7400202235
 32
0.0
 13
-0.6406586155
 23
-0.3703897392
 33
0.0
 40
0.0
 40
0.0
 40
0.0
 40
0.0
 40
0.0001891524
 40
0.0004045298
 40
0.0006644132
 40
0.0009794056
 40
0.0017953672
 40
0.0028775962
 40
0.0042355613
 40
0.0058738163
 40
0.0077944617
 40
0.0099976093
 40
0.0124826295
 40
0.0152485495
 40
0.0216181176
 40
0.0290955005
 40
0.0376679392
 40
0.0473155038
 40
0.0580140951
 40
0.082466568
 40
0.1108076571
 40
0.1427673304
 40
0.1780563481
 40
0.2163401267
 40
0.2572677223
 40
0.3004549072
 40
0.34550164
 40
0.3919885161
 40
0.4394823304
 40
0.4875426536
 40
0.5835709768
 40
0.6306473063
 40
0.6765112629
 40
0.7207397247
 40
0.762917973
 40
0.802659411
 40
0.8395905331
 40
0.8733736933
 40
0.9036930179
 40
0.9302704158
 40
0.9420794625
 40
0.9528623372
 40
0.9625958938
 40
0.971260665
 40
0.9788375604
 40
0.9853081652
 40
0.9906595448
 40
0.9929140978
 40
0.9948876147
 40
0.9965805062
 40
0.9979940962
 40
0.9991315182
 40
1.0
 40
1.0
 40
1.0
 40
1.0
 10
5.9596629963
 20
7.1004170493
 30
0.0
 10
5.9596629051
 20
7.1003703904
 30
0.0
 10
5.9596415114
 20
7.1002700109
 30
0.0
 10
5.9595533473
 20
7.1001292857
 30
0.0
 10
5.9594134205
 20
7.0999918969
 30
0.0
 10
5.9591327046
 20
7.0997930003
 30
0.0
 10
5.9586377593
 20
7.0995559229
 30
0.0
 10
5.9578801451
 20
7.0992881059
 30
0.0
 10
5.9569101006
 20
7.0990186803
 30
0.0
 10
5.9557276591
 20
7.0987477991
 30
0.0
 10
5.9543323025
 20
7.0984761151
 30
0.0
 10
5.9527248759
 20
7.0982037732
 30
0.0
 10
5.9509064086
 20
7.097930957
 30
0.0
 10
5.9480654725
 20
7.0975485382
 30
0.0
 10
5.9439942094
 20
7.0970786141
 30
0.0
 10
5.9384905008
 20
7.0965356151
 30
0.0
 10
5.9321748871
 20
7.0959915444
 30
0.0
 10
5.9250622077
 20
7.0954463904
 30
0.0
 10
5.9140377953
 20
7.0946841524
 30
0.0
 10
5.898403641
 20
7.0937480376
 30
0.0
 10
5.8775252031
 20
7.0926644969
 30
0.0
 10
5.8539706454
 20
7.0915779474
 30
0.0
 10
5.8279612393
 20
7.090489777
 30
0.0
 10
5.7997379766
 20
7.0894000314
 30
0.0
 10
5.7695651241
 20
7.0883095964
 30
0.0
 10
5.7377230299
 20
7.0872184151
 30
0.0
 10
5.7045088527
 20
7.0861268702
 30
0.0
 10
5.6702317994
 20
7.0850350566
 30
0.0
 10
5.6352110105
 20
7.0839430751
 30
0.0
 10
5.5879750426
 20
7.0824875279
 30
0.0
 10
5.5408418318
 20
7.0810408105
 30
0.0
 10
5.4942512359
 20
7.0795758054
 30
0.0
 10
5.4604328854
 20
7.0784845479
 30
0.0
 10
5.4278233891
 20
7.0773939374
 30
0.0
 10
5.3967250202
 20
7.0763038
 30
0.0
 10
5.3674278346
 20
7.0752147804
 30
0.0
 10
5.3402029831
 20
7.0741267451
 30
0.0
 10
5.3153042296
 20
7.0730406601
 30
0.0
 10
5.2929620509
 20
7.071956713
 30
0.0
 10
5.2760396285
 20
7.0710235373
 30
0.0
 10
5.2639344584
 20
7.0702661296
 30
0.0
 10
5.2559791996
 20
7.0697211079
 30
0.0
 10
5.2488014865
 20
7.0691767978
 30
0.0
 10
5.2424170481
 20
7.0686334799
 30
0.0
 10
5.2368405716
 20
7.0680917999
 30
0.0
 10
5.2320857119
 20
7.0675519401
 30
0.0
 10
5.2286447363
 20
7.0670821372
 30
0.0
 10
5.2263131373
 20
7.0666972737
 30
0.0
 10
5.2248778204
 20
7.0664259474
 30
0.0
 10
5.2236540479
 20
7.0661555056
 30
0.0
 10
5.2226417399
 20
7.0658863556
 30
0.0
 10
5.221841401
 20
7.0656189929
 30
0.0
 10
5.2213875762
 20
7.0654165771
 30
0.0
 10
5.2212021094
 20
7.0653093515
 30
0.0
 11
5.9596629963
 21
7.1004170493
 31
0.0
 11
5.9596358396
 21
7.100279732
 31
0.0
 11
5.9595549222
 21
7.1001424163
 31
0.0
 11
5.9594202687
 21
7.1000051021
 31
0.0
 11
5.9592319036
 21
7.0998677896
 31
0.0
 11
5.9586941365
 21
7.0995931692
 31
0.0
 11
5.9579418171
 21
7.0993185551
 31
0.0
 11
5.9569751414
 21
7.0990439473
 31
0.0
 11
5.955794306
 21
7.0987693457
 31
0.0
 11
5.9543997647
 21
7.0984947503
 31
0.0
 11
5.9527926774
 21
7.0982201611
 31
0.0
 11
5.9509743237
 21
7.0979455781
 31
0.0
 11
5.9489459834
 21
7.0976710012
 31
0.0
 11
5.9442644616
 21
7.0971218659
 31
0.0
 11
5.9387583495
 21
7.0965727549
 31
0.0
 11
5.9324383671
 21
7.0960236681
 31
0.0
 11
5.9253201051
 21
7.0954746052
 31
0.0
 11
5.9174219762
 21
7.0949255662
 31
0.0
 11
5.899359961
 21
7.0938275591
 31
0.0
 11
5.8784156989
 21
7.0927296454
 31
0.0
 11
5.8547903421
 21
7.0916318239
 31
0.0
 11
5.8286987874
 21
7.0905340935
 31
0.0
 11
5.8003892342
 21
7.0894364529
 31
0.0
 11
5.7701218211
 21
7.0883389011
 31
0.0
 11
5.7381812185
 21
7.0872414371
 31
0.0
 11
5.7048637289
 21
7.0861440599
 31
0.0
 11
5.6704799393
 21
7.0850467684
 31
0.0
 11
5.6353506198
 21
7.0839495617
 31
0.0
 11
5.5998018667
 21
7.0828524391
 31
0.0
 11
5.5287727068
 21
7.0806584425
 31
0.0
 11
5.4939524765
 21
7.079561567
 31
0.0
 11
5.4600298826
 21
7.0784647724
 31
0.0
 11
5.4273182435
 21
7.0773680581
 31
0.0
 11
5.3961246978
 21
7.0762714234
 31
0.0
 11
5.366735624
 21
7.0751748677
 31
0.0
 11
5.3394277989
 21
7.0740783906
 31
0.0
 11
5.3144515825
 21
7.0729819916
 31
0.0
 11
5.2920414268
 21
7.0718856701
 31
0.0
 11
5.2724041522
 21
7.0707894259
 31
0.0
 11
5.2636824069
 21
7.0702413326
 31
0.0
 11
5.2557216907
 21
7.0696932585
 31
0.0
 11
5.2485395284
 21
7.0691452035
 31
0.0
 11
5.2421508732
 21
7.0685971676
 31
0.0
 11
5.2365706516
 21
7.0680491507
 31
0.0
 11
5.2318137247
 21
7.0675011529
 31
0.0
 11
5.2278916841
 21
7.0669531741
 31
0.0
 11
5.2262459162
 21
7.0666791918
 31
0.0
 11
5.2248114001
 21
7.0664052143
 31
0.0
 11
5.2235889486
 21
7.0661312415
 31
0.0
 11
5.2225793745
 21
7.0658572734
 31
0.0
 11
5.2217834905
 21
7.0655833101
 31
0.0
 11
5.2212021094
 21
7.0653093515
 31
0.0
  0
SPLINE
  5
36D
100
AcDbEntity
  8
0
100
AcDbSpline
 62
6
  6
CONTINUOUS
 70
0
 71
3
 72
15
 73
11
 74
9
 42
0.0000001
 43
0.0000001
 44
0.0000000001
 12
-0.3516272766
 22
-0.0197047685
 32
0.0
 13
-0.3520441271
 23
-0.0097443365
 33
0.0
 40
0.0
 40
0.0
 40
0.0
 40
0.0
 40
0.0398793
 40
0.0838971864
 40
0.1834892406
 40
0.2970308049
 40
0.4226173292
 40
0.5580928073
 40
0.7011153678
 40
1.0
 40
1.0
 40
1.0
 40
1.0
 10
5.9426088282
 20
6.7213127784
 30
0.0
 10
5.9379346117
 20
6.721050841
 30
0.0
 10
5.9280992575
 20
6.7205324822
 30
0.0
 10
5.9065834121
 20
6.719504097
 30
0.0
 10
5.8764217223
 20
6.7182433699
 30
0.0
 10
5.8366851382
 20
6.7167817501
 30
0.0
 10
5.7927335852
 20
6.715318625
 30
0.0
 10
5.7453194501
 20
6.713854938
 30
0.0
 10
5.6775676842
 20
6.7118747833
 30
0.0
 10
5.6257107335
 20
6.7104390652
 30
0.0
 10
5.590637207
 20
6.7094682544
 30
0.0
 11
5.9426088282
 21
6.7213127784
 31
0.0
 11
5.9285838898
 21
6.7205689312
 31
0.0
 11
5.913099575
 21
6.719825039
 31
0.0
 11
5.8780568394
 21
6.7183391018
 31
0.0
 11
5.8380974104
 21
6.716855793
 31
0.0
 11
5.7938932953
 21
6.7153743808
 31
0.0
 11
5.7462046241
 21
6.7138949742
 31
0.0
 11
5.6958567561
 21
6.7124176788
 31
0.0
 11
5.590637207
 21
6.7094682544
 31
0.0
  0
SPLINE
  5
36E
100
AcDbEntity
  8
0
100
AcDbSpline
 62
6
  6
CONTINUOUS
 70
0
 71
3
 72
58
 73
54
 74
52
 42
0.0000001
 43
0.0000001
 44
0.0000000001
 12
-0.0017936833
 22
-0.7436266622
 32
0.0
 13
-0.6439929563
 23
-0.3718291305
 33
0.0
 40
0.0
 40
0.0
 40
0.0
 40
0.0
 40
0.0001883169
 40
0.0004030575
 40
0.000662528
 40
0.0009772837
 40
0.0017930782
 40
0.002875219
 40
0.0042328646
 40
0.0058703021
 40
0.0077897266
 40
0.0099921614
 40
0.0124771384
 40
0.0152434731
 40
0.0216143928
 40
0.029092403
 40
0.0376636939
 40
0.0473116765
 40
0.058012156
 40
0.0824666547
 40
0.1108102853
 40
0.1427742599
 40
0.1780662594
 40
0.2163558103
 40
0.2572872493
 40
0.3004807827
 40
0.345532334
 40
0.3920253316
 40
0.4395245993
 40
0.48759021
 40
0.5836279417
 40
0.6307082566
 40
0.676575086
 40
0.7208051652
 40
0.7629849169
 40
0.8027249792
 40
0.8396558227
 40
0.8734344509
 40
0.9037510944
 40
0.9303210648
 40
0.9421265278
 40
0.9529071816
 40
0.9626366449
 40
0.971295763
 40
0.9788670605
 40
0.9853336395
 40
0.9906804009
 40
0.9929317038
 40
0.9949016102
 40
0.9965907383
 40
0.9980006147
 40
0.9991345673
 40
1.0
 40
1.0
 40
1.0
 40
1.0
 10
5.961462944
 20
7.0289890228
 30
0.0
 10
5.9614628314
 20
7.0289423436
 30
0.0
 10
5.9614412088
 20
7.0288418535
 30
0.0
 10
5.9613523879
 20
7.0287011356
 30
0.0
 10
5.9612115587
 20
7.0285637686
 30
0.0
 10
5.9609290644
 20
7.0283648451
 30
0.0
 10
5.9604313067
 20
7.0281277933
 30
0.0
 10
5.9596697011
 20
7.0278599673
 30
0.0
 10
5.9586948921
 20
7.027590524
 30
0.0
 10
5.9575070004
 20
7.0273195889
 30
0.0
 10
5.956105302
 20
7.027047797
 30
0.0
 10
5.9544903172
 20
7.0267754284
 30
0.0
 10
5.9526628762
 20
7.0265025915
 30
0.0
 10
5.9498074176
 20
7.0261201273
 30
0.0
 10
5.945715454
 20
7.0256501832
 30
0.0
 10
5.9401844582
 20
7.0251071295
 30
0.0
 10
5.9338378775
 20
7.0245628343
 30
0.0
 10
5.9266900414
 20
7.0240176207
 30
0.0
 10
5.9156105623
 20
7.023255342
 30
0.0
 10
5.8998983428
 20
7.0223189815
 30
0.0
 10
5.8789156713
 20
7.021235226
 30
0.0
 10
5.8552436245
 20
7.0201485348
 30
0.0
 10
5.8291039905
 20
7.0190600455
 30
0.0
 10
5.8007398304
 20
7.017970184
 30
0.0
 10
5.770415763
 20
7.01687942
 30
0.0
 10
5.7384145569
 20
7.0157880922
 30
0.0
 10
5.7050340268
 20
7.0146962533
 30
0.0
 10
5.6705856635
 20
7.0136042452
 30
0.0
 10
5.6353898283
 20
7.0125120159
 30
0.0
 10
5.5879184056
 20
7.0110561721
 30
0.0
 10
5.5405506074
 20
7.0096091514
 30
0.0
 10
5.4937286596
 20
7.0081438508
 30
0.0
 10
5.4597431971
 20
7.0070523849
 30
0.0
 10
5.4269730921
 20
7.0059615357
 30
0.0
 10
5.3957225223
 20
7.0048712608
 30
0.0
 10
5.3662823812
 20
7.0037819493
 30
0.0
 10
5.3389261491
 20
7.0026938663
 30
0.0
 10
5.313907672
 20
7.0016074422
 30
0.0
 10
5.2914599655
 20
7.00052351
 30
0.0
 10
5.2744582191
 20
6.9995900934
 30
0.0
 10
5.2622971105
 20
6.998832514
 30
0.0
 10
5.2543053502
 20
6.9982875237
 30
0.0
 10
5.2470954297
 20
6.9977431402
 30
0.0
 10
5.2406834722
 20
6.9971997208
 30
0.0
 10
5.2350833773
 20
6.9966578993
 30
0.0
 10
5.2303085961
 20
6.9961180633
 30
0.0
 10
5.2268535073
 20
6.9956482995
 30
0.0
 10
5.2245131386
 20
6.9952633092
 30
0.0
 10
5.2230732613
 20
6.9949919552
 30
0.0
 10
5.2218460539
 20
6.994721486
 30
0.0
 10
5.2208312788
 20
6.9944523109
 30
0.0
 10
5.2200292874
 20
6.9941849245
 30
0.0
 10
5.2195746089
 20
6.9939824585
 30
0.0
 10
5.2193888314
 20
6.9938751941
 30
0.0
 11
5.961462944
 21
7.0289890228
 31
0.0
 11
5.9614355508
 21
7.0288516903
 31
0.0
 11
5.9613540636
 21
7.028714359
 31
0.0
 11
5.9612185273
 21
7.0285770291
 31
0.0
 11
5.9610289868
 21
7.0284397005
 31
0.0
 11
5.960488073
 21
7.0281650471
 31
0.0
 11
5.9597316814
 21
7.027890399
 31
0.0
 11
5.9587601713
 21
7.027615756
 31
0.0
 11
5.9575739018
 21
7.0273411183
 31
0.0
 11
5.9561732324
 21
7.0270664858
 31
0.0
 11
5.9545586275
 21
7.0267918586
 31
0.0
 11
5.9527312471
 21
7.0265172365
 31
0.0
 11
5.9506925333
 21
7.0262426197
 31
0.0
 11
5.9459868762
 21
7.0256934018
 31
0.0
 11
5.9404531983
 21
7.0251442048
 31
0.0
 11
5.9341030421
 21
7.0245950288
 31
0.0
 11
5.9269495718
 21
7.0240458737
 31
0.0
 11
5.9190113577
 21
7.0234967397
 31
0.0
 11
5.9008594783
 21
7.0223985349
 31
0.0
 11
5.8798109632
 21
7.0213004143
 31
0.0
 11
5.856067006
 21
7.0202023782
 31
0.0
 11
5.8298458348
 21
7.0191044268
 31
0.0
 11
5.8013937946
 21
7.0180065602
 31
0.0
 11
5.7709757997
 21
7.0169087785
 31
0.0
 11
5.7388746055
 21
7.0158110819
 31
0.0
 11
5.7053909586
 21
7.0147134705
 31
0.0
 11
5.6708348501
 21
7.0136159445
 31
0.0
 11
5.6355300782
 21
7.0125185039
 31
0.0
 11
5.5998039536
 21
7.011421149
 31
0.0
 11
5.528421251
 21
7.0092266965
 31
0.0
 11
5.4934281656
 21
7.0081295991
 31
0.0
 11
5.4593379152
 21
7.0070325877
 31
0.0
 11
5.42646545
 21
7.0059356626
 31
0.0
 11
5.3951185543
 21
7.0048388236
 31
0.0
 11
5.3655870572
 21
7.003742071
 31
0.0
 11
5.3381461227
 21
7.0026454048
 31
0.0
 11
5.3130513085
 21
7.001548825
 31
0.0
 11
5.2905336594
 21
7.0004523319
 31
0.0
 11
5.2708059076
 21
6.9993559253
 31
0.0
 11
5.2620441561
 21
6.9988077546
 31
0.0
 11
5.254046113
 21
6.9982596055
 31
0.0
 11
5.2468317964
 21
6.9977114781
 31
0.0
 11
5.2404159965
 21
6.9971633724
 31
0.0
 11
5.234812502
 21
6.9966152884
 31
0.0
 11
5.2300351015
 21
6.9960672261
 31
0.0
 11
5.2260970468
 21
6.9955191856
 31
0.0
 11
5.2244454897
 21
6.9952451734
 31
0.0
 11
5.2230064652
 21
6.9949711667
 31
0.0
 11
5.2217806303
 21
6.9946971654
 31
0.0
 11
5.2207686418
 21
6.9944231696
 31
0.0
 11
5.2199711566
 21
6.9941491791
 31
0.0
 11
5.2193888314
 21
6.9938751941
 31
0.0
  0
SPLINE
  5
36F
100
AcDbEntity
  8
0
100
AcDbSpline
 62
6
  6
CONTINUOUS
 70
0
 71
3
 72
32
 73
28
 74
26
 42
0.0000001
 43
0.0000001
 44
0.0000000001
 12
-0.0001465922
 22
-0.1869211322
 32
0.0
 13
-0.1868054119
 23
-0.0065779365
 33
0.0
 40
0.0
 40
0.0
 40
0.0
 40
0.0
 40
0.0010299341
 40
0.0023074151
 40
0.0039720126
 40
0.0060873718
 40
0.008683665
 40
0.0117765723
 40
0.0153749005
 40
0.0194838696
 40
0.0292446717
 40
0.041073117
 40
0.0549721717
 40
0.0709318858
 40
0.0889355977
 40
0.1089652182
 40
0.1310017948
 40
0.1550258122
 40
0.2089506089
 40
0.270506711
 40
0.3394152727
 40
0.4153943095
 40
0.4981322385
 40
0.5872833433
 40
0.682499257
 40
0.7833752541
 40
1.0
 40
1.0
 40
1.0
 40
1.0
 10
5.9633681505
 20
6.9575587023
 30
0.0
 10
5.9633681001
 20
6.9574945302
 30
0.0
 10
5.9633237896
 20
6.957350378
 30
0.0
 10
5.9631568714
 20
6.9571625007
 30
0.0
 10
5.9628989354
 20
6.956979133
 30
0.0
 10
5.962545123
 20
6.9567965009
 30
0.0
 10
5.9620942512
 20
6.9566132708
 30
0.0
 10
5.9615452174
 20
6.9564295401
 30
0.0
 10
5.9608978169
 20
6.9562453299
 30
0.0
 10
5.95984108
 20
6.9559840756
 30
0.0
 10
5.9582713792
 20
6.9556651045
 30
0.0
 10
5.9560905519
 20
6.9552986754
 30
0.0
 10
5.953519061
 20
6.9549311746
 30
0.0
 10
5.9505596317
 20
6.9545626711
 30
0.0
 10
5.9472157113
 20
6.954193515
 30
0.0
 10
5.9434911693
 20
6.9538238777
 30
0.0
 10
5.9393898936
 20
6.953453868
 30
0.0
 10
5.9331812675
 20
6.9529401658
 30
0.0
 10
5.9245120753
 20
6.9523063587
 30
0.0
 10
5.913046832
 20
6.9515700501
 30
0.0
 10
5.9002050214
 20
6.9508323736
 30
0.0
 10
5.8860415337
 20
6.9500938593
 30
0.0
 10
5.8706152601
 20
6.949354773
 30
0.0
 10
5.8539891616
 20
6.9486149489
 30
0.0
 10
5.8362319156
 20
6.9478745691
 30
0.0
 10
5.8105366423
 20
6.9468629459
 30
0.0
 10
5.7907671941
 20
6.9461421008
 30
0.0
 10
5.7772783025
 20
6.9456671195
 30
0.0
 11
5.9633681505
 21
6.9575587023
 31
0.0
 11
5.9633180526
 21
6.9573728185
 31
0.0
 11
5.9631681595
 21
6.9571869371
 31
0.0
 11
5.9629186351
 21
6.9570010581
 31
0.0
 11
5.9625696431
 21
6.9568151816
 31
0.0
 11
5.9621213473
 21
6.9566293076
 31
0.0
 11
5.9615739115
 21
6.9564434363
 31
0.0
 11
5.9609274993
 21
6.9562575676
 31
0.0
 11
5.9601822746
 21
6.9560717015
 31
0.0
 11
5.9583960427
 21
6.9556999777
 31
0.0
 11
5.9562165259
 21
6.9553282651
 31
0.0
 11
5.9536452253
 21
6.9549565641
 31
0.0
 11
5.9506852623
 21
6.9545848737
 31
0.0
 11
5.9473405754
 21
6.9542131927
 31
0.0
 11
5.9436151091
 21
6.9538415195
 31
0.0
 11
5.939512808
 21
6.9534698527
 31
0.0
 11
5.9350376167
 21
6.9530981911
 31
0.0
 11
5.9249853741
 21
6.95235488
 31
0.0
 11
5.9135032662
 21
6.9516116075
 31
0.0
 11
5.9006442546
 21
6.950868415
 31
0.0
 11
5.8864616153
 21
6.9501253412
 31
0.0
 11
5.8710140014
 21
6.9493823381
 31
0.0
 11
5.8543663466
 21
6.9486392558
 31
0.0
 11
5.8365840036
 21
6.9478959402
 31
0.0
 11
5.8177428057
 21
6.9471524548
 31
0.0
 11
5.7772783025
 21
6.9456671195
 31
0.0
  0
SPLINE
  5
370
100
AcDbEntity
  8
0
100
AcDbSpline
 62
6
  6
CONTINUOUS
 70
0
 71
3
 72
30
 73
26
 74
24
 42
0.0000001
 43
0.0000001
 44
0.0000000001
 12
0.4061937213
 22
0.0115429117
 32
0.0
 13
0.3516905637
 23
0.2035689697
 33
0.0
 40
0.0
 40
0.0
 40
0.0
 40
0.0
 40
0.1890712222
 40
0.2815055415
 40
0.3713653062
 40
0.4578702981
 40
0.5402534445
 40
0.6177590753
 40
0.6896789536
 40
0.7553759519
 40
0.8142512856
 40
0.8657894649
 40
0.8886531574
 40
0.9095129461
 40
0.9283261346
 40
0.9450504063
 40
0.9596446004
 40
0.972079285
 40
0.9823367371
 40
0.9866447766
 40
0.9904041541
 40
0.9936148764
 40
0.9962787046
 40
0.998401755
 40
1.0
 40
1.0
 40
1.0
 40
1.0
 10
5.590637207
 20
6.6141208604
 30
0.0
 10
5.6162370548
 20
6.6148483379
 30
0.0
 10
5.6543523269
 20
6.6159311952
 30
0.0
 10
5.7046332857
 20
6.6173993061
 30
0.0
 10
5.7410264258
 20
6.6184916621
 30
0.0
 10
5.7760574908
 20
6.6195835578
 30
0.0
 10
5.8094143301
 20
6.6206748343
 30
0.0
 10
5.8407944978
 20
6.6217652063
 30
0.0
 10
5.8699130662
 20
6.6228545398
 30
0.0
 10
5.8965062984
 20
6.6239418265
 30
0.0
 10
5.9203363052
 20
6.6250272771
 30
0.0
 10
5.9383650588
 20
6.625961576
 30
0.0
 10
5.95124621
 20
6.626720521
 30
0.0
 10
5.959699417
 20
6.6272662701
 30
0.0
 10
5.9673191866
 20
6.6278112056
 30
0.0
 10
5.9740879338
 20
6.6283550943
 30
0.0
 10
5.9799897352
 20
6.6288974894
 30
0.0
 10
5.9850114446
 20
6.6294381624
 30
0.0
 10
5.9886388857
 20
6.6299086028
 30
0.0
 10
5.9910910289
 20
6.6302943351
 30
0.0
 10
5.9925945478
 20
6.6305659116
 30
0.0
 10
5.9938713107
 20
6.6308365154
 30
0.0
 10
5.9949213305
 20
6.6311056704
 30
0.0
 10
5.9957441539
 20
6.6313729456
 30
0.0
 10
5.9962079458
 20
6.6315763457
 30
0.0
 10
5.9963953084
 20
6.6316847968
 30
0.0
 11
5.590637207
 21
6.6141208604
 31
0.0
 11
5.667436375
 21
6.6163164638
 31
0.0
 11
5.7049817143
 21
6.6174146659
 31
0.0
 11
5.7414804161
 21
6.6185124415
 31
0.0
 11
5.7766152399
 21
6.6196102153
 31
0.0
 11
5.810074258
 21
6.6207081
 31
0.0
 11
5.8415501273
 21
6.6218059538
 31
0.0
 11
5.8707546994
 21
6.6229037054
 31
0.0
 11
5.8974286035
 21
6.6240014011
 31
0.0
 11
5.9213278539
 21
6.6250990815
 31
0.0
 11
5.9422420044
 21
6.6261967465
 31
0.0
 11
5.9515166177
 21
6.6267455714
 31
0.0
 11
5.9599753678
 21
6.6272943919
 31
0.0
 11
5.9676005268
 21
6.6278432092
 31
0.0
 11
5.9743743673
 21
6.6283920245
 31
0.0
 11
5.9802793817
 21
6.6289408388
 31
0.0
 11
5.9853024192
 21
6.6294896507
 31
0.0
 11
5.9894343265
 21
6.6300384562
 31
0.0
 11
5.9911632924
 21
6.6303128554
 31
0.0
 11
5.992666099
 21
6.6305872514
 31
0.0
 11
5.9939416205
 21
6.6308616439
 31
0.0
 11
5.9949887337
 21
6.6311360323
 31
0.0
 11
5.9958066552
 21
6.6314104164
 31
0.0
 11
5.9963953084
 21
6.6316847968
 31
0.0
  0
LINE
  5
371
100
AcDbEntity
  8
0
100
AcDbLine
 62
6
  6
CONTINUOUS
 10
5.9947924644
 20
6.6579924512
 11
5.9964246695
 21
6.6573890894
  0
SPLINE
  5
372
100
AcDbEntity
  8
0
100
AcDbSpline
 62
6
  6
CONTINUOUS
 70
0
 71
3
 72
40
 73
36
 74
34
 42
0.0000001
 43
0.0000001
 44
0.0000000001
 12
-0.5607811244
 22
-0.0197375526
 32
0.0
 13
-0.0013864711
 23
-0.5611266507
 33
0.0
 40
0.0
 40
0.0
 40
0.0
 40
0.0
 40
0.0780766602
 40
0.1605799816
 40
0.2459892296
 40
0.3328867307
 40
0.4197951853
 40
0.5052157215
 40
0.5876890995
 40
0.6658089577
 40
0.7382340702
 40
0.7719239392
 40
0.8037340588
 40
0.8335289202
 40
0.8611864362
 40
0.8865853497
 40
0.9096144553
 40
0.9301831607
 40
0.9482038624
 40
0.9562322447
 40
0.9635955414
 40
0.9702877402
 40
0.9763030152
 40
0.9816358256
 40
0.9862810905
 40
0.9902345872
 40
0.9934956755
 40
0.9948680378
 40
0.9960696077
 40
0.9971022089
 40
0.9979688589
 40
0.9986748621
 40
0.9992303428
 40
0.9996565551
 40
1.0
 40
1.0
 40
1.0
 40
1.0
 10
5.7772783025
 20
6.9635271195
 30
0.0
 10
5.7626836634
 20
6.9630134388
 30
0.0
 10
5.7326654868
 20
6.9619976843
 30
0.0
 10
5.686678637
 20
6.9605219366
 30
0.0
 10
5.6390411213
 20
6.9590454464
 30
0.0
 10
5.5905792823
 20
6.9575686862
 30
0.0
 10
5.5421153299
 20
6.9560919415
 30
0.0
 10
5.4944792495
 20
6.9546156897
 30
0.0
 10
5.448487786
 20
6.9531404491
 30
0.0
 10
5.4049282736
 20
6.951666902
 30
0.0
 10
5.3704912422
 20
6.9504126231
 30
0.0
 10
5.3447132523
 20
6.949398929
 30
0.0
 10
5.3269044499
 20
6.9486574021
 30
0.0
 10
5.3102249761
 20
6.9479162515
 30
0.0
 10
5.2947459032
 20
6.9471757924
 30
0.0
 10
5.2805338386
 20
6.9464361011
 30
0.0
 10
5.2676495864
 20
6.9456972464
 30
0.0
 10
5.2561478088
 20
6.9449597993
 30
0.0
 10
5.2474512205
 20
6.9443252287
 30
0.0
 10
5.2412228277
 20
6.9438109276
 30
0.0
 10
5.2371087979
 20
6.943440468
 30
0.0
 10
5.2333729302
 20
6.9430703975
 30
0.0
 10
5.2300188375
 20
6.9427008235
 30
0.0
 10
5.227050118
 20
6.9423319096
 30
0.0
 10
5.2244702005
 20
6.9419640651
 30
0.0
 10
5.2222821854
 20
6.9415974021
 30
0.0
 10
5.2207074977
 20
6.9412781269
 30
0.0
 10
5.2196477178
 20
6.9410166281
 30
0.0
 10
5.2189986463
 20
6.9408322719
 30
0.0
 10
5.2184482805
 20
6.9406484009
 30
0.0
 10
5.217996368
 20
6.9404650353
 30
0.0
 10
5.2176417596
 20
6.9402822749
 30
0.0
 10
5.2173832261
 20
6.940098785
 30
0.0
 10
5.2172158615
 20
6.939910818
 30
0.0
 10
5.2171712519
 20
6.9397665598
 30
0.0
 10
5.2171710932
 20
6.9397023212
 30
0.0
 11
5.7772783025
 21
6.9635271195
 31
0.0
 11
5.733492586
 21
6.9620380723
 31
0.0
 11
5.6872216292
 21
6.9605476706
 31
0.0
 11
5.6393192289
 21
6.9590581949
 31
0.0
 11
5.5905813296
 21
6.957568762
 31
0.0
 11
5.5418372846
 21
6.9560792147
 31
0.0
 11
5.4939285452
 21
6.9545897983
 31
0.0
 11
5.4476743641
 21
6.9531004861
 31
0.0
 11
5.4038644003
 21
6.9516112574
 31
0.0
 11
5.3632519065
 21
6.9501221422
 31
0.0
 11
5.3443622317
 21
6.9493776313
 31
0.0
 11
5.3265282036
 21
6.9486331523
 31
0.0
 11
5.3098260442
 21
6.9478887062
 31
0.0
 11
5.2943244912
 21
6.9471442944
 31
0.0
 11
5.2800918929
 21
6.9463999183
 31
0.0
 11
5.2671910638
 21
6.9456555793
 31
0.0
 11
5.2556734041
 21
6.9449112783
 31
0.0
 11
5.2455889042
 21
6.9441670164
 31
0.0
 11
5.2410993461
 21
6.9437949005
 31
0.0
 11
5.2369843815
 21
6.9434227947
 31
0.0
 11
5.2332476796
 21
6.9430506991
 31
0.0
 11
5.2298929095
 21
6.942678614
 31
0.0
 11
5.2269237404
 21
6.9423065394
 31
0.0
 11
5.2243438413
 21
6.9419344754
 31
0.0
 11
5.2221568434
 21
6.9415624222
 31
0.0
 11
5.2203651741
 21
6.9411903798
 31
0.0
 11
5.2196179073
 21
6.9410043628
 31
0.0
 11
5.2189698399
 21
6.9408183485
 31
0.0
 11
5.2184210874
 21
6.9406323369
 31
0.0
 11
5.2179717653
 21
6.9404463282
 31
0.0
 11
5.2176219893
 21
6.9402603222
 31
0.0
 11
5.2173718749
 21
6.940074319
 31
0.0
 11
5.2172215377
 21
6.9398883187
 31
0.0
 11
5.2171710932
 21
6.9397023212
 31
0.0
  0
SPLINE
  5
373
100
AcDbEntity
  8
0
100
AcDbSpline
 62
6
  6
CONTINUOUS
 70
0
 71
3
 72
11
 73
7
 74
5
 42
0.0000001
 43
0.0000001
 44
0.0000000001
 12
0.0031043198
 22
-0.0017957074
 32
0.0
 13
0.0035099584
 23
-0.0007359067
 33
0.0
 40
0.0
 40
0.0
 40
0.0
 40
0.0
 40
0.1711249535
 40
0.3939300145
 40
0.6699635526
 40
1.0
 40
1.0
 40
1.0
 40
1.0
 10
5.2156019548
 20
6.8676794322
 30
0.0
 10
5.2157790304
 20
6.8675770021
 30
0.0
 10
5.2162102258
 20
6.867382969
 30
0.0
 10
5.2169691679
 20
6.8671261272
 30
0.0
 10
5.2179263175
 20
6.8668676806
 30
0.0
 10
5.2186333448
 20
6.8667088534
 30
0.0
 10
5.2190194828
 20
6.8666278947
 30
0.0
 11
5.2156019548
 21
6.8676794322
 31
0.0
 11
5.2161564974
 21
6.8674165414
 31
0.0
 11
5.2169110541
 21
6.8671536548
 31
0.0
 11
5.2178654432
 21
6.8668907726
 31
0.0
 11
5.2190194828
 21
6.8666278947
 31
0.0
  0
SPLINE
  5
374
100
AcDbEntity
  8
0
100
AcDbSpline
 62
6
  6
CONTINUOUS
 70
0
 71
3
 72
33
 73
29
 74
27
 42
0.0000001
 43
0.0000001
 44
0.0000000001
 12
-0.5599576229
 22
-0.0197085682
 32
0.0
 13
-0.4851552385
 23
-0.2802951332
 33
0.0
 40
0.0
 40
0.0
 40
0.0
 40
0.0
 40
0.0761630155
 40
0.1565767557
 40
0.2398246596
 40
0.3245919868
 40
0.4095142519
 40
0.4931974785
 40
0.5742835208
 40
0.6514564032
 40
0.7234596346
 40
0.7891292461
 40
0.8192473407
 40
0.8473923707
 40
0.8734517036
 40
0.8973141833
 40
0.9188858964
 40
0.93808503
 40
0.9548306915
 40
0.9690548
 40
0.9807110466
 40
0.9855634603
 40
0.9897593011
 40
0.9932957509
 40
0.9961747928
 40
0.9984032988
 40
0.9992787183
 40
1.0
 40
1.0
 40
1.0
 40
1.0
 10
5.7772783025
 20
6.9456671195
 30
0.0
 10
5.7630622821
 20
6.9451667648
 30
0.0
 10
5.7338354697
 20
6.9441767972
 30
0.0
 10
5.689066988
 20
6.9427375324
 30
0.0
 10
5.6426907203
 20
6.9412975872
 30
0.0
 10
5.5954720188
 20
6.9398573814
 30
0.0
 10
5.5481719754
 20
6.9384171696
 30
0.0
 10
5.5015597873
 20
6.9369773184
 30
0.0
 10
5.4563956146
 20
6.9355383317
 30
0.0
 10
5.4134139879
 20
6.9341008313
 30
0.0
 10
5.3733133038
 20
6.9326651763
 30
0.0
 10
5.3419991929
 20
6.9314392024
 30
0.0
 10
5.3188737768
 20
6.9304465451
 30
0.0
 10
5.3031415803
 20
6.9297241193
 30
0.0
 10
5.2885790147
 20
6.9290024433
 30
0.0
 10
5.2752457314
 20
6.9282813892
 30
0.0
 10
5.2631956981
 20
6.9275613149
 30
0.0
 10
5.2524773929
 20
6.9268428252
 30
0.0
 10
5.2431346233
 20
6.9261267216
 30
0.0
 10
5.2352052607
 20
6.9254130733
 30
0.0
 10
5.2294984137
 20
6.9247916729
 30
0.0
 10
5.2256651434
 20
6.9242808361
 30
0.0
 10
5.2233420265
 20
6.9239224994
 30
0.0
 10
5.2213920136
 20
6.9235659346
 30
0.0
 10
5.2198167478
 20
6.9232112555
 30
0.0
 10
5.2187417129
 20
6.9228998516
 30
0.0
 10
5.2180757691
 20
6.9226400128
 30
0.0
 10
5.2178072448
 20
6.9225087535
 30
0.0
 10
5.2176906002
 20
6.9224413629
 30
0.0
 11
5.7772783025
 21
6.9456671195
 31
0.0
 11
5.7346285273
 21
6.9442155743
 31
0.0
 11
5.6895957911
 21
6.9427626454
 31
0.0
 11
5.6429742345
 21
6.9413106131
 31
0.0
 11
5.5955009302
 21
6.9398586768
 31
0.0
 11
5.5479407772
 21
6.9384066039
 31
0.0
 11
5.5010751875
 21
6.9369546435
 31
0.0
 11
5.4556655287
 21
6.9355027918
 31
0.0
 11
5.4124496051
 21
6.9340510164
 31
0.0
 11
5.3721320071
 21
6.9325993437
 31
0.0
 11
5.3353656809
 21
6.9311477891
 31
0.0
 11
5.3185059939
 21
6.9304220575
 31
0.0
 11
5.3027529177
 21
6.9296963578
 31
0.0
 11
5.2881698038
 21
6.9289706913
 31
0.0
 11
5.2748192578
 21
6.9282450593
 31
0.0
 11
5.2627543325
 21
6.9275194629
 31
0.0
 11
5.2520214709
 21
6.926793903
 31
0.0
 11
5.2426668968
 21
6.9260683806
 31
0.0
 11
5.2347301555
 21
6.9253428967
 31
0.0
 11
5.2282395247
 21
6.9246174521
 31
0.0
 11
5.2255449984
 21
6.9242547448
 31
0.0
 11
5.2232221969
 21
6.9238920477
 31
0.0
 11
5.2212741842
 21
6.9235293608
 31
0.0
 11
5.2197023427
 21
6.9231666844
 31
0.0
 11
5.2185075292
 21
6.9228040184
 31
0.0
 11
5.2180517756
 21
6.9226226893
 31
0.0
 11
5.2176906002
 21
6.9224413629
 31
0.0
  0
LINE
  5
375
100
AcDbEntity
  8
0
100
AcDbLine
 62
6
  6
CONTINUOUS
 10
5.9647813937
 20
6.9033911973
 11
5.9637824706
 21
6.902965104
  0
SPLINE
  5
376
100
AcDbEntity
  8
0
100
AcDbSpline
 62
6
  6
CONTINUOUS
 70
0
 71
3
 72
55
 73
51
 74
49
 42
0.0000001
 43
0.0000001
 44
0.0000000001
 12
-0.7107344725
 22
-0.239963599
 32
0.0
 13
0.0015844099
 23
-0.7501489912
 33
0.0
 40
0.0
 40
0.0
 40
0.0
 40
0.0
 40
0.0012661308
 40
0.0028057499
 40
0.0046205175
 40
0.0067108987
 40
0.0117172824
 40
0.0178201112
 40
0.0250113899
 40
0.0332764158
 40
0.0425948177
 40
0.0529456633
 40
0.0766577599
 40
0.1041997471
 40
0.1353202998
 40
0.1697420463
 40
0.2071467117
 40
0.2472008765
 40
0.2895351109
 40
0.3337689945
 40
0.4263081812
 40
0.5214641769
 40
0.5689461031
 40
0.6157887844
 40
0.6615660432
 40
0.7058652092
 40
0.7482806385
 40
0.7884325365
 40
0.8259526684
 40
0.8605049658
 40
0.8917754367
 40
0.9194811173
 40
0.9433765577
 40
0.9538240179
 40
0.9632422527
 40
0.9716115445
 40
0.9789125274
 40
0.9851278117
 40
0.9878253453
 40
0.9902485347
 40
0.9923969355
 40
0.9942704308
 40
0.9958694581
 40
0.9971954721
 40
0.9982519953
 40
0.9990475353
 40
0.9993541836
 40
0.9996069103
 40
0.9998161811
 40
1.0
 40
1.0
 40
1.0
 40
1.0
 10
5.9637824706
 20
6.902965104
 30
0.0
 10
5.9634825096
 20
6.9028638289
 30
0.0
 10
5.9628082588
 20
6.9026677993
 30
0.0
 10
5.961684019
 20
6.9024004556
 30
0.0
 10
5.9603490222
 20
6.9021321178
 30
0.0
 10
5.9581535086
 20
6.9017500926
 30
0.0
 10
5.9548852229
 20
6.9012848608
 30
0.0
 10
5.9503402428
 20
6.9007506612
 30
0.0
 10
5.9449758603
 20
6.9002147095
 30
0.0
 10
5.9388041894
 20
6.8996771971
 30
0.0
 10
5.9318399281
 20
6.8991385697
 30
0.0
 10
5.921018554
 20
6.8983847967
 30
0.0
 10
5.905641717
 20
6.8974597765
 30
0.0
 10
5.8850716415
 20
6.8963890612
 30
0.0
 10
5.8618205554
 20
6.8953155951
 30
0.0
 10
5.8361010543
 20
6.8942403371
 30
0.0
 10
5.808145985
 20
6.8931634962
 30
0.0
 10
5.7782110644
 20
6.8920860105
 30
0.0
 10
5.7465674893
 20
6.8910076431
 30
0.0
 10
5.7018054659
 20
6.8895474762
 30
0.0
 10
5.6438394282
 20
6.8877487274
 30
0.0
 10
5.5850601547
 20
6.8859731613
 30
0.0
 10
5.5377023662
 20
6.8845334499
 30
0.0
 10
5.502686477
 20
6.8834546238
 30
0.0
 10
5.4684668142
 20
6.8823760309
 30
0.0
 10
5.4353547328
 20
6.8812979984
 30
0.0
 10
5.4036500326
 20
6.8802203695
 30
0.0
 10
5.3736414224
 20
6.8791437045
 30
0.0
 10
5.3456002946
 20
6.8780679292
 30
0.0
 10
5.3197816639
 20
6.8769936627
 30
0.0
 10
5.2964193368
 20
6.8759215763
 30
0.0
 10
5.2757247758
 20
6.8748519724
 30
0.0
 10
5.2602367168
 20
6.8739286399
 30
0.0
 10
5.2493200375
 20
6.8731764664
 30
0.0
 10
5.2422803109
 20
6.8726386267
 30
0.0
 10
5.2360297925
 20
6.8721019559
 30
0.0
 10
5.2305833949
 20
6.8715666744
 30
0.0
 10
5.2265553788
 20
6.8711031868
 30
0.0
 10
5.2237459341
 20
6.8707259852
 30
0.0
 10
5.2219482204
 20
6.8704569454
 30
0.0
 10
5.2203590489
 20
6.8701883757
 30
0.0
 10
5.2189790967
 20
6.8699204482
 30
0.0
 10
5.2178091093
 20
6.8696533974
 30
0.0
 10
5.2168488536
 20
6.8693878457
 30
0.0
 10
5.2160989148
 20
6.8691239531
 30
0.0
 10
5.2156091891
 20
6.8688902531
 30
0.0
 10
5.2153318036
 20
6.8686940786
 30
0.0
 10
5.215193809
 20
6.8685586339
 30
0.0
 10
5.2151070894
 20
6.8684198458
 30
0.0
 10
5.2150863495
 20
6.8683208719
 30
0.0
 10
5.2150864466
 20
6.868274908
 30
0.0
 11
5.9637824706
 21
6.902965104
 31
0.0
 11
5.9628722643
 21
6.9026937674
 31
0.0
 11
5.9617496422
 21
6.9024224365
 31
0.0
 11
5.9604156055
 21
6.902151111
 31
0.0
 11
5.9588711555
 21
6.9018797912
 31
0.0
 11
5.9551550209
 21
6.901337168
 31
0.0
 11
5.9506092488
 21
6.9007945668
 31
0.0
 11
5.9452420618
 21
6.9002519874
 31
0.0
 11
5.9390658321
 21
6.8997094296
 31
0.0
 11
5.9320967127
 21
6.8991668935
 31
0.0
 11
5.9243509948
 21
6.8986243788
 31
0.0
 11
5.9065964696
 21
6.8975394131
 31
0.0
 11
5.8859643326
 21
6.8964545316
 31
0.0
 11
5.8626444471
 21
6.8953697334
 31
0.0
 11
5.8368457447
 21
6.8942850176
 31
0.0
 11
5.8088075813
 21
6.8932003832
 31
0.0
 11
5.7787805032
 21
6.8921158296
 31
0.0
 11
5.7470419714
 21
6.8910313558
 31
0.0
 11
5.713877618
 21
6.8899469612
 31
0.0
 11
5.6444931656
 21
6.8877784067
 31
0.0
 11
5.5731447706
 21
6.885610161
 31
0.0
 11
5.5375426712
 21
6.8845261525
 31
0.0
 11
5.5024203247
 21
6.8834422195
 31
0.0
 11
5.4680975925
 21
6.8823583616
 31
0.0
 11
5.4348842214
 21
6.8812745784
 31
0.0
 11
5.4030847197
 21
6.8801908695
 31
0.0
 11
5.3729842462
 21
6.8791072346
 31
0.0
 11
5.3448593597
 21
6.8780236734
 31
0.0
 11
5.3189625868
 21
6.8769401855
 31
0.0
 11
5.295530055
 21
6.8758567709
 31
0.0
 11
5.2747748742
 21
6.8747734293
 31
0.0
 11
5.2568824561
 21
6.8736901605
 31
0.0
 11
5.2490640239
 21
6.8731485534
 31
0.0
 11
5.2420197177
 21
6.8726069646
 31
0.0
 11
5.2357648899
 21
6.8720653939
 31
0.0
 11
5.230314893
 21
6.8715238413
 31
0.0
 11
5.2256840495
 21
6.870982307
 31
0.0
 11
5.2236786891
 21
6.8707115466
 31
0.0
 11
5.2218812097
 21
6.8704407908
 31
0.0
 11
5.2202924911
 21
6.8701700395
 31
0.0
 11
5.2189134133
 21
6.8698992928
 31
0.0
 11
5.2177448559
 21
6.8696285506
 31
0.0
 11
5.2167876988
 21
6.869357813
 31
0.0
 11
5.216042822
 21
6.8690870799
 31
0.0
 11
5.215510989
 21
6.8688163514
 31
0.0
 11
5.215325
 21
6.8686809888
 31
0.0
 11
5.2151922632
 21
6.8685456274
 31
0.0
 11
5.2151127537
 21
6.8684102671
 31
0.0
 11
5.2150864466
 21
6.868274908
 31
0.0
  0
SPLINE
  5
377
100
AcDbEntity
  8
0
100
AcDbSpline
 62
6
  6
CONTINUOUS
 70
0
 71
3
 72
59
 73
55
 74
53
 42
0.0000001
 43
0.0000001
 44
0.0000000001
 12
-0.6536889112
 22
-0.3774583361
 32
0.0
 13
-0.0019539231
 23
-0.7548378438
 33
0.0
 40
0.0
 40
0.0
 40
0.0
 40
0.0
 40
0.0008566029
 40
0.0019823591
 40
0.0033849058
 40
0.0050677764
 40
0.007032702
 40
0.0092805087
 40
0.0146239435
 40
0.0210884492
 40
0.028659654
 40
0.0373221311
 40
0.047059599
 40
0.0578499156
 40
0.0696657783
 40
0.0962635213
 40
0.1266153483
 40
0.1604315224
 40
0.1974045374
 40
0.2371851961
 40
0.2794062768
 40
0.3236735495
 40
0.3695743694
 40
0.4166829488
 40
0.4645588264
 40
0.5127580458
 40
0.5608313258
 40
0.6083309176
 40
0.6548168832
 40
0.6998540392
 40
0.7430273941
 40
0.7839323721
 40
0.8221919082
 40
0.8574499162
 40
0.8893788046
 40
0.9176866044
 40
0.9421066551
 40
0.9527909339
 40
0.9624233911
 40
0.9709800703
 40
0.9784447255
 40
0.9848036209
 40
0.9875644549
 40
0.9900442731
 40
0.9922418832
 40
0.9941567743
 40
0.9957899317
 40
0.9971435017
 40
0.9982216654
 40
0.9990333574
 40
0.9993458689
 40
0.9996028558
 40
0.9998147859
 40
1.0
 40
1.0
 40
1.0
 40
1.0
 10
5.9665571128
 20
6.8319649534
 30
0.0
 10
5.9663704622
 20
6.8318571761
 30
0.0
 10
5.965912537
 20
6.8316540219
 30
0.0
 10
5.9651037869
 20
6.831386034
 30
0.0
 10
5.9640784724
 20
6.8311162264
 30
0.0
 10
5.9628367987
 20
6.8308451031
 30
0.0
 10
5.9613783423
 20
6.8305730879
 30
0.0
 10
5.9590049189
 20
6.8301870649
 30
0.0
 10
5.9554991804
 20
6.8297163342
 30
0.0
 10
5.9506530432
 20
6.8291751701
 30
0.0
 10
5.9449675516
 20
6.8286321113
 30
0.0
 10
5.938455491
 20
6.8280874762
 30
0.0
 10
5.9311310259
 20
6.8275420625
 30
0.0
 10
5.9230112167
 20
6.8269959745
 30
0.0
 10
5.9106540906
 20
6.8262368183
 30
0.0
 10
5.8933768569
 20
6.8253017154
 30
0.0
 10
5.8705646959
 20
6.8242160603
 30
0.0
 10
5.8451394534
 20
6.8231278974
 30
0.0
 10
5.8173398881
 20
6.8220384424
 30
0.0
 10
5.7874240875
 20
6.8209477225
 30
0.0
 10
5.7556718375
 20
6.8198563716
 30
0.0
 10
5.7223788299
 20
6.8187644868
 30
0.0
 10
5.6878554403
 20
6.8176722389
 30
0.0
 10
5.6524236418
 20
6.8165798538
 30
0.0
 10
5.6164132708
 20
6.8154873217
 30
0.0
 10
5.5801600563
 20
6.8143948459
 30
0.0
 10
5.5440015599
 20
6.8133024778
 30
0.0
 10
5.5082743341
 20
6.8122102694
 30
0.0
 10
5.4733113877
 20
6.8111184653
 30
0.0
 10
5.4394375147
 20
6.8100269685
 30
0.0
 10
5.4069686231
 20
6.8089362006
 30
0.0
 10
5.3762060551
 20
6.807846098
 30
0.0
 10
5.3474363734
 20
6.8067571409
 30
0.0
 10
5.3209268739
 20
6.8056696459
 30
0.0
 10
5.2969235529
 20
6.8045841802
 30
0.0
 10
5.2756501731
 20
6.8035017693
 30
0.0
 10
5.2597219592
 20
6.8025666947
 30
0.0
 10
5.2484912653
 20
6.8018055651
 30
0.0
 10
5.2412466689
 20
6.8012612295
 30
0.0
 10
5.2348146128
 20
6.8007178466
 30
0.0
 10
5.2292094504
 20
6.8001757557
 30
0.0
 10
5.2250627181
 20
6.7997066715
 30
0.0
 10
5.2221691069
 20
6.7993249239
 30
0.0
 10
5.2203173669
 20
6.7990526194
 30
0.0
 10
5.2186809618
 20
6.7987807969
 30
0.0
 10
5.2172607346
 20
6.7985095642
 30
0.0
 10
5.2160572126
 20
6.7982391998
 30
0.0
 10
5.215069662
 20
6.7979703605
 30
0.0
 10
5.2142982042
 20
6.7977031624
 30
0.0
 10
5.213793913
 20
6.7974667124
 30
0.0
 10
5.21350754
 20
6.7972681528
 30
0.0
 10
5.2133648786
 20
6.7971311698
 30
0.0
 10
5.2132747792
 20
6.7969907978
 30
0.0
 10
5.2132527619
 20
6.7968902935
 30
0.0
 10
5.2132526413
 20
6.7968436913
 30
0.0
 11
5.9665571128
 21
6.8319649534
 31
0.0
 11
5.9659717768
 21
6.831690233
 31
0.0
 11
5.9651676411
 21
6.8314155178
 31
0.0
 11
5.9641452039
 21
6.8311408079
 31
0.0
 11
5.9629049637
 21
6.8308661031
 31
0.0
 11
5.9614474186
 21
6.8305914035
 31
0.0
 11
5.9597730669
 21
6.8303167092
 31
0.0
 11
5.9557772153
 21
6.8297673361
 31
0.0
 11
5.950928567
 21
6.8292179839
 31
0.0
 11
5.9452399781
 21
6.8286686527
 31
0.0
 11
5.9387243047
 21
6.8281193423
 31
0.0
 11
5.931394624
 21
6.8275700529
 31
0.0
 11
5.9232681989
 21
6.8270207844
 31
0.0
 11
5.9143660364
 21
6.8264715369
 31
0.0
 11
5.8943190568
 21
6.825373105
 31
0.0
 11
5.871434615
 21
6.8242747571
 31
0.0
 11
5.8459324392
 21
6.8231764934
 31
0.0
 11
5.8180453292
 21
6.8220783141
 31
0.0
 11
5.7880373669
 21
6.8209802193
 31
0.0
 11
5.7561861108
 21
6.8198822091
 31
0.0
 11
5.7227894286
 21
6.8187842836
 31
0.0
 11
5.688159034
 21
6.817686443
 31
0.0
 11
5.6526165248
 21
6.8165886872
 31
0.0
 11
5.6164945536
 21
6.8154910165
 31
0.0
 11
5.5801283964
 21
6.8143934308
 31
0.0
 11
5.5438573443
 21
6.8132959304
 31
0.0
 11
5.5080195332
 21
6.8121985153
 31
0.0
 11
5.4729472118
 21
6.8111011855
 31
0.0
 11
5.4389690601
 21
6.8100039411
 31
0.0
 11
5.4063985428
 21
6.8089067822
 31
0.0
 11
5.37554131
 21
6.8078097089
 31
0.0
 11
5.3466823093
 21
6.8067127212
 31
0.0
 11
5.3200907554
 21
6.8056158191
 31
0.0
 11
5.2960145117
 21
6.8045190028
 31
0.0
 11
5.2746748056
 21
6.8034222722
 31
0.0
 11
5.2562742155
 21
6.8023256274
 31
0.0
 11
5.2482279498
 21
6.8017773372
 31
0.0
 11
5.2409776828
 21
6.8012290685
 31
0.0
 11
5.2345420661
 21
6.8006808212
 31
0.0
 11
5.2289341766
 21
6.8001325954
 31
0.0
 11
5.2241656336
 21
6.799584391
 31
0.0
 11
5.2220997483
 21
6.7993102969
 31
0.0
 11
5.2202480569
 21
6.7990362081
 31
0.0
 11
5.2186120115
 21
6.7987621247
 31
0.0
 11
5.217192797
 21
6.7984880467
 31
0.0
 11
5.2159908762
 21
6.7982139741
 31
0.0
 11
5.2150065907
 21
6.7979399068
 31
0.0
 11
5.2142402827
 21
6.7976658449
 31
0.0
 11
5.2136922938
 21
6.7973917883
 31
0.0
 11
5.213500276
 21
6.7972547621
 31
0.0
 11
5.2133629661
 21
6.7971177371
 31
0.0
 11
5.2132804069
 21
6.7969807136
 31
0.0
 11
5.2132526413
 21
6.7968436913
 31
0.0
  0
SPLINE
  5
378
100
AcDbEntity
  8
0
100
AcDbSpline
 62
6
  6
CONTINUOUS
 70
0
 71
3
 72
44
 73
40
 74
38
 42
0.0000001
 43
0.0000001
 44
0.0000000001
 12
-0.7069093354
 22
-0.0425186109
 32
0.0
 13
0.001647411
 23
-0.7081849524
 33
0.0
 40
0.0
 40
0.0
 40
0.0
 40
0.0
 40
0.0234107757
 40
0.0497894004
 40
0.0789370834
 40
0.1106495453
 40
0.1809193921
 40
0.2587502384
 40
0.3420561564
 40
0.4286110319
 40
0.5161024419
 40
0.6021939289
 40
0.6439921733
 40
0.6845859344
 40
0.723700299
 40
0.7610772161
 40
0.7964665496
 40
0.8296286769
 40
0.8603483523
 40
0.8884155011
 40
0.9136454636
 40
0.93587437
 40
0.9549481426
 40
0.9707506116
 40
0.9773926421
 40
0.9831788777
 40
0.988102511
 40
0.9902398226
 40
0.9921604247
 40
0.9938643059
 40
0.9953517918
 40
0.9966237745
 40
0.9976821752
 40
0.9985309725
 40
0.9991789877
 40
0.9994341428
 40
0.9996494753
 40
0.9998335944
 40
1.0
 40
1.0
 40
1.0
 40
1.0
 10
5.9185671527
 20
6.7551937862
 30
0.0
 10
5.9130507207
 20
6.7548619883
 30
0.0
 10
5.9013153676
 20
6.7542086523
 30
0.0
 10
5.8827041059
 20
6.7532855639
 30
0.0
 10
5.8621310347
 20
6.7523607969
 30
0.0
 10
5.8312025301
 20
6.7510828476
 30
0.0
 10
5.7887842785
 20
6.7495133922
 30
0.0
 10
5.7341885735
 20
6.7476816982
 30
0.0
 10
5.6757466873
 20
6.7458467919
 30
0.0
 10
5.6150233091
 20
6.7440099594
 30
0.0
 10
5.5536420824
 20
6.7421727125
 30
0.0
 10
5.5028221847
 20
6.740627828
 30
0.0
 10
5.4630691917
 20
6.7393790222
 30
0.0
 10
5.4344011003
 20
6.7384519546
 30
0.0
 10
5.4067772728
 20
6.737525116
 30
0.0
 10
5.3803827169
 20
6.7365987474
 30
0.0
 10
5.355394144
 20
6.7356729968
 30
0.0
 10
5.3319782154
 20
6.7347477535
 30
0.0
 10
5.3102921722
 20
6.7338236717
 30
0.0
 10
5.2904803933
 20
6.7329007504
 30
0.0
 10
5.2726752769
 20
6.7319794352
 30
0.0
 10
5.2569961005
 20
6.7310613124
 30
0.0
 10
5.2435466279
 20
6.7301461169
 30
0.0
 10
5.2337774934
 20
6.7293505357
 30
0.0
 10
5.227145156
 20
6.7286976713
 30
0.0
 10
5.2230747739
 20
6.7282377685
 30
0.0
 10
5.2200679517
 20
6.727839678
 30
0.0
 10
5.2179725484
 20
6.7275157975
 30
0.0
 10
5.2166320842
 20
6.7272847626
 30
0.0
 10
5.2154474752
 20
6.7270541158
 30
0.0
 10
5.2144190846
 20
6.726823978
 30
0.0
 10
5.2135473011
 20
6.7265945472
 30
0.0
 10
5.2128317311
 20
6.7263661831
 30
0.0
 10
5.2122725023
 20
6.7261390467
 30
0.0
 10
5.211908383
 20
6.7259376521
 30
0.0
 10
5.2117034414
 20
6.7257699022
 30
0.0
 10
5.2116008443
 20
6.7256530679
 30
0.0
 10
5.2115371584
 20
6.7255338814
 30
0.0
 10
5.2115223515
 20
6.7254506095
 30
0.0
 10
5.2115224428
 20
6.7254113275
 30
0.0
 11
5.9185671527
 21
6.7551937862
 31
0.0
 11
5.9020140796
 21
6.7542633155
 31
0.0
 11
5.8833563307
 21
6.7533316493
 31
0.0
 11
5.8627353632
 21
6.7523999166
 31
0.0
 11
5.8402963306
 21
6.7514686481
 31
0.0
 11
5.7905670009
 21
6.7496064856
 31
0.0
 11
5.7354796898
 21
6.7477441127
 31
0.0
 11
5.6765129298
 21
6.745881916
 31
0.0
 11
5.6152441923
 21
6.7440198651
 31
0.0
 11
5.5533119059
 21
6.7421579657
 31
0.0
 11
5.492371476
 21
6.7402962566
 31
0.0
 11
5.4627851456
 21
6.7393654772
 31
0.0
 11
5.4340522473
 21
6.7384347512
 31
0.0
 11
5.4063676066
 21
6.7375040813
 31
0.0
 11
5.3799141287
 21
6.7365734697
 31
0.0
 11
5.3548691489
 21
6.7356429184
 31
0.0
 11
5.3314026063
 21
6.7347124292
 31
0.0
 11
5.3096672408
 21
6.7337820042
 31
0.0
 11
5.2898122399
 21
6.732851645
 31
0.0
 11
5.2719689465
 21
6.7319213535
 31
0.0
 11
5.2562542347
 21
6.7309911312
 31
0.0
 11
5.2427785028
 21
6.7300609796
 31
0.0
 11
5.2316261176
 21
6.7291309
 31
0.0
 11
5.2269453606
 21
6.7286658877
 31
0.0
 11
5.2228740928
 21
6.7282008939
 31
0.0
 11
5.2194183818
 21
6.7277359187
 31
0.0
 11
5.217922726
 21
6.7275034382
 31
0.0
 11
5.2165825955
 21
6.7272709624
 31
0.0
 11
5.2153985344
 21
6.7270384913
 31
0.0
 11
5.2143710867
 21
6.7268060249
 31
0.0
 11
5.2135007966
 21
6.7265735634
 31
0.0
 11
5.2127882081
 21
6.7263411066
 31
0.0
 11
5.2122338654
 21
6.7261086546
 31
0.0
 11
5.2118381735
 21
6.7258762074
 31
0.0
 11
5.2116998114
 21
6.7257599856
 31
0.0
 11
5.211601081
 21
6.725643765
 31
0.0
 11
5.2115419642
 21
6.7255275456
 31
0.0
 11
5.2115224428
 21
6.7254113275
 31
0.0
  0
SPLINE
  5
379
100
AcDbEntity
  8
0
100
AcDbSpline
 62
6
  6
CONTINUOUS
 70
0
 71
3
 72
19
 73
15
 74
13
 42
0.0000001
 43
0.0000001
 44
0.0000000001
 12
-0.0435166789
 22
-0.0252103343
 32
0.0
 13
-0.0502008005
 23
-0.003023563
 33
0.0
 40
0.0
 40
0.0
 40
0.0
 40
0.0
 40
0.0073377233
 40
0.0161512852
 40
0.0383576591
 40
0.0667998275
 40
0.1015294193
 40
0.1425580137
 40
0.1898787911
 40
0.3033228477
 40
0.4416580626
 40
0.604369024
 40
0.7907296627
 40
1.0
 40
1.0
 40
1.0
 40
1.0
 10
5.9684688632
 20
6.7605378434
 30
0.0
 10
5.9683624255
 20
6.7604761812
 30
0.0
 10
5.968119335
 20
6.7603556914
 30
0.0
 10
5.9675218792
 20
6.7601169407
 30
0.0
 10
5.9665656118
 20
6.7598299985
 30
0.0
 10
5.9651718843
 20
6.7595030796
 30
0.0
 10
5.963455827
 20
6.7591744626
 30
0.0
 10
5.9614189724
 20
6.758844239
 30
0.0
 10
5.9580687722
 20
6.7583739188
 30
0.0
 10
5.9530868417
 20
6.7578012212
 30
0.0
 10
5.9461692907
 20
6.7571439198
 30
0.0
 10
5.9380249073
 20
6.7564841547
 30
0.0
 10
5.928688217
 20
6.7558224795
 30
0.0
 10
5.9220689988
 20
6.7554047002
 30
0.0
 10
5.9185671527
 20
6.7551937862
 30
0.0
 11
5.9684688632
 21
6.7605378434
 31
0.0
 11
5.9681397972
 21
6.7603708207
 31
0.0
 11
5.9677292173
 21
6.7602038045
 31
0.0
 11
5.9666635374
 21
6.7598697929
 31
0.0
 11
5.9652726689
 21
6.7595358031
 31
0.0
 11
5.963558285
 21
6.7592018215
 31
0.0
 11
5.9615220938
 21
6.7588678339
 31
0.0
 11
5.9591658033
 21
6.7585338263
 31
0.0
 11
5.9534997573
 21
6.7578656942
 31
0.0
 11
5.9465748129
 21
6.7571973342
 31
0.0
 11
5.9384191325
 21
6.756528951
 31
0.0
 11
5.9290705606
 21
6.7558609612
 31
0.0
 11
5.9185671527
 21
6.7551937862
 31
0.0
  0
SPLINE
  5
37A
100
AcDbEntity
  8
0
100
AcDbSpline
 62
6
  6
CONTINUOUS
 70
0
 71
3
 72
39
 73
35
 74
33
 42
0.0000001
 43
0.0000001
 44
0.0000000001
 12
-0.7060989103
 22
-0.0424698661
 32
0.0
 13
-0.6122107348
 23
-0.3543689841
 33
0.0
 40
0.0
 40
0.0
 40
0.0
 40
0.0
 40
0.0229435685
 40
0.0487451796
 40
0.0772176148
 40
0.1081688513
 40
0.1767095804
 40
0.2526370365
 40
0.3339958437
 40
0.418696412
 40
0.504565218
 40
0.5893988795
 40
0.6710193655
 40
0.7099652923
 40
0.7473321858
 40
0.7828823802
 40
0.8163828854
 40
0.8476239301
 40
0.8764039177
 40
0.9025355039
 40
0.9258586451
 40
0.9462187974
 40
0.9552471853
 40
0.963490319
 40
0.9709353945
 40
0.9775698091
 40
0.9833822637
 40
0.9883666161
 40
0.9925190301
 40
0.9958375788
 40
0.9971848676
 40
0.9983254658
 40
0.999261945
 40
1.0
 40
1.0
 40
1.0
 40
1.0
 10
5.9185671527
 20
6.7373337862
 30
0.0
 10
5.9131670098
 20
6.7370089827
 30
0.0
 10
5.9016910128
 20
6.7363690478
 30
0.0
 10
5.8835061821
 20
6.7354640204
 30
0.0
 10
5.8634311752
 20
6.7345573733
 30
0.0
 10
5.8332841992
 20
6.7333048005
 30
0.0
 10
5.7919502343
 20
6.7317658511
 30
0.0
 10
5.7387323669
 20
6.729969657
 30
0.0
 10
5.6817022378
 20
6.7281703372
 30
0.0
 10
5.6223269866
 20
6.7263690663
 30
0.0
 10
5.5621320387
 20
6.72456735
 30
0.0
 10
5.5026636557
 20
6.7227663018
 30
0.0
 10
5.4542559223
 20
6.7212444166
 30
0.0
 10
5.417036903
 20
6.7200135827
 30
0.0
 10
5.3906761734
 20
6.7191051953
 30
0.0
 10
5.3656002023
 20
6.7181974259
 30
0.0
 10
5.3419696367
 20
6.7172900493
 30
0.0
 10
5.3199366435
 20
6.7163835482
 30
0.0
 10
5.2996427128
 20
6.715478127
 30
0.0
 10
5.2812177115
 20
6.7145738886
 30
0.0
 10
5.2647805793
 20
6.7136717874
 30
0.0
 10
5.2523757158
 20
6.712894571
 30
0.0
 10
5.2435248727
 20
6.7122638504
 30
0.0
 10
5.2377145161
 20
6.7118104268
 30
0.0
 10
5.2324704699
 20
6.7113576136
 30
0.0
 10
5.2278018299
 20
6.7109056228
 30
0.0
 10
5.2237163848
 20
6.7104545126
 30
0.0
 10
5.2202199267
 20
6.7100051712
 30
0.0
 10
5.2173170639
 20
6.7095578916
 30
0.0
 10
5.2152738179
 20
6.7091669631
 30
0.0
 10
5.2139431597
 20
6.7088436675
 30
0.0
 10
5.2131671277
 20
6.7086191098
 30
0.0
 10
5.2125417097
 20
6.7083956913
 30
0.0
 10
5.2121825084
 20
6.7082285865
 30
0.0
 10
5.2120318933
 20
6.7081414052
 30
0.0
 11
5.9185671527
 21
6.7373337862
 31
0.0
 11
5.9023630917
 21
6.7364217705
 31
0.0
 11
5.8841345362
 21
6.7355085984
 31
0.0
 11
5.8640145642
 21
6.7345953366
 31
0.0
 11
5.8421394709
 21
6.733682521
 31
0.0
 11
5.7936898426
 21
6.7318572909
 31
0.0
 11
5.7400116899
 21
6.7300318521
 31
0.0
 11
5.6824894577
 21
6.7282065723
 31
0.0
 11
5.6226022002
 21
6.7263814373
 31
0.0
 11
5.5618881778
 21
6.7245564425
 31
0.0
 11
5.50190672
 21
6.722731628
 31
0.0
 11
5.4441992691
 21
6.7209070066
 31
0.0
 11
5.4166650023
 21
6.7199947742
 31
0.0
 11
5.390248341
 21
6.719082597
 31
0.0
 11
5.3651175702
 21
6.7181704769
 31
0.0
 11
5.3414377092
 21
6.7172584158
 31
0.0
 11
5.3193574024
 21
6.7163464155
 31
0.0
 11
5.2990195944
 21
6.7154344778
 31
0.0
 11
5.2805572697
 21
6.7145226042
 31
0.0
 11
5.2640842789
 21
6.7136107964
 31
0.0
 11
5.2497109046
 21
6.7126990558
 31
0.0
 11
5.243340738
 21
6.7122432111
 31
0.0
 11
5.2375275955
 21
6.7117873837
 31
0.0
 11
5.2322808976
 21
6.7113315738
 31
0.0
 11
5.2276100648
 21
6.7108757815
 31
0.0
 11
5.2235238195
 21
6.710420007
 31
0.0
 11
5.2200275936
 21
6.7099642503
 31
0.0
 11
5.2171258503
 21
6.7095085117
 31
0.0
 11
5.2148230522
 21
6.7090527912
 31
0.0
 11
5.2138976522
 21
6.7088249378
 31
0.0
 11
5.2131236622
 21
6.708597089
 31
0.0
 11
5.2125016361
 21
6.7083692448
 31
0.0
 11
5.2120318933
 21
6.7081414052
 31
0.0
  0
LINE
  5
37B
100
AcDbEntity
  8
0
100
AcDbLine
 62
6
  6
CONTINUOUS
 10
5.9624624687
 20
6.8875275846
 11
5.9647803249
 21
6.8867249066
  0
SPLINE
  5
37C
100
AcDbEntity
  8
0
100
AcDbSpline
 62
6
  6
CONTINUOUS
 70
0
 71
3
 72
59
 73
55
 74
53
 42
0.0000001
 43
0.0000001
 44
0.0000000001
 12
0.0007665621
 22
-0.7512388995
 32
0.0
 13
-0.6502249855
 23
-0.3762551528
 33
0.0
 40
0.0
 40
0.0
 40
0.0
 40
0.0
 40
0.0001863626
 40
0.0003991274
 40
0.0006567669
 40
0.0009699196
 40
0.0017834096
 40
0.0028647983
 40
0.0042232497
 40
0.0058622076
 40
0.0077829333
 40
0.0099856624
 40
0.0124700716
 40
0.0152355089
 40
0.0216058185
 40
0.0290877264
 40
0.0376642476
 40
0.0473140325
 40
0.058015339
 40
0.0824805081
 40
0.1108313996
 40
0.1428059779
 40
0.1781090455
 40
0.2164086846
 40
0.2573532635
 40
0.3005565849
 40
0.3456211561
 40
0.3921238698
 40
0.4396340741
 40
0.4877089148
 40
0.5359005962
 40
0.5837620062
 40
0.6308468071
 40
0.6767178395
 40
0.7209493909
 40
0.7631282526
 40
0.8028668133
 40
0.839790632
 40
0.8735641275
 40
0.9038676725
 40
0.9304277739
 40
0.9422253538
 40
0.952995559
 40
0.9627166943
 40
0.9713682861
 40
0.9789301966
 40
0.9853836631
 40
0.9907179618
 40
0.9929638508
 40
0.9949284477
 40
0.9966120277
 40
0.9980157766
 40
0.9991426962
 40
1.0
 40
1.0
 40
1.0
 40
1.0
 10
5.9652963607
 20
6.8861279994
 30
0.0
 10
5.9652964083
 20
6.8860813318
 30
0.0
 10
5.9652749205
 20
6.8859807167
 30
0.0
 10
5.9651856747
 20
6.8858399365
 30
0.0
 10
5.9650439193
 20
6.8857025796
 30
0.0
 10
5.9647589646
 20
6.8855035104
 30
0.0
 10
5.9642562737
 20
6.8852664435
 30
0.0
 10
5.9634864984
 20
6.8849986913
 30
0.0
 10
5.9625005216
 20
6.8847293648
 30
0.0
 10
5.9612989095
 20
6.8844584793
 30
0.0
 10
5.9598815353
 20
6.8841867114
 30
0.0
 10
5.9582493061
 20
6.8839142918
 30
0.0
 10
5.9564030541
 20
6.8836414018
 30
0.0
 10
5.9535183886
 20
6.8832588461
 30
0.0
 10
5.9493834179
 20
6.8827887413
 30
0.0
 10
5.9437931182
 20
6.8822458351
 30
0.0
 10
5.9373783572
 20
6.881701653
 30
0.0
 10
5.9301549842
 20
6.8811562988
 30
0.0
 10
5.9189582617
 20
6.8803937593
 30
0.0
 10
5.9030799516
 20
6.8794577342
 30
0.0
 10
5.8818748348
 20
6.8783736497
 30
0.0
 10
5.8579527604
 20
6.8772870267
 30
0.0
 10
5.8315371899
 20
6.8761984877
 30
0.0
 10
5.8028737295
 20
6.8751084897
 30
0.0
 10
5.7722306443
 20
6.8740177965
 30
0.0
 10
5.7398925518
 20
6.8729262711
 30
0.0
 10
5.7061618837
 20
6.8718344934
 30
0.0
 10
5.6713521845
 20
6.8707423247
 30
0.0
 10
5.6357883164
 20
6.8696500688
 30
0.0
 10
5.5998013144
 20
6.8685577588
 30
0.0
 10
5.563726325
 20
6.8674654755
 30
0.0
 10
5.5278993626
 20
6.8663733764
 30
0.0
 10
5.492653787
 20
6.865281495
 30
0.0
 10
5.4583176092
 20
6.8641899599
 30
0.0
 10
5.4252105631
 20
6.8630989868
 30
0.0
 10
5.3936400177
 20
6.8620085297
 30
0.0
 10
5.3639005295
 20
6.8609192025
 30
0.0
 10
5.3362673248
 20
6.8598307732
 30
0.0
 10
5.3109986487
 20
6.8587444672
 30
0.0
 10
5.288327744
 20
6.8576600547
 30
0.0
 10
5.2711592144
 20
6.8567266896
 30
0.0
 10
5.2588802512
 20
6.8559689472
 30
0.0
 10
5.2508130319
 20
6.8554237086
 30
0.0
 10
5.2435355162
 20
6.8548792658
 30
0.0
 10
5.2370638159
 20
6.8543358186
 30
0.0
 10
5.2314134252
 20
6.8537940425
 30
0.0
 10
5.2265979977
 20
6.8532539366
 30
0.0
 10
5.2231147628
 20
6.8527839947
 30
0.0
 10
5.2207556921
 20
6.8523989498
 30
0.0
 10
5.2193047091
 20
6.8521275723
 30
0.0
 10
5.2180686937
 20
6.8518571027
 30
0.0
 10
5.2170476381
 20
6.8515879607
 30
0.0
 10
5.2162421254
 20
6.851320682
 30
0.0
 10
5.2157860809
 20
6.8511179992
 30
0.0
 10
5.2156002675
 20
6.8510104775
 30
0.0
 11
5.9652963607
 21
6.8861279994
 31
0.0
 11
5.9652692022
 21
6.8859906559
 31
0.0
 11
5.9651874395
 21
6.8858533139
 31
0.0
 11
5.9650510624
 21
6.8857159733
 31
0.0
 11
5.9648600604
 21
6.8855786342
 31
0.0
 11
5.9643141402
 21
6.8853039602
 31
0.0
 11
5.9635496003
 21
6.885029292
 31
0.0
 11
5.9625667342
 21
6.8847546295
 31
0.0
 11
5.9613665095
 21
6.8844799728
 31
0.0
 11
5.959949965
 21
6.8842053217
 31
0.0
 11
5.9583181392
 21
6.8839306763
 31
0.0
 11
5.9564720706
 21
6.8836560366
 31
0.0
 11
5.954412798
 21
6.8833814025
 31
0.0
 11
5.9496587947
 21
6.8828321511
 31
0.0
 11
5.9440649899
 21
6.8822829221
 31
0.0
 11
5.9376454203
 21
6.8817337153
 31
0.0
 11
5.9304169549
 21
6.8811845305
 31
0.0
 11
5.9223964917
 21
6.8806353677
 31
0.0
 11
5.9040501384
 21
6.8795371073
 31
0.0
 11
5.8827801654
 21
6.878438933
 31
0.0
 11
5.8587847184
 21
6.8773408439
 31
0.0
 11
5.832286406
 21
6.8762428391
 31
0.0
 11
5.8035351678
 21
6.8751449177
 31
0.0
 11
5.7727955893
 21
6.8740470788
 31
0.0
 11
5.7403581268
 21
6.8729493216
 31
0.0
 11
5.7065216503
 21
6.8718516453
 31
0.0
 11
5.6716042313
 21
6.8707540493
 31
0.0
 11
5.6359295775
 21
6.8696565329
 31
0.0
 11
5.5998305458
 21
6.8685590954
 31
0.0
 11
5.5636436961
 21
6.8674617362
 31
0.0
 11
5.5277050716
 21
6.8663644548
 31
0.0
 11
5.4923501404
 21
6.8652672508
 31
0.0
 11
5.4579074879
 21
6.8641701235
 31
0.0
 11
5.4246971233
 21
6.8630730726
 31
0.0
 11
5.3930296993
 21
6.8619760978
 31
0.0
 11
5.3631966898
 21
6.8608791986
 31
0.0
 11
5.3354797599
 21
6.8597823749
 31
0.0
 11
5.3101314986
 21
6.8586856263
 31
0.0
 11
5.2873927154
 21
6.8575889526
 31
0.0
 11
5.2674698805
 21
6.8564923537
 31
0.0
 11
5.2586240498
 21
6.8559440822
 31
0.0
 11
5.2505516449
 21
6.8553958294
 31
0.0
 11
5.2432693534
 21
6.8548475952
 31
0.0
 11
5.2367930996
 21
6.8542993796
 31
0.0
 11
5.2311388076
 21
6.8537511827
 31
0.0
 11
5.2263218012
 21
6.8532030044
 31
0.0
 11
5.2223521346
 21
6.8526548447
 31
0.0
 11
5.2206873439
 21
6.8523807719
 31
0.0
 11
5.2192371317
 21
6.8521067037
 31
0.0
 11
5.2180024107
 21
6.8518326402
 31
0.0
 11
5.2169840933
 21
6.8515585813
 31
0.0
 11
5.2161830923
 21
6.8512845271
 31
0.0
 11
5.2156002675
 21
6.8510104775
 31
0.0
  0
SPLINE
  5
37D
100
AcDbEntity
  8
0
100
AcDbSpline
 62
6
  6
CONTINUOUS
 70
0
 71
3
 72
51
 73
47
 74
45
 42
0.0000001
 43
0.0000001
 44
0.0000000001
 12
-0.0010491564
 22
-0.7495942812
 32
0.0
 13
-0.7382369251
 23
-0.1299958827
 33
0.0
 40
0.0
 40
0.0
 40
0.0
 40
0.0
 40
0.0001794254
 40
0.0003829712
 40
0.0006276022
 40
0.0009232438
 40
0.0016869728
 40
0.0026978083
 40
0.0039644888
 40
0.0054910541
 40
0.007279518
 40
0.009330892
 40
0.0116456234
 40
0.014223287
 40
0.020161837
 40
0.0271343095
 40
0.0351271543
 40
0.0441262238
 40
0.0541147662
 40
0.0769654464
 40
0.1034827708
 40
0.1334454073
 40
0.166589384
 40
0.2026370898
 40
0.241272675
 40
0.2821675568
 40
0.3249686166
 40
0.3693069769
 40
0.4148032237
 40
0.4610638263
 40
0.5542881733
 40
0.6457806128
 40
0.732403315
 40
0.7729525689
 40
0.8111880416
 40
0.8467870732
 40
0.8794381267
 40
0.9088686171
 40
0.9348220844
 40
0.9570807146
 40
0.9667659365
 40
0.97545793
 40
0.983139528
 40
0.9897980761
 40
0.9954217277
 40
1.0
 40
1.0
 40
1.0
 40
1.0
 10
5.9670723624
 20
6.8146990396
 30
0.0
 10
5.9670722996
 20
6.8146542075
 30
0.0
 10
5.9670522059
 20
6.8145579388
 30
0.0
 10
5.966969002
 20
6.8144226101
 30
0.0
 10
5.9668367625
 20
6.8142904321
 30
0.0
 10
5.9665717576
 20
6.8140993018
 30
0.0
 10
5.9661043849
 20
6.8138712774
 30
0.0
 10
5.9653890981
 20
6.8136137036
 30
0.0
 10
5.964473868
 20
6.8133545994
 30
0.0
 10
5.9633588801
 20
6.8130940984
 30
0.0
 10
5.9620435035
 20
6.8128327745
 30
0.0
 10
5.9605280492
 20
6.8125708466
 30
0.0
 10
5.9588129029
 20
6.8123085075
 30
0.0
 10
5.9561316464
 20
6.8119407717
 30
0.0
 10
5.9522876997
 20
6.8114889648
 30
0.0
 10
5.9470905616
 20
6.8109669037
 30
0.0
 10
5.9411254833
 20
6.8104435787
 30
0.0
 10
5.9344043553
 20
6.8099192302
 30
0.0
 10
5.9239760847
 20
6.8091861572
 30
0.0
 10
5.9091720228
 20
6.8082857426
 30
0.0
 10
5.8893773747
 20
6.8072432992
 30
0.0
 10
5.8670077618
 20
6.80619869
 30
0.0
 10
5.842254641
 20
6.805151754
 30
0.0
 10
5.8153327248
 20
6.804103916
 30
0.0
 10
5.7864728173
 20
6.803054945
 30
0.0
 10
5.7559244556
 20
6.8020054882
 30
0.0
 10
5.7239503882
 20
6.8009555717
 30
0.0
 10
5.6908260169
 20
6.7999053322
 30
0.0
 10
5.6568368094
 20
6.7988549906
 30
0.0
 10
5.6106378155
 20
6.7974508074
 30
0.0
 10
5.5529506596
 20
6.7957182524
 30
0.0
 10
5.4851840991
 20
6.7936456798
 30
0.0
 10
5.4305758055
 20
6.7918858663
 30
0.0
 10
5.389270987
 20
6.7904562805
 30
0.0
 10
5.3607096803
 20
6.7894083754
 30
0.0
 10
5.3341232117
 20
6.7883618879
 30
0.0
 10
5.3097385913
 20
6.7873165154
 30
0.0
 10
5.287766344
 20
6.7862736749
 30
0.0
 10
5.2683939527
 20
6.7852334342
 30
0.0
 10
5.2539550936
 20
6.7843341148
 30
0.0
 10
5.2438280051
 20
6.7836014025
 30
0.0
 10
5.2373377658
 20
6.7830783576
 30
0.0
 10
5.2316064464
 20
6.7825563281
 30
0.0
 10
5.2266451549
 20
6.7820360251
 30
0.0
 10
5.2224640528
 20
6.7815180434
 30
0.0
 10
5.2199429409
 20
6.7811368228
 30
0.0
 10
5.2188163244
 20
6.7809384373
 30
0.0
 11
5.9670723624
 21
6.8146990396
 31
0.0
 11
5.9670467375
 21
6.8145670069
 31
0.0
 11
5.9669702695
 21
6.8144349753
 31
0.0
 11
5.9668430135
 21
6.8143029449
 31
0.0
 11
5.9666650249
 21
6.8141709158
 31
0.0
 11
5.9661570712
 21
6.813906861
 31
0.0
 11
5.9654468507
 21
6.8136428111
 31
0.0
 11
5.9645348061
 21
6.813378766
 31
0.0
 11
5.9634213797
 21
6.8131147257
 31
0.0
 11
5.962107014
 21
6.8128506902
 31
0.0
 11
5.9605921516
 21
6.8125866596
 31
0.0
 11
5.9588772461
 21
6.8123226337
 31
0.0
 11
5.9569631655
 21
6.8120586127
 31
0.0
 11
5.9525430857
 21
6.8115305851
 31
0.0
 11
5.9473432944
 21
6.8110025768
 31
0.0
 11
5.9413752075
 21
6.8104745878
 31
0.0
 11
5.9346502431
 21
6.8099466182
 31
0.0
 11
5.9271815182
 21
6.8094186679
 31
0.0
 11
5.9100853351
 21
6.8083628254
 31
0.0
 11
5.8902361388
 21
6.8073070606
 31
0.0
 11
5.86780112
 21
6.8062513734
 31
0.0
 11
5.842978996
 21
6.8051957641
 31
0.0
 11
5.8159784394
 21
6.8041402328
 31
0.0
 11
5.7870366362
 21
6.8030847795
 31
0.0
 11
5.7564002092
 21
6.8020294043
 31
0.0
 11
5.7243341084
 21
6.8009741075
 31
0.0
 11
5.69111505
 21
6.799918889
 31
0.0
 11
5.6570276166
 21
6.7988637489
 31
0.0
 11
5.6223669537
 21
6.7978086874
 31
0.0
 11
5.5525183069
 21
6.7956988002
 31
0.0
 11
5.4839684829
 21
6.7935892281
 31
0.0
 11
5.4190708047
 21
6.7914799716
 31
0.0
 11
5.3886935837
 21
6.7904254619
 31
0.0
 11
5.3600518665
 21
6.7893710312
 31
0.0
 11
5.3333878474
 21
6.7883166797
 31
0.0
 11
5.3089354976
 21
6.7872624073
 31
0.0
 11
5.2868997506
 21
6.7862082141
 31
0.0
 11
5.2674737396
 21
6.7851541002
 31
0.0
 11
5.2508221078
 21
6.7841000655
 31
0.0
 11
5.2435812654
 21
6.7835730779
 31
0.0
 11
5.2370871358
 21
6.7830461101
 31
0.0
 11
5.2313532106
 21
6.7825191622
 31
0.0
 11
5.2263898883
 21
6.781992234
 31
0.0
 11
5.2222074869
 21
6.7814653258
 31
0.0
 11
5.2188163244
 21
6.7809384373
 31
0.0
  0
SPLINE
  5
37E
100
AcDbEntity
  8
0
100
AcDbSpline
 62
6
  6
CONTINUOUS
 70
0
 71
3
 72
12
 73
8
 74
6
 42
0.0000001
 43
0.0000001
 44
0.0000000001
 12
-0.0051681816
 22
-0.0009100633
 32
0.0
 13
-0.0045436894
 23
-0.002625491
 33
0.0
 40
0.0
 40
0.0
 40
0.0
 40
0.0
 40
0.3427909831
 40
0.6230675715
 40
0.8415317006
 40
0.9280846929
 40
1.0
 40
1.0
 40
1.0
 40
1.0
 10
5.2188163244
 20
6.7809384373
 30
0.0
 10
5.218225789
 20
6.7808344502
 30
0.0
 10
5.2171546185
 20
6.7806315599
 30
0.0
 10
5.2157205509
 20
6.7802982044
 30
0.0
 10
5.214737735
 20
6.7800056626
 30
0.0
 10
5.2141245826
 20
6.7797622028
 30
0.0
 10
5.2138754734
 20
6.7796393068
 30
0.0
 10
5.2137665531
 20
6.7795763691
 30
0.0
 11
5.2188163244
 21
6.7809384373
 31
0.0
 11
5.217049987
 21
6.7805979078
 31
0.0
 11
5.2156191422
 21
6.7802573866
 31
0.0
 11
5.2145244457
 21
6.7799168737
 31
0.0
 11
5.2141033579
 21
6.7797466204
 31
0.0
 11
5.2137665531
 21
6.7795763691
 31
0.0
  0
SPLINE
  5
37F
100
AcDbEntity
  8
0
100
AcDbSpline
 62
6
  6
CONTINUOUS
 70
0
 71
3
 72
25
 73
21
 74
19
 42
0.0000001
 43
0.0000001
 44
0.0000000001
 12
0.0000282791
 22
-0.051102967
 32
0.0
 13
-0.0510105363
 23
-0.0030723329
 33
0.0
 40
0.0
 40
0.0
 40
0.0
 40
0.0
 40
0.003760513
 40
0.0084371566
 40
0.0145477973
 40
0.0223291562
 40
0.0318947779
 40
0.0433051195
 40
0.0565942212
 40
0.0717793216
 40
0.1078673493
 40
0.1516003232
 40
0.2029722476
 40
0.2619614592
 40
0.3285378773
 40
0.4026644672
 40
0.4842604749
 40
0.5732055998
 40
0.772648967
 40
1.0
 40
1.0
 40
1.0
 40
1.0
 10
5.9689787883
 20
6.7432689093
 30
0.0
 10
5.9689788237
 20
6.7432048516
 30
0.0
 10
5.9689343056
 20
6.7430607042
 30
0.0
 10
5.9687663459
 20
6.7428732657
 30
0.0
 10
5.9685066578
 20
6.7426903273
 30
0.0
 10
5.9681500387
 20
6.7425081144
 30
0.0
 10
5.9676951422
 20
6.7423252881
 30
0.0
 10
5.9671406972
 20
6.74214197
 30
0.0
 10
5.9664864432
 20
6.7419581958
 30
0.0
 10
5.9654178428
 20
6.7416975055
 30
0.0
 10
5.9638304636
 20
6.7413793052
 30
0.0
 10
5.9616255639
 20
6.7410137178
 30
0.0
 10
5.9590262242
 20
6.7406468917
 30
0.0
 10
5.9560346361
 20
6.740279003
 30
0.0
 10
5.9526529546
 20
6.7399104183
 30
0.0
 10
5.948884207
 20
6.739541377
 30
0.0
 10
5.9447328164
 20
6.739171964
 30
0.0
 10
5.9384512243
 20
6.7386592584
 30
0.0
 10
5.9296885675
 20
6.7380267451
 30
0.0
 10
5.9224329187
 20
6.7375666188
 30
0.0
 10
5.9185671527
 20
6.7373337862
 30
0.0
 11
5.9689787883
 21
6.7432689093
 31
0.0
 11
5.9689286322
 21
6.7430833966
 31
0.0
 11
5.968777955
 21
6.7428978897
 31
0.0
 11
5.9685267511
 21
6.7427123894
 31
0.0
 11
5.968175015
 21
6.7425268964
 31
0.0
 11
5.9677227411
 21
6.7423414112
 31
0.0
 11
5.9671699239
 21
6.7421559344
 31
0.0
 11
5.9665166281
 21
6.7419704661
 31
0.0
 11
5.9657631124
 21
6.7417850042
 31
0.0
 11
5.9639565918
 21
6.7414140897
 31
0.0
 11
5.9617527019
 21
6.7410431717
 31
0.0
 11
5.9591537822
 21
6.7406722307
 31
0.0
 11
5.9561621727
 21
6.7403012474
 31
0.0
 11
5.952780213
 21
6.7399302025
 31
0.0
 11
5.9490103473
 21
6.739559079
 31
0.0
 11
5.9448571014
 21
6.7391879053
 31
0.0
 11
5.9403269196
 21
6.738816752
 31
0.0
 11
5.9301618122
 21
6.7380747954
 31
0.0
 11
5.9185671527
 21
6.7373337862
 31
0.0
  0
SPLINE
  5
380
100
AcDbEntity
  8
0
100
AcDbSpline
 62
6
  6
CONTINUOUS
 70
0
 71
3
 72
42
 73
38
 74
36
 42
0.0000001
 43
0.0000001
 44
0.0000000001
 12
0.7024762438
 22
0.0282335282
 32
0.0
 13
-0.0004099291
 23
0.7030432684
 33
0.0
 40
0.0
 40
0.0
 40
0.0
 40
0.0
 40
0.0635575207
 40
0.1350763281
 40
0.2129074473
 40
0.2953643644
 40
0.3806078196
 40
0.4667446316
 40
0.5518671677
 40
0.6340843438
 40
0.6735305981
 40
0.7115725726
 40
0.7480027425
 40
0.7826155839
 40
0.8152190208
 40
0.8456362703
 40
0.873693254
 40
0.8992373949
 40
0.9221304237
 40
0.9422393669
 40
0.9594600792
 40
0.9737000239
 40
0.9796754774
 40
0.9848791068
 40
0.9893065578
 40
0.9912281784
 40
0.9929546665
 40
0.9944859709
 40
0.9958223501
 40
0.9969645837
 40
0.9979145716
 40
0.9986765663
 40
0.9992590877
 40
0.9994888594
 40
0.9996830847
 40
0.9998494574
 40
1.0
 40
1.0
 40
1.0
 40
1.0
 10
5.2948268696
 20
6.5597317837
 30
0.0
 10
5.3097094191
 20
6.5603299347
 30
0.0
 10
5.3413429093
 20
6.5614969244
 30
0.0
 10
5.3912102938
 20
6.5631401627
 30
0.0
 10
5.4455087959
 20
6.5647869409
 30
0.0
 10
5.5030249315
 20
6.5664361795
 30
0.0
 10
5.562488217
 20
6.5680867025
 30
0.0
 10
5.6225764075
 20
6.5697376438
 30
0.0
 10
5.6819551383
 20
6.5713881992
 30
0.0
 10
5.7303949684
 20
6.5727811065
 30
0.0
 10
5.7678046781
 20
6.573905905
 30
0.0
 10
5.7944882472
 20
6.5747377563
 30
0.0
 10
5.8200385573
 20
6.5755692342
 30
0.0
 10
5.8443136623
 20
6.5764004238
 30
0.0
 10
5.8671787945
 20
6.5772312676
 30
0.0
 10
5.8885065277
 20
6.578061353
 30
0.0
 10
5.9081786119
 20
6.578890806
 30
0.0
 10
5.9260857618
 20
6.5797192175
 30
0.0
 10
5.9421281948
 20
6.5805458895
 30
0.0
 10
5.9562173171
 20
6.5813704115
 30
0.0
 10
5.9682747712
 20
6.582191904
 30
0.0
 10
5.9770192516
 20
6.5829061731
 30
0.0
 10
5.9829473548
 20
6.5834928093
 30
0.0
 10
5.9865814629
 20
6.5839057547
 30
0.0
 10
5.9892654166
 20
6.5842631511
 30
0.0
 10
5.9911355049
 20
6.584553955
 30
0.0
 10
5.992331512
 20
6.584761387
 30
0.0
 10
5.9933881449
 20
6.5849684732
 30
0.0
 10
5.994305045
 20
6.5851751044
 30
0.0
 10
5.9950818749
 20
6.58538111
 30
0.0
 10
5.9957191354
 20
6.585586235
 30
0.0
 10
5.9962170205
 20
6.5857903116
 30
0.0
 10
5.9965411609
 20
6.5859711985
 30
0.0
 10
5.996723656
 20
6.5861217724
 30
0.0
 10
5.9968151274
 20
6.5862267083
 30
0.0
 10
5.996871953
 20
6.5863337173
 30
0.0
 10
5.9968852465
 20
6.5864084283
 30
0.0
 10
5.9968852259
 20
6.5864437076
 30
0.0
 11
5.2948268696
 21
6.5597317837
 31
0.0
 11
5.339479391
 21
6.561400588
 31
0.0
 11
5.3897324805
 21
6.5630704158
 31
0.0
 11
5.4444256737
 21
6.56473945
 31
0.0
 11
5.5023724247
 21
6.5664087566
 31
0.0
 11
5.562279018
 21
6.5680780977
 31
0.0
 11
5.6228139213
 21
6.5697474352
 31
0.0
 11
5.6826354687
 21
6.5714168309
 31
0.0
 11
5.7404135976
 21
6.5730862663
 31
0.0
 11
5.7681334604
 21
6.5739210003
 31
0.0
 11
5.7948655892
 21
6.5747557469
 31
0.0
 11
5.8204639722
 21
6.5755905061
 31
0.0
 11
5.8447839791
 21
6.5764252781
 31
0.0
 11
5.8676904038
 21
6.5772600632
 31
0.0
 11
5.8890587495
 21
6.5780948619
 31
0.0
 11
5.908766353
 21
6.5789296749
 31
0.0
 11
5.9267055779
 21
6.5797645025
 31
0.0
 11
5.9427787041
 21
6.5805993454
 31
0.0
 11
5.9568914917
 21
6.5814342039
 31
0.0
 11
5.9689695794
 21
6.5822690784
 31
0.0
 11
5.9789460048
 21
6.5831039695
 31
0.0
 11
5.9831262154
 21
6.5835214214
 31
0.0
 11
5.9867606968
 21
6.5839388776
 31
0.0
 11
5.9898452659
 21
6.5843563381
 31
0.0
 11
5.9911800262
 21
6.58456507
 31
0.0
 11
5.9923757399
 21
6.584773803
 31
0.0
 11
5.9934318841
 21
6.5849825372
 31
0.0
 11
5.9943479359
 21
6.5851912724
 31
0.0
 11
5.9951233726
 21
6.5854000088
 31
0.0
 11
5.9957577983
 21
6.5856087462
 31
0.0
 11
5.9962511736
 21
6.5858174849
 31
0.0
 11
5.9966035213
 21
6.5860262246
 31
0.0
 11
5.996726817
 21
6.5861305949
 31
0.0
 11
5.9968148645
 21
6.5862349655
 31
0.0
 11
5.9968676665
 21
6.5863393364
 31
0.0
 11
5.9968852259
 21
6.5864437076
 31
0.0
  0
SPLINE
  5
381
100
AcDbEntity
  8
0
100
AcDbSpline
 62
6
  6
CONTINUOUS
 70
0
 71
3
 72
11
 73
7
 74
5
 42
0.0000001
 43
0.0000001
 44
0.0000000001
 12
0.1355044938
 22
-0.0352431972
 32
0.0
 13
0.1399806408
 23
0.0029951635
 33
0.0
 40
0.0
 40
0.0
 40
0.0
 40
0.0
 40
0.2456473764
 40
0.4323087637
 40
0.6205624911
 40
1.0
 40
1.0
 40
1.0
 40
1.0
 10
5.4519665522
 20
1.5568527361
 30
0.0
 10
5.4630619933
 20
1.5539669365
 30
0.0
 10
5.4827808582
 20
1.5495969998
 30
0.0
 10
5.5114000664
 20
1.5450746228
 30
0.0
 10
5.5464225051
 20
1.5413741978
 30
0.0
 10
5.5729659948
 20
1.5406128971
 30
0.0
 10
5.59067063
 20
1.5409917229
 30
0.0
 11
5.4519665522
 21
1.5568527361
 31
0.0
 11
5.4855419057
 21
1.5493944847
 31
0.0
 11
5.5113553447
 21
1.5453076071
 31
0.0
 11
5.5375669745
 21
1.5425345518
 31
0.0
 11
5.59067063
 21
1.5409917229
 31
0.0
  0
SPLINE
  5
382
100
AcDbEntity
  8
0
100
AcDbSpline
 62
6
  6
CONTINUOUS
 70
0
 71
3
 72
9
 73
5
 74
3
 42
0.0000001
 43
0.0000001
 44
0.0000000001
 12
0.1517956226
 22
0.0032479684
 32
0.0
 13
0.1441030023
 23
0.0478203416
 33
0.0
 40
0.0
 40
0.0
 40
0.0
 40
0.0
 40
0.5044242855
 40
1.0
 40
1.0
 40
1.0
 40
1.0
 10
5.59067063
 20
1.5409917229
 30
0.0
 10
5.6161937628
 20
1.5415378409
 30
0.0
 10
5.6667809048
 20
1.5462775024
 30
0.0
 10
5.7161467443
 20
1.5583999745
 30
0.0
 10
5.7399513937
 20
1.5662995078
 30
0.0
 11
5.59067063
 21
1.5409917229
 31
0.0
 11
5.6669177758
 21
1.5481979525
 31
0.0
 11
5.7399513937
 21
1.5662995078
 31
0.0
  0
LINE
  5
383
100
AcDbEntity
  8
0
100
AcDbLine
 62
6
  6
CONTINUOUS
 10
5.186946374
 20
7.0297538652
 11
5.1848797987
 21
7.0304826144
  0
SPLINE
  5
384
100
AcDbEntity
  8
0
100
AcDbSpline
 62
6
  6
CONTINUOUS
 70
0
 71
3
 72
14
 73
10
 74
8
 42
0.0000001
 43
0.0000001
 44
0.0000000001
 12
0.2141803492
 22
-0.1137603981
 32
0.0
 13
0.2424664549
 23
0.0049667276
 33
0.0
 40
0.0
 40
0.0
 40
0.0
 40
0.0
 40
0.2372629389
 40
0.3600237647
 40
0.4850567756
 40
0.6119857576
 40
0.7404058651
 40
0.8698932371
 40
1.0
 40
1.0
 40
1.0
 40
1.0
 10
5.3561751003
 20
1.7408273709
 30
0.0
 10
5.37311412
 20
1.7318303288
 30
0.0
 10
5.3998806794
 20
1.7200903556
 30
0.0
 10
5.4371778768
 20
1.7079378726
 30
0.0
 10
5.4665462507
 20
1.7004210202
 30
0.0
 10
5.496769913
 20
1.6946577721
 30
0.0
 10
5.5276456138
 20
1.6906937635
 30
0.0
 10
5.5589575121
 20
1.6885651901
 30
0.0
 10
5.5799563718
 20
1.6883766855
 30
0.0
 10
5.5904718803
 20
1.6885920871
 30
0.0
 11
5.3561751003
 21
1.7408273709
 31
0.0
 11
5.40879159
 21
1.717537901
 31
0.0
 11
5.4370932433
 21
1.7082985202
 31
0.0
 11
5.4664648193
 21
1.7007636098
 31
0.0
 11
5.4967003096
 21
1.6949864143
 31
0.0
 11
5.5275898549
 21
1.691012629
 31
0.0
 11
5.5589200144
 21
1.6888760107
 31
0.0
 11
5.5904718803
 21
1.6885920871
 31
0.0
  0
SPLINE
  5
385
100
AcDbEntity
  8
0
100
AcDbSpline
 62
6
  6
CONTINUOUS
 70
0
 71
3
 72
13
 73
9
 74
7
 42
0.0000001
 43
0.0000001
 44
0.0000000001
 12
0.2364995076
 22
0.0078543985
 32
0.0
 13
0.2049674295
 23
0.1182457674
 33
0.0
 40
0.0
 40
0.0
 40
0.0
 40
0.0
 40
0.1289049811
 40
0.2574639888
 40
0.5118160864
 40
0.7601356257
 40
0.8812742436
 40
1.0
 40
1.0
 40
1.0
 40
1.0
 10
5.5972671235
 20
1.6887745036
 30
0.0
 10
5.6074291117
 20
1.689111994
 30
0.0
 10
5.6277119471
 20
1.690365634
 30
0.0
 10
5.6678151939
 20
1.6951480823
 30
0.0
 10
5.7166806169
 20
1.7053020135
 30
0.0
 10
5.7634454406
 20
1.7210367304
 30
0.0
 10
5.7986044192
 20
1.7367946287
 30
0.0
 10
5.8153326315
 20
1.7456717464
 30
0.0
 10
5.8234442692
 20
1.7503513525
 30
0.0
 11
5.5972671235
 21
1.6887745036
 31
0.0
 11
5.6277118051
 21
1.690656124
 31
0.0
 11
5.6579180487
 21
1.6942636577
 31
0.0
 11
5.7168327421
 21
1.7065750872
 31
0.0
 11
5.772487972
 21
1.7254221743
 31
0.0
 11
5.7986387276
 21
1.7371619052
 31
0.0
 11
5.8234442692
 21
1.7503513525
 31
0.0
  0
SPLINE
  5
386
100
AcDbEntity
  8
0
100
AcDbSpline
 62
6
  6
CONTINUOUS
 70
0
 71
3
 72
30
 73
26
 74
24
 42
0.0000001
 43
0.0000001
 44
0.0000000001
 12
-0.4062009009
 22
-0.0111998086
 32
0.0
 13
-0.3517125983
 23
-0.2035260568
 33
0.0
 40
0.0
 40
0.0
 40
0.0
 40
0.0
 40
0.1892421313
 40
0.2817515154
 40
0.3716770858
 40
0.4582380002
 40
0.5406660119
 40
0.6182036601
 40
0.6901472202
 40
0.7558525707
 40
0.8147225477
 40
0.8662358472
 40
0.8890789884
 40
0.9099143075
 40
0.928697926
 40
0.9453863293
 40
0.9599381005
 40
0.9723260406
 40
0.9825316447
 40
0.9868114716
 40
0.9905408963
 40
0.993719744
 40
0.9963497632
 40
0.9984378539
 40
1.0
 40
1.0
 40
1.0
 40
1.0
 10
5.590637207
 20
7.0613686377
 30
0.0
 10
5.5650137656
 20
7.0606621458
 30
0.0
 10
5.5268645197
 20
7.0596104011
 30
0.0
 10
5.4765404086
 20
7.058184148
 30
0.0
 10
5.4401198997
 20
7.0571228554
 30
0.0
 10
5.4050655183
 20
7.0560618911
 30
0.0
 10
5.3716898868
 20
7.0550014463
 30
0.0
 10
5.3402952302
 20
7.053941674
 30
0.0
 10
5.3111670299
 20
7.0528828746
 30
0.0
 10
5.2845691252
 20
7.0518258184
 30
0.0
 10
5.2607408785
 20
7.0507705222
 30
0.0
 10
5.2427178133
 20
7.0498619917
 30
0.0
 10
5.2298450185
 20
7.0491238158
 30
0.0
 10
5.2214010307
 20
7.0485931029
 30
0.0
 10
5.2137924595
 20
7.0480631753
 30
0.0
 10
5.2070372248
 20
7.0475342706
 30
0.0
 10
5.2011511207
 20
7.0470067695
 30
0.0
 10
5.1961470716
 20
7.0464810311
 30
0.0
 10
5.1925353334
 20
7.0460234997
 30
0.0
 10
5.1900966686
 20
7.0456481982
 30
0.0
 10
5.1886042095
 20
7.0453841278
 30
0.0
 10
5.1873391241
 20
7.0451210401
 30
0.0
 10
5.1863012675
 20
7.0448593693
 30
0.0
 10
5.1854909815
 20
7.0445996505
 30
0.0
 10
5.1850353086
 20
7.0444015818
 30
0.0
 10
5.1848521664
 20
7.0442956026
 30
0.0
 11
5.590637207
 21
7.0613686377
 31
0.0
 11
5.513767246
 21
7.0592360312
 31
0.0
 11
5.4761907121
 21
7.0581691648
 31
0.0
 11
5.439664551
 21
7.0571025997
 31
0.0
 11
5.4045062445
 21
7.0560359191
 31
0.0
 11
5.3710281834
 21
7.0549690174
 31
0.0
 11
5.3395384234
 21
7.053902009
 31
0.0
 11
5.3103232591
 21
7.0528349388
 31
0.0
 11
5.2836448789
 21
7.0517677705
 31
0.0
 11
5.2597465737
 21
7.0507004855
 31
0.0
 11
5.2388411041
 21
7.0496331028
 31
0.0
 11
5.2295740298
 21
7.0490993823
 31
0.0
 11
5.2211243282
 21
7.0485656471
 31
0.0
 11
5.2135101905
 21
7.0480319014
 31
0.0
 11
5.2067498078
 21
7.0474981489
 31
0.0
 11
5.2008607579
 21
7.0469643935
 31
0.0
 11
5.1958552309
 21
7.0464306366
 31
0.0
 11
5.1917426222
 21
7.0458968789
 31
0.0
 11
5.190024091
 21
7.0456299998
 31
0.0
 11
5.1885323038
 21
7.0453631206
 31
0.0
 11
5.1872684321
 21
7.0450962415
 31
0.0
 11
5.1862335686
 21
7.0448293624
 31
0.0
 11
5.1854281252
 21
7.044562483
 31
0.0
 11
5.1848521664
 21
7.0442956026
 31
0.0
  0
SPLINE
  5
387
100
AcDbEntity
  8
0
100
AcDbSpline
 62
6
  6
CONTINUOUS
 70
0
 71
3
 72
30
 73
26
 74
24
 42
0.0000001
 43
0.0000001
 44
0.0000000001
 12
-0.4062016891
 22
-0.0111933817
 32
0.0
 13
-0.3516868525
 23
-0.2035717608
 33
0.0
 40
0.0
 40
0.0
 40
0.0
 40
0.0
 40
0.1892518532
 40
0.2817726832
 40
0.3717098295
 40
0.4582807106
 40
0.5407165669
 40
0.6182613914
 40
0.690203435
 40
0.7559054567
 40
0.8147669874
 40
0.8662724738
 40
0.8891128036
 40
0.909943883
 40
0.9287231785
 40
0.9454085269
 40
0.9599586471
 40
0.972342797
 40
0.982543458
 40
0.9868208746
 40
0.9905481887
 40
0.9937254132
 40
0.9963542839
 40
0.9984405328
 40
1.0
 40
1.0
 40
1.0
 40
1.0
 10
5.590637207
 20
6.9909572753
 30
0.0
 10
5.5650123996
 20
6.9902511526
 30
0.0
 10
5.526860209
 20
6.9892001003
 30
0.0
 10
5.4765315504
 20
6.987775074
 30
0.0
 10
5.4401064871
 20
6.9867147943
 30
0.0
 10
5.4050480353
 20
6.9856549938
 30
0.0
 10
5.3716689282
 20
6.9845957874
 30
0.0
 10
5.3402723441
 20
6.9835374996
 30
0.0
 10
5.3111437298
 20
6.9824802001
 30
0.0
 10
5.2845475164
 20
6.9814249277
 30
0.0
 10
5.2607218099
 20
6.9803714389
 30
0.0
 10
5.2427012222
 20
6.9794645556
 30
0.0
 10
5.2298303423
 20
6.9787278192
 30
0.0
 10
5.2213878233
 20
6.9781980978
 30
0.0
 10
5.2137807486
 20
6.9776691712
 30
0.0
 10
5.2070266528
 20
6.9771412668
 30
0.0
 10
5.2011415965
 20
6.9766148748
 30
0.0
 10
5.1961388476
 20
6.9760901523
 30
0.0
 10
5.1925285164
 20
6.97563349
 30
0.0
 10
5.1900910346
 20
6.9752589104
 30
0.0
 10
5.1885993263
 20
6.9749953604
 30
0.0
 10
5.1873348113
 20
6.9747327813
 30
0.0
 10
5.1862974461
 20
6.9744717107
 30
0.0
 10
5.1854877865
 20
6.9742125614
 30
0.0
 10
5.1850326122
 20
6.9740148537
 30
0.0
 10
5.1848497975
 20
6.9739090325
 30
0.0
 11
5.590637207
 21
6.9909572753
 31
0.0
 11
5.5137631382
 21
6.9888261158
 31
0.0
 11
5.4761818698
 21
6.9877601288
 31
0.0
 11
5.4396509182
 21
6.9866945782
 31
0.0
 11
5.4044884718
 21
6.9856290546
 31
0.0
 11
5.3710071303
 21
6.9845634326
 31
0.0
 11
5.339514357
 21
6.9834978445
 31
0.0
 11
5.3102997073
 21
6.9824323628
 31
0.0
 11
5.283622571
 21
6.9813669427
 31
0.0
 11
5.2597275815
 21
6.9803015364
 31
0.0
 11
5.238825159
 21
6.9792361227
 31
0.0
 11
5.2295591572
 21
6.9787034082
 31
0.0
 11
5.221111105
 21
6.9781706892
 31
0.0
 11
5.213498645
 21
6.9776379677
 31
0.0
 11
5.206739416
 21
6.9771052459
 31
0.0
 11
5.200850937
 21
6.9765725259
 31
0.0
 11
5.1958468404
 21
6.9760398098
 31
0.0
 11
5.191736115
 21
6.9755071002
 31
0.0
 11
5.1900184905
 21
6.9752407485
 31
0.0
 11
5.1885274775
 21
6.9749743993
 31
0.0
 11
5.1872641655
 21
6.974708053
 31
0.0
 11
5.1862296441
 21
6.9744417097
 31
0.0
 11
5.1854248093
 21
6.9741753696
 31
0.0
 11
5.1848497975
 21
6.9739090325
 31
0.0
  0
LINE
  5
388
100
AcDbEntity
  8
0
100
AcDbLine
 62
6
  6
CONTINUOUS
 10
5.1860615326
 20
6.9575894467
 11
5.1848815223
 21
6.9580700026
  0
LINE
  5
389
100
AcDbEntity
  8
0
100
AcDbLine
 62
6
  6
CONTINUOUS
 10
5.1870241373
 20
6.8846928282
 11
5.1848778919
 21
6.8854407867
  0
SPLINE
  5
38A
100
AcDbEntity
  8
0
100
AcDbSpline
 62
6
  6
CONTINUOUS
 70
0
 71
3
 72
30
 73
26
 74
24
 42
0.0000001
 43
0.0000001
 44
0.0000000001
 12
-0.406201274
 22
-0.0112995223
 32
0.0
 13
-0.3517195854
 23
-0.2035202384
 33
0.0
 40
0.0
 40
0.0
 40
0.0
 40
0.0
 40
0.1892655844
 40
0.2817848786
 40
0.371719568
 40
0.4582893709
 40
0.5407255646
 40
0.6182693815
 40
0.6902167652
 40
0.7559232612
 40
0.8147917423
 40
0.8663005908
 40
0.8891404821
 40
0.9099719406
 40
0.928750972
 40
0.9454339437
 40
0.9599795433
 40
0.972360897
 40
0.9825592518
 40
0.9868351155
 40
0.9905603009
 40
0.9937345926
 40
0.9963597944
 40
0.9984429499
 40
1.0
 40
1.0
 40
1.0
 40
1.0
 10
5.590637207
 20
6.9205579683
 30
0.0
 10
5.5650105665
 20
6.9198450981
 30
0.0
 10
5.5268567358
 20
6.9187850429
 30
0.0
 10
5.4765267356
 20
6.9173497947
 30
0.0
 10
5.4401023267
 20
6.9162828924
 30
0.0
 10
5.4050442651
 20
6.9152173413
 30
0.0
 10
5.3716653416
 20
6.9141532978
 30
0.0
 10
5.3402680699
 20
6.913090866
 30
0.0
 10
5.3111381994
 20
6.9120303165
 30
0.0
 10
5.2845396549
 20
6.9109723672
 30
0.0
 10
5.2607118793
 20
6.9099170006
 30
0.0
 10
5.2426898948
 20
6.9090090523
 30
0.0
 10
5.2298185191
 20
6.9082717541
 30
0.0
 10
5.2213760023
 20
6.9077418643
 30
0.0
 10
5.213769188
 20
6.9072129321
 30
0.0
 10
5.2070160107
 20
6.9066851867
 30
0.0
 10
5.2011322185
 20
6.9061589966
 30
0.0
 10
5.1961307021
 20
6.9056347344
 30
0.0
 10
5.1925211917
 20
6.9051786028
 30
0.0
 10
5.1900844402
 20
6.9048045107
 30
0.0
 10
5.1885935639
 20
6.9045413505
 30
0.0
 10
5.1873301574
 20
6.9042792054
 30
0.0
 10
5.1862940459
 20
6.9040185055
 30
0.0
 10
5.1854855457
 20
6.9037598051
 30
0.0
 10
5.1850310214
 20
6.9035624766
 30
0.0
 10
5.184848473
 20
6.9034568462
 30
0.0
 11
5.590637207
 21
6.9205579683
 31
0.0
 11
5.5137575888
 21
6.9184084827
 31
0.0
 11
5.4761769274
 21
6.9173349022
 31
0.0
 11
5.439646942
 21
6.9162627104
 31
0.0
 11
5.4044848903
 21
6.9151914318
 31
0.0
 11
5.3710033595
 21
6.9141209205
 31
0.0
 11
5.3395109384
 21
6.9130512568
 31
0.0
 11
5.3102940573
 21
6.911982446
 31
0.0
 11
5.28361504
 21
6.9109144085
 31
0.0
 11
5.2597171605
 21
6.9098470821
 31
0.0
 11
5.2388133024
 21
6.908780442
 31
0.0
 11
5.2295474417
 21
6.908247373
 31
0.0
 11
5.2210991942
 21
6.9077144691
 31
0.0
 11
5.2134867956
 21
6.9071817286
 31
0.0
 11
5.2067284819
 21
6.9066491501
 31
0.0
 11
5.2008417833
 21
6.9061167317
 31
0.0
 11
5.1958387497
 21
6.9055844686
 31
0.0
 11
5.1917288662
 21
6.9050523548
 31
0.0
 11
5.1900118152
 21
6.9047863519
 31
0.0
 11
5.1885216033
 21
6.9045203841
 31
0.0
 11
5.1872594141
 21
6.9042544505
 31
0.0
 11
5.1862263113
 21
6.9039885503
 31
0.0
 11
5.1854226387
 21
6.9037226826
 31
0.0
 11
5.184848473
 21
6.9034568462
 31
0.0
  0
SPLINE
  5
38B
100
AcDbEntity
  8
0
100
AcDbSpline
 62
6
  6
CONTINUOUS
 70
0
 71
3
 72
59
 73
55
 74
53
 42
0.0000001
 43
0.0000001
 44
0.0000000001
 12
-0.6602985382
 22
-0.3812163667
 32
0.0
 13
-0.0020016683
 23
-0.762440864
 33
0.0
 40
0.0
 40
0.0
 40
0.0
 40
0.0
 40
0.0008495643
 40
0.0019685383
 40
0.0033645191
 40
0.0050409795
 40
0.006999591
 40
0.0092411238
 40
0.0145725281
 40
0.021026091
 40
0.0285870945
 40
0.0372397654
 40
0.0469676474
 40
0.0577493469
 40
0.0695574503
 40
0.0961410304
 40
0.1264812227
 40
0.1602884911
 40
0.1972546799
 40
0.2370314423
 40
0.279250518
 40
0.3235184963
 40
0.3694218689
 40
0.416535201
 40
0.4644176174
 40
0.5126249569
 40
0.5607078869
 40
0.6082181868
 40
0.6547158186
 40
0.6997653754
 40
0.7429512687
 40
0.7838692544
 40
0.8221410769
 40
0.8574114748
 40
0.8893513404
 40
0.917669628
 40
0.9420983804
 40
0.9527863527
 40
0.9624224191
 40
0.9709822966
 40
0.9784492287
 40
0.9848097505
 40
0.9875712328
 40
0.9900516282
 40
0.9922497673
 40
0.9941649744
 40
0.9957980686
 40
0.9971511902
 40
0.9982284817
 40
0.9990387707
 40
0.9993503054
 40
0.9996060747
 40
0.9998165082
 40
1.0
 40
1.0
 40
1.0
 40
1.0
 10
5.970409805
 20
6.6891107627
 30
0.0
 10
5.9702228163
 20
6.6890028067
 30
0.0
 10
5.9697632378
 20
6.688799553
 30
0.0
 10
5.9689508929
 20
6.6885316483
 30
0.0
 10
5.9679197148
 20
6.6882618908
 30
0.0
 10
5.9666699564
 20
6.6879907912
 30
0.0
 10
5.9652012103
 20
6.6877187892
 30
0.0
 10
5.9628096045
 20
6.6873326834
 30
0.0
 10
5.9592754314
 20
6.6868619134
 30
0.0
 10
5.9543883578
 20
6.6863207865
 30
0.0
 10
5.9486529823
 20
6.6857777391
 30
0.0
 10
5.9420824214
 20
6.685233103
 30
0.0
 10
5.9346909156
 20
6.6846876514
 30
0.0
 10
5.9264955658
 20
6.6841415576
 30
0.0
 10
5.9140212849
 20
6.6833823551
 30
0.0
 10
5.8965780674
 20
6.6824471822
 30
0.0
 10
5.8735444463
 20
6.6813614919
 30
0.0
 10
5.8478696058
 20
6.6802732981
 30
0.0
 10
5.8197945978
 20
6.6791837686
 30
0.0
 10
5.7895803109
 20
6.6780930075
 30
0.0
 10
5.7575091855
 20
6.6770015651
 30
0.0
 10
5.7238801592
 20
6.6759096152
 30
0.0
 10
5.6890066533
 20
6.6748172671
 30
0.0
 10
5.6532141137
 20
6.6737247876
 30
0.0
 10
5.6168357643
 20
6.6726321457
 30
0.0
 10
5.5802108826
 20
6.6715395477
 30
0.0
 10
5.5436806124
 20
6.670447053
 30
0.0
 10
5.5075850518
 20
6.6693547013
 30
0.0
 10
5.4722607625
 20
6.6682627431
 30
0.0
 10
5.4380360401
 20
6.66717109
 30
0.0
 10
5.405230096
 20
6.6660801329
 30
0.0
 10
5.3741476705
 20
6.6649898644
 30
0.0
 10
5.3450782188
 20
6.6639006817
 30
0.0
 10
5.3182921951
 20
6.6628130086
 30
0.0
 10
5.2940380097
 20
6.6617272894
 30
0.0
 10
5.2725421385
 20
6.6606446731
 30
0.0
 10
5.2564471304
 20
6.6597093854
 30
0.0
 10
5.2450987367
 20
6.6589480591
 30
0.0
 10
5.237778094
 20
6.6584035989
 30
0.0
 10
5.231278486
 20
6.6578601045
 30
0.0
 10
5.2256145437
 20
6.6573178697
 30
0.0
 10
5.2214243686
 20
6.6568486559
 30
0.0
 10
5.2185003912
 20
6.6564668042
 30
0.0
 10
5.2166291602
 20
6.6561944249
 30
0.0
 10
5.2149754664
 20
6.6559225406
 30
0.0
 10
5.2135402264
 20
6.655651254
 30
0.0
 10
5.2123240437
 20
6.6553808242
 30
0.0
 10
5.2113261999
 20
6.6551119374
 30
0.0
 10
5.210546801
 20
6.6548447019
 30
0.0
 10
5.210037277
 20
6.6546082417
 30
0.0
 10
5.2097478344
 20
6.654409576
 30
0.0
 10
5.2096037183
 20
6.6542726062
 30
0.0
 10
5.2095126246
 20
6.6541322149
 30
0.0
 10
5.209490315
 20
6.6540315225
 30
0.0
 10
5.2094901926
 20
6.6539848887
 30
0.0
 11
5.970409805
 21
6.6891107627
 31
0.0
 11
5.9698232079
 21
6.6888360318
 31
0.0
 11
5.969015496
 21
6.6885613062
 31
0.0
 11
5.9679872045
 21
6.6882865859
 31
0.0
 11
5.9667388684
 21
6.6880118709
 31
0.0
 11
5.9652710227
 21
6.6877371611
 31
0.0
 11
5.9635842026
 21
6.6874624566
 31
0.0
 11
5.959556606
 21
6.6869130632
 31
0.0
 11
5.9546668939
 21
6.6863636906
 31
0.0
 11
5.9489282905
 21
6.6858143387
 31
0.0
 11
5.9423540285
 21
6.6852650074
 31
0.0
 11
5.9349574375
 21
6.6847156966
 31
0.0
 11
5.9267553733
 21
6.6841664061
 31
0.0
 11
5.9177691327
 21
6.6836171359
 31
0.0
 11
5.8975304438
 21
6.6825186559
 31
0.0
 11
5.8744238539
 21
6.6814202558
 31
0.0
 11
5.8486711324
 21
6.680321935
 31
0.0
 11
5.8205079076
 21
6.6792236927
 31
0.0
 11
5.7902002628
 21
6.6781255284
 31
0.0
 11
5.7580293383
 21
6.6770274413
 31
0.0
 11
5.7242953713
 21
6.6759294311
 31
0.0
 11
5.6893138693
 21
6.6748314972
 31
0.0
 11
5.6534093967
 21
6.6737336391
 31
0.0
 11
5.6169182688
 21
6.6726358565
 31
0.0
 11
5.5801792918
 21
6.6715381489
 31
0.0
 11
5.5435352104
 21
6.670440516
 31
0.0
 11
5.5073279228
 21
6.6693429575
 31
0.0
 11
5.4718930976
 21
6.6682454732
 31
0.0
 11
5.4375628918
 21
6.6671480629
 31
0.0
 11
5.4046543789
 21
6.6660507264
 31
0.0
 11
5.3734760291
 21
6.6649534635
 31
0.0
 11
5.3443165618
 21
6.6638562742
 31
0.0
 11
5.3174472657
 21
6.6627591585
 31
0.0
 11
5.2931196457
 21
6.6616621163
 31
0.0
 11
5.2715564363
 21
6.6605651477
 31
0.0
 11
5.2529632202
 21
6.6594682527
 31
0.0
 11
5.2448327204
 21
6.6589198329
 31
0.0
 11
5.2375062601
 21
6.6583714316
 31
0.0
 11
5.231002917
 21
6.6578230487
 31
0.0
 11
5.2253362741
 21
6.6572746843
 31
0.0
 11
5.2205178366
 21
6.6567263385
 31
0.0
 11
5.2184302891
 21
6.6564521726
 31
0.0
 11
5.2165591058
 21
6.6561780113
 31
0.0
 11
5.2149057246
 21
6.6559038546
 31
0.0
 11
5.2134714536
 21
6.6556297026
 31
0.0
 11
5.2122568664
 21
6.6553555553
 31
0.0
 11
5.2112622777
 21
6.6550814126
 31
0.0
 11
5.2104880016
 21
6.6548072746
 31
0.0
 11
5.2099343526
 21
6.6545331413
 31
0.0
 11
5.2097403614
 21
6.6543960764
 31
0.0
 11
5.2096016448
 21
6.6542590126
 31
0.0
 11
5.2095182421
 21
6.6541219501
 31
0.0
 11
5.2094901926
 21
6.6539848887
 31
0.0
  0
LINE
  5
38C
100
AcDbEntity
  8
0
100
AcDbLine
 62
6
  6
CONTINUOUS
 10
5.9721757948
 20
6.6176837009
 11
5.9707073875
 21
6.6171123908
  0
SPLINE
  5
38D
100
AcDbEntity
  8
0
100
AcDbSpline
 62
6
  6
CONTINUOUS
 70
0
 71
3
 72
53
 73
49
 74
47
 42
0.0000001
 43
0.0000001
 44
0.0000000001
 12
-0.7336464023
 22
-0.2149244349
 32
0.0
 13
0.0019213309
 23
-0.764477511
 33
0.0
 40
0.0
 40
0.0
 40
0.0
 40
0.0
 40
0.0013934478
 40
0.0030599968
 40
0.0072145565
 40
0.0124626618
 40
0.0187976353
 40
0.0262105324
 40
0.0346861178
 40
0.05474134
 40
0.0787903675
 40
0.10661884
 40
0.1379741876
 40
0.1725793732
 40
0.2101165791
 40
0.2502537834
 40
0.2926237459
 40
0.3368482729
 40
0.4292474639
 40
0.5241275572
 40
0.5714315631
 40
0.6180763863
 40
0.6636404639
 40
0.7077165319
 40
0.7499039794
 40
0.789827635
 40
0.8271249483
 40
0.8614631134
 40
0.8925341584
 40
0.9200571143
 40
0.9437919173
 40
0.9541678849
 40
0.9635205483
 40
0.971830962
 40
0.979080518
 40
0.9852517802
 40
0.9879296881
 40
0.9903349195
 40
0.992467093
 40
0.9943261419
 40
0.9959125338
 40
0.9972277162
 40
0.9982751303
 40
0.9990629111
 40
0.9993658557
 40
0.9996148482
 40
0.999820234
 40
1.0
 40
1.0
 40
1.0
 40
1.0
 10
5.9707073875
 20
6.6171123908
 30
0.0
 10
5.9703666215
 20
6.6170125621
 30
0.0
 10
5.9696110101
 20
6.6168182792
 30
0.0
 10
5.9678129455
 20
6.6164336723
 30
0.0
 10
5.9650293004
 20
6.6159703614
 30
0.0
 10
5.9610538208
 20
6.6154406087
 30
0.0
 10
5.9562421549
 20
6.6149082462
 30
0.0
 10
5.9506041758
 20
6.6143736246
 30
0.0
 10
5.9414759742
 20
6.6136161139
 30
0.0
 10
5.9281085752
 20
6.6126924054
 30
0.0
 10
5.9098088632
 20
6.6116293938
 30
0.0
 10
5.8886255906
 20
6.6105626729
 30
0.0
 10
5.8647495312
 20
6.609492764
 30
0.0
 10
5.8383972627
 20
6.6084213636
 30
0.0
 10
5.8098055221
 20
6.6073483818
 30
0.0
 10
5.7792338394
 20
6.6062748124
 30
0.0
 10
5.7469570915
 20
6.6052004001
 30
0.0
 10
5.7013679075
 20
6.6037462496
 30
0.0
 10
5.642401758
 20
6.6019546211
 30
0.0
 10
5.5826498882
 20
6.6001849883
 30
0.0
 10
5.5345526413
 20
6.5987502563
 30
0.0
 10
5.4990172836
 20
6.5976754869
 30
0.0
 10
5.4643048659
 20
6.5966009483
 30
0.0
 10
5.4307288466
 20
6.5955269828
 30
0.0
 10
5.3985909049
 20
6.5944534388
 30
0.0
 10
5.3681813471
 20
6.5933808351
 30
0.0
 10
5.3397732762
 20
6.5923091825
 30
0.0
 10
5.313622754
 20
6.5912389628
 30
0.0
 10
5.289965152
 20
6.5901710274
 30
0.0
 10
5.269012535
 20
6.5891054656
 30
0.0
 10
5.2533332848
 20
6.5881856773
 30
0.0
 10
5.2422829396
 20
6.5874363886
 30
0.0
 10
5.2351578835
 20
6.586900612
 30
0.0
 10
5.2288319052
 20
6.586365999
 30
0.0
 10
5.2233197921
 20
6.5858327865
 30
0.0
 10
5.2192431394
 20
6.5853711395
 30
0.0
 10
5.21639986
 20
6.5849953736
 30
0.0
 10
5.2145807544
 20
6.5847273791
 30
0.0
 10
5.2129727615
 20
6.5844598536
 30
0.0
 10
5.2115765083
 20
6.5841929725
 30
0.0
 10
5.2103926965
 20
6.5839269646
 30
0.0
 10
5.2094210429
 20
6.5836624781
 30
0.0
 10
5.2086621517
 20
6.5833996486
 30
0.0
 10
5.2081663444
 20
6.5831670161
 30
0.0
 10
5.2078853081
 20
6.5829715242
 30
0.0
 10
5.2077456277
 20
6.5828366886
 30
0.0
 10
5.2076577469
 20
6.5826984615
 30
0.0
 10
5.2076366837
 20
6.5825996213
 30
0.0
 10
5.2076367989
 20
6.5825538122
 30
0.0
 11
5.9707073875
 21
6.6171123908
 31
0.0
 11
5.9696769911
 21
6.6168420793
 31
0.0
 11
5.9684319527
 21
6.6165717728
 31
0.0
 11
5.9653022208
 21
6.6160311748
 31
0.0
 11
5.9613267346
 21
6.615490597
 31
0.0
 11
5.9565140368
 21
6.6149500392
 31
0.0
 11
5.9508728638
 21
6.6144095017
 31
0.0
 11
5.9444160335
 21
6.6138689843
 31
0.0
 11
5.9291223734
 21
6.61278801
 31
0.0
 11
5.9107691762
 21
6.6117071165
 31
0.0
 11
5.8895223399
 21
6.6106263039
 31
0.0
 11
5.8655761814
 21
6.6095455723
 31
0.0
 11
5.8391432924
 21
6.6084649218
 31
0.0
 11
5.8104672038
 21
6.6073843525
 31
0.0
 11
5.7798021465
 21
6.6063038645
 31
0.0
 11
5.7474291843
 21
6.6052234579
 31
0.0
 11
5.713637686
 21
6.6041431327
 31
0.0
 11
5.6430334045
 21
6.601982727
 31
0.0
 11
5.5705316489
 21
6.5998226478
 31
0.0
 11
5.5343848141
 21
6.5987427309
 31
0.0
 11
5.4987421368
 21
6.5976628957
 31
0.0
 11
5.4639260533
 21
6.5965831425
 31
0.0
 11
5.4302480862
 21
6.5955034711
 31
0.0
 11
5.3980147037
 21
6.5944238817
 31
0.0
 11
5.3675129672
 21
6.5933443742
 31
0.0
 11
5.3390203593
 21
6.5922649488
 31
0.0
 11
5.3127917202
 21
6.5911856054
 31
0.0
 11
5.2890630617
 21
6.590106344
 31
0.0
 11
5.2680500081
 21
6.5890271647
 31
0.0
 11
5.2499373439
 21
6.5879480674
 31
0.0
 11
5.2420234941
 21
6.5874085496
 31
0.0
 11
5.2348939537
 21
6.5868690523
 31
0.0
 11
5.2285637555
 21
6.5863295754
 31
0.0
 11
5.2230479325
 21
6.5857901192
 31
0.0
 11
5.2183610675
 21
6.5852506834
 31
0.0
 11
5.2163317051
 21
6.5849809732
 31
0.0
 11
5.2145128414
 21
6.5847112681
 31
0.0
 11
5.2129053047
 21
6.5844415682
 31
0.0
 11
5.211509923
 21
6.5841718734
 31
0.0
 11
5.2103275246
 21
6.5839021837
 31
0.0
 11
5.2093589376
 21
6.5836324992
 31
0.0
 11
5.2086049901
 21
6.5833628197
 31
0.0
 11
5.2080664997
 21
6.5830931454
 31
0.0
 11
5.2078782028
 21
6.5829583102
 31
0.0
 11
5.207743842
 21
6.5828234763
 31
0.0
 11
5.2076633848
 21
6.5826886436
 31
0.0
 11
5.2076367989
 21
6.5825538122
 31
0.0
  0
SPLINE
  5
38E
100
AcDbEntity
  8
0
100
AcDbSpline
 62
6
  6
CONTINUOUS
 70
0
 71
3
 72
37
 73
33
 74
31
 42
0.0000001
 43
0.0000001
 44
0.0000000001
 12
-0.0035862369
 22
-0.407068972
 32
0.0
 13
-0.40693012
 23
-0.0112199147
 33
0.0
 40
0.0
 40
0.0
 40
0.0
 40
0.0
 40
0.0003454084
 40
0.0007518447
 40
0.0012578505
 40
0.0018838222
 40
0.0026405032
 40
0.0035339223
 40
0.0057437128
 40
0.0085302602
 40
0.0119000942
 40
0.0158545827
 40
0.0203932376
 40
0.0255146384
 40
0.0312168177
 40
0.0443539208
 40
0.059783668
 40
0.0774728107
 40
0.0973747235
 40
0.1194414613
 40
0.1436247125
 40
0.1698708211
 40
0.2282775561
 40
0.2940989966
 40
0.3667090364
 40
0.445408435
 40
0.5294461228
 40
0.6179973845
 40
0.7102234113
 40
0.8052698144
 40
0.9022222225
 40
1.0
 40
1.0
 40
1.0
 40
1.0
 10
5.9968855548
 20
7.0789348062
 30
0.0
 10
5.9968851419
 20
7.0788879379
 30
0.0
 10
5.9968590686
 20
7.0787855497
 30
0.0
 10
5.9967570569
 20
7.0786456686
 30
0.0
 10
5.9965974349
 20
7.0785093941
 30
0.0
 10
5.9963790609
 20
7.0783740385
 30
0.0
 10
5.9961011032
 20
7.0782385848
 30
0.0
 10
5.9956146022
 20
7.0780436756
 30
0.0
 10
5.9948497902
 20
7.0778080618
 30
0.0
 10
5.9937465575
 20
7.0775391828
 30
0.0
 10
5.9924010798
 20
7.0772691268
 30
0.0
 10
5.9908141983
 20
7.076997945
 30
0.0
 10
5.9889867654
 20
7.0767261149
 30
0.0
 10
5.9869199831
 20
7.0764537563
 30
0.0
 10
5.9836910674
 20
7.076071886
 30
0.0
 10
5.9790643837
 20
7.0756025786
 30
0.0
 10
5.9728110046
 20
7.0750604173
 30
0.0
 10
5.9656367893
 20
7.0745169811
 30
0.0
 10
5.957559806
 20
7.0739723039
 30
0.0
 10
5.9485998666
 20
7.0734268205
 30
0.0
 10
5.9387776466
 20
7.0728807219
 30
0.0
 10
5.9240284549
 20
7.072124957
 30
0.0
 10
5.903631037
 20
7.0711920431
 30
0.0
 10
5.8769431298
 20
7.0701054928
 30
0.0
 10
5.8474996311
 20
7.0690170035
 30
0.0
 10
5.8155828069
 20
7.0679267349
 30
0.0
 10
5.7815017007
 20
7.066835469
 30
0.0
 10
5.7455842466
 20
7.0657431809
 30
0.0
 10
5.7081723265
 20
7.0646502517
 30
0.0
 10
5.6696199689
 20
7.0635564711
 30
0.0
 10
5.6303139752
 20
7.0624625626
 30
0.0
 10
5.6039001146
 20
7.0617343238
 30
0.0
 10
5.590637207
 20
7.0613686377
 30
0.0
 11
5.9968855548
 21
7.0789348062
 31
0.0
 11
5.9968538186
 21
7.078797824
 31
0.0
 11
5.99676103
 21
7.0786608375
 31
0.0
 11
5.9966071982
 21
7.0785238465
 31
0.0
 11
5.9963923325
 21
7.078386851
 31
0.0
 11
5.9961164422
 21
7.0782498508
 31
0.0
 11
5.9957795366
 21
7.0781128459
 31
0.0
 11
5.9949227166
 21
7.0778388214
 31
0.0
 11
5.9938219558
 21
7.0775647768
 31
0.0
 11
5.9924778034
 21
7.0772907117
 31
0.0
 11
5.9908914957
 21
7.0770166261
 31
0.0
 11
5.9890643242
 21
7.0767425204
 31
0.0
 11
5.9869975803
 21
7.0764683948
 31
0.0
 11
5.9846925552
 21
7.0761942496
 31
0.0
 11
5.9793728274
 21
7.075645901
 31
0.0
 11
5.9731156001
 21
7.0750974766
 31
0.0
 11
5.9659355394
 21
7.0745489792
 31
0.0
 11
5.9578523667
 21
7.0740004127
 31
0.0
 11
5.9488861031
 21
7.0734517812
 31
0.0
 11
5.9390567726
 21
7.0729030886
 31
0.0
 11
5.9283864827
 21
7.0723543387
 31
0.0
 11
5.9046353411
 21
7.0712566807
 31
0.0
 11
5.8778629353
 21
7.0701588323
 31
0.0
 11
5.8483248963
 21
7.0690607864
 31
0.0
 11
5.8163064008
 21
7.0679624988
 31
0.0
 11
5.7821135794
 21
7.0668639891
 31
0.0
 11
5.7460824543
 21
7.0657653783
 31
0.0
 11
5.7085547254
 21
7.0646666107
 31
0.0
 11
5.6698784035
 21
7.0635672542
 31
0.0
 11
5.6304258833
 21
7.0624673811
 31
0.0
 11
5.590637207
 21
7.0613686377
 31
0.0
  0
LINE
  5
38F
100
AcDbEntity
  8
0
100
AcDbLine
 62
6
  6
CONTINUOUS
 10
5.1860618151
 20
6.8124693316
 11
5.1848792101
 21
6.8129501387
  0
SPLINE
  5
390
100
AcDbEntity
  8
0
100
AcDbSpline
 62
6
  6
CONTINUOUS
 70
0
 71
3
 72
30
 73
26
 74
24
 42
0.0000001
 43
0.0000001
 44
0.0000000001
 12
-0.4062013499
 22
-0.0112070987
 32
0.0
 13
-0.3516850457
 23
-0.20357496
 33
0.0
 40
0.0
 40
0.0
 40
0.0
 40
0.0
 40
0.1892398297
 40
0.2817553369
 40
0.3716872738
 40
0.4582533971
 40
0.5406851922
 40
0.6182269493
 40
0.6901668529
 40
0.7558681533
 40
0.8147306294
 40
0.8662387482
 40
0.8890809648
 40
0.9099141455
 40
0.9286958709
 40
0.9453840965
 40
0.9599375946
 40
0.9723252005
 40
0.9825294902
 40
0.986808862
 40
0.9905382667
 40
0.9937177494
 40
0.996349079
 40
0.998437913
 40
1.0
 40
1.0
 40
1.0
 40
1.0
 10
5.590637207
 20
6.8503139434
 30
0.0
 10
5.5650140489
 20
6.8496070002
 30
0.0
 10
5.5268642423
 20
6.8485545992
 30
0.0
 10
5.4765386933
 20
6.847127524
 30
0.0
 10
5.4401157458
 20
6.8460656169
 30
0.0
 10
5.4050592436
 20
6.8450041011
 30
0.0
 10
5.3716818011
 20
6.8439430947
 30
0.0
 10
5.3402865331
 20
6.842882939
 30
0.0
 10
5.3111587897
 20
6.8418237038
 30
0.0
 10
5.2845629122
 20
6.8407664405
 30
0.0
 10
5.2607369061
 20
6.8397109087
 30
0.0
 10
5.242715665
 20
6.8388022342
 30
0.0
 10
5.2298439697
 20
6.8380640288
 30
0.0
 10
5.2214006461
 20
6.8375332336
 30
0.0
 10
5.2137926394
 20
6.8370032291
 30
0.0
 10
5.2070374475
 20
6.836474242
 30
0.0
 10
5.2011511651
 20
6.83594678
 30
0.0
 10
5.1961471033
 20
6.8354209783
 30
0.0
 10
5.1925356547
 20
6.834963379
 30
0.0
 10
5.1900972368
 20
6.8345880428
 30
0.0
 10
5.1886047571
 20
6.8343239493
 30
0.0
 10
5.1873394125
 20
6.8340608253
 30
0.0
 10
5.1863011647
 20
6.8337992121
 30
0.0
 10
5.1854905842
 20
6.8335395242
 30
0.0
 10
5.1850348133
 20
6.8333414293
 30
0.0
 10
5.1848516924
 20
6.8332354287
 30
0.0
 11
5.590637207
 21
6.8503139434
 31
0.0
 11
5.513768094
 21
6.8481800627
 31
0.0
 11
5.4761890294
 21
6.8471125398
 31
0.0
 11
5.4396602397
 21
6.8460453556
 31
0.0
 11
5.4044997765
 21
6.8449781077
 31
0.0
 11
5.3710201405
 21
6.8439106771
 31
0.0
 11
5.3395286752
 21
6.8428432066
 31
0.0
 11
5.310314964
 21
6.8417757776
 31
0.0
 11
5.2836381986
 21
6.8407083495
 31
0.0
 11
5.2597429144
 21
6.8396408796
 31
0.0
 11
5.2388395264
 21
6.8385733557
 31
0.0
 11
5.2295728173
 21
6.8380395719
 31
0.0
 11
5.2211239767
 21
6.837505776
 31
0.0
 11
5.213510602
 21
6.8369719721
 31
0.0
 11
5.2067502852
 21
6.8364381641
 31
0.0
 11
5.200860526
 21
6.8359043559
 31
0.0
 11
5.1958551325
 21
6.8353705511
 31
0.0
 11
5.191743061
 21
6.8348367529
 31
0.0
 11
5.1900247167
 21
6.8345698573
 31
0.0
 11
5.1885329378
 21
6.8343029645
 31
0.0
 11
5.1872688024
 21
6.8340360749
 31
0.0
 11
5.1862333889
 21
6.833769189
 31
0.0
 11
5.1854276269
 21
6.8335023069
 31
0.0
 11
5.1848516924
 21
6.8332354287
 31
0.0
  0
SPLINE
  5
391
100
AcDbEntity
  8
0
100
AcDbSpline
 62
6
  6
CONTINUOUS
 70
0
 71
3
 72
37
 73
33
 74
31
 42
0.0000001
 43
0.0000001
 44
0.0000000001
 12
0.0026338226
 22
-0.4070840185
 32
0.0
 13
-0.4069380649
 23
-0.0112136735
 33
0.0
 40
0.0
 40
0.0
 40
0.0
 40
0.0
 40
0.0003454243
 40
0.0007500188
 40
0.0012531319
 40
0.0018757149
 40
0.0026288217
 40
0.0035186626
 40
0.0057217126
 40
0.00850201
 40
0.0118650609
 40
0.0158123667
 40
0.0203436853
 40
0.025457832
 40
0.0311530698
 40
0.0442781294
 40
0.0596984959
 40
0.0773772016
 40
0.0972685237
 40
0.1193260782
 40
0.1435027981
 40
0.1697418916
 40
0.2281352909
 40
0.2939533603
 40
0.366564647
 40
0.4452772226
 40
0.5293326292
 40
0.6179052312
 40
0.7101557895
 40
0.8052280184
 40
0.9022031433
 40
1.0
 40
1.0
 40
1.0
 40
1.0
 10
5.9968853643
 20
7.0085479042
 30
0.0
 10
5.9968856676
 20
7.008501032
 30
0.0
 10
5.9968613262
 20
7.0083984473
 30
0.0
 10
5.9967613015
 20
7.0082578183
 30
0.0
 10
5.9966035528
 20
7.0081210055
 30
0.0
 10
5.9963870285
 20
7.0079851705
 30
0.0
 10
5.9961108678
 20
7.0078492667
 30
0.0
 10
5.9956266636
 20
7.0076536534
 30
0.0
 10
5.9948643971
 20
7.0074172895
 30
0.0
 10
5.9937640915
 20
7.0071476398
 30
0.0
 10
5.9924215504
 20
7.0068767427
 30
0.0
 10
5.9908377081
 20
7.0066047478
 30
0.0
 10
5.9890133444
 20
7.0063321193
 30
0.0
 10
5.9869495709
 20
7.0060589833
 30
0.0
 10
5.9837243079
 20
7.0056760104
 30
0.0
 10
5.9791015283
 20
7.0052054416
 30
0.0
 10
5.972852477
 20
7.0046620209
 30
0.0
 10
5.96568236
 20
7.0041172851
 30
0.0
 10
5.9576094112
 20
7.0035714053
 30
0.0
 10
5.9486529445
 20
7.0030247943
 30
0.0
 10
5.9388336801
 20
7.0024777098
 30
0.0
 10
5.924087928
 20
7.0017205904
 30
0.0
 10
5.9036934118
 20
7.0007861311
 30
0.0
 10
5.8770071493
 20
6.9996982087
 30
0.0
 10
5.8475616366
 20
6.9986083651
 30
0.0
 10
5.8156398725
 20
6.9975170836
 30
0.0
 10
5.7815510516
 20
6.9964249268
 30
0.0
 10
5.7456242972
 20
6.9953320109
 30
0.0
 10
5.7082019408
 20
6.9942386769
 30
0.0
 10
5.6696389317
 20
6.9931447222
 30
0.0
 10
5.6303230056
 20
6.9920508802
 30
0.0
 10
5.6039029616
 20
6.9913228293
 30
0.0
 10
5.590637207
 20
6.9909572753
 30
0.0
 11
5.9968853643
 21
7.0085479042
 31
0.0
 11
5.9968557114
 21
7.0084104466
 31
0.0
 11
5.9967649697
 21
7.0082729894
 31
0.0
 11
5.9966131336
 21
7.0081355326
 31
0.0
 11
5.9964001969
 21
7.007998076
 31
0.0
 11
5.9961261539
 21
7.0078606195
 31
0.0
 11
5.9957909985
 21
7.0077231633
 31
0.0
 11
5.9949373273
 21
7.0074482509
 31
0.0
 11
5.9938393833
 21
7.0071733384
 31
0.0
 11
5.9924981958
 21
7.0068984261
 31
0.0
 11
5.9909149676
 21
7.0066235144
 31
0.0
 11
5.9890909017
 21
7.0063486035
 31
0.0
 11
5.9870272008
 21
7.0060736938
 31
0.0
 11
5.9847250679
 21
7.0057987857
 31
0.0
 11
5.9794103172
 21
7.0052489758
 31
0.0
 11
5.9731569238
 21
7.0046991764
 31
0.0
 11
5.9659810851
 21
7.0041493898
 31
0.0
 11
5.9579021607
 21
7.0035996178
 31
0.0
 11
5.9489395397
 21
7.0030498621
 31
0.0
 11
5.9391127423
 21
7.0025001247
 31
0.0
 11
5.9284451577
 21
7.0019504055
 31
0.0
 11
5.9046990767
 21
7.0008510135
 31
0.0
 11
5.877927594
 21
6.9997516671
 31
0.0
 11
5.8483885308
 21
6.998652324
 31
0.0
 11
5.816364094
 21
6.9975529289
 31
0.0
 11
5.7821634311
 21
6.9964535279
 31
0.0
 11
5.7461229458
 21
6.995354269
 31
0.0
 11
5.7085845214
 21
6.9942550806
 31
0.0
 11
5.6698969486
 21
6.9931555282
 31
0.0
 11
5.6304344216
 21
6.9920557162
 31
0.0
 11
5.590637207
 21
6.9909572753
 31
0.0
  0
SPLINE
  5
392
100
AcDbEntity
  8
0
100
AcDbSpline
 62
6
  6
CONTINUOUS
 70
0
 71
3
 72
59
 73
55
 74
53
 42
0.0000001
 43
0.0000001
 44
0.0000000001
 12
-0.0019624383
 22
-0.7624430867
 32
0.0
 13
-0.6603279865
 23
-0.3811695972
 33
0.0
 40
0.0
 40
0.0
 40
0.0
 40
0.0
 40
0.0001839066
 40
0.000394825
 40
0.0006511963
 40
0.0009634726
 40
0.0017756927
 40
0.0028555216
 40
0.0042117709
 40
0.0058485569
 40
0.0077679898
 40
0.0099709316
 40
0.0124567341
 40
0.0152241988
 40
0.0215982911
 40
0.0290807322
 40
0.0376578127
 40
0.0473126103
 40
0.0580206846
 40
0.0824929825
 40
0.1108576781
 40
0.1428450604
 40
0.1781626322
 40
0.2164791819
 40
0.2574385377
 40
0.3006604025
 40
0.345739956
 40
0.3922601832
 40
0.4397851855
 40
0.4878744494
 40
0.5360793945
 40
0.583950953
 40
0.6310452338
 40
0.6769217476
 40
0.7211565371
 40
0.763336091
 40
0.8030698268
 40
0.8399890585
 40
0.8737490815
 40
0.9040415153
 40
0.9305799834
 40
0.9423671707
 40
0.9531284597
 40
0.9628368462
 40
0.9714725692
 40
0.9790187072
 40
0.9854588988
 40
0.9907780535
 40
0.9930145444
 40
0.9949689833
 40
0.996642044
 40
0.9980353
 40
0.9991521223
 40
1.0
 40
1.0
 40
1.0
 40
1.0
 10
5.9709189319
 20
6.6718387798
 30
0.0
 10
5.9709188116
 20
6.6717920403
 30
0.0
 10
5.9708964479
 20
6.6716911164
 30
0.0
 10
5.9708051254
 20
6.671550411
 30
0.0
 10
5.9706606517
 20
6.6714131384
 30
0.0
 10
5.9703704953
 20
6.6712140367
 30
0.0
 10
5.96985974
 20
6.670977067
 30
0.0
 10
5.9690784926
 20
6.6707092618
 30
0.0
 10
5.9680783337
 20
6.6704398108
 30
0.0
 10
5.9668593955
 20
6.6701688231
 30
0.0
 10
5.965420966
 20
6.6698969804
 30
0.0
 10
5.9637636386
 20
6.6696245518
 30
0.0
 10
5.961888321
 20
6.6693516405
 30
0.0
 10
5.9589580329
 20
6.66896906
 30
0.0
 10
5.9547589759
 20
6.6684989794
 30
0.0
 10
5.9490832939
 20
6.6679557746
 30
0.0
 10
5.9425706261
 20
6.6674113427
 30
0.0
 10
5.9352357489
 20
6.6668659819
 30
0.0
 10
5.9238664189
 20
6.6661034781
 30
0.0
 10
5.9077434257
 20
6.665166851
 30
0.0
 10
5.8862125847
 20
6.6640827983
 30
0.0
 10
5.8619224937
 20
6.6629957823
 30
0.0
 10
5.8351009794
 20
6.6619069763
 30
0.0
 10
5.8059975901
 20
6.6608167831
 30
0.0
 10
5.7748840647
 20
6.6597256805
 30
0.0
 10
5.742050758
 20
6.65863401
 30
0.0
 10
5.7078034379
 20
6.6575418135
 30
0.0
 10
5.672461952
 20
6.6564494457
 30
0.0
 10
5.6363552046
 20
6.6553568377
 30
0.0
 10
5.599820096
 20
6.6542642363
 30
0.0
 10
5.5631968704
 20
6.6531716743
 30
0.0
 10
5.5268266276
 20
6.6520792193
 30
0.0
 10
5.4910484123
 20
6.6509870796
 30
0.0
 10
5.4561949073
 20
6.6498952003
 30
0.0
 10
5.4225910849
 20
6.6488039044
 30
0.0
 10
5.3905492764
 20
6.6477132059
 30
0.0
 10
5.3603678053
 20
6.6466234147
 30
0.0
 10
5.3323275822
 20
6.6455349097
 30
0.0
 10
5.3066887281
 20
6.6444479835
 30
0.0
 10
5.2836906295
 20
6.6433636294
 30
0.0
 10
5.266276256
 20
6.6424297268
 30
0.0
 10
5.253823879
 20
6.6416716784
 30
0.0
 10
5.2456439404
 20
6.6411264529
 30
0.0
 10
5.2382668403
 20
6.6405818481
 30
0.0
 10
5.2317092664
 20
6.6400381722
 30
0.0
 10
5.2259853169
 20
6.6394961159
 30
0.0
 10
5.2211084632
 20
6.6389560549
 30
0.0
 10
5.2175820329
 20
6.6384861091
 30
0.0
 10
5.2151958235
 20
6.638100766
 30
0.0
 10
5.2137302316
 20
6.6378293189
 30
0.0
 10
5.2124830262
 20
6.6375587824
 30
0.0
 10
5.211453871
 20
6.6372895978
 30
0.0
 10
5.2106430901
 20
6.6370222753
 30
0.0
 10
5.2101843838
 20
6.636819467
 30
0.0
 10
5.209997758
 20
6.6367117386
 30
0.0
 11
5.9709189319
 21
6.6718387798
 31
0.0
 11
5.9708908169
 21
6.6717014085
 31
0.0
 11
5.9708072073
 21
6.6715640386
 31
0.0
 11
5.9706681458
 21
6.67142667
 31
0.0
 11
5.9704736751
 21
6.6712893028
 31
0.0
 11
5.9699186769
 21
6.6710145723
 31
0.0
 11
5.969142554
 21
6.6707398471
 31
0.0
 11
5.9681456477
 21
6.6704651272
 31
0.0
 11
5.9669282995
 21
6.6701904125
 31
0.0
 11
5.9654908506
 21
6.6699157032
 31
0.0
 11
5.9638338437
 21
6.669640999
 31
0.0
 11
5.9619585672
 21
6.6693663001
 31
0.0
 11
5.9598664826
 21
6.6690916064
 31
0.0
 11
5.9550377348
 21
6.6685422347
 31
0.0
 11
5.9493592915
 21
6.6679928836
 31
0.0
 11
5.9428428472
 21
6.6674435531
 31
0.0
 11
5.9355021129
 21
6.6668942431
 31
0.0
 11
5.9273562875
 21
6.6663449534
 31
0.0
 11
5.9087298566
 21
6.6652464349
 31
0.0
 11
5.8871312324
 21
6.6641479966
 31
0.0
 11
5.8627673384
 21
6.663049638
 31
0.0
 11
5.8358620173
 21
6.6619513583
 31
0.0
 11
5.8066683808
 21
6.6608531568
 31
0.0
 11
5.7754584125
 21
6.659755033
 31
0.0
 11
5.74252239
 21
6.6586569862
 31
0.0
 11
5.708169224
 21
6.657559016
 31
0.0
 11
5.6727170768
 21
6.6564611219
 31
0.0
 11
5.6364984815
 21
6.6553633035
 31
0.0
 11
5.5998494698
 21
6.6542655603
 31
0.0
 11
5.5631122158
 21
6.6531678919
 31
0.0
 11
5.5266292629
 21
6.6520702982
 31
0.0
 11
5.4907392123
 21
6.6509727787
 31
0.0
 11
5.4557780862
 21
6.6498753333
 31
0.0
 11
5.4220693224
 21
6.6487779618
 31
0.0
 11
5.3899284322
 21
6.647680664
 31
0.0
 11
5.3596534959
 21
6.6465834399
 31
0.0
 11
5.3315259795
 21
6.6454862893
 31
0.0
 11
5.3058091881
 21
6.6443892122
 31
0.0
 11
5.2827389217
 21
6.6432922087
 31
0.0
 11
5.2625345383
 21
6.6421952789
 31
0.0
 11
5.2535641989
 21
6.6416468416
 31
0.0
 11
5.2453776501
 21
6.6410984227
 31
0.0
 11
5.237995876
 21
6.6405500223
 31
0.0
 11
5.2314344831
 21
6.6400016404
 31
0.0
 11
5.225707155
 21
6.639453277
 31
0.0
 11
5.2208275727
 21
6.6389049321
 31
0.0
 11
5.2168092453
 21
6.6383566058
 31
0.0
 11
5.2151262258
 21
6.6380824496
 31
0.0
 11
5.2136615081
 21
6.6378082981
 31
0.0
 11
5.2124156974
 21
6.6375341512
 31
0.0
 11
5.2113893987
 21
6.637260009
 31
0.0
 11
5.2105832173
 21
6.6369858715
 31
0.0
 11
5.209997758
 21
6.6367117386
 31
0.0
  0
SPLINE
  5
393
100
AcDbEntity
  8
0
100
AcDbSpline
 62
6
  6
CONTINUOUS
 70
0
 71
3
 72
31
 73
27
 74
25
 42
0.0000001
 43
0.0000001
 44
0.0000000001
 12
-0.0005475532
 22
-0.2037484498
 32
0.0
 13
-0.2036460424
 23
-0.0064822857
 33
0.0
 40
0.0
 40
0.0
 40
0.0
 40
0.0
 40
0.0009378899
 40
0.0021427009
 40
0.0037533603
 40
0.0058287485
 40
0.0083949349
 40
0.011464795
 40
0.015045215
 40
0.0191400179
 40
0.0288797037
 40
0.0406912278
 40
0.0545735407
 40
0.0705217285
 40
0.088522405
 40
0.1085548406
 40
0.1546275062
 40
0.2085617582
 40
0.2701462869
 40
0.3390965527
 40
0.4151161241
 40
0.4978959433
 40
0.5870880677
 40
0.6823364786
 40
0.7832513251
 40
1.0
 40
1.0
 40
1.0
 40
1.0
 10
5.9968864143
 20
6.9382141505
 30
0.0
 10
5.9968862432
 20
6.9381504526
 30
0.0
 10
5.9968355611
 20
6.9380052029
 30
0.0
 10
5.9966527533
 20
6.9378220138
 30
0.0
 10
5.9963720458
 20
6.9376421796
 30
0.0
 10
5.9959861428
 20
6.937462912
 30
0.0
 10
5.995494031
 20
6.9372826814
 30
0.0
 10
5.994894485
 20
6.9371018777
 30
0.0
 10
5.9941874572
 20
6.9369205227
 30
0.0
 10
5.9930328859
 20
6.9366631527
 30
0.0
 10
5.9913191108
 20
6.9363490511
 30
0.0
 10
5.9889396009
 20
6.9359881944
 30
0.0
 10
5.9861345084
 20
6.9356261186
 30
0.0
 10
5.9829062319
 20
6.9352631039
 30
0.0
 10
5.9792580173
 20
6.9348994542
 30
0.0
 10
5.9735685607
 20
6.9343898458
 30
0.0
 10
5.9654397089
 20
6.9337637565
 30
0.0
 10
5.954488766
 20
6.9330399528
 30
0.0
 10
5.9419811968
 20
6.9323146379
 30
0.0
 10
5.927971553
 20
6.9315876994
 30
0.0
 10
5.9125207053
 20
6.9308598263
 30
0.0
 10
5.8956937416
 20
6.9301314211
 30
0.0
 10
5.8775597261
 20
6.9294023305
 30
0.0
 10
5.8581931429
 20
6.9286726082
 30
0.0
 10
5.8301673732
 20
6.9276754164
 30
0.0
 10
5.8086044772
 20
6.9269647772
 30
0.0
 10
5.7938911406
 20
6.9264964349
 30
0.0
 11
5.9968864143
 21
6.9382141505
 31
0.0
 11
5.9968315903
 21
6.9380310894
 31
0.0
 11
5.9966680403
 21
6.937848028
 31
0.0
 11
5.9963956725
 21
6.937664966
 31
0.0
 11
5.9960144934
 21
6.9374819034
 31
0.0
 11
5.9955247295
 21
6.93729884
 31
0.0
 11
5.994926637
 21
6.9371157758
 31
0.0
 11
5.9942204723
 21
6.9369327106
 31
0.0
 11
5.9934064916
 21
6.9367496445
 31
0.0
 11
5.9914561074
 21
6.9363835091
 31
0.0
 11
5.9890775345
 21
6.9360173688
 31
0.0
 11
5.9862728231
 21
6.9356512231
 31
0.0
 11
5.9830440881
 21
6.9352850713
 31
0.0
 11
5.9793947884
 21
6.9349189129
 31
0.0
 11
5.9753296538
 21
6.9345527473
 31
0.0
 11
5.9659709969
 21
6.9338203923
 31
0.0
 11
5.95500637
 21
6.9330880021
 31
0.0
 11
5.9424799663
 21
6.9323555858
 31
0.0
 11
5.9284505101
 21
6.9316231851
 31
0.0
 11
5.9129789071
 21
6.9308908467
 31
0.0
 11
5.89612849
 21
6.9301585751
 31
0.0
 11
5.8779704294
 21
6.9294262381
 31
0.0
 11
5.8585774744
 21
6.928693676
 31
0.0
 11
5.8380292197
 21
6.9279608623
 31
0.0
 11
5.7938911406
 21
6.9264964349
 31
0.0
  0
SPLINE
  5
394
100
AcDbEntity
  8
0
100
AcDbSpline
 62
6
  6
CONTINUOUS
 70
0
 71
3
 72
51
 73
47
 74
45
 42
0.0000001
 43
0.0000001
 44
0.0000000001
 12
0.0016918673
 22
-0.7620937606
 32
0.0
 13
-0.7474780926
 23
-0.1485471757
 33
0.0
 40
0.0
 40
0.0
 40
0.0
 40
0.0
 40
0.0001778097
 40
0.0003803414
 40
0.0006250852
 40
0.0009221225
 40
0.0016923727
 40
0.0027142836
 40
0.0039961465
 40
0.005541622
 40
0.0073523871
 40
0.0094291406
 40
0.011772047
 40
0.0143809549
 40
0.0203938878
 40
0.0274557248
 40
0.0355506925
 40
0.0446624326
 40
0.054774165
 40
0.077908518
 40
0.1047461092
 40
0.1350620439
 40
0.1685856084
 40
0.2050288776
 40
0.2440719681
 40
0.2853735895
 40
0.3285753841
 40
0.3732971001
 40
0.4191513863
 40
0.4657357385
 40
0.5594688137
 40
0.6512320156
 40
0.7378317332
 40
0.7782455305
 40
0.8162564867
 40
0.8515396966
 40
0.8837820724
 40
0.9127095797
 40
0.9380677669
 40
0.9596395156
 40
0.9689483964
 40
0.9772429273
 40
0.984506353
 40
0.9907270423
 40
0.9958944622
 40
1.0
 40
1.0
 40
1.0
 40
1.0
 10
5.9726828362
 20
6.6004090741
 30
0.0
 10
5.9726829365
 20
6.6003639049
 30
0.0
 10
5.9726625102
 20
6.6002666119
 30
0.0
 10
5.9725770813
 20
6.6001302291
 30
0.0
 10
5.9724411471
 20
6.5999971687
 30
0.0
 10
5.9721680544
 20
6.599804485
 30
0.0
 10
5.9716864709
 20
6.5995749328
 30
0.0
 10
5.9709495522
 20
6.5993155722
 30
0.0
 10
5.9700064611
 20
6.5990546315
 30
0.0
 10
5.9688576204
 20
6.598792235
 30
0.0
 10
5.9675025937
 20
6.5985289983
 30
0.0
 10
5.9659419046
 20
6.5982651444
 30
0.0
 10
5.9641760072
 20
6.5980008407
 30
0.0
 10
5.9614152897
 20
6.5976302725
 30
0.0
 10
5.9574568887
 20
6.5971751558
 30
0.0
 10
5.952104725
 20
6.5966493067
 30
0.0
 10
5.9459621921
 20
6.5961221642
 30
0.0
 10
5.939042495
 20
6.5955939096
 30
0.0
 10
5.928307558
 20
6.5948552934
 30
0.0
 10
5.9130710575
 20
6.5939484983
 30
0.0
 10
5.8927023121
 20
6.5928982354
 30
0.0
 10
5.8696913857
 20
6.5918459402
 30
0.0
 10
5.8442381488
 20
6.590791335
 30
0.0
 10
5.8165662432
 20
6.589735679
 30
0.0
 10
5.7869171711
 20
6.5886790657
 30
0.0
 10
5.7555502184
 20
6.5876217968
 30
0.0
 10
5.7227399475
 20
6.586564196
 30
0.0
 10
5.6887725906
 20
6.5855061982
 30
0.0
 10
5.6539455545
 20
6.584448132
 30
0.0
 10
5.6066731397
 20
6.5830343521
 30
0.0
 10
5.5477430626
 20
6.5812902948
 30
0.0
 10
5.47865352
 20
6.5792031024
 30
0.0
 10
5.4231054984
 20
6.5774295178
 30
0.0
 10
5.3812087856
 20
6.5759880944
 30
0.0
 10
5.3523425982
 20
6.5749326682
 30
0.0
 10
5.3255536289
 20
6.5738787654
 30
0.0
 10
5.3010740239
 20
6.5728261378
 30
0.0
 10
5.2791180982
 20
6.5717762321
 30
0.0
 10
5.2598762024
 20
6.5707293077
 30
0.0
 10
5.2456181617
 20
6.56982281
 30
0.0
 10
5.2356938634
 20
6.5690829572
 30
0.0
 10
5.2293987494
 20
6.5685565416
 30
0.0
 10
5.2238911268
 20
6.568031338
 30
0.0
 10
5.2191816689
 20
6.5675083225
 30
0.0
 10
5.2152800588
 20
6.5669881865
 30
0.0
 10
5.2129553648
 20
6.5666016836
 30
0.0
 10
5.2119324316
 20
6.5663983949
 30
0.0
 11
5.9726828362
 21
6.6004090741
 31
0.0
 11
5.9726569415
 21
6.6002760632
 31
0.0
 11
5.9725786351
 21
6.6001430536
 31
0.0
 11
5.9724478765
 21
6.6000100452
 31
0.0
 11
5.9722647023
 21
6.599877038
 31
0.0
 11
5.9717414315
 21
6.5996110272
 31
0.0
 11
5.9710094747
 21
6.5993450213
 31
0.0
 11
5.9700694847
 21
6.5990790202
 31
0.0
 11
5.9689221141
 21
6.598813024
 31
0.0
 11
5.9675680156
 21
6.5985470327
 31
0.0
 11
5.9660078417
 21
6.5982810462
 31
0.0
 11
5.9642422453
 21
6.5980150646
 31
0.0
 11
5.9622718788
 21
6.5977490879
 31
0.0
 11
5.9577204279
 21
6.597217149
 31
0.0
 11
5.9523649838
 21
6.5966852297
 31
0.0
 11
5.9462188171
 21
6.5961533299
 31
0.0
 11
5.9392951995
 21
6.5956214496
 31
0.0
 11
5.9316074682
 21
6.5950895888
 31
0.0
 11
5.9140089936
 21
6.594025926
 31
0.0
 11
5.8935838553
 21
6.5929623415
 31
0.0
 11
5.8705047043
 21
6.5918988354
 31
0.0
 11
5.8449786839
 21
6.5908354079
 31
0.0
 11
5.8172257909
 21
6.589772059
 31
0.0
 11
5.7874902259
 21
6.5887087887
 31
0.0
 11
5.7560324018
 21
6.5876455972
 31
0.0
 11
5.7231256709
 21
6.5865824846
 31
0.0
 11
5.6890600284
 21
6.5855194509
 31
0.0
 11
5.6541308469
 21
6.5844564962
 31
0.0
 11
5.6186450294
 21
6.5833936205
 31
0.0
 11
5.5472430911
 21
6.5812681065
 31
0.0
 11
5.4773430542
 21
6.5791429094
 31
0.0
 11
5.4113800028
 21
6.5770180294
 31
0.0
 11
5.3805991503
 21
6.5759557085
 31
0.0
 11
5.3516506489
 21
6.574893467
 31
0.0
 11
5.3247824551
 21
6.5738313049
 31
0.0
 11
5.3002336455
 21
6.572769222
 31
0.0
 11
5.2782137132
 21
6.5717072188
 31
0.0
 11
5.2589175476
 21
6.5706452956
 31
0.0
 11
5.2425121401
 21
6.5695834517
 31
0.0
 11
5.2354377751
 21
6.569052559
 31
0.0
 11
5.2291388808
 21
6.5685216855
 31
0.0
 11
5.2236289692
 21
6.5679908316
 31
0.0
 11
5.2189180222
 21
6.567459998
 31
0.0
 11
5.2150158921
 21
6.5669291855
 31
0.0
 11
5.2119324316
 21
6.5663983949
 31
0.0
  0
SPLINE
  5
395
100
AcDbEntity
  8
0
100
AcDbSpline
 62
6
  6
CONTINUOUS
 70
0
 71
3
 72
11
 73
7
 74
5
 42
0.0000001
 43
0.0000001
 44
0.0000000001
 12
-0.0038879378
 22
-0.0007726543
 32
0.0
 13
-0.0034315763
 23
-0.001984273
 33
0.0
 40
0.0
 40
0.0
 40
0.0
 40
0.0
 40
0.33406789
 40
0.6114375781
 40
0.8328784413
 40
1.0
 40
1.0
 40
1.0
 40
1.0
 10
5.2119324316
 20
6.5663983949
 30
0.0
 10
5.2114994865
 20
6.5663123552
 30
0.0
 10
5.2107092204
 20
6.566143815
 30
0.0
 10
5.2096429243
 20
6.5658688684
 30
0.0
 10
5.208806131
 20
6.5655959015
 30
0.0
 10
5.2083339342
 20
6.5653883644
 30
0.0
 10
5.2081427708
 20
6.5652778261
 30
0.0
 11
5.2119324316
 21
6.5663983949
 31
0.0
 11
5.2106381696
 21
6.5661182443
 31
0.0
 11
5.2095749734
 21
6.5658380996
 31
0.0
 11
5.208743091
 21
6.5655579604
 31
0.0
 11
5.2081427708
 21
6.5652778261
 31
0.0
  0
SPLINE
  5
396
100
AcDbEntity
  8
0
100
AcDbSpline
 62
6
  6
CONTINUOUS
 70
0
 71
3
 72
30
 73
26
 74
24
 42
0.0000001
 43
0.0000001
 44
0.0000000001
 12
-0.4062012171
 22
-0.0111920483
 32
0.0
 13
-0.3517169703
 23
-0.2035187055
 33
0.0
 40
0.0
 40
0.0
 40
0.0
 40
0.0
 40
0.1892549295
 40
0.2817694353
 40
0.3716997534
 40
0.4582654759
 40
0.540698047
 40
0.6182390954
 40
0.6901848112
 40
0.7558907484
 40
0.8147598936
 40
0.8662706387
 40
0.8891119628
 40
0.9099451952
 40
0.9287263349
 40
0.9454117442
 40
0.9599601043
 40
0.9723445475
 40
0.9825463492
 40
0.9868240824
 40
0.9905512427
 40
0.9937276225
 40
0.9963550285
 40
0.9984405042
 40
1.0
 40
1.0
 40
1.0
 40
1.0
 10
5.590637207
 20
6.7799083368
 30
0.0
 10
5.5650120128
 20
6.7792022867
 30
0.0
 10
5.5268603065
 20
6.7781513662
 30
0.0
 10
5.4765330708
 20
6.7767265326
 30
0.0
 10
5.440110529
 20
6.7756664392
 30
0.0
 10
5.405054186
 20
6.7746067968
 30
0.0
 10
5.3716767702
 20
6.7735477948
 30
0.0
 10
5.3402806827
 20
6.7724895712
 30
0.0
 10
5.3111515825
 20
6.7714324304
 30
0.0
 10
5.2845533429
 20
6.7703771231
 30
0.0
 10
5.2607253886
 20
6.7693236709
 30
0.0
 10
5.2427029425
 20
6.7684167854
 30
0.0
 10
5.2298309422
 20
6.7676799831
 30
0.0
 10
5.2213877551
 20
6.7671502836
 30
0.0
 10
5.213780137
 20
6.766621385
 30
0.0
 10
5.2070260265
 20
6.766093521
 30
0.0
 10
5.2011411745
 20
6.765567065
 30
0.0
 10
5.1961384717
 20
6.7650423941
 30
0.0
 10
5.1925278985
 20
6.7645857951
 30
0.0
 10
5.1900902354
 20
6.7642112503
 30
0.0
 10
5.1885986182
 20
6.7639477276
 30
0.0
 10
5.1873344355
 20
6.7636851875
 30
0.0
 10
5.1862975167
 20
6.7634240588
 30
0.0
 10
5.1854881766
 20
6.7631648955
 30
0.0
 10
5.1850331058
 20
6.7629672215
 30
0.0
 10
5.1848502721
 20
6.7628614259
 30
0.0
 11
5.590637207
 21
6.7799083368
 31
0.0
 11
5.5137619781
 21
6.7777773858
 31
0.0
 11
5.4761833224
 21
6.7767115872
 31
0.0
 11
5.4396551867
 21
6.7756462291
 31
0.0
 11
5.4044948764
 21
6.7745808784
 31
0.0
 11
5.3710149071
 21
6.7735154241
 31
0.0
 11
5.3395237038
 21
6.7724499773
 31
0.0
 11
5.3103075946
 21
6.7713845766
 31
0.0
 11
5.2836288985
 21
6.7703191777
 31
0.0
 11
5.2597308425
 21
6.7692537537
 31
0.0
 11
5.2388263078
 21
6.7681883143
 31
0.0
 11
5.2295599133
 21
6.7676555933
 31
0.0
 11
5.2211109951
 21
6.767122875
 31
0.0
 11
5.2134977928
 21
6.7665901622
 31
0.0
 11
5.2067385461
 21
6.7660574578
 31
0.0
 11
5.2008507903
 21
6.7655247643
 31
0.0
 11
5.1958465766
 21
6.7649920816
 31
0.0
 11
5.1917353844
 21
6.7644594081
 31
0.0
 11
5.1900176291
 21
6.7641930743
 31
0.0
 11
5.1885266785
 21
6.7639267422
 31
0.0
 11
5.1872637156
 21
6.7636604117
 31
0.0
 11
5.1862298066
 21
6.7633940825
 31
0.0
 11
5.1854252999
 21
6.7631277541
 31
0.0
 11
5.1848502721
 21
6.7628614259
 31
0.0
  0
SPLINE
  5
397
100
AcDbEntity
  8
0
100
AcDbSpline
 62
6
  6
CONTINUOUS
 70
0
 71
3
 72
37
 73
33
 74
31
 42
0.0000001
 43
0.0000001
 44
0.0000000001
 12
0.0015452406
 22
-0.4070871762
 32
0.0
 13
-0.4069352571
 23
-0.0112273472
 33
0.0
 40
0.0
 40
0.0
 40
0.0
 40
0.0
 40
0.0003449807
 40
0.0007495305
 40
0.001252862
 40
0.001875811
 40
0.0026293602
 40
0.0035196767
 40
0.0057236751
 40
0.008504987
 40
0.01186922
 40
0.0158178057
 40
0.0203504397
 40
0.0254658794
 40
0.0311623322
 40
0.0442893728
 40
0.0597111282
 40
0.0773913312
 40
0.0972841252
 40
0.119342936
 40
0.143520587
 40
0.1697607241
 40
0.228156095
 40
0.2939750847
 40
0.3665868381
 40
0.4452984165
 40
0.5293524104
 40
0.6179225723
 40
0.7101693509
 40
0.8052364967
 40
0.9022067572
 40
1.0
 40
1.0
 40
1.0
 40
1.0
 10
5.9968853741
 20
6.8679010882
 30
0.0
 10
5.9968855518
 20
6.8678542758
 30
0.0
 10
5.9968608941
 20
6.8677518351
 30
0.0
 10
5.9967605105
 20
6.8676115268
 30
0.0
 10
5.9966024373
 20
6.8674749903
 30
0.0
 10
5.9963855932
 20
6.8673394134
 30
0.0
 10
5.9961091218
 20
6.8672037566
 30
0.0
 10
5.9956245071
 20
6.8670084972
 30
0.0
 10
5.9948617824
 20
6.8667725319
 30
0.0
 10
5.9937609379
 20
6.8665033209
 30
0.0
 10
5.9924178383
 20
6.8662328563
 30
0.0
 10
5.9908334152
 20
6.8659612763
 30
0.0
 10
5.9890084701
 20
6.8656890471
 30
0.0
 10
5.9869441355
 20
6.8654162942
 30
0.0
 10
5.983718217
 20
6.8650338442
 30
0.0
 10
5.9790947816
 20
6.8645638637
 30
0.0
 10
5.9728450534
 20
6.8640210412
 30
0.0
 10
5.9656743443
 20
6.863476865
 30
0.0
 10
5.9576008361
 20
6.8629314795
 30
0.0
 10
5.9486438995
 20
6.8623853006
 30
0.0
 10
5.9388242348
 20
6.8618385762
 30
0.0
 10
5.9240780132
 20
6.8610818813
 30
0.0
 10
5.9036830684
 20
6.8601477839
 30
0.0
 10
5.8769965021
 20
6.8590600439
 30
0.0
 10
5.8475511128
 20
6.8579701981
 30
0.0
 10
5.8156298111
 20
6.8568786952
 30
0.0
 10
5.7815418651
 20
6.8557861438
 30
0.0
 10
5.7456163794
 20
6.854692644
 30
0.0
 10
5.7081958027
 20
6.8535985637
 30
0.0
 10
5.6696349133
 20
6.8525037011
 30
0.0
 10
5.6303210928
 20
6.851408791
 30
0.0
 10
5.6039023798
 20
6.8506799296
 30
0.0
 10
5.590637207
 20
6.8503139434
 30
0.0
 11
5.9968853741
 21
6.8679010882
 31
0.0
 11
5.9968553552
 21
6.8677638958
 31
0.0
 11
5.9967642545
 21
6.8676266993
 31
0.0
 11
5.9966120687
 21
6.8674894986
 31
0.0
 11
5.9963987944
 21
6.8673522938
 31
0.0
 11
5.9961244281
 21
6.8672150847
 31
0.0
 11
5.9957889664
 21
6.8670778713
 31
0.0
 11
5.9949347432
 21
6.8668034315
 31
0.0
 11
5.9938362667
 21
6.8665289739
 31
0.0
 11
5.9924945068
 21
6.866254499
 31
0.0
 11
5.9909106866
 21
6.8659800074
 31
0.0
 11
5.9890860296
 21
6.8657054997
 31
0.0
 11
5.9870217588
 21
6.8654309764
 31
0.0
 11
5.9847190976
 21
6.8651564382
 31
0.0
 11
5.9794034968
 21
6.8646073191
 31
0.0
 11
5.9731495183
 21
6.864058147
 31
0.0
 11
5.9659730682
 21
6.8635089246
 31
0.0
 11
5.9578935576
 21
6.862959653
 31
0.0
 11
5.9489304511
 21
6.8624103337
 31
0.0
 11
5.9391033122
 21
6.861860968
 31
0.0
 11
5.9284353501
 21
6.8613115568
 31
0.0
 11
5.9046885875
 21
6.860212599
 31
0.0
 11
5.8779168814
 21
6.8591134611
 31
0.0
 11
5.8483778047
 21
6.8580141159
 31
0.0
 11
5.8163539725
 21
6.8569145181
 31
0.0
 11
5.782154102
 21
6.8558147204
 31
0.0
 11
5.7461148436
 21
6.8547148813
 31
0.0
 11
5.7085782046
 21
6.8536149468
 31
0.0
 11
5.6698929587
 21
6.8525144914
 31
0.0
 11
5.6304326782
 21
6.8514136124
 31
0.0
 11
5.590637207
 21
6.8503139434
 31
0.0
  0
SPLINE
  5
398
100
AcDbEntity
  8
0
100
AcDbSpline
 62
6
  6
CONTINUOUS
 70
0
 71
3
 72
37
 73
33
 74
31
 42
0.0000001
 43
0.0000001
 44
0.0000000001
 12
-0.002326596
 22
-0.4070821255
 32
0.0
 13
-0.406934338
 23
-0.011212248
 33
0.0
 40
0.0
 40
0.0
 40
0.0
 40
0.0
 40
0.0003461818
 40
0.0007528923
 40
0.0012588271
 40
0.0018845279
 40
0.0026408335
 40
0.0035338338
 40
0.0057428095
 40
0.008528683
 40
0.0118976311
 40
0.0158510231
 40
0.0203884575
 40
0.0255085949
 40
0.0312095457
 40
0.0443445963
 40
0.0597730895
 40
0.077460736
 40
0.0973610281
 40
0.1194264168
 40
0.143608966
 40
0.1698544803
 40
0.2282598328
 40
0.2940808335
 40
0.3666905929
 40
0.4453909204
 40
0.5294300928
 40
0.6179836744
 40
0.7102130723
 40
0.8052635208
 40
0.9022195082
 40
1.0
 40
1.0
 40
1.0
 40
1.0
 10
5.9968855129
 20
6.7974926744
 30
0.0
 10
5.9968852445
 20
6.7974456996
 30
0.0
 10
5.9968595431
 20
6.7973430732
 30
0.0
 10
5.9967579495
 20
6.7972027006
 30
0.0
 10
5.9965986993
 20
6.797065988
 30
0.0
 10
5.996380689
 20
6.7969302172
 30
0.0
 10
5.9961030811
 20
6.7967943623
 30
0.0
 10
5.9956170369
 20
6.7965988803
 30
0.0
 10
5.9948526852
 20
6.7963625946
 30
0.0
 10
5.9937499462
 20
6.7960929979
 30
0.0
 10
5.9924049675
 20
6.7958222099
 30
0.0
 10
5.9908186317
 20
6.7955503162
 30
0.0
 10
5.9889917744
 20
6.7952777912
 30
0.0
 10
5.9869255682
 20
6.7950047567
 30
0.0
 10
5.9836973506
 20
6.7946219581
 30
0.0
 10
5.9790713473
 20
6.7941515671
 30
0.0
 10
5.9728186585
 20
6.7936082653
 30
0.0
 10
5.9656450498
 20
6.7930637289
 30
0.0
 10
5.9575686628
 20
6.7925180262
 30
0.0
 10
5.9486091919
 20
6.7919715876
 30
0.0
 10
5.9387872827
 20
6.7914246176
 30
0.0
 10
5.9240383667
 20
6.7906677334
 30
0.0
 10
5.9036411303
 20
6.7897336119
 30
0.0
 10
5.8769532905
 20
6.7886459488
 30
0.0
 10
5.8475095057
 20
6.7875565753
 30
0.0
 10
5.8155920986
 20
6.7864656803
 30
0.0
 10
5.7815100271
 20
6.7853740055
 30
0.0
 10
5.7455912507
 20
6.7842815343
 30
0.0
 10
5.7081776395
 20
6.7831886315
 30
0.0
 10
5.669623403
 20
6.7820950821
 30
0.0
 10
5.6303156067
 20
6.7810016069
 30
0.0
 10
5.6039006203
 20
6.7802737832
 30
0.0
 10
5.590637207
 20
6.7799083368
 30
0.0
 11
5.9968855129
 21
6.7974926744
 31
0.0
 11
5.9968541968
 21
6.7973552712
 31
0.0
 11
5.9967618222
 21
6.7972178687
 31
0.0
 11
5.9966083934
 21
6.7970804668
 31
0.0
 11
5.9963939151
 21
6.7969430653
 31
0.0
 11
5.9961183917
 21
6.7968056641
 31
0.0
 11
5.9957818276
 21
6.7966682631
 31
0.0
 11
5.9949255958
 21
6.7963934611
 31
0.0
 11
5.9938252952
 21
6.7961186584
 31
0.0
 11
5.9924816479
 21
6.7958438546
 31
0.0
 11
5.9908959017
 21
6.7955690499
 31
0.0
 11
5.9890693193
 21
6.7952942445
 31
0.0
 11
5.9870031638
 21
6.7950194386
 31
0.0
 11
5.9846986981
 21
6.7947446325
 31
0.0
 11
5.9793798878
 21
6.7941950205
 31
0.0
 11
5.973123215
 21
6.7936454102
 31
0.0
 11
5.9659437789
 21
6.7930958037
 31
0.0
 11
5.9578612578
 21
6.7925462035
 31
0.0
 11
5.9488955147
 21
6.791996612
 31
0.0
 11
5.939066423
 21
6.7914470316
 31
0.0
 11
5.9283963122
 21
6.7908974647
 31
0.0
 11
5.9046455657
 21
6.7897983812
 31
0.0
 11
5.8778731226
 21
6.7886993793
 31
0.0
 11
5.84833494
 21
6.7876004394
 31
0.0
 11
5.8163157731
 21
6.7865015018
 31
0.0
 11
5.7821220237
 21
6.7854025758
 31
0.0
 11
5.7460896047
 21
6.7843037736
 31
0.0
 11
5.7085601327
 21
6.7832050257
 31
0.0
 11
5.6698817762
 21
6.7821058932
 31
0.0
 11
5.6304273978
 21
6.7810064509
 31
0.0
 11
5.590637207
 21
6.7799083368
 31
0.0
  0
LINE
  5
399
100
AcDbEntity
  8
0
100
AcDbLine
 62
6
  6
CONTINUOUS
 10
5.1870649216
 20
6.7397568888
 11
5.1848840225
 21
6.7405162133
  0
SPLINE
  5
39A
100
AcDbEntity
  8
0
100
AcDbSpline
 62
6
  6
CONTINUOUS
 70
0
 71
3
 72
24
 73
20
 74
18
 42
0.0000001
 43
0.0000001
 44
0.0000000001
 12
-0.0000425512
 22
-0.0549141589
 32
0.0
 13
-0.0548307287
 23
-0.003026194
 33
0.0
 40
0.0
 40
0.0
 40
0.0
 40
0.0
 40
0.0034752162
 40
0.0079330887
 40
0.0138858156
 40
0.0215503203
 40
0.0310256658
 40
0.0423626902
 40
0.0555900495
 40
0.0707250251
 40
0.1067534321
 40
0.1504732092
 40
0.2018640015
 40
0.2608918739
 40
0.32751572
 40
0.4016902586
 40
0.5724185664
 40
0.7721966448
 40
1.0
 40
1.0
 40
1.0
 40
1.0
 10
5.9968860638
 20
6.7271671499
 30
0.0
 10
5.9968860145
 20
6.727103537
 30
0.0
 10
5.9968358089
 20
6.7269584822
 30
0.0
 10
5.9966539761
 20
6.7267753671
 30
0.0
 10
5.9963747659
 20
6.7265956269
 30
0.0
 10
5.9959909557
 20
6.7264164247
 30
0.0
 10
5.9955014366
 20
6.7262362939
 30
0.0
 10
5.9949048443
 20
6.7260556015
 30
0.0
 10
5.9942009647
 20
6.7258743696
 30
0.0
 10
5.9930505705
 20
6.7256171111
 30
0.0
 10
5.9913417956
 20
6.7253032878
 30
0.0
 10
5.9889683516
 20
6.724942814
 30
0.0
 10
5.9861699849
 20
6.7245810814
 30
0.0
 10
5.9829495396
 20
6.7242182914
 30
0.0
 10
5.9793098036
 20
6.7238547786
 30
0.0
 10
5.9736301316
 20
6.723345219
 30
0.0
 10
5.9655141528
 20
6.7227196549
 30
0.0
 10
5.9545860395
 20
6.7219964596
 30
0.0
 10
5.9467723695
 20
6.7215425708
 30
0.0
 10
5.9426088282
 20
6.7213127784
 30
0.0
 11
5.9968860638
 21
6.7271671499
 31
0.0
 11
5.996831727
 21
6.7269842103
 31
0.0
 11
5.9966690606
 21
6.7268012708
 31
0.0
 11
5.996398155
 21
6.7266183319
 31
0.0
 11
5.9960191007
 21
6.7264353942
 31
0.0
 11
5.9955319882
 21
6.7262524582
 31
0.0
 11
5.9949369081
 21
6.7260695244
 31
0.0
 11
5.9942339509
 21
6.7258865933
 31
0.0
 11
5.993423207
 21
6.7257036655
 31
0.0
 11
5.9914788557
 21
6.7253378203
 31
0.0
 11
5.9891060575
 21
6.7249719787
 31
0.0
 11
5.9863077899
 21
6.724606123
 31
0.0
 11
5.9830870393
 21
6.7242402354
 31
0.0
 11
5.9794467925
 21
6.723874298
 31
0.0
 11
5.9753900361
 21
6.7235082933
 31
0.0
 11
5.9660432666
 21
6.7227761013
 31
0.0
 11
5.955097068
 21
6.722044075
 31
0.0
 11
5.9426088282
 21
6.7213127784
 31
0.0
  0
SPLINE
  5
39B
100
AcDbEntity
  8
0
100
AcDbSpline
 62
6
  6
CONTINUOUS
 70
0
 71
3
 72
26
 73
22
 74
20
 42
0.0000001
 43
0.0000001
 44
0.0000000001
 12
0.0893586235
 22
0.0517303945
 32
0.0
 13
0.1032301657
 23
0.0021284282
 33
0.0
 40
0.0
 40
0.0
 40
0.0
 40
0.0
 40
0.0014170935
 40
0.0032789598
 40
0.0083834848
 40
0.015363675
 40
0.0242353993
 40
0.0350024637
 40
0.0476595802
 40
0.0621991557
 40
0.0786126569
 40
0.1170245897
 40
0.1628195435
 40
0.2159179729
 40
0.2762161733
 40
0.3435834327
 40
0.417887136
 40
0.4989943809
 40
0.5867649652
 40
0.7814360032
 40
1.0
 40
1.0
 40
1.0
 40
1.0
 10
5.1917073408
 20
6.5557774564
 30
0.0
 10
5.1917495506
 20
6.555801892
 30
0.0
 10
5.1918530972
 20
6.5558479985
 30
0.0
 10
5.1921271168
 20
6.5559387665
 30
0.0
 10
5.1925961713
 20
6.5560448092
 30
0.0
 10
5.1933072083
 20
6.5561656436
 30
0.0
 10
5.1942154782
 20
6.5562872076
 30
0.0
 10
5.1953202752
 20
6.5564097107
 30
0.0
 10
5.1966211529
 20
6.5565325733
 30
0.0
 10
5.1981170623
 20
6.5566557386
 30
0.0
 10
5.2004981281
 20
6.5568293858
 30
0.0
 10
5.2039547936
 20
6.5570418222
 30
0.0
 10
5.2086741903
 20
6.5572863824
 30
0.0
 10
5.2141477039
 20
6.5575313381
 30
0.0
 10
5.2203643065
 20
6.557776584
 30
0.0
 10
5.2273112363
 20
6.5580219857
 30
0.0
 10
5.2349747567
 20
6.5582674539
 30
0.0
 10
5.2433408325
 20
6.5585129471
 30
0.0
 10
5.2558486433
 20
6.5588519377
 30
0.0
 10
5.2730869077
 20
6.5592697917
 30
0.0
 10
5.2873060704
 20
6.5595767178
 30
0.0
 10
5.2948268696
 20
6.5597317837
 30
0.0
 11
5.1917073408
 21
6.5557774564
 31
0.0
 11
5.1918397293
 21
6.5558397636
 31
0.0
 11
5.1920215994
 21
6.5559020542
 31
0.0
 11
5.192533729
 21
6.5560265857
 31
0.0
 11
5.1932436196
 21
6.5561510513
 31
0.0
 11
5.1941511575
 21
6.5562754513
 31
0.0
 11
5.1952559049
 21
6.5563997856
 31
0.0
 11
5.1965568573
 21
6.5565240537
 31
0.0
 11
5.1980529525
 21
6.5566482549
 31
0.0
 11
5.1997431287
 21
6.5567723885
 31
0.0
 11
5.2037014765
 21
6.5570204502
 31
0.0
 11
5.2084234052
 21
6.5572682336
 31
0.0
 11
5.2139003405
 21
6.5575157336
 31
0.0
 11
5.2201213462
 21
6.5577629584
 31
0.0
 11
5.2270727717
 21
6.5580099315
 31
0.0
 11
5.2347408166
 21
6.5582566769
 31
0.0
 11
5.2431116806
 21
6.5585032188
 31
0.0
 11
5.2521708291
 21
6.5587495742
 31
0.0
 11
5.2722650034
 21
6.5592414922
 31
0.0
 11
5.2948268696
 21
6.5597317837
 31
0.0
  0
LINE
  5
39C
100
AcDbEntity
  8
0
100
AcDbLine
 62
6
  6
CONTINUOUS
 10
5.1860828577
 20
6.6674323015
 11
5.1848774951
 21
6.667919828
  0
SPLINE
  5
39D
100
AcDbEntity
  8
0
100
AcDbSpline
 62
6
  6
CONTINUOUS
 70
0
 71
3
 72
37
 73
33
 74
31
 42
0.0000001
 43
0.0000001
 44
0.0000000001
 12
-0.0008086606
 22
-0.4070891684
 32
0.0
 13
-0.4069349888
 23
-0.0112320915
 33
0.0
 40
0.0
 40
0.0
 40
0.0
 40
0.0
 40
0.0003457274
 40
0.0007516107
 40
0.0012565456
 40
0.0018811879
 40
0.0026364324
 40
0.0035283987
 40
0.0057354541
 40
0.0085196013
 40
0.0118867928
 40
0.0158384105
 40
0.0203740892
 40
0.0254925254
 40
0.0311918658
 40
0.0443241113
 40
0.0597504503
 40
0.0774360815
 40
0.0973345517
 40
0.1193984698
 40
0.1435800464
 40
0.169824839
 40
0.2282291739
 40
0.294049889
 40
0.366659938
 40
0.4453622729
 40
0.5294048152
 40
0.6179628388
 40
0.7101974536
 40
0.8052533692
 40
0.9022145378
 40
1.0
 40
1.0
 40
1.0
 40
1.0
 10
5.9968855165
 20
6.6568550031
 30
0.0
 10
5.9968854233
 20
6.6568080892
 30
0.0
 10
5.996860131
 20
6.6567055293
 30
0.0
 10
5.9967590116
 20
6.6565651717
 30
0.0
 10
5.9966002222
 20
6.6564285154
 30
0.0
 10
5.996382668
 20
6.6562928059
 30
0.0
 10
5.9961055045
 20
6.6561570118
 30
0.0
 10
5.9956200205
 20
6.6559615904
 30
0.0
 10
5.9948563021
 20
6.655725389
 30
0.0
 10
5.9937542905
 20
6.655455892
 30
0.0
 10
5.992410022
 20
6.6551851699
 30
0.0
 10
5.9908244001
 20
6.6549133294
 30
0.0
 10
5.9889982493
 20
6.6546408423
 30
0.0
 10
5.9869327273
 20
6.6543678319
 30
0.0
 10
5.9837053353
 20
6.6539850381
 30
0.0
 10
5.9790802169
 20
6.6535146221
 30
0.0
 10
5.9728284646
 20
6.6529712624
 30
0.0
 10
5.9656556595
 20
6.6524266026
 30
0.0
 10
5.9575799821
 20
6.6518807293
 30
0.0
 10
5.9486210779
 20
6.6513340714
 30
0.0
 10
5.9387995845
 20
6.6507868407
 30
0.0
 10
5.9240510156
 20
6.6500295241
 30
0.0
 10
5.9036540244
 20
6.6490947468
 30
0.0
 10
5.8769662809
 20
6.6480061698
 30
0.0
 10
5.8475221764
 20
6.6469157121
 30
0.0
 10
5.815603948
 20
6.6458235863
 30
0.0
 10
5.7815204876
 20
6.6447305219
 30
0.0
 10
5.745599883
 20
6.6436365266
 30
0.0
 10
5.7081841564
 20
6.6425419761
 30
0.0
 10
5.6696277027
 20
6.6414466669
 30
0.0
 10
5.6303177222
 20
6.6403513328
 30
0.0
 10
5.6039013157
 20
6.6396222112
 30
0.0
 10
5.590637207
 20
6.6392560994
 30
0.0
 11
5.9968855165
 21
6.6568550031
 31
0.0
 11
5.9968547091
 21
6.6567176741
 31
0.0
 11
5.9967628334
 21
6.6565803419
 31
0.0
 11
5.996609891
 21
6.6564430063
 31
0.0
 11
5.9963958836
 21
6.6563056673
 31
0.0
 11
5.9961208127
 21
6.6561683247
 31
0.0
 11
5.9957846799
 21
6.6560309784
 31
0.0
 11
5.9949292349
 21
6.6557562742
 31
0.0
 11
5.9938296346
 21
6.655481554
 31
0.0
 11
5.9924866993
 21
6.6552068177
 31
0.0
 11
5.9909016722
 21
6.6549320658
 31
0.0
 11
5.9890758013
 21
6.6546572988
 31
0.0
 11
5.987010335
 21
6.6543825174
 31
0.0
 11
5.9847065214
 21
6.6541077219
 31
0.0
 11
5.9793888452
 21
6.6535580912
 31
0.0
 11
5.9731330403
 21
6.6530084107
 31
0.0
 11
5.965954415
 21
6.6524586844
 31
0.0
 11
5.957872625
 21
6.6519089153
 31
0.0
 11
5.9489074684
 21
6.6513591066
 31
0.0
 11
5.939078759
 21
6.6508092617
 31
0.0
 11
5.9284089269
 21
6.6502593841
 31
0.0
 11
5.90465856
 21
6.6491595468
 31
0.0
 11
5.8778861921
 21
6.6480596264
 31
0.0
 11
5.8483478447
 21
6.6469596089
 31
0.0
 11
5.8163278083
 21
6.6458594324
 31
0.0
 11
5.7821326304
 21
6.6447591135
 31
0.0
 11
5.7460983429
 21
6.643658781
 31
0.0
 11
5.7085666843
 21
6.6425583778
 31
0.0
 11
5.6698860376
 21
6.6414574774
 31
0.0
 11
5.6304294851
 21
6.6403561687
 31
0.0
 11
5.590637207
 21
6.6392560994
 31
0.0
  0
LINE
  5
39E
100
AcDbEntity
  8
0
100
AcDbLine
 62
6
  6
CONTINUOUS
 10
5.9964236422
 20
6.5869777702
 11
5.9943034834
 21
6.5877071442
  0
SPLINE
  5
39F
100
AcDbEntity
  8
0
100
AcDbSpline
 62
6
  6
CONTINUOUS
 70
0
 71
3
 72
30
 73
26
 74
24
 42
0.0000001
 43
0.0000001
 44
0.0000000001
 12
-0.4062022882
 22
-0.0112433967
 32
0.0
 13
-0.3516869408
 23
-0.2035755599
 33
0.0
 40
0.0
 40
0.0
 40
0.0
 40
0.0
 40
0.1892736794
 40
0.2818046459
 40
0.3717508155
 40
0.4583294784
 40
0.5407715979
 40
0.6183207848
 40
0.6902652756
 40
0.7559681128
 40
0.8148292096
 40
0.8663323895
 40
0.8891704509
 40
0.9099983338
 40
0.9287736471
 40
0.9454543703
 40
0.9599992738
 40
0.9723770275
 40
0.9825702236
 40
0.9868435971
 40
0.9905667061
 40
0.9937395924
 40
0.9963640162
 40
0.9984455837
 40
1.0
 40
1.0
 40
1.0
 40
1.0
 10
5.590637207
 20
6.7094682544
 30
0.0
 10
5.5650094065
 20
6.7087588947
 30
0.0
 10
5.5268528094
 20
6.7077038465
 30
0.0
 10
5.4765184611
 20
6.7062749634
 30
0.0
 10
5.4400896315
 20
6.7052125559
 30
0.0
 10
5.4050279261
 20
6.7041513306
 30
0.0
 10
5.3716461859
 20
6.7030913679
 30
0.0
 10
5.3402476816
 20
6.7020329584
 30
0.0
 10
5.3111178748
 20
6.7009761368
 30
0.0
 10
5.2845211084
 20
6.6999218889
 30
0.0
 10
5.2606954797
 20
6.6988699362
 30
0.0
 10
5.2426753981
 20
6.6979647824
 30
0.0
 10
5.2298054158
 20
6.6972296951
 30
0.0
 10
5.2213640564
 20
6.6967012771
 30
0.0
 10
5.2137584497
 20
6.6961737606
 30
0.0
 10
5.2070060821
 20
6.6956473655
 30
0.0
 10
5.2011230611
 20
6.6951225991
 30
0.0
 10
5.1961227086
 20
6.6945995819
 30
0.0
 10
5.1925146118
 20
6.6941444638
 30
0.0
 10
5.1900790725
 20
6.6937711844
 30
0.0
 10
5.1885889192
 20
6.6935085935
 30
0.0
 10
5.1873259938
 20
6.6932469926
 30
0.0
 10
5.1862902499
 20
6.6929869313
 30
0.0
 10
5.185482276
 20
6.6927288247
 30
0.0
 10
5.1850282078
 20
6.6925318512
 30
0.0
 10
5.1848459852
 20
6.6924263708
 30
0.0
 11
5.590637207
 21
6.7094682544
 31
0.0
 11
5.5137541163
 21
6.7073289696
 31
0.0
 11
5.4761686258
 21
6.706260102
 31
0.0
 11
5.4396338901
 21
6.7051924177
 31
0.0
 11
5.4044681519
 21
6.7041254691
 31
0.0
 11
5.3709841246
 21
6.7030590958
 31
0.0
 11
5.3394894277
 21
6.7019933992
 31
0.0
 11
5.3102736223
 21
6.7009284146
 31
0.0
 11
5.283595982
 21
6.6998640496
 31
0.0
 11
5.2597009824
 21
6.6988002137
 31
0.0
 11
5.2387992915
 21
6.6977368571
 31
0.0
 11
5.2295340987
 21
6.6972053457
 31
0.0
 11
5.2210872238
 21
6.6966739415
 31
0.0
 11
5.2134762492
 21
6.6961426431
 31
0.0
 11
5.2067187521
 21
6.695611449
 31
0.0
 11
5.2008322256
 21
6.6950803579
 31
0.0
 11
5.1958305346
 21
6.694549368
 31
0.0
 11
5.1917226122
 21
6.6940184768
 31
0.0
 11
5.1900064957
 21
6.6937530674
 31
0.0
 11
5.1885170391
 21
6.6934876819
 31
0.0
 11
5.1872553149
 21
6.6932223198
 31
0.0
 11
5.1862223957
 21
6.6929569809
 31
0.0
 11
5.1854192215
 21
6.6926916648
 31
0.0
 11
5.1848459852
 21
6.6924263708
 31
0.0
  0
LINE
  5
3A0
100
AcDbEntity
  8
0
100
AcDbLine
 62
6
  6
CONTINUOUS
 10
5.1870560723
 20
6.5946612649
 11
5.1848799373
 21
6.5954175462
  0
SPLINE
  5
3A1
100
AcDbEntity
  8
0
100
AcDbSpline
 62
6
  6
CONTINUOUS
 70
0
 71
3
 72
30
 73
26
 74
24
 42
0.0000001
 43
0.0000001
 44
0.0000000001
 12
-0.4062008612
 22
-0.0112118284
 32
0.0
 13
-0.3517141808
 23
-0.2035239047
 33
0.0
 40
0.0
 40
0.0
 40
0.0
 40
0.0
 40
0.1892440541
 40
0.2817528227
 40
0.3716778616
 40
0.4582400144
 40
0.5406707048
 40
0.6182105496
 40
0.6901551068
 40
0.7558606991
 40
0.8147302163
 40
0.8662425548
 40
0.8890851006
 40
0.9099197471
 40
0.928702617
 40
0.945390197
 40
0.959941204
 40
0.972328641
 40
0.9825338011
 40
0.9868133602
 40
0.9905424507
 40
0.9937208714
 40
0.9963504263
 40
0.998438151
 40
1.0
 40
1.0
 40
1.0
 40
1.0
 10
5.590637207
 20
6.6392560994
 30
0.0
 10
5.5650135078
 20
6.6385488421
 30
0.0
 10
5.5268640863
 20
6.6374960476
 30
0.0
 10
5.476539869
 20
6.6360685545
 30
0.0
 10
5.440119346
 20
6.6350064268
 30
0.0
 10
5.4050645038
 20
6.6339446957
 30
0.0
 10
5.3716880416
 20
6.6328835638
 30
0.0
 10
5.3402925871
 20
6.6318231873
 30
0.0
 10
5.3111639189
 20
6.630763874
 30
0.0
 10
5.284565906
 20
6.6297064031
 30
0.0
 10
5.2607378164
 20
6.6286507831
 30
0.0
 10
5.2427150219
 20
6.6277420513
 30
0.0
 10
5.2298425266
 20
6.627003766
 30
0.0
 10
5.2213988098
 20
6.6264729993
 30
0.0
 10
5.21379054
 20
6.6259430413
 30
0.0
 10
5.2070356185
 20
6.6254141273
 30
0.0
 10
5.2011497938
 20
6.6248866349
 30
0.0
 10
5.1961459703
 20
6.6243609354
 30
0.0
 10
5.1925343891
 20
6.623903455
 30
0.0
 10
5.1900958583
 20
6.6235282024
 30
0.0
 10
5.1886035323
 20
6.6232641736
 30
0.0
 10
5.1873386062
 20
6.62300113
 30
0.0
 10
5.1863009146
 20
6.6227394987
 30
0.0
 10
5.1854907719
 20
6.6224798325
 30
0.0
 10
5.1850351786
 20
6.6222818058
 30
0.0
 10
5.1848520704
 20
6.6221758479
 30
0.0
 11
5.590637207
 21
6.6392560994
 31
0.0
 11
5.5137664684
 21
6.6371213576
 31
0.0
 11
5.4761901837
 21
6.6360535737
 31
0.0
 11
5.4396642367
 21
6.6349861767
 31
0.0
 11
5.4045054248
 21
6.6339187276
 31
0.0
 11
5.3710262728
 21
6.6328511275
 31
0.0
 11
5.3395356178
 21
6.6317835097
 31
0.0
 11
5.3103200457
 21
6.6307159281
 31
0.0
 11
5.2836415647
 21
6.6296483442
 31
0.0
 11
5.2597434436
 21
6.628580738
 31
0.0
 11
5.2388383615
 21
6.6275131293
 31
0.0
 11
5.2295715273
 21
6.6269793317
 31
0.0
 11
5.2211220969
 21
6.6264455432
 31
0.0
 11
5.2135082607
 21
6.6259117675
 31
0.0
 11
5.2067482093
 21
6.6253780081
 31
0.0
 11
5.2008594655
 21
6.6248442683
 31
0.0
 11
5.1958541365
 21
6.6243105484
 31
0.0
 11
5.1917416994
 21
6.6237768475
 31
0.0
 11
5.1900232715
 21
6.6235100039
 31
0.0
 11
5.188531614
 21
6.6232431647
 31
0.0
 11
5.1872679094
 21
6.6229763297
 31
0.0
 11
5.1862332274
 21
6.6227094989
 31
0.0
 11
5.1854279228
 21
6.6224426717
 31
0.0
 11
5.1848520704
 21
6.6221758479
 31
0.0
  0
SPLINE
  5
3A2
100
AcDbEntity
  8
0
100
AcDbSpline
 62
6
  6
CONTINUOUS
 70
0
 71
3
 72
13
 73
9
 74
7
 42
0.0000001
 43
0.0000001
 44
0.0000000001
 12
0.2131275998
 22
-0.1104991763
 32
0.0
 13
0.2400173984
 23
0.0050090146
 33
0.0
 40
0.0
 40
0.0
 40
0.0
 40
0.0
 40
0.2376951987
 40
0.3605447741
 40
0.4855922031
 40
0.7406917261
 40
0.8700463844
 40
1.0
 40
1.0
 40
1.0
 40
1.0
 10
5.3584920934
 20
1.7883346226
 30
0.0
 10
5.3753785625
 20
1.7795795814
 30
0.0
 10
5.4019984956
 20
1.7681514537
 30
0.0
 10
5.4390374455
 20
1.7563454462
 30
0.0
 10
5.4781014936
 20
1.7465452897
 30
0.0
 10
5.5185087081
 20
1.7402930981
 30
0.0
 10
5.5595982992
 20
1.7375653026
 30
0.0
 10
5.5803632676
 20
1.7373993738
 30
0.0
 10
5.5907603105
 20
1.7376163537
 30
0.0
 11
5.3584920934
 21
1.7883346226
 31
0.0
 11
5.4108607152
 21
1.7656683546
 31
0.0
 11
5.4389542326
 21
1.7566928752
 31
0.0
 11
5.4680689537
 21
1.7493758369
 31
0.0
 11
5.528577703
 21
1.739929586
 31
0.0
 11
5.5595634161
 21
1.7378693659
 31
0.0
 11
5.5907603105
 21
1.7376163537
 31
0.0
  0
SPLINE
  5
3A3
100
AcDbEntity
  8
0
100
AcDbSpline
 62
6
  6
CONTINUOUS
 70
0
 71
3
 72
14
 73
10
 74
8
 42
0.0000001
 43
0.0000001
 44
0.0000000001
 12
0.2350077877
 22
0.0049044671
 32
0.0
 13
0.2062947357
 23
0.1126729608
 33
0.0
 40
0.0
 40
0.0
 40
0.0
 40
0.0
 40
0.2566321826
 40
0.3842306107
 40
0.5108036252
 40
0.6359845761
 40
0.7594414122
 40
0.8808693074
 40
1.0
 40
1.0
 40
1.0
 40
1.0
 10
5.5907603105
 20
1.7376163537
 30
0.0
 10
5.610863831
 20
1.7380359017
 30
0.0
 10
5.6409652901
 20
1.740344913
 30
0.0
 10
5.680480204
 20
1.7467942536
 30
0.0
 10
5.7095103881
 20
1.7532599521
 30
0.0
 10
5.7377960805
 20
1.7613356227
 30
0.0
 10
5.7651638744
 20
1.7709704403
 30
0.0
 10
5.79144224
 20
1.7821046477
 30
0.0
 10
5.8082972739
 20
1.7905777462
 30
0.0
 10
5.8164892855
 20
1.7950520155
 30
0.0
 11
5.5907603105
 21
1.7376163537
 31
0.0
 11
5.6509054363
 21
1.7422544406
 31
0.0
 11
5.6805061891
 21
1.7470902134
 31
0.0
 11
5.7095444028
 21
1.7535687048
 31
0.0
 11
5.7378357878
 21
1.7616571228
 31
0.0
 11
5.7652041544
 21
1.7713065655
 31
0.0
 11
5.7914778865
 21
1.7824590344
 31
0.0
 11
5.8164892855
 21
1.7950520155
 31
0.0
  0
SPLINE
  5
3A4
100
AcDbEntity
  8
0
100
AcDbSpline
 62
6
  6
CONTINUOUS
 70
0
 71
3
 72
37
 73
33
 74
31
 42
0.0000001
 43
0.0000001
 44
0.0000000001
 12
-0.0029110477
 22
0.4071304386
 32
0.0
 13
0.4069766204
 23
0.0115628146
 33
0.0
 40
0.0
 40
0.0
 40
0.0
 40
0.0
 40
0.0003554916
 40
0.0007685964
 40
0.0012784777
 40
0.0019064581
 40
0.0026639619
 40
0.0035574672
 40
0.0057663009
 40
0.0085509712
 40
0.0119174002
 40
0.0158673684
 40
0.0204008136
 40
0.0255166766
 40
0.0312133129
 40
0.0443404804
 40
0.0597622456
 40
0.0774415661
 40
0.0973329061
 40
0.1193900484
 40
0.1435660355
 40
0.169803946
 40
0.2281938805
 40
0.2940074428
 40
0.3666131756
 40
0.445319724
 40
0.5293684112
 40
0.6179339767
 40
0.710177469
 40
0.8052428673
 40
0.9022109037
 40
1.0
 40
1.0
 40
1.0
 40
1.0
 10
5.1843890519
 20
7.0310482736
 30
0.0
 10
5.1843887069
 20
7.0310965175
 30
0.0
 10
5.184412693
 20
7.0312016832
 30
0.0
 10
5.1845123622
 20
7.0313467894
 30
0.0
 10
5.1846700639
 20
7.0314880087
 30
0.0
 10
5.1848865665
 20
7.0316281555
 30
0.0
 10
5.1851627035
 20
7.0317683167
 30
0.0
 10
5.1856465717
 20
7.0319699038
 30
0.0
 10
5.1864086578
 20
7.032213596
 30
0.0
 10
5.1875089324
 20
7.0324916082
 30
0.0
 10
5.188851382
 20
7.0327708922
 30
0.0
 10
5.1904350864
 20
7.0330512914
 30
0.0
 10
5.1922592936
 20
7.0333323405
 30
0.0
 10
5.1943229052
 20
7.0336139106
 30
0.0
 10
5.1975478505
 20
7.0340086973
 30
0.0
 10
5.20217037
 20
7.034493797
 30
0.0
 10
5.208419256
 20
7.0350540065
 30
0.0
 10
5.215589213
 20
7.0356155843
 30
0.0
 10
5.2236619995
 20
7.0361783441
 30
0.0
 10
5.2326183352
 20
7.0367418626
 30
0.0
 10
5.2424374969
 20
7.0373058702
 30
0.0
 10
5.257183053
 20
7.0380864166
 30
0.0
 10
5.2775774137
 20
7.0390498069
 30
0.0
 10
5.3042636205
 20
7.0401714257
 30
0.0
 10
5.3337091809
 20
7.0412950492
 30
0.0
 10
5.3656310797
 20
7.042420163
 30
0.0
 10
5.3997201626
 20
7.0435462001
 30
0.0
 10
5.4356473101
 20
7.0446730285
 30
0.0
 10
5.4730702623
 20
7.0458003026
 30
0.0
 10
5.5116340235
 20
7.0469282261
 30
0.0
 10
5.5509507156
 20
7.0480560372
 30
0.0
 10
5.5773712484
 20
7.0488066988
 30
0.0
 10
5.590637207
 20
7.0491836046
 30
0.0
 11
5.1843890519
 21
7.0310482736
 31
0.0
 11
5.184418582
 21
7.0311899643
 31
0.0
 11
5.1845092033
 21
7.0313316551
 31
0.0
 11
5.1846609226
 21
7.0314733461
 31
0.0
 11
5.1848737465
 21
7.0316150373
 31
0.0
 11
5.185147682
 21
7.031756729
 31
0.0
 11
5.1854827359
 21
7.031898421
 31
0.0
 11
5.1863362256
 21
7.0321818064
 31
0.0
 11
5.1874339903
 21
7.032465194
 31
0.0
 11
5.1887749841
 21
7.0327485834
 31
0.0
 11
5.1903580114
 21
7.0330319742
 31
0.0
 11
5.1921818768
 21
7.0333153662
 31
0.0
 11
5.1942453846
 21
7.0335987589
 31
0.0
 11
5.1965473392
 21
7.0338821519
 31
0.0
 11
5.2018618071
 21
7.0344489376
 31
0.0
 11
5.2081150038
 21
7.0350157202
 31
0.0
 11
5.2152906283
 21
7.0355824971
 31
0.0
 11
5.2233693487
 21
7.0361492656
 31
0.0
 11
5.2323318102
 21
7.0367160231
 31
0.0
 11
5.2421585124
 21
7.037282767
 31
0.0
 11
5.2528259938
 21
7.0378494968
 31
0.0
 11
5.2765718865
 21
7.0389829226
 31
0.0
 11
5.3033432948
 21
7.0401163191
 31
0.0
 11
5.3328823178
 21
7.0412497296
 31
0.0
 11
5.3649069155
 21
7.042383211
 31
0.0
 11
5.3991077907
 21
7.0435167129
 31
0.0
 11
5.435148634
 21
7.0446500805
 31
0.0
 11
5.472687624
 21
7.045783389
 31
0.0
 11
5.5113760237
 21
7.0469170858
 31
0.0
 11
5.5508393832
 21
7.048051054
 31
0.0
 11
5.590637207
 21
7.0491836046
 31
0.0
  0
SPLINE
  5
3A5
100
AcDbEntity
  8
0
100
AcDbSpline
 62
6
  6
CONTINUOUS
 70
0
 71
3
 72
37
 73
33
 74
31
 42
0.0000001
 43
0.0000001
 44
0.0000000001
 12
0.0048819253
 22
0.407105561
 32
0.0
 13
0.4069736146
 23
0.011456352
 33
0.0
 40
0.0
 40
0.0
 40
0.0
 40
0.0
 40
0.000357532
 40
0.0007747002
 40
0.0012896455
 40
0.0019230677
 40
0.0026860694
 40
0.0035849515
 40
0.0058037699
 40
0.0085975775
 40
0.0119735125
 40
0.0159332646
 40
0.0204765167
 40
0.0256019567
 40
0.0313076888
 40
0.0444506013
 40
0.0598846175
 40
0.0775767266
 40
0.0974805351
 40
0.1195482811
 40
0.1437318077
 40
0.1699774067
 40
0.2283810463
 40
0.2941975528
 40
0.3668008509
 40
0.4454920287
 40
0.5295198857
 40
0.618058756
 40
0.7102698127
 40
0.8053004299
 40
0.9022375189
 40
1.0
 40
1.0
 40
1.0
 40
1.0
 10
5.1843889923
 20
6.958644184
 30
0.0
 10
5.1843895742
 20
6.9586927018
 30
0.0
 10
5.1844157245
 20
6.9587981537
 30
0.0
 10
5.1845179358
 20
6.9589432145
 30
0.0
 10
5.1846780816
 20
6.9590846112
 30
0.0
 10
5.184896999
 20
6.9592249817
 30
0.0
 10
5.1851754847
 20
6.9593653789
 30
0.0
 10
5.1856623133
 20
6.9595671822
 30
0.0
 10
5.1864277415
 20
6.9598112411
 30
0.0
 10
5.1875318904
 20
6.9600897192
 30
0.0
 10
5.1888781896
 20
6.9603693318
 30
0.0
 10
5.1904658263
 20
6.9606500324
 30
0.0
 10
5.1922939703
 20
6.9609313426
 30
0.0
 10
5.1943614205
 20
6.9612131395
 30
0.0
 10
5.1975909973
 20
6.9616081361
 30
0.0
 10
5.2022184866
 20
6.9620934395
 30
0.0
 10
5.2084728164
 20
6.9626538789
 30
0.0
 10
5.2156477771
 20
6.9632154081
 30
0.0
 10
5.2237253348
 20
6.9637779871
 30
0.0
 10
5.2326857218
 20
6.9643411643
 30
0.0
 10
5.2425082746
 20
6.9649047349
 30
0.0
 10
5.2572575945
 20
6.9656843373
 30
0.0
 10
5.2776550411
 20
6.9666460179
 30
0.0
 10
5.3043428919
 20
6.9677650725
 30
0.0
 10
5.3337861362
 20
6.9688850973
 30
0.0
 10
5.365702469
 20
6.9700058812
 30
0.0
 10
5.3997826837
 20
6.9711265802
 30
0.0
 10
5.4356986379
 20
6.9722471887
 30
0.0
 10
5.4731085021
 20
6.9733672789
 30
0.0
 10
5.5116586036
 20
6.9744870418
 30
0.0
 10
5.5509624383
 20
6.9756057171
 30
0.0
 10
5.5773749569
 20
6.9763496141
 30
0.0
 10
5.590637207
 20
6.9767229479
 30
0.0
 11
5.1843889923
 21
6.958644184
 31
0.0
 11
5.1844212191
 21
6.9587861355
 31
0.0
 11
5.184514488
 21
6.9589280786
 31
0.0
 11
5.1846687883
 21
6.9590700131
 31
0.0
 11
5.1848841098
 21
6.9592119392
 31
0.0
 11
5.1851604419
 21
6.9593538568
 31
0.0
 11
5.1854977742
 21
6.9594957659
 31
0.0
 11
5.1863553975
 21
6.9597795588
 31
0.0
 11
5.187456891
 21
6.9600633177
 31
0.0
 11
5.1888017488
 21
6.9603470425
 31
0.0
 11
5.190388745
 21
6.960630733
 31
0.0
 11
5.1922165824
 21
6.9609143887
 31
0.0
 11
5.1942839636
 21
6.9611980091
 31
0.0
 11
5.1965895912
 21
6.9614815941
 31
0.0
 11
5.2019103969
 21
6.9620486557
 31
0.0
 11
5.2081684968
 21
6.9626155705
 31
0.0
 11
5.2153492387
 21
6.963182333
 31
0.0
 11
5.2234329396
 21
6.9637489353
 31
0.0
 11
5.2323996144
 21
6.9643153689
 31
0.0
 11
5.2422292738
 21
6.9648816257
 31
0.0
 11
5.2528997667
 21
6.9654476977
 31
0.0
 11
5.2766509829
 21
6.9665792593
 31
0.0
 11
5.3034233072
 21
6.9677099993
 31
0.0
 11
5.3329610359
 21
6.9688398942
 31
0.0
 11
5.3649790542
 21
6.9699689557
 31
0.0
 11
5.3991711147
 21
6.9710971269
 31
0.0
 11
5.4352007472
 21
6.9722242423
 31
0.0
 11
5.472726188
 21
6.9733503243
 31
0.0
 11
5.5114000892
 21
6.9744758013
 31
0.0
 11
5.5508505233
 21
6.9756005828
 31
0.0
 11
5.590637207
 21
6.9767229479
 31
0.0
  0
SPLINE
  5
3A6
100
AcDbEntity
  8
0
100
AcDbSpline
 62
6
  6
CONTINUOUS
 70
0
 71
3
 72
37
 73
33
 74
31
 42
0.0000001
 43
0.0000001
 44
0.0000000001
 12
-0.0038912749
 22
0.4071198305
 32
0.0
 13
0.4069745928
 23
0.0115489942
 33
0.0
 40
0.0
 40
0.0
 40
0.0
 40
0.0
 40
0.0003546462
 40
0.0007667318
 40
0.0012755639
 40
0.0019025239
 40
0.0026590555
 40
0.0035516428
 40
0.0057588098
 40
0.0085419085
 40
0.0119067884
 40
0.0158552462
 40
0.0203872409
 40
0.0255017371
 40
0.0311971156
 40
0.0443222019
 40
0.0597424037
 40
0.0774202892
 40
0.0973104058
 40
0.1193666414
 40
0.1435421059
 40
0.1697796818
 40
0.2281693782
 40
0.2939832064
 40
0.3665896743
 40
0.4452978233
 40
0.5293487609
 40
0.6179172385
 40
0.7101643074
 40
0.8052340352
 40
0.9022066458
 40
1.0
 40
1.0
 40
1.0
 40
1.0
 10
5.184389069
 20
6.886003416
 30
0.0
 10
5.184388609
 20
6.8860515439
 30
0.0
 10
5.1844123394
 20
6.8861565196
 30
0.0
 10
5.1845117057
 20
6.886301368
 30
0.0
 10
5.1846690996
 20
6.8864423027
 30
0.0
 10
5.1848852952
 20
6.886582163
 30
0.0
 10
5.1851611322
 20
6.886722038
 30
0.0
 10
5.1856446359
 20
6.8869232363
 30
0.0
 10
5.1864062825
 20
6.8871664308
 30
0.0
 10
5.1875060212
 20
6.8874438778
 30
0.0
 10
5.188847937
 20
6.8877225983
 30
0.0
 10
5.1904311094
 20
6.8880024333
 30
0.0
 10
5.1922547979
 20
6.8882829177
 30
0.0
 10
5.1943179156
 20
6.888563923
 30
0.0
 10
5.1975422935
 20
6.8889579276
 30
0.0
 10
5.2021642167
 20
6.8894420597
 30
0.0
 10
5.2084124733
 20
6.890001144
 30
0.0
 10
5.2155818992
 20
6.890561612
 30
0.0
 10
5.2236542294
 20
6.8911232635
 30
0.0
 10
5.2326102201
 20
6.8916856787
 30
0.0
 10
5.2424291466
 20
6.8922485847
 30
0.0
 10
5.2571745455
 20
6.8930276235
 30
0.0
 10
5.2775688293
 20
6.8939891741
 30
0.0
 10
5.3042550688
 20
6.8951086903
 30
0.0
 10
5.3337008852
 20
6.8962302664
 30
0.0
 10
5.3656232866
 20
6.8973533948
 30
0.0
 10
5.3997131476
 20
6.8984775294
 30
0.0
 10
5.4356413249
 20
6.899602541
 30
0.0
 10
5.473065575
 20
6.9007280992
 30
0.0
 10
5.5116308484
 20
6.9018544152
 30
0.0
 10
5.5509491362
 20
6.9029807359
 30
0.0
 10
5.5773707369
 20
6.903730489
 30
0.0
 10
5.590637207
 20
6.9041069606
 30
0.0
 11
5.184389069
 21
6.886003416
 31
0.0
 11
5.1844182633
 21
6.8861448239
 31
0.0
 11
5.1845085548
 21
6.8862862318
 31
0.0
 11
5.1846599522
 21
6.8864276397
 31
0.0
 11
5.1848724638
 21
6.8865690478
 31
0.0
 11
5.1851460982
 21
6.886710456
 31
0.0
 11
5.1854808638
 21
6.8868518645
 31
0.0
 11
5.1863338212
 21
6.8871346826
 31
0.0
 11
5.1874310646
 21
6.8874175023
 31
0.0
 11
5.1887715254
 21
6.8877003236
 31
0.0
 11
5.19035402
 21
6.8879831463
 31
0.0
 11
5.1921773648
 21
6.8882659702
 31
0.0
 11
5.1942403762
 21
6.8885487952
 31
0.0
 11
5.1965418708
 21
6.8888316211
 31
0.0
 11
5.2018555752
 21
6.8893972749
 31
0.0
 11
5.2081081975
 21
6.8899629303
 31
0.0
 11
5.2152832815
 21
6.8905285852
 31
0.0
 11
5.2233615326
 21
6.8910942376
 31
0.0
 11
5.2323236408
 21
6.891659885
 31
0.0
 11
5.2421501349
 21
6.8922255253
 31
0.0
 11
5.2528174746
 21
6.8927911591
 31
0.0
 11
5.276563232
 21
6.8939224189
 31
0.0
 11
5.3033346793
 21
6.8950536917
 31
0.0
 11
5.3328739053
 21
6.8961850337
 31
0.0
 11
5.3648990352
 21
6.897316517
 31
0.0
 11
5.3991006871
 21
6.8984481021
 31
0.0
 11
5.4351425597
 21
6.8995796426
 31
0.0
 11
5.4726828353
 21
6.9007112254
 31
0.0
 11
5.5113728157
 21
6.9018433089
 31
0.0
 11
5.5508378466
 21
6.9029757813
 31
0.0
 11
5.590637207
 21
6.9041069606
 31
0.0
  0
SPLINE
  5
3A7
100
AcDbEntity
  8
0
100
AcDbSpline
 62
6
  6
CONTINUOUS
 70
0
 71
3
 72
37
 73
33
 74
31
 42
0.0000001
 43
0.0000001
 44
0.0000000001
 12
0.0048203962
 22
0.4071064819
 32
0.0
 13
0.4069707587
 23
0.01156397
 33
0.0
 40
0.0
 40
0.0
 40
0.0
 40
0.0
 40
0.000356807
 40
0.0007733502
 40
0.0012877879
 40
0.001920798
 40
0.0026834593
 40
0.0035820552
 40
0.0058004204
 40
0.0085938851
 40
0.0119695489
 40
0.0159290807
 40
0.020472153
 40
0.0255974469
 40
0.031303062
 40
0.0444458186
 40
0.0598797734
 40
0.0775719115
 40
0.0974758123
 40
0.1195436855
 40
0.1437273477
 40
0.1699731143
 40
0.2283771734
 40
0.2941940735
 40
0.3667977567
 40
0.4454891825
 40
0.5295172195
 40
0.6180564747
 40
0.7102682024
 40
0.8052995012
 40
0.9022370844
 40
1.0
 40
1.0
 40
1.0
 40
1.0
 10
5.1843889771
 20
6.8135216483
 30
0.0
 10
5.1843895504
 20
6.8135700678
 30
0.0
 10
5.1844157009
 20
6.8136753381
 30
0.0
 10
5.1845179047
 20
6.8138200958
 30
0.0
 10
5.1846780245
 20
6.8139612007
 30
0.0
 10
5.1848969154
 20
6.8141012934
 30
0.0
 10
5.1851753759
 20
6.8142414245
 30
0.0
 10
5.1856621938
 20
6.8144428685
 30
0.0
 10
5.1864275974
 20
6.8146865086
 30
0.0
 10
5.1875317084
 20
6.8149645407
 30
0.0
 10
5.1888779769
 20
6.815243741
 30
0.0
 10
5.1904655879
 20
6.8155240635
 30
0.0
 10
5.1922937101
 20
6.8158050305
 30
0.0
 10
5.1943611422
 20
6.8160865197
 30
0.0
 10
5.1975907091
 20
6.816481138
 30
0.0
 10
5.2022181914
 20
6.8169660801
 30
0.0
 10
5.2084725217
 20
6.817526252
 30
0.0
 10
5.215647502
 20
6.8180876697
 30
0.0
 10
5.2237250934
 20
6.8186502992
 30
0.0
 10
5.2326855188
 20
6.8192136939
 30
0.0
 10
5.242508112
 20
6.819777655
 30
0.0
 10
5.2572574952
 20
6.8205580426
 30
0.0
 10
5.2776550142
 20
6.8215211879
 30
0.0
 10
5.3043429361
 20
6.8226427042
 30
0.0
 10
5.3337862086
 20
6.8237659893
 30
0.0
 10
5.3657025218
 20
6.8248908746
 30
0.0
 10
5.3997826981
 20
6.8260165538
 30
0.0
 10
5.4356986518
 20
6.8271430607
 30
0.0
 10
5.473108563
 20
6.8282700068
 30
0.0
 10
5.5116587039
 20
6.8293976233
 30
0.0
 10
5.5509625215
 20
6.8305251801
 30
0.0
 10
5.5773749911
 20
6.8312756967
 30
0.0
 10
5.590637207
 20
6.8316525391
 30
0.0
 11
5.1843889771
 21
6.8135216483
 31
0.0
 11
5.1844211794
 21
6.8136633027
 31
0.0
 11
5.1845144248
 21
6.8138049567
 31
0.0
 11
5.1846687029
 21
6.8139466102
 31
0.0
 11
5.1848840034
 21
6.8140882634
 31
0.0
 11
5.1851603157
 21
6.8142299163
 31
0.0
 11
5.1854976295
 21
6.814371569
 31
0.0
 11
5.1863552202
 21
6.8146548742
 31
0.0
 11
5.1874566868
 21
6.8149381796
 31
0.0
 11
5.1888015207
 21
6.8152214857
 31
0.0
 11
5.1903884951
 21
6.8155047927
 31
0.0
 11
5.1922163131
 21
6.8157881007
 31
0.0
 11
5.1942836778
 21
6.81607141
 31
0.0
 11
5.1965892924
 21
6.8163547207
 31
0.0
 11
5.201910083
 21
6.8169213472
 31
0.0
 11
5.2081681862
 21
6.8174879815
 31
0.0
 11
5.2153489527
 21
6.818054623
 31
0.0
 11
5.2234326921
 21
6.8186212682
 31
0.0
 11
5.2323994095
 21
6.8191879136
 31
0.0
 11
5.2422291065
 21
6.8197545557
 31
0.0
 11
5.2528996428
 21
6.8203211913
 31
0.0
 11
5.2766509608
 21
6.8214544339
 31
0.0
 11
5.3034233542
 21
6.8225876252
 31
0.0
 11
5.3329611286
 21
6.8237207798
 31
0.0
 11
5.3649791177
 21
6.8248539476
 31
0.0
 11
5.3991711021
 21
6.8259871105
 31
0.0
 11
5.4352007225
 21
6.8271201432
 31
0.0
 11
5.4727262468
 21
6.8282531081
 31
0.0
 11
5.511400213
 21
6.829386473
 31
0.0
 11
5.5508506111
 21
6.8305201823
 31
0.0
 11
5.590637207
 21
6.8316525391
 31
0.0
  0
SPLINE
  5
3A8
100
AcDbEntity
  8
0
100
AcDbSpline
 62
6
  6
CONTINUOUS
 70
0
 71
3
 72
11
 73
7
 74
5
 42
0.0000001
 43
0.0000001
 44
0.0000000001
 12
0.1496708515
 22
-0.0454127865
 32
0.0
 13
0.1563766314
 23
0.0031676683
 33
0.0
 40
0.0
 40
0.0
 40
0.0
 40
0.0
 40
0.2443132459
 40
0.4933274944
 40
0.745701803
 40
1.0
 40
1.0
 40
1.0
 40
1.0
 10
5.4357156052
 20
1.4631746403
 30
0.0
 10
5.4479044624
 20
1.4594763252
 30
0.0
 10
5.4728440968
 20
1.453050092
 30
0.0
 10
5.5111851609
 20
1.4463813488
 30
0.0
 10
5.5504470356
 20
1.4426743216
 30
0.0
 10
5.5768888987
 20
1.4422028794
 30
0.0
 10
5.5901443305
 20
1.4424713902
 30
0.0
 11
5.4357156052
 21
1.4631746403
 31
0.0
 11
5.4727107588
 21
1.453605389
 31
0.0
 11
5.5110790771
 21
1.4469107139
 31
0.0
 11
5.5503762516
 21
1.4431834536
 31
0.0
 11
5.5901443305
 21
1.4424713902
 31
0.0
  0
LINE
  5
3A9
100
AcDbEntity
  8
0
100
AcDbLine
 62
6
  6
CONTINUOUS
 10
5.5901443305
 20
1.4424713902
 11
5.5907900607
 21
1.442484871
  0
SPLINE
  5
3AA
100
AcDbEntity
  8
0
100
AcDbSpline
 62
6
  6
CONTINUOUS
 70
0
 71
3
 72
11
 73
7
 74
5
 42
0.0000001
 43
0.0000001
 44
0.0000000001
 12
0.1541208812
 22
0.003313111
 32
0.0
 13
0.1459121147
 23
0.049738089
 33
0.0
 40
0.0
 40
0.0
 40
0.0
 40
0.0
 40
0.2528074691
 40
0.5046339668
 40
0.7541211294
 40
1.0
 40
1.0
 40
1.0
 40
1.0
 10
5.5907900607
 20
1.442484871
 30
0.0
 10
5.6037776973
 20
1.4427640641
 30
0.0
 10
5.6296919156
 20
1.4442896754
 30
0.0
 10
5.6681337256
 20
1.4494481923
 30
0.0
 10
5.7057237336
 20
1.457444794
 30
0.0
 10
5.730164104
 20
1.4646715209
 30
0.0
 10
5.742123006
 20
1.4687480359
 30
0.0
 11
5.5907900607
 21
1.442484871
 31
0.0
 11
5.6296945617
 21
1.4447760913
 31
0.0
 11
5.6681685589
 21
1.4499527103
 31
0.0
 11
5.705783337
 21
1.4579717535
 31
0.0
 11
5.742123006
 21
1.4687480359
 31
0.0
  0
SPLINE
  5
3AB
100
AcDbEntity
  8
0
100
AcDbSpline
 62
6
  6
CONTINUOUS
 70
0
 71
3
 72
37
 73
33
 74
31
 42
0.0000001
 43
0.0000001
 44
0.0000000001
 12
-0.0045199151
 22
0.4071212226
 32
0.0
 13
0.4069835041
 23
0.0115129006
 33
0.0
 40
0.0
 40
0.0
 40
0.0
 40
0.0
 40
0.0003566108
 40
0.0007701812
 40
0.0012800537
 40
0.0019077327
 40
0.0026647624
 40
0.0035576959
 40
0.0057652612
 40
0.0085484625
 40
0.0119132269
 40
0.0158614258
 40
0.0203930706
 40
0.0255071664
 40
0.0312021272
 40
0.0443264359
 40
0.0597459692
 40
0.0774231561
 40
0.097312627
 40
0.1193683533
 40
0.1435435187
 40
0.1697809793
 40
0.2281705176
 40
0.2939837188
 40
0.3665894837
 40
0.4452969545
 40
0.5293476837
 40
0.6179161843
 40
0.7101633323
 40
0.8052331196
 40
0.9022060158
 40
1.0
 40
1.0
 40
1.0
 40
1.0
 10
5.1843890683
 20
6.7410853513
 30
0.0
 10
5.184388531
 20
6.7411337459
 30
0.0
 10
5.184412028
 20
6.7412392384
 30
0.0
 10
5.1845111295
 20
6.7413850197
 30
0.0
 10
5.1846683295
 20
6.741526853
 30
0.0
 10
5.1848843382
 20
6.7416675835
 30
0.0
 10
5.1851599914
 20
6.7418083109
 30
0.0
 10
5.1856431942
 20
6.7420107039
 30
0.0
 10
5.1864045304
 20
6.7422553405
 30
0.0
 10
5.1875039376
 20
6.7425344157
 30
0.0
 10
5.188845511
 20
6.7428147494
 30
0.0
 10
5.1904283343
 20
6.7430961802
 30
0.0
 10
5.1922516786
 20
6.7433782416
 30
0.0
 10
5.1943144654
 20
6.7436608037
 30
0.0
 10
5.1975384259
 20
6.7440569605
 30
0.0
 10
5.2021599189
 20
6.7445436672
 30
0.0
 10
5.2084077499
 20
6.7451056196
 30
0.0
 10
5.2155768257
 20
6.7456688617
 30
0.0
 10
5.2236488759
 20
6.7462331785
 30
0.0
 10
5.2326046834
 20
6.7467981432
 30
0.0
 10
5.2424235363
 20
6.7473634737
 30
0.0
 10
5.2571689765
 20
6.7481456837
 30
0.0
 10
5.2775633695
 20
6.7491107626
 30
0.0
 10
5.3042497785
 20
6.75023379
 30
0.0
 10
5.3336957854
 20
6.7513582202
 30
0.0
 10
5.3656185144
 20
6.7524835172
 30
0.0
 10
5.3997088727
 20
6.7536090776
 30
0.0
 10
5.4356377124
 20
6.7547347295
 30
0.0
 10
5.4730627163
 20
6.7558600875
 30
0.0
 10
5.5116288268
 20
6.7569853147
 30
0.0
 10
5.5509480672
 20
6.7581096136
 30
0.0
 10
5.5773703609
 20
6.7588573701
 30
0.0
 10
5.590637207
 20
6.7592326675
 30
0.0
 11
5.1843890683
 21
6.7410853513
 31
0.0
 11
5.1844180362
 21
6.741227625
 31
0.0
 11
5.1845081054
 21
6.7413698944
 31
0.0
 11
5.1846592853
 21
6.7415121596
 31
0.0
 11
5.1848715854
 21
6.7416544204
 31
0.0
 11
5.1851450151
 21
6.7417966769
 31
0.0
 11
5.1854795839
 21
6.741938929
 31
0.0
 11
5.1863321741
 21
6.7422234201
 31
0.0
 11
5.1874290558
 21
6.7425078932
 31
0.0
 11
5.1887691501
 21
6.7427923475
 31
0.0
 11
5.1903512803
 21
6.743076782
 31
0.0
 11
5.1921742697
 21
6.7433611959
 31
0.0
 11
5.1942369419
 21
6.7436455882
 31
0.0
 11
5.1965381201
 21
6.743929958
 31
0.0
 11
5.2018512883
 21
6.7444986267
 31
0.0
 11
5.2081034953
 21
6.7450671946
 31
0.0
 11
5.2152782122
 21
6.7456356535
 31
0.0
 11
5.2233561682
 21
6.7462039952
 31
0.0
 11
5.2323180805
 21
6.7467722112
 31
0.0
 11
5.2421445027
 21
6.7473402932
 31
0.0
 11
5.2528118798
 21
6.747908235
 31
0.0
 11
5.276557834
 21
6.7490436821
 31
0.0
 11
5.3033293941
 21
6.7501785237
 31
0.0
 11
5.3328687953
 21
6.7513127696
 31
0.0
 11
5.3648941922
 21
6.7524464524
 31
0.0
 11
5.3990963743
 21
6.7535794897
 31
0.0
 11
5.4351389344
 21
6.7547116854
 31
0.0
 11
5.4726799758
 21
6.7558430746
 31
0.0
 11
5.5113707624
 21
6.7569740664
 31
0.0
 11
5.5508367329
 21
6.758104505
 31
0.0
 11
5.590637207
 21
6.7592326675
 31
0.0
  0
SPLINE
  5
3AC
100
AcDbEntity
  8
0
100
AcDbSpline
 62
6
  6
CONTINUOUS
 70
0
 71
3
 72
11
 73
7
 74
5
 42
0.0000001
 43
0.0000001
 44
0.0000000001
 12
0.1489206505
 22
-0.0444259298
 32
0.0
 13
0.1553717665
 23
0.0032615275
 33
0.0
 40
0.0
 40
0.0
 40
0.0
 40
0.0
 40
0.2445347025
 40
0.3686294222
 40
0.4937091402
 40
1.0
 40
1.0
 40
1.0
 40
1.0
 10
5.4370651825
 20
1.5119241008
 30
0.0
 10
5.4492039382
 20
1.5083028736
 30
0.0
 10
5.4677406439
 20
1.5036050562
 30
0.0
 10
5.4928656717
 20
1.4987989143
 30
0.0
 10
5.5315625148
 20
1.4929463507
 30
0.0
 10
5.5643984209
 20
1.4911926685
 30
0.0
 10
5.5906195227
 20
1.4917430957
 30
0.0
 11
5.4370651825
 21
1.5119241008
 31
0.0
 11
5.4738951444
 21
1.5025583128
 31
0.0
 11
5.4928360746
 21
1.4989313531
 31
0.0
 11
5.5120553632
 21
1.4960227183
 31
0.0
 11
5.5906195227
 21
1.4917430957
 31
0.0
  0
SPLINE
  5
3AD
100
AcDbEntity
  8
0
100
AcDbSpline
 62
6
  6
CONTINUOUS
 70
0
 71
3
 72
9
 73
5
 74
3
 42
0.0000001
 43
0.0000001
 44
0.0000000001
 12
0.1469914534
 22
0.0030856099
 32
0.0
 13
0.1399459167
 23
0.0450682676
 33
0.0
 40
0.0
 40
0.0
 40
0.0
 40
0.0
 40
0.2528322816
 40
1.0
 40
1.0
 40
1.0
 40
1.0
 10
5.5906195227
 20
1.4917430957
 30
0.0
 10
5.6030075842
 20
1.492003143
 30
0.0
 10
5.6519472722
 20
1.4947635864
 30
0.0
 10
5.7005437047
 20
1.5044217365
 30
0.0
 10
5.7353980618
 20
1.5156462548
 30
0.0
 11
5.5906195227
 21
1.4917430957
 31
0.0
 11
5.6277327078
 21
1.4938399315
 31
0.0
 11
5.7353980618
 21
1.5156462548
 31
0.0
  0
SPLINE
  5
3AE
100
AcDbEntity
  8
0
100
AcDbSpline
 62
6
  6
CONTINUOUS
 70
0
 71
3
 72
37
 73
33
 74
31
 42
0.0000001
 43
0.0000001
 44
0.0000000001
 12
0.0049041238
 22
0.4071022796
 32
0.0
 13
0.4069681206
 23
0.0115440587
 33
0.0
 40
0.0
 40
0.0
 40
0.0
 40
0.0
 40
0.0003562051
 40
0.0007722526
 40
0.0012863039
 40
0.0019190121
 40
0.0026814329
 40
0.0035798338
 40
0.005797907
 40
0.0085911695
 40
0.011966681
 40
0.0159260904
 40
0.0204690611
 40
0.0255942687
 40
0.0312998094
 40
0.0444424457
 40
0.0598762893
 40
0.0775681862
 40
0.0974717874
 40
0.1195394212
 40
0.1437230193
 40
0.169968724
 40
0.2283725853
 40
0.2941897412
 40
0.366793899
 40
0.4454866771
 40
0.5295165023
 40
0.6180566938
 40
0.710268092
 40
0.805298936
 40
0.9022367272
 40
1.0
 40
1.0
 40
1.0
 40
1.0
 10
5.1843890349
 20
6.668489349
 30
0.0
 10
5.1843896172
 20
6.6685376863
 30
0.0
 10
5.1844158038
 20
6.6686427989
 30
0.0
 10
5.1845180442
 20
6.668787281
 30
0.0
 10
5.1846781822
 20
6.6689281152
 30
0.0
 10
5.1848970893
 20
6.669067942
 30
0.0
 10
5.1851755663
 20
6.6692078097
 30
0.0
 10
5.1856624252
 20
6.6694088824
 30
0.0
 10
5.1864278661
 20
6.6696520639
 30
0.0
 10
5.1875320091
 20
6.6699295679
 30
0.0
 10
5.1888783097
 20
6.6702082355
 30
0.0
 10
5.1904659503
 20
6.6704880201
 30
0.0
 10
5.1922940981
 20
6.6707684443
 30
0.0
 10
5.1943615518
 20
6.6710493863
 30
0.0
 10
5.1975911484
 20
6.6714432332
 30
0.0
 10
5.2022186513
 20
6.6719272178
 30
0.0
 10
5.2084729671
 20
6.6724862708
 30
0.0
 10
5.2156478894
 20
6.673046563
 30
0.0
 10
5.2237253896
 20
6.6736080564
 30
0.0
 10
5.2326857338
 20
6.674170308
 30
0.0
 10
5.2425082658
 20
6.6747331163
 30
0.0
 10
5.2572575728
 20
6.6755119089
 30
0.0
 10
5.2776550227
 20
6.6764730874
 30
0.0
 10
5.304342903
 20
6.6775923029
 30
0.0
 10
5.3337863131
 20
6.6787133068
 30
0.0
 10
5.3657029456
 20
6.6798359236
 30
0.0
 10
5.399783481
 20
6.6809593616
 30
0.0
 10
5.4356995463
 20
6.6820836568
 30
0.0
 10
5.4731092492
 20
6.6832084247
 30
0.0
 10
5.5116590706
 20
6.6843339134
 30
0.0
 10
5.5509626527
 20
6.6854594122
 30
0.0
 10
5.5773750286
 20
6.6862086107
 30
0.0
 10
5.590637207
 20
6.6865848057
 30
0.0
 11
5.1843890349
 21
6.668489349
 31
0.0
 11
5.1844212625
 21
6.6686307452
 31
0.0
 11
5.184514532
 21
6.66877214
 31
0.0
 11
5.1846688331
 21
6.6689135334
 31
0.0
 11
5.1848841556
 21
6.6690549254
 31
0.0
 11
5.1851604895
 21
6.6691963161
 31
0.0
 11
5.1854978245
 21
6.6693377056
 31
0.0
 11
5.1863554573
 21
6.6696204811
 31
0.0
 11
5.187456967
 21
6.6699032525
 31
0.0
 11
5.1888018397
 21
6.6701860201
 31
0.0
 11
5.1903888474
 21
6.6704687845
 31
0.0
 11
5.1922166935
 21
6.6707515459
 31
0.0
 11
5.1942840816
 21
6.6710343049
 31
0.0
 11
5.1965897151
 21
6.6713170618
 31
0.0
 11
5.2019105331
 21
6.6718825713
 31
0.0
 11
5.2081686432
 21
6.6724480776
 31
0.0
 11
5.2153493441
 21
6.6730135818
 31
0.0
 11
5.2234329774
 21
6.6735790822
 31
0.0
 11
5.232399599
 21
6.6741445768
 31
0.0
 11
5.2422292588
 21
6.674710064
 31
0.0
 11
5.2528997471
 21
6.6752755418
 31
0.0
 11
5.2766509078
 21
6.676406465
 31
0.0
 11
5.3034232925
 21
6.677537338
 31
0.0
 11
5.332961116
 21
6.6786681864
 31
0.0
 11
5.3649794845
 21
6.6797990736
 31
0.0
 11
5.3991720027
 21
6.680929987
 31
0.0
 11
5.4352017906
 21
6.6820607966
 31
0.0
 11
5.4727269514
 21
6.6831915679
 31
0.0
 11
5.5114004907
 21
6.6843227924
 31
0.0
 11
5.5508507223
 21
6.6854544352
 31
0.0
 11
5.590637207
 21
6.6865848057
 31
0.0
  0
SPLINE
  5
3AF
100
AcDbEntity
  8
0
100
AcDbSpline
 62
6
  6
CONTINUOUS
 70
0
 71
3
 72
37
 73
33
 74
31
 42
0.0000001
 43
0.0000001
 44
0.0000000001
 12
-0.0044098876
 22
0.4071182603
 32
0.0
 13
0.4069778511
 23
0.0115651946
 33
0.0
 40
0.0
 40
0.0
 40
0.0
 40
0.0
 40
0.0003552678
 40
0.0007677306
 40
0.0012767454
 40
0.00190376
 40
0.0026602649
 40
0.0035527746
 40
0.0057597022
 40
0.0085424616
 40
0.0119069214
 40
0.0158549124
 40
0.0203864197
 40
0.025500429
 40
0.0311953402
 40
0.0443196172
 40
0.0597391804
 40
0.0774164721
 40
0.0973060881
 40
0.1193619684
 40
0.1435372696
 40
0.1697748506
 40
0.2281647066
 40
0.2939784721
 40
0.366584918
 40
0.4452931379
 40
0.5293445395
 40
0.6179136877
 40
0.7101614951
 40
0.8052319645
 40
0.9022054863
 40
1.0
 40
1.0
 40
1.0
 40
1.0
 10
5.1843890713
 20
6.5959821057
 30
0.0
 10
5.1843885491
 20
6.5960303177
 30
0.0
 10
5.1844121153
 20
6.5961354658
 30
0.0
 10
5.1845112916
 20
6.5962806486
 30
0.0
 10
5.1846685246
 20
6.5964218986
 30
0.0
 10
5.1848845624
 20
6.5965620641
 30
0.0
 10
5.1851602447
 20
6.5967022393
 30
0.0
 10
5.1856435266
 20
6.596903865
 30
0.0
 10
5.186404928
 20
6.5971475759
 30
0.0
 10
5.1875043895
 20
6.5974256147
 30
0.0
 10
5.1888460259
 20
6.5977049307
 30
0.0
 10
5.1904289186
 20
6.5979853639
 30
0.0
 10
5.1922523344
 20
6.5982664486
 30
0.0
 10
5.194315192
 20
6.598548056
 30
0.0
 10
5.1975392554
 20
6.5989429087
 30
0.0
 10
5.2021608522
 20
6.5994280815
 30
0.0
 10
5.2084087815
 20
6.5999883639
 30
0.0
 10
5.2155779435
 20
6.6005500374
 30
0.0
 10
5.2236500669
 20
6.6011128944
 30
0.0
 10
5.2326059256
 20
6.6016765141
 30
0.0
 10
5.2424248035
 20
6.6022406203
 30
0.0
 10
5.2571702504
 20
6.603021312
 30
0.0
 10
5.2775646402
 20
6.6039848781
 30
0.0
 10
5.3042510375
 20
6.6051067008
 30
0.0
 10
5.3336970357
 20
6.6062305271
 30
0.0
 10
5.3656197213
 20
6.6073558543
 30
0.0
 10
5.3997099874
 20
6.6084821207
 30
0.0
 10
5.4356386828
 20
6.6096091908
 30
0.0
 10
5.4730635077
 20
6.6107367199
 30
0.0
 10
5.5116294032
 20
6.6118649111
 30
0.0
 10
5.5509483815
 20
6.6129930016
 30
0.0
 10
5.5773704734
 20
6.6137438562
 30
0.0
 10
5.590637207
 20
6.6141208604
 30
0.0
 11
5.1843890713
 21
6.5959821057
 31
0.0
 11
5.1844180837
 21
6.5961238107
 31
0.0
 11
5.1845081967
 21
6.5962655162
 31
0.0
 11
5.1846594197
 21
6.5964072222
 31
0.0
 11
5.1848717618
 21
6.5965489289
 31
0.0
 11
5.1851452324
 21
6.5966906362
 31
0.0
 11
5.1854798406
 21
6.5968323441
 31
0.0
 11
5.1863325047
 21
6.5971157623
 31
0.0
 11
5.1874294609
 21
6.5973991836
 31
0.0
 11
5.1887696324
 21
6.5976826077
 31
0.0
 11
5.1903518407
 21
6.5979660343
 31
0.0
 11
5.1921749077
 21
6.5982494632
 31
0.0
 11
5.1942376552
 21
6.598532894
 31
0.0
 11
5.1965389048
 21
6.5988163265
 31
0.0
 11
5.2018521974
 21
6.599383195
 31
0.0
 11
5.208104506
 21
6.5999500662
 31
0.0
 11
5.2152793175
 21
6.6005169368
 31
0.0
 11
5.2233573533
 21
6.6010838032
 31
0.0
 11
5.2323193222
 21
6.6016506618
 31
0.0
 11
5.2421457702
 21
6.6022175089
 31
0.0
 11
5.2528131458
 21
6.6027843434
 31
0.0
 11
5.2765590723
 21
6.6039179788
 31
0.0
 11
5.3033306403
 21
6.60505158
 31
0.0
 11
5.3328700404
 21
6.6061851947
 31
0.0
 11
5.3648954136
 21
6.6073188916
 31
0.0
 11
5.399097496
 21
6.6084526247
 31
0.0
 11
5.435139906
 21
6.6095862363
 31
0.0
 11
5.4726807656
 21
6.6107198011
 31
0.0
 11
5.5113713464
 21
6.6118537684
 31
0.0
 11
5.550837058
 21
6.6129880192
 31
0.0
 11
5.590637207
 21
6.6141208604
 31
0.0
  0
SPLINE
  5
3B0
100
AcDbEntity
  8
0
100
AcDbSpline
 62
6
  6
CONTINUOUS
 70
0
 71
3
 72
12
 73
8
 74
6
 42
0.0000001
 43
0.0000001
 44
0.0000000001
 12
0.001142826
 22
-0.000485929
 32
0.0
 13
-0.0000023944
 23
-0.0012418424
 33
0.0
 40
0.0
 40
0.0
 40
0.0
 40
0.0
 40
0.3550516617
 40
0.6308195694
 40
0.7420742085
 40
0.838299978
 40
1.0
 40
1.0
 40
1.0
 40
1.0
 10
5.9959802144
 20
7.068080865
 30
0.0
 10
5.9961154685
 20
7.0680233551
 30
0.0
 10
5.9963519476
 20
7.0679118622
 30
0.0
 10
5.9966119384
 20
7.0677445465
 30
0.0
 10
5.9967572851
 20
7.0676058392
 30
0.0
 10
5.996849893
 20
7.0674841176
 30
0.0
 10
5.9968858865
 20
7.0673767797
 30
0.0
 10
5.9968857575
 20
7.0673098444
 30
0.0
 11
5.9959802144
 21
7.068080865
 31
0.0
 11
5.9963767693
 21
7.0678881118
 31
0.0
 11
5.9966598332
 21
7.0676953572
 31
0.0
 11
5.9967588271
 21
7.0675989795
 31
0.0
 11
5.9968294735
 21
7.0675026014
 31
0.0
 11
5.9968857575
 21
7.0673098444
 31
0.0
  0
SPLINE
  5
3B1
100
AcDbEntity
  8
0
100
AcDbSpline
 62
6
  6
CONTINUOUS
 70
0
 71
3
 72
13
 73
9
 74
7
 42
0.0000001
 43
0.0000001
 44
0.0000000001
 12
0.2057581252
 22
-0.1022851745
 32
0.0
 13
0.2297307806
 23
0.0047361847
 33
0.0
 40
0.0
 40
0.0
 40
0.0
 40
0.0
 40
0.1179003671
 40
0.2384671275
 40
0.4863576043
 40
0.7411802405
 40
0.8703049192
 40
1.0
 40
1.0
 40
1.0
 40
1.0
 10
5.3676981715
 20
1.637011056
 30
0.0
 10
5.375784491
 20
1.6329912361
 30
0.0
 10
5.3924283956
 20
1.6254280253
 30
0.0
 10
5.427296205
 20
1.6122566497
 30
0.0
 10
5.473478357
 20
1.5996684357
 30
0.0
 10
5.5214516371
 20
1.5924906585
 30
0.0
 10
5.560729565
 20
1.5899862795
 30
0.0
 10
5.5805658001
 20
1.5898375026
 30
0.0
 10
5.5904974508
 20
1.5900422559
 30
0.0
 11
5.3676981715
 21
1.637011056
 31
0.0
 11
5.3923528327
 21
1.6257827294
 31
0.0
 11
5.4182629786
 21
1.6159764125
 31
0.0
 11
5.4731885557
 21
1.6008885904
 31
0.0
 11
5.5310872577
 21
1.5921593809
 31
0.0
 11
5.5606970083
 21
1.5902661246
 31
0.0
 11
5.5904974508
 21
1.5900422559
 31
0.0
  0
SPLINE
  5
3B2
100
AcDbEntity
  8
0
100
AcDbSpline
 62
6
  6
CONTINUOUS
 70
0
 71
3
 72
13
 73
9
 74
7
 42
0.0000001
 43
0.0000001
 44
0.0000000001
 12
0.1671471421
 22
0.0048745675
 32
0.0
 13
0.156468541
 23
0.058987492
 33
0.0
 40
0.0
 40
0.0
 40
0.0
 40
0.0
 40
0.1268255458
 40
0.2535198951
 40
0.4428609726
 40
0.6307954129
 40
0.8167039858
 40
1.0
 40
1.0
 40
1.0
 40
1.0
 10
5.5950163336
 20
1.5901547243
 30
0.0
 10
5.6020825094
 20
1.5903607976
 30
0.0
 10
5.6162010424
 20
1.5910558436
 30
0.0
 10
5.6407933808
 20
1.5932545927
 30
0.0
 10
5.6686306019
 20
1.5971561339
 30
0.0
 10
5.6994125176
 20
1.603413635
 30
0.0
 10
5.7294192576
 20
1.6114881431
 30
0.0
 10
5.7489248696
 20
1.6181026869
 30
0.0
 10
5.7584848896
 20
1.6217067443
 30
0.0
 11
5.5950163336
 21
1.5901547243
 31
0.0
 11
5.6161982334
 21
1.5911972613
 31
0.0
 11
5.637299601
 21
1.5930845904
 31
0.0
 11
5.6686532849
 21
1.5974871879
 31
0.0
 11
5.6994478236
 21
1.6037556515
 31
0.0
 11
5.7294638103
 21
1.6118464267
 31
0.0
 11
5.7584848896
 21
1.6217067443
 31
0.0
  0
LINE
  5
3B3
100
AcDbEntity
  8
0
100
AcDbLine
 62
6
  6
CONTINUOUS
 10
5.9951780106
 20
7.0799616187
 11
5.9964272047
 21
7.0794681817
  0
SPLINE
  5
3B4
100
AcDbEntity
  8
0
100
AcDbSpline
 62
9
  6
CONTINUOUS
 70
0
 71
3
 72
23
 73
19
 74
17
 42
0.0000001
 43
0.0000001
 44
0.0000000001
 12
0.0
 22
-0.5484772111
 32
0.0
 13
-0.5484772111
 23
0.0
 33
0.0
 40
0.0
 40
0.0
 40
0.0
 40
0.0
 40
0.0514594999
 40
0.1034078703
 40
0.1563007534
 40
0.2105371789
 40
0.2664354193
 40
0.3242279196
 40
0.3840541544
 40
0.4459655635
 40
0.5099349236
 40
0.5758604487
 40
0.6435776417
 40
0.7128566958
 40
0.7834427774
 40
0.8550663682
 40
0.9274025472
 40
1.0
 40
1.0
 40
1.0
 40
1.0
 10
5.9968851539
 20
2.8942432243
 30
0.0
 10
5.9968851539
 20
2.8848351033
 30
0.0
 10
5.9955681134
 20
2.8659032205
 30
0.0
 10
5.9896505611
 20
2.8378606731
 30
0.0
 10
5.9798762364
 20
2.8103788098
 30
0.0
 10
5.9663331661
 20
2.7837409746
 30
0.0
 10
5.9491793377
 20
2.7581938398
 30
0.0
 10
5.9285777587
 20
2.7339864345
 30
0.0
 10
5.9047411407
 20
2.7113390564
 30
0.0
 10
5.8778974695
 20
2.6904663242
 30
0.0
 10
5.8483071192
 20
2.6715615025
 30
0.0
 10
5.8162535359
 20
2.6548003583
 30
0.0
 10
5.7820436887
 20
2.640344739
 30
0.0
 10
5.746008607
 20
2.6283208417
 30
0.0
 10
5.7084844772
 20
2.6188523865
 30
0.0
 10
5.6698250848
 20
2.6120207783
 30
0.0
 10
5.6304164785
 20
2.607904658
 30
0.0
 10
5.6039098899
 20
2.6069810945
 30
0.0
 10
5.590637207
 20
2.6069810945
 30
0.0
 11
5.9968851539
 21
2.8942432243
 31
0.0
 11
5.9949309701
 21
2.866086594
 31
0.0
 11
5.989079272
 21
2.8382014719
 31
0.0
 11
5.9793939639
 21
2.8108554248
 31
0.0
 11
5.9659616586
 21
2.7843133155
 31
0.0
 11
5.9489171872
 21
2.758828912
 31
0.0
 11
5.9284204562
 21
2.734649604
 31
0.0
 11
5.9046717624
 21
2.7120064166
 31
0.0
 11
5.8778988651
 21
2.6911188696
 31
0.0
 11
5.8483590024
 21
2.6721872718
 31
0.0
 11
5.8163366109
 21
2.6553939911
 31
0.0
 11
5.7821393736
 21
2.6409016521
 31
0.0
 11
5.7461039207
 21
2.6288479059
 31
0.0
 11
5.7085717493
 21
2.6193517869
 31
0.0
 11
5.6698898424
 21
2.6125008415
 31
0.0
 11
5.6304311719
 21
2.6083657754
 31
0.0
 11
5.590637207
 21
2.6069810945
 31
0.0
  0
SPLINE
  5
3B5
100
AcDbEntity
  8
0
100
AcDbSpline
 62
6
  6
CONTINUOUS
 70
0
 71
3
 72
15
 73
11
 74
9
 42
0.0000001
 43
0.0000001
 44
0.0000000001
 12
0.1999525319
 22
-0.0928092309
 32
0.0
 13
0.2203935596
 23
0.0046094744
 33
0.0
 40
0.0
 40
0.0
 40
0.0
 40
0.0
 40
0.1184968946
 40
0.239439954
 40
0.3625688615
 40
0.4875900784
 40
0.6141915853
 40
0.7420319651
 40
0.8707552069
 40
1.0
 40
1.0
 40
1.0
 40
1.0
 10
5.3762893384
 20
1.6818870847
 30
0.0
 10
5.3841872564
 20
1.6782212162
 30
0.0
 10
5.4003894836
 20
1.6713272321
 30
0.0
 10
5.4255144469
 20
1.6624202045
 30
0.0
 10
5.4515825955
 20
1.6548802693
 30
0.0
 10
5.4784443425
 20
1.6487531389
 30
0.0
 10
5.5059483616
 20
1.644084656
 30
0.0
 10
5.5339364953
 20
1.6408961492
 30
0.0
 10
5.562248916
 20
1.6392115143
 30
0.0
 10
5.5812149549
 20
1.63910343
 30
0.0
 10
5.5907098616
 20
1.6393020135
 30
0.0
 11
5.3762893384
 21
1.6818870847
 31
0.0
 11
5.4003195408
 21
1.6716454694
 31
0.0
 11
5.4254427092
 21
1.6627219036
 31
0.0
 11
5.4515131721
 21
1.6551680973
 31
0.0
 11
5.4783809255
 21
1.6490303667
 31
0.0
 11
5.5058940418
 21
1.6443506942
 31
0.0
 11
5.5338936708
 21
1.6411554296
 31
0.0
 11
5.562219392
 21
1.6394673469
 31
0.0
 11
5.5907098616
 21
1.6393020135
 31
0.0
  0
SPLINE
  5
3B6
100
AcDbEntity
  8
0
100
AcDbSpline
 62
6
  6
CONTINUOUS
 70
0
 71
3
 72
9
 73
5
 74
3
 42
0.0000001
 43
0.0000001
 44
0.0000000001
 12
0.1665689776
 22
0.0034837472
 32
0.0
 13
0.1566054234
 23
0.0568515801
 33
0.0
 40
0.0
 40
0.0
 40
0.0
 40
0.0
 40
0.5053006739
 40
1.0
 40
1.0
 40
1.0
 40
1.0
 10
5.5907098616
 20
1.6393020135
 30
0.0
 10
5.6187656671
 20
1.6398887934
 30
0.0
 10
5.6742844207
 20
1.6454163968
 30
0.0
 10
5.7282353905
 20
1.6597780313
 30
0.0
 10
5.7540595896
 20
1.6691528441
 30
0.0
 11
5.5907098616
 21
1.6393020135
 31
0.0
 11
5.674472694
 21
1.6477305792
 31
0.0
 11
5.7540595896
 21
1.6691528441
 31
0.0
  0
SPLINE
  5
3B7
100
AcDbEntity
  8
0
100
AcDbSpline
 62
6
  6
CONTINUOUS
 70
0
 71
3
 72
26
 73
22
 74
20
 42
0.0000001
 43
0.0000001
 44
0.0000000001
 12
0.2029053578
 22
0.0066569991
 32
0.0
 13
0.1757729563
 23
0.1015813354
 33
0.0
 40
0.0
 40
0.0
 40
0.0
 40
0.0
 40
0.2077759343
 40
0.3969573527
 40
0.4835335227
 40
0.5643394453
 40
0.6390680978
 40
0.7074408301
 40
0.769199464
 40
0.8240880162
 40
0.8718908004
 40
0.9124474991
 40
0.9299610646
 40
0.9456068935
 40
0.9593715575
 40
0.9712500813
 40
0.9812408334
 40
0.9893472358
 40
0.995583907
 40
0.9980142419
 40
1.0
 40
1.0
 40
1.0
 40
1.0
 10
5.7938911406
 20
6.982697804
 30
0.0
 10
5.8079440907
 20
6.9831588588
 30
0.0
 10
5.8347913757
 20
6.9840698122
 30
0.0
 10
5.8674903078
 20
6.9852860808
 30
0.0
 10
5.8915994084
 20
6.9862711873
 30
0.0
 10
5.907967773
 20
6.9869874277
 30
0.0
 10
5.9231030403
 20
6.9877032137
 30
0.0
 10
5.9369478233
 20
6.9884183784
 30
0.0
 10
5.9494480961
 20
6.9891324434
 30
0.0
 10
5.9605539674
 20
6.9898450182
 30
0.0
 10
5.9702218233
 20
6.9905559587
 30
0.0
 10
5.9773602616
 20
6.9911715764
 30
0.0
 10
5.9823235314
 20
6.9916733853
 30
0.0
 10
5.9854788878
 20
6.9920305882
 30
0.0
 10
5.9882503008
 20
6.9923870686
 30
0.0
 10
5.9906355159
 20
6.9927425655
 30
0.0
 10
5.992633462
 20
6.993096143
 30
0.0
 10
5.9942424504
 20
6.9934477114
 30
0.0
 10
5.9953366739
 20
6.99375645
 30
0.0
 10
5.9960101451
 20
6.9940147571
 30
0.0
 10
5.9962797594
 20
6.9941453543
 30
0.0
 10
5.9963961069
 20
6.994212593
 30
0.0
 11
5.7938911406
 21
6.982697804
 31
0.0
 11
5.8360481335
 21
6.9841364679
 31
0.0
 11
5.8744277125
 21
6.9855762813
 31
0.0
 11
5.8919891959
 21
6.9862958855
 31
0.0
 11
5.9083781851
 21
6.9870154179
 31
0.0
 11
5.9235321118
 21
6.987735013
 31
0.0
 11
5.9373941001
 21
6.9884547026
 31
0.0
 11
5.9499113245
 21
6.9891744463
 31
0.0
 11
5.9610312288
 21
6.9898942021
 31
0.0
 11
5.970709162
 21
6.9906139466
 31
0.0
 11
5.9789112432
 21
6.9913336814
 31
0.0
 11
5.9824484931
 21
6.9916935463
 31
0.0
 11
5.9856043724
 21
6.9920534099
 31
0.0
 11
5.988375531
 21
6.9924132728
 31
0.0
 11
5.9907600422
 21
6.9927731354
 31
0.0
 11
5.9927561307
 21
6.9931329983
 31
0.0
 11
5.9943620211
 21
6.9934928618
 31
0.0
 11
5.9955759383
 21
6.9938527266
 31
0.0
 11
5.9960353521
 21
6.9940326595
 31
0.0
 11
5.9963961069
 21
6.994212593
 31
0.0
  0
SPLINE
  5
3B8
100
AcDbEntity
  8
0
100
AcDbSpline
 62
6
  6
CONTINUOUS
 70
0
 71
3
 72
16
 73
12
 74
10
 42
0.0000001
 43
0.0000001
 44
0.0000000001
 12
0.2314092801
 22
-0.1566490265
 32
0.0
 13
0.2794442904
 23
-0.0002469756
 33
0.0
 40
0.0
 40
0.0
 40
0.0
 40
0.0
 40
0.1159268153
 40
0.2352286175
 40
0.3575993609
 40
0.4826602559
 40
0.5460709197
 40
0.6099779378
 40
0.738999925
 40
0.8692012488
 40
1.0
 40
1.0
 40
1.0
 40
1.0
 10
5.3251331374
 20
1.8990871029
 30
0.0
 10
5.3340753177
 20
1.8930338286
 30
0.0
 10
5.3527792221
 20
1.8815590356
 30
0.0
 10
5.3825564883
 20
1.8665542938
 30
0.0
 10
5.4142059272
 20
1.8536103114
 30
0.0
 10
5.4417818688
 20
1.8446905467
 30
0.0
 10
5.4645112236
 20
1.8386716734
 30
0.0
 10
5.4877998106
 20
1.8333813776
 30
0.0
 10
5.5174881742
 20
1.8282667549
 30
0.0
 10
5.5536549048
 20
1.8245654854
 30
0.0
 10
5.5779738906
 20
1.8237229701
 30
0.0
 10
5.5901575453
 20
1.8237122021
 30
0.0
 11
5.3251331374
 21
1.8990871029
 31
0.0
 11
5.3527254615
 21
1.8821134142
 31
0.0
 11
5.3824794453
 21
1.8670755489
 31
0.0
 11
5.4141197798
 21
1.8541046867
 31
0.0
 11
5.4473628591
 21
1.8433236804
 31
0.0
 11
5.4644914695
 21
1.8387849119
 31
0.0
 11
5.4819058208
 21
1.8348270212
 31
0.0
 11
5.5174345714
 21
1.828692462
 31
0.0
 11
5.553628487
 21
1.8249778737
 31
0.0
 11
5.5901575453
 21
1.8237122021
 31
0.0
  0
LINE
  5
3B9
100
AcDbEntity
  8
0
100
AcDbLine
 62
6
  6
CONTINUOUS
 10
5.5901575453
 20
1.8237122021
 11
5.5911024373
 21
1.8237121926
  0
SPLINE
  5
3BA
100
AcDbEntity
  8
0
100
AcDbSpline
 62
6
  6
CONTINUOUS
 70
0
 71
3
 72
15
 73
11
 74
9
 42
0.0000001
 43
0.0000001
 44
0.0000000001
 12
0.2791560789
 22
0.0002410513
 32
0.0
 13
0.2312998761
 23
0.156296327
 33
0.0
 40
0.0
 40
0.0
 40
0.0
 40
0.0
 40
0.1307882918
 40
0.2609806669
 40
0.3899965934
 40
0.5172922491
 40
0.6423560752
 40
0.7647356613
 40
0.8840522618
 40
1.0
 40
1.0
 40
1.0
 40
1.0
 10
5.5911024373
 20
1.8237121926
 30
0.0
 10
5.6032725529
 20
1.8237227014
 30
0.0
 10
5.6275644763
 20
1.8245626846
 30
0.0
 10
5.6636927977
 20
1.8282546991
 30
0.0
 10
5.6991655718
 20
1.8343585579
 30
0.0
 10
5.7336621969
 20
1.8428124837
 30
0.0
 10
5.7668742198
 20
1.8535404705
 30
0.0
 10
5.7985003015
 20
1.8664564083
 30
0.0
 10
5.8282595451
 20
1.8814290985
 30
0.0
 10
5.8469554608
 20
1.8928798523
 30
0.0
 10
5.8558950267
 20
1.8989205875
 30
0.0
 11
5.5911024373
 21
1.8237121926
 31
0.0
 11
5.6275909823
 21
1.8249741327
 31
0.0
 11
5.663745611
 21
1.8286794842
 31
0.0
 11
5.699237386
 21
1.8347996881
 31
0.0
 11
5.7337468156
 21
1.8432768184
 31
0.0
 11
5.7669606602
 21
1.8540337712
 31
0.0
 11
5.7985771757
 21
1.8669762499
 31
0.0
 11
5.828313461
 21
1.8819820484
 31
0.0
 11
5.8558950267
 21
1.8989205875
 31
0.0
  0
LINE
  5
3BB
100
AcDbEntity
  8
0
100
AcDbLine
 62
6
  6
CONTINUOUS
 10
5.9943739057
 20
7.0097926014
 11
5.9964234535
 21
7.0090805136
  0
ENDSEC
  0
SECTION
  2
OBJECTS
  0
DICTIONARY
  5
C
100
AcDbDictionary
280
0
281
1
  3
ACAD_GROUP
350
D
  3
ACAD_MLINESTYLE
350
17
  3
ACAD_LAYOUT
350
1A
  3
ACAD_PLOTSETTINGS
350
19
  3
ACAD_PLOTSTYLENAME
350
E
  0
DICTIONARY
  5
D
102
{ACAD_REACTORS
330
C
102
}
100
AcDbDictionary
280
0
281
1
  0
ACDBDICTIONARYWDFLT
  5
E
102
{ACAD_REACTORS
330
C
102
}
100
AcDbDictionary
281
1
  3
Normal
350
F
100
AcDbDictionaryWithDefault
340
F
  0
DICTIONARY
  5
17
102
{ACAD_REACTORS
330
C
102
}
100
AcDbDictionary
280
0
281
1
  3
Standard
350
18
  0
DICTIONARY
  5
19
102
{ACAD_REACTORS
330
C
102
}
100
AcDbDictionary
281
1
  0
DICTIONARY
  5
1A
102
{ACAD_REACTORS
330
C
102
}
100
AcDbDictionary
281
1
  3
Model
350
3BC
  3
Layout1
350
3BD
  0
ACDBPLACEHOLDER
  5
F
102
{ACAD_REACTORS
330
E
102
}
  0
MLINESTYLE
  5
18
102
{ACAD_REACTORS
330
17
102
}
100
AcDbMlineStyle
  2
STANDARD
 70
0
  3

 62
256
 51
90.0
 52
90.0
 71
2
 49
0.5
 62
256
  6
BYLAYER
 49
-0.5
 62
256
  6
BYLAYER
  0
LAYOUT
  5
3BC
102
{ACAD_REACTORS
330
1A
102
}
100
AcDbPlotSettings
  1

  2
none_device
  4
ANSI_A_(11.00_x_8.50_Inches)
  6

 40
0.0
 41
0.0
 42
0.0
 43
0.0
 44
279.4
 45
215.9
 46
0.0
 47
0.0
 48
0.0
 49
0.0
140
0.0
141
0.0
142
1.0
143
1.0
 70
1024
 72
0
 73
0
 74
0
  7

 75
0
147
1.0
148
0.0
149
0.0
100
AcDbLayout
  1
Model
 70
0
 71
0
 10
0.0
 20
0.0
 11
11.0
 21
8.5
 12
0.0
 22
0.0
 32
0.0
 14
0.0
 24
0.0
 34
0.0
 15
0.0
 25
0.0
 35
0.0
146
0.0
 13
0.0
 23
0.0
 33
0.0
 16
1.0
 26
0.0
 36
0.0
 17
0.0
 27
1.0
 37
0.0
 76
0
330
203
345
0
346
0
  0
LAYOUT
  5
3BD
102
{ACAD_REACTORS
330
1A
102
}
100
AcDbPlotSettings
  1

  2
none_device
  4
ANSI_A_(11.00_x_8.50_Inches)
  6

 40
0.0
 41
0.0
 42
0.0
 43
0.0
 44
279.4
 45
215.9
 46
0.0
 47
0.0
 48
0.0
 49
0.0
140
0.0
141
0.0
142
1.0
143
1.0
 70
0
 72
0
 73
0
 74
0
  7

 75
0
147
1.0
148
0.0
149
0.0
100
AcDbLayout
  1
Layout1
 70
0
 71
1
 10
0.0
 20
0.0
 11
11.0
 21
8.5
 12
0.0
 22
0.0
 32
0.0
 14
0.0
 24
0.0
 34
0.0
 15
0.0
 25
0.0
 35
0.0
146
0.0
 13
0.0
 23
0.0
 33
0.0
 16
1.0
 26
0.0
 36
0.0
 17
0.0
 27
1.0
 37
0.0
 76
0
330
204
345
0
346
0
  0
ENDSEC
  0
EOF
