999
DXF file: 201-1001_right.dxf
999
Pro/ENGINEER 2018400 by Parametric Technology Corporation
  0
SECTION
  2
HEADER
  9
$ACADVER
  1
AC1027
  9
$DWGCODEPAGE
  3
ANSI_1252
  9
$EXTMAX
 10
11.0
 20
8.5
 30
0.0
  9
$EXTMIN
 10
0.0
 20
0.0
 30
0.0
  9
$LIMMIN
 10
0.0
 20
0.0
  9
$LIMMAX
 10
11.0
 20
8.5
  9
$VIEWCTR
 10
5.5
 20
4.25
  9
$VIEWSIZE
 40
8.5
  9
$CLAYER
  8
0
  9
$LTSCALE
 40
0.605
  9
$CELTYPE
  6
BYLAYER
  9
$DIMSCALE
 40
1.0
  9
$DIMASZ
 40
0.1
  9
$DIMEXO
 40
0.0625
  9
$DIMDLI
 40
0.418
  9
$DIMEXE
 40
0.125
  9
$DIMCEN
 40
0.099
  9
$DIMLFAC
 40
1.0
  9
$DIMBLK
  1
_FILLED
  9
$DIMALT
 70
1
  9
$DIMALTD
 70
1
  9
$DIMALTTD
 70
2
  9
$DIMALTF
 40
25.4
  9
$DIMTXT
 40
0.08
  9
$DIMTOL
 70
1
  9
$DIMLIM
 70
0
  9
$DIMTFAC
 40
1.0
  9
$DIMTP
 40
0.01
  9
$DIMTM
 40
0.01
  9
$DIMGAP
 40
0.09
  9
$DIMDSEP
 70
46
  9
$AUNITS
 70
0
  9
$PDMODE
 70
3
  9
$PDSIZE
 40
0.3125
  9
$HANDSEED
  5
28D
  9
$TILEMODE
 70
1
  9
$MEASUREMENT
 70
0
  9
$INSUNITS
 70
1
  0
ENDSEC
  0
SECTION
  2
CLASSES
  0
CLASS
  1
ACDBDICTIONARYWDFLT
  2
AcDbDictionaryWithDefault
  3
AutoCAD 2000
 90
0
 91
1
280
0
281
0
  0
CLASS
  1
ACDBPLACEHOLDER
  2
AcDbPlaceHolder
  3
AutoCAD 2000
 90
0
 91
1
280
0
281
0
  0
CLASS
  1
LAYOUT
  2
AcDbLayout
  3
AutoCAD 2000
 90
0
 91
0
280
0
281
0
  0
ENDSEC
  0
SECTION
  2
TABLES
  0
TABLE
  2
VPORT
  5
8
100
AcDbSymbolTable
 70
2
  0
VPORT
  5
1F4
100
AcDbSymbolTableRecord
100
AcDbViewportTableRecord
  2
*ACTIVE
 70
0
 10
0.0
 20
0.0
 11
1.0
 21
1.0
 12
5.5
 22
4.25
 13
0.0
 23
0.0
 14
1.0
 24
1.0
 15
0.0
 25
0.0
 16
0.0
 26
0.0
 36
1.0
 17
0.0
 27
0.0
 37
0.0
 40
8.5
 41
1.2941176471
 42
50.0
 43
0.0
 44
0.0
 50
0.0
 51
0.0
 71
0
 72
100
 73
1
 74
1
 75
0
 76
0
 77
0
 78
0
  0
ENDTAB
  0
TABLE
  2
LTYPE
  5
5
100
AcDbSymbolTable
 70
6
  0
LTYPE
  5
14
100
AcDbSymbolTableRecord
100
AcDbLinetypeTableRecord
  2
BYBLOCK
 70
0
  3

 72
65
 73
0
 40
0.0
  0
LTYPE
  5
15
100
AcDbSymbolTableRecord
100
AcDbLinetypeTableRecord
  2
BYLAYER
 70
0
  3

 72
65
 73
0
 40
0.0
  0
LTYPE
  5
16
100
AcDbSymbolTableRecord
100
AcDbLinetypeTableRecord
  2
CONTINUOUS
 70
64
  3
Solid line
 72
65
 73
0
 40
0.0
  0
LTYPE
  5
1F5
100
AcDbSymbolTableRecord
100
AcDbLinetypeTableRecord
  2
CENTER
 70
64
  3
____ _ ____ _ ____ _ ____ _ ____ _ ____ _ ____
 72
65
 73
4
 40
0.6
 49
0.375
 74
0
 49
-0.075
 74
0
 49
0.075
 74
0
 49
-0.075
 74
0
  0
LTYPE
  5
1F6
100
AcDbSymbolTableRecord
100
AcDbLinetypeTableRecord
  2
HIDDEN
 70
64
  3
- - - - - - - - - - - - - - - - - - - -
 72
65
 73
2
 40
0.2
 49
0.1
 74
0
 49
-0.1
 74
0
  0
LTYPE
  5
1F7
100
AcDbSymbolTableRecord
100
AcDbLinetypeTableRecord
  2
PHANTOM
 70
64
  3
_____ _ _ _____ _ _ _____ _ _ _____
 72
65
 73
6
 40
0.8
 49
0.45
 74
0
 49
-0.05
 74
0
 49
0.1
 74
0
 49
-0.05
 74
0
 49
0.1
 74
0
 49
-0.05
 74
0
  0
LTYPE
  5
1F8
100
AcDbSymbolTableRecord
100
AcDbLinetypeTableRecord
  2
DOT
 70
64
  3
. . . . . . . . . . . . . . . . . . . .
 72
65
 73
2
 40
0.2
 49
0.1
 74
0
 49
-0.1
 74
0
  0
LTYPE
  5
1F9
100
AcDbSymbolTableRecord
100
AcDbLinetypeTableRecord
  2
DASHED
 70
64
  3
- - - - - - - - - - - - - - - - - - - -
 72
65
 73
2
 40
0.2
 49
0.1
 74
0
 49
-0.1
 74
0
  0
ENDTAB
  0
TABLE
  2
LAYER
  5
2
100
AcDbSymbolTable
 70
36
  0
LAYER
  5
10
100
AcDbSymbolTableRecord
100
AcDbLayerTableRecord
  2
0
 70
0
 62
7
  6
CONTINUOUS
370
-3
390
F
  0
LAYER
  5
1FA
100
AcDbSymbolTableRecord
100
AcDbLayerTableRecord
  2
DEFAULT_1
 70
0
 62
7
  6
CENTER
370
-3
390
F
  0
LAYER
  5
1FB
100
AcDbSymbolTableRecord
100
AcDbLayerTableRecord
  2
DEFAULT_2
 70
0
 62
8
  6
HIDDEN
370
-3
390
F
  0
LAYER
  5
1FC
100
AcDbSymbolTableRecord
100
AcDbLayerTableRecord
  2
DEFAULT_3
 70
0
 62
7
  6
PHANTOM
370
-3
390
F
  0
LAYER
  5
1FD
100
AcDbSymbolTableRecord
100
AcDbLayerTableRecord
  2
DEFAULT_COORDINATE_SYSTEM
 70
0
 62
7
  6
CONTINUOUS
370
-3
390
F
  0
LAYER
  5
1FE
100
AcDbSymbolTableRecord
100
AcDbLayerTableRecord
  2
DEFAULT_DATUM_AXES
 70
0
 62
7
  6
CONTINUOUS
370
-3
390
F
  0
LAYER
  5
1FF
100
AcDbSymbolTableRecord
100
AcDbLayerTableRecord
  2
DEFAULT_DATUM_PLANES
 70
0
 62
7
  6
CONTINUOUS
370
-3
390
F
  0
ENDTAB
  0
TABLE
  2
STYLE
  5
3
100
AcDbSymbolTable
 70
1
  0
STYLE
  5
11
100
AcDbSymbolTableRecord
100
AcDbTextStyleTableRecord
  2
STANDARD
 70
0
 40
0.0
 41
0.8
 50
0.0
 71
0
 42
0.2
  3
txt
  4

  0
STYLE
  5
200
100
AcDbSymbolTableRecord
100
AcDbTextStyleTableRecord
  2
TEXTSTYLE_1
 70
0
 40
0.0
 41
0.8
 50
0.0
 71
0
 42
0.2
  3
gdt
  4

  0
ENDTAB
  0
TABLE
  2
VIEW
  5
6
100
AcDbSymbolTable
 70
0
  0
ENDTAB
  0
TABLE
  2
UCS
  5
7
100
AcDbSymbolTable
 70
0
  0
ENDTAB
  0
TABLE
  2
APPID
  5
9
100
AcDbSymbolTable
 70
1
  0
APPID
  5
201
100
AcDbSymbolTableRecord
100
AcDbRegAppTableRecord
  2
ACAD
 70
0
  0
ENDTAB
  0
TABLE
  2
BLOCK_RECORD
  5
1
100
AcDbSymbolTable
 70
0
  0
BLOCK_RECORD
  5
202
100
AcDbSymbolTableRecord
100
AcDbBlockTableRecord
  2
*Model_Space
  0
BLOCK_RECORD
  5
203
100
AcDbSymbolTableRecord
100
AcDbBlockTableRecord
  2
*Paper_Space
  0
BLOCK_RECORD
  5
204
100
AcDbSymbolTableRecord
100
AcDbBlockTableRecord
  2
_FILLED
  0
ENDTAB
  0
TABLE
  2
DIMSTYLE
  5
A
100
AcDbSymbolTable
 70
1
100
AcDbDimStyleTable
 71
0
  0
DIMSTYLE
105
205
100
AcDbSymbolTableRecord
100
AcDbDimStyleTableRecord
  2
STANDARD
 70
0
  3

  4

 40
1.0
 41
0.1
 42
0.0625
 43
0.38
 44
0.125
 45
0.0
 46
0.0
 47
0.01
 48
0.01
140
0.08
141
0.09
142
0.0
143
25.4
144
1.0
145
0.0
146
1.0
147
0.09
 71
1.0
 72
0.0
 73
1
 74
1
 75
0
 76
0
 77
0
 78
4
 79
1
170
1
171
1
172
0
173
0
174
0
175
0
176
0
177
0
178
0
270
2
179
2
271
2
272
2
273
2
274
2
275
0
280
0
281
0
282
0
283
1
284
4
285
0
286
0
287
3
288
0
340
11
278
46
341
204
342
204
343
204
344
204
  0
ENDTAB
  0
ENDSEC
  0
SECTION
  2
BLOCKS
  0
BLOCK
  5
20
100
AcDbEntity
  8
0
100
AcDbBlockBegin
  2
*Model_Space
 70
0
 10
0.0
 20
0.0
 30
0.0
  3
*Model_Space
  1

  0
ENDBLK
  5
21
100
AcDbEntity
  8
0
100
AcDbBlockEnd
  0
BLOCK
  5
1C
100
AcDbEntity
  8
0
100
AcDbBlockBegin
  2
*Paper_Space
 70
0
 10
0.0
 20
0.0
 30
0.0
  3
*Paper_Space
  1

  0
ENDBLK
  5
1D
100
AcDbEntity
  8
0
100
AcDbBlockEnd
  0
BLOCK
  5
206
100
AcDbEntity
  8
0
100
AcDbBlockBegin
  2
_FILLED
 70
64
 10
0.0
 20
0.0
  3
_FILLED
  1

  0
SOLID
  5
207
100
AcDbEntity
  8
0
  6
BYBLOCK
 62
0
100
AcDbTrace
 10
0.0
 20
0.0
 11
-1.0
 21
0.2
 12
-1.0
 22
-0.2
 13
-1.0
 23
-0.2
  0
ENDBLK
  5
208
100
AcDbEntity
  8
0
  6
BYBLOCK
 62
0
100
AcDbBlockEnd
  0
ENDSEC
  0
SECTION
  2
ENTITIES
  0
MTEXT
  5
209
100
AcDbEntity
  8
0
100
AcDbMText
 62
2
  6
CONTINUOUS
  7
STANDARD
 71
3
 72
1
 10
7.4279964508
 20
3.2986296584
 30
0.0
 11
1.0
 21
0.0
 31
0.0
 73
2
 44
0.9
  1
SCALE  .500
 40
0.08
 41
0.704
  0
LINE
  5
20A
100
AcDbEntity
  8
0
100
AcDbLine
 62
7
  6
CONTINUOUS
 10
0.0
 20
0.0
 11
0.0
 21
8.5
  0
LINE
  5
20B
100
AcDbEntity
  8
0
100
AcDbLine
 62
7
  6
CONTINUOUS
 10
0.0
 20
0.0
 11
11.0
 21
0.0
  0
LINE
  5
20C
100
AcDbEntity
  8
0
100
AcDbLine
 62
7
  6
CONTINUOUS
 10
0.0
 20
8.5
 11
11.0
 21
8.5
  0
LINE
  5
20D
100
AcDbEntity
  8
0
100
AcDbLine
 62
7
  6
CONTINUOUS
 10
11.0
 20
0.0
 11
11.0
 21
8.5
  0
LINE
  5
20E
100
AcDbEntity
  8
0
100
AcDbLine
 62
7
  6
CONTINUOUS
 10
1.8601428571
 20
5.0624728261
 11
1.8601428571
 21
4.7754728261
  0
LINE
  5
20F
100
AcDbEntity
  8
0
100
AcDbLine
 62
7
  6
CONTINUOUS
 10
1.8901428571
 20
4.7554728261
 11
1.8901428571
 21
5.0824728261
  0
LINE
  5
210
100
AcDbEntity
  8
0
100
AcDbLine
 62
7
  6
CONTINUOUS
 10
1.9738928571
 20
4.7354728261
 11
1.9738928571
 21
4.6804728261
  0
LINE
  5
211
100
AcDbEntity
  8
0
100
AcDbLine
 62
7
  6
CONTINUOUS
 10
1.9943928571
 20
4.6021549647
 11
1.9943928571
 21
4.5976903261
  0
LINE
  5
212
100
AcDbEntity
  8
0
100
AcDbLine
 62
7
  6
CONTINUOUS
 10
1.9943928571
 20
4.5262603261
 11
1.9943928571
 21
4.5307249647
  0
LINE
  5
213
100
AcDbEntity
  8
0
100
AcDbLine
 62
7
  6
CONTINUOUS
 10
1.9943928571
 20
4.5619753261
 11
1.9943928571
 21
4.5664399647
  0
LINE
  5
214
100
AcDbEntity
  8
0
100
AcDbLine
 62
7
  6
CONTINUOUS
 10
2.0137228571
 20
4.6222451454
 11
2.0137228571
 21
4.6134650724
  0
LINE
  5
215
100
AcDbEntity
  8
0
100
AcDbLine
 62
7
  6
CONTINUOUS
 10
2.0137228571
 20
4.5865301454
 11
2.0137228571
 21
4.5777500724
  0
LINE
  5
216
100
AcDbEntity
  8
0
100
AcDbLine
 62
7
  6
CONTINUOUS
 10
2.0137228571
 20
4.5508151454
 11
2.0137228571
 21
4.5420350724
  0
LINE
  5
217
100
AcDbEntity
  8
0
100
AcDbLine
 62
7
  6
CONTINUOUS
 10
2.0137228571
 20
4.5151001454
 11
2.0137228571
 21
4.5063200724
  0
LINE
  5
218
100
AcDbEntity
  8
0
100
AcDbLine
 62
7
  6
CONTINUOUS
 10
2.0283928571
 20
4.6294728261
 11
2.0283928571
 21
4.6694728261
  0
LINE
  5
219
100
AcDbEntity
  8
0
100
AcDbLine
 62
7
  6
CONTINUOUS
 10
2.3718928571
 20
4.6294728261
 11
2.3718928571
 21
4.6694728261
  0
LINE
  5
21A
100
AcDbEntity
  8
0
100
AcDbLine
 62
7
  6
CONTINUOUS
 10
2.3865628571
 20
4.4883126454
 11
2.3865628571
 21
4.4970927185
  0
LINE
  5
21B
100
AcDbEntity
  8
0
100
AcDbLine
 62
7
  6
CONTINUOUS
 10
2.3865628571
 20
4.5240276454
 11
2.3865628571
 21
4.5328077185
  0
LINE
  5
21C
100
AcDbEntity
  8
0
100
AcDbLine
 62
7
  6
CONTINUOUS
 10
2.3865628571
 20
4.5597426454
 11
2.3865628571
 21
4.5685227185
  0
LINE
  5
21D
100
AcDbEntity
  8
0
100
AcDbLine
 62
7
  6
CONTINUOUS
 10
2.3865628571
 20
4.5954576454
 11
2.3865628571
 21
4.6042377185
  0
LINE
  5
21E
100
AcDbEntity
  8
0
100
AcDbLine
 62
7
  6
CONTINUOUS
 10
2.4058928571
 20
4.5128674647
 11
2.4058928571
 21
4.5084028261
  0
LINE
  5
21F
100
AcDbEntity
  8
0
100
AcDbLine
 62
7
  6
CONTINUOUS
 10
2.4058928571
 20
4.5441178261
 11
2.4058928571
 21
4.5485824647
  0
LINE
  5
220
100
AcDbEntity
  8
0
100
AcDbLine
 62
7
  6
CONTINUOUS
 10
2.4058928571
 20
4.5798328261
 11
2.4058928571
 21
4.5842974647
  0
LINE
  5
221
100
AcDbEntity
  8
0
100
AcDbLine
 62
7
  6
CONTINUOUS
 10
2.4263928571
 20
4.7354728261
 11
2.4263928571
 21
4.6804728261
  0
LINE
  5
222
100
AcDbEntity
  8
0
100
AcDbLine
 62
7
  6
CONTINUOUS
 10
2.3865600189
 20
4.4882812788
 11
2.3865607499
 21
4.4882893581
  0
LINE
  5
223
100
AcDbEntity
  8
0
100
AcDbLine
 62
7
  6
CONTINUOUS
 10
2.386560023
 20
4.4882812789
 11
2.3865612964
 21
4.4882893581
  0
LINE
  5
224
100
AcDbEntity
  8
0
100
AcDbLine
 62
7
  6
CONTINUOUS
 10
2.0143928571
 20
4.6294728261
 11
2.0095654542
 21
4.6246454231
  0
LINE
  5
225
100
AcDbEntity
  8
0
100
AcDbLine
 62
7
  6
CONTINUOUS
 10
2.0019770074
 20
4.4993886759
 11
2.0143928571
 21
4.4869728261
  0
LINE
  5
226
100
AcDbEntity
  8
0
100
AcDbLine
 62
7
  6
CONTINUOUS
 10
2.3836428571
 20
4.6804728261
 11
2.3726428571
 21
4.6694728261
  0
LINE
  5
227
100
AcDbEntity
  8
0
100
AcDbLine
 62
7
  6
CONTINUOUS
 10
2.0166428571
 20
4.6804728261
 11
2.0276428571
 21
4.6694728261
  0
LINE
  5
228
100
AcDbEntity
  8
0
100
AcDbLine
 62
7
  6
CONTINUOUS
 10
2.3868977668
 20
4.4879777357
 11
2.3858928571
 21
4.4869728261
  0
LINE
  5
229
100
AcDbEntity
  8
0
100
AcDbLine
 62
7
  6
CONTINUOUS
 10
2.3858928571
 20
4.6294728261
 11
2.4020414615
 21
4.6133242218
  0
LINE
  5
22A
100
AcDbEntity
  8
0
100
AcDbLine
 62
7
  6
CONTINUOUS
 10
2.013982292
 20
4.6136150644
 11
1.9946280108
 21
4.6024267544
  0
LINE
  5
22B
100
AcDbEntity
  8
0
100
AcDbLine
 62
7
  6
CONTINUOUS
 10
2.013982292
 20
4.5779000644
 11
1.9946280108
 21
4.5667117544
  0
LINE
  5
22C
100
AcDbEntity
  8
0
100
AcDbLine
 62
7
  6
CONTINUOUS
 10
2.013982292
 20
4.5421850644
 11
1.9946280108
 21
4.5309967544
  0
LINE
  5
22D
100
AcDbEntity
  8
0
100
AcDbLine
 62
7
  6
CONTINUOUS
 10
2.013982292
 20
4.5064700644
 11
2.0020421763
 21
4.4995674055
  0
LINE
  5
22E
100
AcDbEntity
  8
0
100
AcDbLine
 62
7
  6
CONTINUOUS
 10
1.9946280106
 20
4.5259885364
 11
2.0137228571
 21
4.5149502185
  0
LINE
  5
22F
100
AcDbEntity
  8
0
100
AcDbLine
 62
7
  6
CONTINUOUS
 10
1.9946280106
 20
4.5617035364
 11
2.0137228571
 21
4.5506652185
  0
LINE
  5
230
100
AcDbEntity
  8
0
100
AcDbLine
 62
7
  6
CONTINUOUS
 10
2.3863034225
 20
4.6040877264
 11
2.4019774817
 21
4.6131487839
  0
LINE
  5
231
100
AcDbEntity
  8
0
100
AcDbLine
 62
7
  6
CONTINUOUS
 10
2.3863034225
 20
4.5683727264
 11
2.4056577037
 21
4.5795610364
  0
LINE
  5
232
100
AcDbEntity
  8
0
100
AcDbLine
 62
7
  6
CONTINUOUS
 10
2.3863034225
 20
4.5326577264
 11
2.4056577037
 21
4.5438460364
  0
LINE
  5
233
100
AcDbEntity
  8
0
100
AcDbLine
 62
7
  6
CONTINUOUS
 10
2.3863034225
 20
4.4969427264
 11
2.4056577037
 21
4.5081310364
  0
LINE
  5
234
100
AcDbEntity
  8
0
100
AcDbLine
 62
7
  6
CONTINUOUS
 10
1.9946280106
 20
4.5974185364
 11
2.0137228571
 21
4.5863802185
  0
LINE
  5
235
100
AcDbEntity
  8
0
100
AcDbLine
 62
7
  6
CONTINUOUS
 10
2.0096331865
 20
4.6244596032
 11
2.0137228571
 21
4.6220952185
  0
LINE
  5
236
100
AcDbEntity
  8
0
100
AcDbLine
 62
7
  6
CONTINUOUS
 10
2.3869184377
 20
4.4882569919
 11
2.3865628571
 21
4.4884625716
  0
LINE
  5
237
100
AcDbEntity
  8
0
100
AcDbLine
 62
7
  6
CONTINUOUS
 10
2.4056577035
 20
4.5131392544
 11
2.3865628571
 21
4.5241775724
  0
LINE
  5
238
100
AcDbEntity
  8
0
100
AcDbLine
 62
7
  6
CONTINUOUS
 10
2.4056577035
 20
4.5488542544
 11
2.3865628571
 21
4.5598925724
  0
LINE
  5
239
100
AcDbEntity
  8
0
100
AcDbLine
 62
7
  6
CONTINUOUS
 10
2.4056577035
 20
4.5845692544
 11
2.3865628571
 21
4.5956075724
  0
LINE
  5
23A
100
AcDbEntity
  8
0
100
AcDbLine
 62
7
  6
CONTINUOUS
 10
7.5531428571
 20
3.9824728261
 11
7.8601428571
 21
3.9824728261
  0
LINE
  5
23B
100
AcDbEntity
  8
0
100
AcDbLine
 62
7
  6
CONTINUOUS
 10
7.5331428571
 20
4.0024728261
 11
7.8601428571
 21
4.0024728261
  0
LINE
  5
23C
100
AcDbEntity
  8
0
100
AcDbLine
 62
7
  6
CONTINUOUS
 10
7.8601428571
 20
4.0949728261
 11
7.8651428571
 21
4.0949728261
  0
LINE
  5
23D
100
AcDbEntity
  8
0
100
AcDbLine
 62
7
  6
CONTINUOUS
 10
8.0791428571
 20
4.2574728261
 11
7.8651428571
 21
4.2574728261
  0
LINE
  5
23E
100
AcDbEntity
  8
0
100
AcDbLine
 62
7
  6
CONTINUOUS
 10
2.3858928571
 20
4.4869728261
 11
2.0143928571
 21
4.4869728261
  0
LINE
  5
23F
100
AcDbEntity
  8
0
100
AcDbLine
 62
7
  6
CONTINUOUS
 10
2.3852700503
 20
4.4876428261
 11
2.178185515
 21
4.4876428261
  0
LINE
  5
240
100
AcDbEntity
  8
0
100
AcDbLine
 62
7
  6
CONTINUOUS
 10
2.399416234
 20
4.5069728261
 11
2.304826293
 21
4.5069728261
  0
LINE
  5
241
100
AcDbEntity
  8
0
100
AcDbLine
 62
7
  6
CONTINUOUS
 10
2.2991542254
 20
4.6094728261
 11
2.1426113668
 21
4.6094728261
  0
LINE
  5
242
100
AcDbEntity
  8
0
100
AcDbLine
 62
7
  6
CONTINUOUS
 10
2.1246166585
 20
4.6288028261
 11
2.3705948152
 21
4.6288028261
  0
LINE
  5
243
100
AcDbEntity
  8
0
100
AcDbLine
 62
7
  6
CONTINUOUS
 10
2.3858928571
 20
4.6294728261
 11
2.0143928571
 21
4.6294728261
  0
LINE
  5
244
100
AcDbEntity
  8
0
100
AcDbLine
 62
7
  6
CONTINUOUS
 10
2.3726428571
 20
4.6694728261
 11
2.0276428571
 21
4.6694728261
  0
LINE
  5
245
100
AcDbEntity
  8
0
100
AcDbLine
 62
7
  6
CONTINUOUS
 10
2.4263928571
 20
4.6804728261
 11
1.9738928571
 21
4.6804728261
  0
LINE
  5
246
100
AcDbEntity
  8
0
100
AcDbLine
 62
7
  6
CONTINUOUS
 10
7.5531428571
 20
4.7154728261
 11
7.5331428571
 21
4.7154728261
  0
LINE
  5
247
100
AcDbEntity
  8
0
100
AcDbLine
 62
7
  6
CONTINUOUS
 10
2.4263928571
 20
4.7354728261
 11
1.9738928571
 21
4.7354728261
  0
LINE
  5
248
100
AcDbEntity
  8
0
100
AcDbLine
 62
7
  6
CONTINUOUS
 10
1.8801428571
 20
4.7554728261
 11
7.4931428571
 21
4.7554728261
  0
LINE
  5
249
100
AcDbEntity
  8
0
100
AcDbLine
 62
7
  6
CONTINUOUS
 10
1.8601428571
 20
4.7754728261
 11
7.4931428571
 21
4.7754728261
  0
LINE
  5
24A
100
AcDbEntity
  8
0
100
AcDbLine
 62
7
  6
CONTINUOUS
 10
8.0791428571
 20
4.8074728261
 11
7.8651428571
 21
4.8074728261
  0
LINE
  5
24B
100
AcDbEntity
  8
0
100
AcDbLine
 62
7
  6
CONTINUOUS
 10
7.8601428571
 20
4.9699728261
 11
7.8651428571
 21
4.9699728261
  0
LINE
  5
24C
100
AcDbEntity
  8
0
100
AcDbLine
 62
7
  6
CONTINUOUS
 10
7.8601428571
 20
5.0624728261
 11
1.8601428571
 21
5.0624728261
  0
LINE
  5
24D
100
AcDbEntity
  8
0
100
AcDbLine
 62
7
  6
CONTINUOUS
 10
7.8601428571
 20
5.0824728261
 11
1.8801428571
 21
5.0824728261
  0
LINE
  5
24E
100
AcDbEntity
  8
0
100
AcDbLine
 62
7
  6
CONTINUOUS
 10
7.4931428571
 20
4.7754728261
 11
7.4931428571
 21
4.7554728261
  0
LINE
  5
24F
100
AcDbEntity
  8
0
100
AcDbLine
 62
7
  6
CONTINUOUS
 10
7.5331428571
 20
4.7154728261
 11
7.5331428571
 21
4.0024728261
  0
LINE
  5
250
100
AcDbEntity
  8
0
100
AcDbLine
 62
7
  6
CONTINUOUS
 10
7.5531428571
 20
4.7154728261
 11
7.5531428571
 21
3.9824728261
  0
LINE
  5
251
100
AcDbEntity
  8
0
100
AcDbLine
 62
7
  6
CONTINUOUS
 10
7.8601428571
 20
3.9824728261
 11
7.8601428571
 21
5.0824728261
  0
LINE
  5
252
100
AcDbEntity
  8
0
100
AcDbLine
 62
7
  6
CONTINUOUS
 10
7.8651428571
 20
4.9699722102
 11
7.8651428571
 21
4.094973442
  0
LINE
  5
253
100
AcDbEntity
  8
0
100
AcDbLine
 62
7
  6
CONTINUOUS
 10
8.0791428571
 20
4.8074728261
 11
8.0791428571
 21
4.2574728261
  0
ARC
  5
254
100
AcDbEntity
  8
0
100
AcDbCircle
 62
7
  6
CONTINUOUS
 10
7.4931428571
 20
4.7154728261
 40
0.06
100
AcDbArc
 50
0.0
 51
90.0
  0
ARC
  5
255
100
AcDbEntity
  8
0
100
AcDbCircle
 62
7
  6
CONTINUOUS
 10
7.4931428571
 20
4.7154728261
 40
0.04
100
AcDbArc
 50
0.0
 51
90.0
  0
ARC
  5
256
100
AcDbEntity
  8
0
100
AcDbCircle
 62
7
  6
CONTINUOUS
 10
2.3822430859
 20
4.5091391194
 40
0.0217083657
100
AcDbArc
 50
278.0153092286
 51
278.8640562152
  0
ARC
  5
257
100
AcDbEntity
  8
0
100
AcDbCircle
 62
7
  6
CONTINUOUS
 10
1.8801428571
 20
5.0624728261
 40
0.02
100
AcDbArc
 50
90.0
 51
180.0
  0
ARC
  5
258
100
AcDbEntity
  8
0
100
AcDbCircle
 62
7
  6
CONTINUOUS
 10
7.5531428571
 20
4.0024728261
 40
0.02
100
AcDbArc
 50
180.0
 51
270.0
  0
ARC
  5
259
100
AcDbEntity
  8
0
100
AcDbCircle
 62
7
  6
CONTINUOUS
 10
1.8801428571
 20
4.7754728261
 40
0.02
100
AcDbArc
 50
180.0
 51
270.0
  0
ARC
  5
25A
100
AcDbEntity
  8
0
100
AcDbCircle
 62
7
  6
CONTINUOUS
 10
1.9538928571
 20
4.7354728261
 40
0.02
100
AcDbArc
 50
0.0
 51
89.9999999419
  0
ARC
  5
25B
100
AcDbEntity
  8
0
100
AcDbCircle
 62
7
  6
CONTINUOUS
 10
2.4463928571
 20
4.7354728261
 40
0.02
100
AcDbArc
 50
90.0000000581
 51
180.0
  0
ARC
  5
25C
100
AcDbEntity
  8
0
100
AcDbCircle
 62
7
  6
CONTINUOUS
 10
2.3838991806
 20
4.4934391538
 40
0.0059525488
100
AcDbArc
 50
287.3714431018
 51
288.7487198214
  0
ARC
  5
25D
100
AcDbEntity
  8
0
100
AcDbCircle
 62
7
  6
CONTINUOUS
 10
2.3863877776
 20
4.4883127016
 40
0.0001750819
100
AcDbArc
 50
352.3379972715
 51
359.9816241587
  0
LINE
  5
25E
100
AcDbEntity
  8
0
100
AcDbLine
 62
7
  6
CONTINUOUS
 10
2.4058928555
 20
4.5084028261
 11
2.4056576707
 21
4.5081310364
  0
LINE
  5
25F
100
AcDbEntity
  8
0
100
AcDbLine
 62
7
  6
CONTINUOUS
 10
2.4058928568
 20
4.5128674647
 11
2.4056576824
 21
4.5131392544
  0
LINE
  5
260
100
AcDbEntity
  8
0
100
AcDbLine
 62
7
  6
CONTINUOUS
 10
2.0096332384
 20
4.6244596033
 11
2.0095654542
 21
4.6246454231
  0
LINE
  5
261
100
AcDbEntity
  8
0
100
AcDbLine
 62
7
  6
CONTINUOUS
 10
1.9946280622
 20
4.5617035365
 11
1.9943928571
 21
4.5619753261
  0
LINE
  5
262
100
AcDbEntity
  8
0
100
AcDbLine
 62
7
  6
CONTINUOUS
 10
2.4019774275
 20
4.6131487839
 11
2.4020414615
 21
4.6133242218
  0
LINE
  5
263
100
AcDbEntity
  8
0
100
AcDbLine
 62
7
  6
CONTINUOUS
 10
2.4056576535
 20
4.5795610365
 11
2.4058928571
 21
4.5798328261
  0
LINE
  5
264
100
AcDbEntity
  8
0
100
AcDbLine
 62
7
  6
CONTINUOUS
 10
1.994628061
 20
4.5667117544
 11
1.9943928571
 21
4.5664399647
  0
LINE
  5
265
100
AcDbEntity
  8
0
100
AcDbLine
 62
7
  6
CONTINUOUS
 10
1.994628061
 20
4.5309967544
 11
1.9943928571
 21
4.5307249647
  0
LINE
  5
266
100
AcDbEntity
  8
0
100
AcDbLine
 62
7
  6
CONTINUOUS
 10
2.4056576533
 20
4.5488542544
 11
2.4058928571
 21
4.5485824647
  0
LINE
  5
267
100
AcDbEntity
  8
0
100
AcDbLine
 62
7
  6
CONTINUOUS
 10
2.4056576535
 20
4.5438460365
 11
2.4058928571
 21
4.5441178261
  0
LINE
  5
268
100
AcDbEntity
  8
0
100
AcDbLine
 62
7
  6
CONTINUOUS
 10
2.0020422259
 20
4.4995674055
 11
2.0019770074
 21
4.4993886759
  0
LINE
  5
269
100
AcDbEntity
  8
0
100
AcDbLine
 62
7
  6
CONTINUOUS
 10
2.3869183877
 20
4.4882569919
 11
2.3870154681
 21
4.488167531
  0
LINE
  5
26A
100
AcDbEntity
  8
0
100
AcDbLine
 62
7
  6
CONTINUOUS
 10
2.3870154681
 20
4.488167531
 11
2.3869875056
 21
4.4880674745
  0
LINE
  5
26B
100
AcDbEntity
  8
0
100
AcDbLine
 62
7
  6
CONTINUOUS
 10
1.9943928802
 20
4.5976903261
 11
1.9946280109
 21
4.5974185364
  0
LINE
  5
26C
100
AcDbEntity
  8
0
100
AcDbLine
 62
7
  6
CONTINUOUS
 10
1.9943928745
 20
4.6021549647
 11
1.9946280147
 21
4.6024267544
  0
LINE
  5
26D
100
AcDbEntity
  8
0
100
AcDbLine
 62
7
  6
CONTINUOUS
 10
2.4058928571
 20
4.5842974647
 11
2.4056576491
 21
4.5845692544
  0
LINE
  5
26E
100
AcDbEntity
  8
0
100
AcDbLine
 62
7
  6
CONTINUOUS
 10
1.9943928571
 20
4.5262603261
 11
1.9946280615
 21
4.5259885365
  0
SPLINE
  5
26F
100
AcDbEntity
  8
0
100
AcDbSpline
 62
7
  6
CONTINUOUS
 70
0
 71
3
 72
36
 73
32
 74
0
 42
0.0000001
 43
0.0000001
 44
0.0000000001
 40
0.0
 40
0.0
 40
0.0
 40
0.0
 40
0.0004432983
 40
0.0009951639
 40
0.0016638628
 40
0.0024539767
 40
0.0044080324
 40
0.0068700908
 40
0.0098457285
 40
0.0133375768
 40
0.0173465758
 40
0.0218729268
 40
0.0324763447
 40
0.0451410003
 40
0.0598543904
 40
0.0766014234
 40
0.0953624443
 40
0.1161161903
 40
0.1388373899
 40
0.163498809
 40
0.1900702578
 40
0.2185186969
 40
0.2809034165
 40
0.3503404962
 40
0.4264788842
 40
0.5089308373
 40
0.597273512
 40
0.6910521991
 40
0.789778792
 40
0.8929435475
 40
1.0
 40
1.0
 40
1.0
 40
1.0
 10
2.0095654542
 20
4.6246454231
 30
0.0
 10
2.0095774903
 20
4.6246574592
 30
0.0
 10
2.0096079074
 20
4.6246810359
 30
0.0
 10
2.0096635007
 20
4.6247127051
 30
0.0
 10
2.009733973
 20
4.6247444643
 30
0.0
 10
2.0098568547
 20
4.6247901768
 30
0.0
 10
2.0100492126
 20
4.6248454537
 30
0.0
 10
2.0103259879
 20
4.6249085869
 30
0.0
 10
2.0106630139
 20
4.6249720207
 30
0.0
 10
2.0110602419
 20
4.6250357201
 30
0.0
 10
2.0115176454
 20
4.6250995943
 30
0.0
 10
2.0122469997
 20
4.6251897567
 30
0.0
 10
2.0133085968
 20
4.6253002184
 30
0.0
 10
2.0147614629
 20
4.6254275445
 30
0.0
 10
2.0164509691
 20
4.6255553294
 30
0.0
 10
2.0183751093
 20
4.6256834938
 30
0.0
 10
2.0205316221
 20
4.6258119445
 30
0.0
 10
2.0229178799
 20
4.625940621
 30
0.0
 10
2.0255309874
 20
4.6260694962
 30
0.0
 10
2.0283677217
 20
4.6261985384
 30
0.0
 10
2.0314245717
 20
4.6263277371
 30
0.0
 10
2.0359291224
 20
4.6265057084
 30
0.0
 10
2.0420791843
 20
4.6267263862
 30
0.0
 10
2.0500602042
 20
4.6269845133
 30
0.0
 10
2.0588121047
 20
4.6272432847
 30
0.0
 10
2.068290209
 20
4.6275026483
 30
0.0
 10
2.0784458808
 20
4.6277625409
 30
0.0
 10
2.08922664
 20
4.6280229238
 30
0.0
 10
2.1005766783
 20
4.6282837729
 30
0.0
 10
2.1124366699
 20
4.6285450621
 30
0.0
 10
2.1205068458
 20
4.6287166671
 30
0.0
 10
2.1246166585
 20
4.6288028261
 30
0.0
  0
SPLINE
  5
270
100
AcDbEntity
  8
0
100
AcDbSpline
 62
7
  6
CONTINUOUS
 70
0
 71
3
 72
30
 73
26
 74
0
 42
0.0000001
 43
0.0000001
 44
0.0000000001
 40
0.0
 40
0.0
 40
0.0
 40
0.0
 40
0.2108274667
 40
0.3092256116
 40
0.4024114111
 40
0.4900008446
 40
0.5716352069
 40
0.6469785619
 40
0.7157190759
 40
0.7775709398
 40
0.8322757829
 40
0.87960452
 40
0.9004397845
 40
0.919358682
 40
0.9363419251
 40
0.9513721029
 40
0.9644336868
 40
0.9755152567
 40
0.9846076322
 40
0.9884067534
 40
0.991708243
 40
0.9945134034
 40
0.9968250398
 40
0.9986492238
 40
1.0
 40
1.0
 40
1.0
 40
1.0
 10
2.2991542254
 20
4.6094728261
 30
0.0
 10
2.306386773
 20
4.6096187374
 30
0.0
 10
2.316994776
 20
4.6098402016
 30
0.0
 10
2.3307990298
 20
4.610150808
 30
0.0
 10
2.3403754647
 20
4.6103785378
 30
0.0
 10
2.3493765166
 20
4.6106064048
 30
0.0
 10
2.3577651377
 20
4.6108343815
 30
0.0
 10
2.3655067471
 20
4.6110624179
 30
0.0
 10
2.3725692495
 20
4.611290454
 30
0.0
 10
2.3789231944
 20
4.6115183648
 30
0.0
 10
2.3845419256
 20
4.6117460607
 30
0.0
 10
2.3887533187
 20
4.6119427619
 30
0.0
 10
2.3917370825
 20
4.6121026436
 30
0.0
 10
2.3936805141
 20
4.6122173569
 30
0.0
 10
2.3954243841
 20
4.6123319696
 30
0.0
 10
2.3969668002
 20
4.6124464386
 30
0.0
 10
2.3983061168
 20
4.6125606361
 30
0.0
 10
2.3994408559
 20
4.6126744806
 30
0.0
 10
2.4002575508
 20
4.6127736845
 30
0.0
 10
2.4008071978
 20
4.6128551557
 30
0.0
 10
2.4011422755
 20
4.6129124163
 30
0.0
 10
2.4014254717
 20
4.6129694769
 30
0.0
 10
2.4016569398
 20
4.6130262084
 30
0.0
 10
2.4018366208
 20
4.6130825005
 30
0.0
 10
2.4019373012
 20
4.6131255877
 30
0.0
 10
2.4019774275
 20
4.6131487839
 30
0.0
  0
SPLINE
  5
271
100
AcDbEntity
  8
0
100
AcDbSpline
 62
7
  6
CONTINUOUS
 70
0
 71
3
 72
25
 73
21
 74
0
 42
0.0000001
 43
0.0000001
 44
0.0000000001
 40
0.0
 40
0.0
 40
0.0
 40
0.0
 40
0.0141646571
 40
0.0299858696
 40
0.0474268547
 40
0.0664496166
 40
0.0870114162
 40
0.1090651937
 40
0.1325604873
 40
0.1574443187
 40
0.2111501443
 40
0.2697053159
 40
0.332598253
 40
0.3992895664
 40
0.4692177556
 40
0.5418047823
 40
0.6164613345
 40
0.6925919968
 40
0.8468923648
 40
1.0
 40
1.0
 40
1.0
 40
1.0
 10
2.3705948152
 20
4.6288028261
 30
0.0
 10
2.369537776
 20
4.6285778578
 30
0.0
 10
2.3672931885
 20
4.6281338195
 30
0.0
 10
2.3637293779
 20
4.6275060232
 30
0.0
 10
2.3597895406
 20
4.6268796591
 30
0.0
 10
2.3554836806
 20
4.6262548454
 30
0.0
 10
2.3508222797
 20
4.6256316648
 30
0.0
 10
2.3458166187
 20
4.6250102078
 30
0.0
 10
2.3404786389
 20
4.6243904828
 30
0.0
 10
2.3327358969
 20
4.623544933
 30
0.0
 10
2.3223241392
 20
4.6225018241
 30
0.0
 10
2.3090158453
 20
4.6212856269
 30
0.0
 10
2.2947124542
 20
4.62007575
 30
0.0
 10
2.2795379431
 20
4.6188723145
 30
0.0
 10
2.2636211142
 20
4.6176754654
 30
0.0
 10
2.2470944473
 20
4.6164852518
 30
0.0
 10
2.2300929077
 20
4.6153016753
 30
0.0
 10
2.206869209
 20
4.6137254458
 30
0.0
 10
2.1776703379
 20
4.611794147
 30
0.0
 10
2.1542669622
 20
4.6102515318
 30
0.0
 10
2.1426113668
 20
4.6094728261
 30
0.0
  0
LINE
  5
272
100
AcDbEntity
  8
0
100
AcDbLine
 62
7
  6
CONTINUOUS
 10
2.3869875056
 20
4.4880674745
 11
2.3861291668
 21
4.4877844046
  0
LINE
  5
273
100
AcDbEntity
  8
0
100
AcDbLine
 62
7
  6
CONTINUOUS
 10
2.3861291668
 20
4.4877844046
 11
2.3855881404
 21
4.4876900227
  0
SPLINE
  5
274
100
AcDbEntity
  8
0
100
AcDbSpline
 62
7
  6
CONTINUOUS
 70
0
 71
3
 72
38
 73
34
 74
0
 42
0.0000001
 43
0.0000001
 44
0.0000000001
 40
0.0
 40
0.0
 40
0.0
 40
0.0
 40
0.0769937885
 40
0.158097964
 40
0.2420242761
 40
0.3274284971
 40
0.4129338678
 40
0.4971527165
 40
0.5787090501
 40
0.6562610423
 40
0.7285238795
 40
0.7622912864
 40
0.7942913889
 40
0.8243892059
 40
0.8524572641
 40
0.878376144
 40
0.9020350181
 40
0.9233322391
 40
0.9421759781
 40
0.9584846366
 40
0.9656657766
 40
0.9721874555
 40
0.9780426104
 40
0.9832251661
 40
0.9877295191
 40
0.991551536
 40
0.9946879975
 40
0.9959986835
 40
0.9971378048
 40
0.9981058107
 40
0.9989036693
 40
0.9995334565
 40
1.0
 40
1.0
 40
1.0
 40
1.0
 10
2.304826293
 20
4.5069728261
 30
0.0
 10
2.2970531779
 20
4.5068163034
 30
0.0
 10
2.2810917438
 20
4.5065062402
 30
0.0
 10
2.2566567575
 20
4.5060542088
 30
0.0
 10
2.2313723838
 20
4.505600948
 30
0.0
 10
2.2056435357
 20
4.5051465735
 30
0.0
 10
2.1798851608
 20
4.5046912023
 30
0.0
 10
2.1545154153
 20
4.5042349452
 30
0.0
 10
2.1299489332
 20
4.5037779482
 30
0.0
 10
2.1065899767
 20
4.503320347
 30
0.0
 10
2.0880562697
 20
4.5029304774
 30
0.0
 10
2.0741217884
 20
4.5026149583
 30
0.0
 10
2.0644442484
 20
4.5023835156
 30
0.0
 10
2.0553423957
 20
4.5021519276
 30
0.0
 10
2.0468548285
 20
4.5019202185
 30
0.0
 10
2.0390177157
 20
4.5016884395
 30
0.0
 10
2.0318646344
 20
4.5014566513
 30
0.0
 10
2.0254263928
 20
4.5012249805
 30
0.0
 10
2.0197308931
 20
4.5009935191
 30
0.0
 10
2.0154607626
 20
4.5007935719
 30
0.0
 10
2.0124346085
 20
4.5006310432
 30
0.0
 10
2.010463115
 20
4.5005144224
 30
0.0
 10
2.0086938163
 20
4.5003978973
 30
0.0
 10
2.0071287065
 20
4.5002815185
 30
0.0
 10
2.0057695083
 20
4.5001654132
 30
0.0
 10
2.0046177729
 20
4.5000496605
 30
0.0
 10
2.0037887571
 20
4.4999487978
 30
0.0
 10
2.0032307501
 20
4.4998659632
 30
0.0
 10
2.0028905275
 20
4.4998077409
 30
0.0
 10
2.0026029462
 20
4.4997497209
 30
0.0
 10
2.0023678529
 20
4.4996920347
 30
0.0
 10
2.0021853107
 20
4.4996347937
 30
0.0
 10
2.0020830113
 20
4.4995909846
 30
0.0
 10
2.0020422259
 20
4.4995674055
 30
0.0
  0
SPLINE
  5
275
100
AcDbEntity
  8
0
100
AcDbSpline
 62
7
  6
CONTINUOUS
 70
0
 71
3
 72
25
 73
21
 74
0
 42
0.0000001
 43
0.0000001
 44
0.0000000001
 40
0.0
 40
0.0
 40
0.0
 40
0.0
 40
0.1583707444
 40
0.3168040697
 40
0.3943398993
 40
0.4698885647
 40
0.5428351201
 40
0.6125977935
 40
0.6786319985
 40
0.7404337179
 40
0.7975426211
 40
0.8495449101
 40
0.8735152496
 40
0.896076125
 40
0.9171902691
 40
0.9368235879
 40
0.9549453691
 40
0.9715298388
 40
0.9865548692
 40
1.0
 40
1.0
 40
1.0
 40
1.0
 10
2.178185515
 20
4.4876428261
 30
0.0
 10
2.1898813762
 20
4.4884998555
 30
0.0
 10
2.2132808064
 20
4.4901719609
 30
0.0
 10
2.2424089834
 20
4.492226284
 30
0.0
 10
2.2654176012
 20
4.4938753164
 30
0.0
 10
2.2821104898
 20
4.4950953761
 30
0.0
 10
2.2982267939
 20
4.4963075786
 30
0.0
 10
2.3136371064
 20
4.4975119411
 30
0.0
 10
2.3282201582
 20
4.4987084392
 30
0.0
 10
2.3418635729
 20
4.4998969598
 30
0.0
 10
2.3544644587
 20
4.5010774209
 30
0.0
 10
2.3642681498
 20
4.5020793573
 30
0.0
 10
2.3715200243
 20
4.5028838798
 30
0.0
 10
2.3764948675
 20
4.5034689039
 30
0.0
 10
2.3811464419
 20
4.5040520238
 30
0.0
 10
2.3854668129
 20
4.5046332153
 30
0.0
 10
2.3894487965
 20
4.5052124273
 30
0.0
 10
2.3930859799
 20
4.5057895761
 30
0.0
 10
2.3963724639
 20
4.5063645808
 30
0.0
 10
2.3984417583
 20
4.5067688226
 30
0.0
 10
2.399416234
 20
4.5069728261
 30
0.0
  0
SPLINE
  5
276
100
AcDbEntity
  8
0
100
AcDbSpline
 62
7
  6
CONTINUOUS
 70
0
 71
3
 72
66
 73
62
 74
0
 42
0.0000001
 43
0.0000001
 44
0.0000000001
 40
0.0
 40
0.0
 40
0.0
 40
0.0
 40
0.0001872618
 40
0.0004008794
 40
0.000659244
 40
0.0009729617
 40
0.0013479608
 40
0.0017876826
 40
0.0022941955
 40
0.0028688023
 40
0.0042253134
 40
0.0058615067
 40
0.0077792309
 40
0.0099789256
 40
0.0124603494
 40
0.0152229187
 40
0.018265589
 40
0.0215868823
 40
0.0290587833
 40
0.0376231209
 40
0.0472612059
 40
0.0579512678
 40
0.0696692205
 40
0.0823880186
 40
0.1107091352
 40
0.1426531093
 40
0.1779239806
 40
0.2161944648
 40
0.2571090998
 40
0.3002876853
 40
0.3453287919
 40
0.3918136097
 40
0.4393098037
 40
0.4873756406
 40
0.535564037
 40
0.5834267958
 40
0.6305187189
 40
0.6764018342
 40
0.7206494488
 40
0.7628501681
 40
0.8026117364
 40
0.8395647215
 40
0.8733660197
 40
0.9037021429
 40
0.917481656
 40
0.9302924116
 40
0.9421048028
 40
0.9528918124
 40
0.9626289604
 40
0.9712942257
 40
0.9788687733
 40
0.9853364563
 40
0.9881513995
 40
0.9906853433
 40
0.992937561
 40
0.9949078513
 40
0.996596526
 40
0.9980049564
 40
0.9991366942
 40
0.9996011401
 40
1.0
 40
1.0
 40
1.0
 40
1.0
 10
2.0137228719
 20
4.5508151454
 30
0.0
 10
2.0137228754
 20
4.5508384505
 30
0.0
 10
2.0137336043
 20
4.5508886587
 30
0.0
 10
2.0137780063
 20
4.5509589562
 30
0.0
 10
2.0138485186
 20
4.551027536
 30
0.0
 10
2.0139451851
 20
4.5510955414
 30
0.0
 10
2.014068317
 20
4.5511634727
 30
0.0
 10
2.0142181688
 20
4.5512314547
 30
0.0
 10
2.0143948592
 20
4.5512995338
 30
0.0
 10
2.0146826261
 20
4.5513958108
 30
0.0
 10
2.0151109793
 20
4.5515135724
 30
0.0
 10
2.0157070329
 20
4.5516489084
 30
0.0
 10
2.0164102062
 20
4.5517846297
 30
0.0
 10
2.0172201538
 20
4.5519206915
 30
0.0
 10
2.018136501
 20
4.5520569744
 30
0.0
 10
2.0191587582
 20
4.5521934171
 30
0.0
 10
2.020286357
 20
4.5523299864
 30
0.0
 10
2.0219977946
 20
4.5525197438
 30
0.0
 10
2.024395563
 20
4.5527539782
 30
0.0
 10
2.027579245
 20
4.5530259069
 30
0.0
 10
2.0311646864
 20
4.5532982835
 30
0.0
 10
2.0351435798
 20
4.5535710344
 30
0.0
 10
2.0395066718
 20
4.55384405
 30
0.0
 10
2.0460616293
 20
4.5542220215
 30
0.0
 10
2.0551327252
 20
4.5546884171
 30
0.0
 10
2.0670100044
 20
4.5552314593
 30
0.0
 10
2.0801266277
 20
4.5557754136
 30
0.0
 10
2.0943605114
 20
4.5563200877
 30
0.0
 10
2.1095791767
 20
4.5568652455
 30
0.0
 10
2.1256409551
 20
4.5574107586
 30
0.0
 10
2.1423963264
 20
4.557956523
 30
0.0
 10
2.1596893014
 20
4.5585024631
 30
0.0
 10
2.1773588893
 20
4.5590485168
 30
0.0
 10
2.1952405885
 20
4.5595946314
 30
0.0
 10
2.2131679282
 20
4.5601407588
 30
0.0
 10
2.2309740071
 20
4.5606868519
 30
0.0
 10
2.2484930554
 20
4.561232861
 30
0.0
 10
2.2655619733
 20
4.5617787298
 30
0.0
 10
2.2820218574
 20
4.5623243913
 30
0.0
 10
2.2977194775
 20
4.562869757
 30
0.0
 10
2.3125087045
 20
4.5634147182
 30
0.0
 10
2.3262518765
 20
4.5639590871
 30
0.0
 10
2.3388210668
 20
4.5645027034
 30
0.0
 10
2.348506864
 20
4.5649683662
 30
0.0
 10
2.3555814645
 20
4.5653450524
 30
0.0
 10
2.3603529533
 20
4.5656182818
 30
0.0
 10
2.3647513745
 20
4.5658913088
 30
0.0
 10
2.3687664979
 20
4.5661640831
 30
0.0
 10
2.3723889895
 20
4.5664365144
 30
0.0
 10
2.3756104812
 20
4.5667084461
 30
0.0
 10
2.3784234965
 20
4.5669797416
 30
0.0
 10
2.3805083923
 20
4.5672144556
 30
0.0
 10
2.381966584
 20
4.5674053715
 30
0.0
 10
2.3829027219
 20
4.5675416985
 30
0.0
 10
2.3837325489
 20
4.5676778018
 30
0.0
 10
2.3844556371
 20
4.5678136202
 30
0.0
 10
2.3850717525
 20
4.5679489714
 30
0.0
 10
2.3855806242
 20
4.5680838048
 30
0.0
 10
2.3859360057
 20
4.5682017752
 30
0.0
 10
2.3861646175
 20
4.5682989592
 30
0.0
 10
2.3862604452
 20
4.5683478822
 30
0.0
 10
2.3863034194
 20
4.5683727264
 30
0.0
  0
SPLINE
  5
277
100
AcDbEntity
  8
0
100
AcDbSpline
 62
7
  6
CONTINUOUS
 70
0
 71
3
 72
9
 73
5
 74
0
 42
0.0000001
 43
0.0000001
 44
0.0000000001
 40
0.0
 40
0.0
 40
0.0
 40
0.0
 40
0.2413970581
 40
1.0
 40
1.0
 40
1.0
 40
1.0
 10
2.0139823149
 20
4.5779000644
 30
0.0
 10
2.0139878725
 20
4.5779032777
 30
0.0
 10
2.0140109878
 20
4.5779164287
 30
0.0
 10
2.0140344533
 20
4.5779289607
 30
0.0
 10
2.0140524028
 20
4.5779381702
 30
0.0
  0
SPLINE
  5
278
100
AcDbEntity
  8
0
100
AcDbSpline
 62
7
  6
CONTINUOUS
 70
0
 71
3
 72
64
 73
60
 74
0
 42
0.0000001
 43
0.0000001
 44
0.0000000001
 40
0.0
 40
0.0
 40
0.0
 40
0.0
 40
0.0004340647
 40
0.0009345113
 40
0.002139382
 40
0.0036210623
 40
0.0053822194
 40
0.0074240419
 40
0.0097467393
 40
0.0152321231
 40
0.0218306825
 40
0.0295294725
 40
0.0383124634
 40
0.0481602264
 40
0.0590507531
 40
0.0709593854
 40
0.097719623
 40
0.1281954506
 40
0.1621060197
 40
0.1991382174
 40
0.2389496776
 40
0.2811721008
 40
0.3254146917
 40
0.3712678754
 40
0.4183070848
 40
0.4660967379
 40
0.5141942604
 40
0.5621542155
 40
0.609532453
 40
0.6558902161
 40
0.7007982668
 40
0.7438408255
 40
0.7846194946
 40
0.8227569276
 40
0.8579004417
 40
0.8897253315
 40
0.9179380748
 40
0.9306074947
 40
0.9422793191
 40
0.9529271471
 40
0.9625267312
 40
0.9710567256
 40
0.9784985382
 40
0.9818064205
 40
0.9848366889
 40
0.9875881032
 40
0.9900595733
 40
0.9922503165
 40
0.9941602634
 40
0.9957899999
 40
0.9971411557
 40
0.9977134769
 40
0.9982180045
 40
0.9986560708
 40
0.9990297533
 40
0.9993424559
 40
0.9996000605
 40
0.9998131295
 40
1.0
 40
1.0
 40
1.0
 40
1.0
 10
2.0140524028
 20
4.5779381702
 30
0.0
 10
2.0141004556
 20
4.5779628251
 30
0.0
 10
2.0142062098
 20
4.5780114415
 30
0.0
 10
2.0144543527
 20
4.5781080697
 30
0.0
 10
2.0148334863
 20
4.5782257065
 30
0.0
 10
2.0153703794
 20
4.5783604352
 30
0.0
 10
2.0160140132
 20
4.5784956427
 30
0.0
 10
2.0167641075
 20
4.5786312769
 30
0.0
 10
2.0179746328
 20
4.5788232521
 30
0.0
 10
2.0197520323
 20
4.5790578425
 30
0.0
 10
2.0221987717
 20
4.579327708
 30
0.0
 10
2.0250578556
 20
4.5795984489
 30
0.0
 10
2.0283227072
 20
4.5798698928
 30
0.0
 10
2.0319858683
 20
4.5801417814
 30
0.0
 10
2.0360388703
 20
4.5804140213
 30
0.0
 10
2.0421937408
 20
4.5807921867
 30
0.0
 10
2.0507845795
 20
4.5812580982
 30
0.0
 10
2.0621126595
 20
4.5817994858
 30
0.0
 10
2.0747200888
 20
4.5823419216
 30
0.0
 10
2.088490043
 20
4.582885184
 30
0.0
 10
2.1032949248
 20
4.5834289948
 30
0.0
 10
2.1189975139
 20
4.5839732088
 30
0.0
 10
2.1354522651
 20
4.5845177092
 30
0.0
 10
2.1525066549
 20
4.5850624127
 30
0.0
 10
2.1700026031
 20
4.5856072527
 30
0.0
 10
2.1877779342
 20
4.5861521739
 30
0.0
 10
2.2056678816
 20
4.5866971274
 30
0.0
 10
2.2235066152
 20
4.5872420665
 30
0.0
 10
2.2411287788
 20
4.5877869436
 30
0.0
 10
2.2583710271
 20
4.5883317065
 30
0.0
 10
2.2750735364
 20
4.5888762933
 30
0.0
 10
2.2910814909
 20
4.5894206287
 30
0.0
 10
2.3062465118
 20
4.5899646089
 30
0.0
 10
2.320428039
 20
4.5905081057
 30
0.0
 10
2.333494644
 20
4.5910508849
 30
0.0
 10
2.3453252393
 20
4.5915927518
 30
0.0
 10
2.3543599517
 20
4.5920581527
 30
0.0
 10
2.360888141
 20
4.5924353059
 30
0.0
 10
2.3652331615
 20
4.592707737
 30
0.0
 10
2.3691954195
 20
4.5929798893
 30
0.0
 10
2.3727657748
 20
4.5932516806
 30
0.0
 10
2.3759359679
 20
4.5935230177
 30
0.0
 10
2.3783235367
 20
4.5937567465
 30
0.0
 10
2.3800276518
 20
4.5939460885
 30
0.0
 10
2.3811504079
 20
4.594082368
 30
0.0
 10
2.3821682756
 20
4.5942185142
 30
0.0
 10
2.3830806864
 20
4.594354494
 30
0.0
 10
2.3838871383
 20
4.5944902654
 30
0.0
 10
2.3845872726
 20
4.5946257009
 30
0.0
 10
2.3851807612
 20
4.5947607343
 30
0.0
 10
2.385607268
 20
4.5948782379
 30
0.0
 10
2.385893772
 20
4.5949743101
 30
0.0
 10
2.3860696844
 20
4.5950422445
 30
0.0
 10
2.3862188851
 20
4.5951100827
 30
0.0
 10
2.3863414965
 20
4.5951778671
 30
0.0
 10
2.386437764
 20
4.5952457256
 30
0.0
 10
2.3865079855
 20
4.5953141585
 30
0.0
 10
2.3865521836
 20
4.5953843103
 30
0.0
 10
2.3865628437
 20
4.595434394
 30
0.0
 10
2.3865628404
 20
4.5954576454
 30
0.0
  0
LINE
  5
279
100
AcDbEntity
  8
0
100
AcDbLine
 62
7
  6
CONTINUOUS
 10
2.3858124387
 20
4.4878024633
 11
2.386560023
 21
4.4882812789
  0
SPLINE
  5
27A
100
AcDbEntity
  8
0
100
AcDbSpline
 62
7
  6
CONTINUOUS
 70
0
 71
3
 72
35
 73
31
 74
0
 42
0.0000001
 43
0.0000001
 44
0.0000000001
 40
0.0
 40
0.0
 40
0.0
 40
0.0
 40
0.0912524922
 40
0.1826506107
 40
0.2732437609
 40
0.3620846539
 40
0.4482465209
 40
0.5308302066
 40
0.608974214
 40
0.6818636265
 40
0.7487386976
 40
0.7797004741
 40
0.8089030471
 40
0.8362703295
 40
0.8617313327
 40
0.8852203447
 40
0.9066764906
 40
0.926045092
 40
0.9432768477
 40
0.958328776
 40
0.9711649935
 40
0.9767428993
 40
0.9817570339
 40
0.9862054508
 40
0.9900869208
 40
0.9934019914
 40
0.9961532918
 40
0.9983471178
 40
0.9992395913
 40
1.0
 40
1.0
 40
1.0
 40
1.0
 10
2.178185515
 20
4.4876428261
 30
0.0
 10
2.184522728
 20
4.4878374115
 30
0.0
 10
2.1972073394
 20
4.4882245378
 30
0.0
 10
2.2161834382
 20
4.4888027531
 30
0.0
 10
2.2349919035
 20
4.4893809124
 30
0.0
 10
2.2534363851
 20
4.4899589536
 30
0.0
 10
2.2713240982
 20
4.4905367941
 30
0.0
 10
2.2884682029
 20
4.4911143426
 30
0.0
 10
2.3046896098
 20
4.4916914563
 30
0.0
 10
2.3198188726
 20
4.4922680065
 30
0.0
 10
2.3316707383
 20
4.4927594986
 30
0.0
 10
2.3404884957
 20
4.4931561642
 30
0.0
 10
2.3465632756
 20
4.4934458683
 30
0.0
 10
2.352255409
 20
4.4937354389
 30
0.0
 10
2.3575500261
 20
4.4940248527
 30
0.0
 10
2.362433292
 20
4.4943140544
 30
0.0
 10
2.3668924733
 20
4.4946029845
 30
0.0
 10
2.3709159275
 20
4.4948915461
 30
0.0
 10
2.3744932035
 20
4.4951795524
 30
0.0
 10
2.3776150009
 20
4.4954668883
 30
0.0
 10
2.3799270453
 20
4.4957155125
 30
0.0
 10
2.3815422523
 20
4.4959178507
 30
0.0
 10
2.3825772772
 20
4.4960622391
 30
0.0
 10
2.3834932095
 20
4.4962063669
 30
0.0
 10
2.3842894912
 20
4.4963501885
 30
0.0
 10
2.3849658267
 20
4.496493477
 30
0.0
 10
2.3855218777
 20
4.4966361491
 30
0.0
 10
2.3859083598
 20
4.4967611046
 30
0.0
 10
2.3861550527
 20
4.4968643009
 30
0.0
 10
2.3862576597
 20
4.4969162821
 30
0.0
 10
2.3863033983
 20
4.4969427265
 30
0.0
  0
SPLINE
  5
27B
100
AcDbEntity
  8
0
100
AcDbSpline
 62
7
  6
CONTINUOUS
 70
0
 71
3
 72
17
 73
13
 74
0
 42
0.0000001
 43
0.0000001
 44
0.0000000001
 40
0.0
 40
0.0
 40
0.0
 40
0.0
 40
0.0250109405
 40
0.0547737315
 40
0.0894224041
 40
0.1290398156
 40
0.2233592055
 40
0.3379698042
 40
0.4729628256
 40
0.6283490611
 40
0.8040597502
 40
1.0
 40
1.0
 40
1.0
 40
1.0
 10
2.4056576707
 20
4.5081310364
 30
0.0
 10
2.4056116992
 20
4.5081044651
 30
0.0
 10
2.4055074682
 20
4.5080524293
 30
0.0
 10
2.4053315376
 20
4.507980822
 30
0.0
 10
2.4051225703
 20
4.507909058
 30
0.0
 10
2.4047793782
 20
4.5078072246
 30
0.0
 10
2.4042662576
 20
4.5076829414
 30
0.0
 10
2.4035500829
 20
4.5075402491
 30
0.0
 10
2.402702192
 20
4.5073970888
 30
0.0
 10
2.4017230991
 20
4.5072535407
 30
0.0
 10
2.40061344
 20
4.5071097454
 30
0.0
 10
2.3998296755
 20
4.5070187111
 30
0.0
 10
2.399416234
 20
4.5069728261
 30
0.0
  0
SPLINE
  5
27C
100
AcDbEntity
  8
0
100
AcDbSpline
 62
7
  6
CONTINUOUS
 70
0
 71
3
 72
37
 73
33
 74
0
 42
0.0000001
 43
0.0000001
 44
0.0000000001
 40
0.0
 40
0.0
 40
0.0
 40
0.0
 40
0.0004652222
 40
0.0009686483
 40
0.0015408539
 40
0.0022029418
 40
0.0038449337
 40
0.0059590918
 40
0.0085725911
 40
0.0116990057
 40
0.0153457512
 40
0.0195170886
 40
0.0242153259
 40
0.0294411853
 40
0.0351946225
 40
0.041475145
 40
0.055613455
 40
0.0718434053
 40
0.0901478302
 40
0.1105058326
 40
0.1328923517
 40
0.1572804445
 40
0.211934501
 40
0.2741907261
 40
0.3437299505
 40
0.4201939513
 40
0.5031876886
 40
0.5922813448
 40
0.6870142677
 40
0.786892781
 40
0.8914049768
 40
1.0
 40
1.0
 40
1.0
 40
1.0
 10
2.0137228754
 20
4.6222451454
 30
0.0
 10
2.0137228776
 20
4.6222624084
 30
0.0
 10
2.013728454
 20
4.6222985311
 30
0.0
 10
2.0137526213
 20
4.622350964
 30
0.0
 10
2.0137918641
 20
4.6224026145
 30
0.0
 10
2.0138696806
 20
4.6224761586
 30
0.0
 10
2.0140086718
 20
4.6225651987
 30
0.0
 10
2.0142228899
 20
4.6226656424
 30
0.0
 10
2.0144966377
 20
4.6227665002
 30
0.0
 10
2.0148300373
 20
4.6228677173
 30
0.0
 10
2.0152233685
 20
4.6229692105
 30
0.0
 10
2.0156766015
 20
4.6230709021
 30
0.0
 10
2.0161896764
 20
4.623172737
 30
0.0
 10
2.0167624524
 20
4.6232746832
 30
0.0
 10
2.0173947569
 20
4.6233767215
 30
0.0
 10
2.0183555495
 20
4.6235185218
 30
0.0
 10
2.0197042625
 20
4.6236935948
 30
0.0
 10
2.021498951
 20
4.6238967881
 30
0.0
 10
2.023525699
 20
4.62410031
 30
0.0
 10
2.0257818923
 20
4.6243040946
 30
0.0
 10
2.0282646443
 20
4.6245080891
 30
0.0
 10
2.0320177315
 20
4.6247911284
 30
0.0
 10
2.0372493448
 20
4.6251404562
 30
0.0
 10
2.0441560674
 20
4.6255464535
 30
0.0
 10
2.0518732989
 20
4.6259531402
 30
0.0
 10
2.0603609688
 20
4.6263603817
 30
0.0
 10
2.0695749922
 20
4.6267680052
 30
0.0
 10
2.0794675222
 20
4.6271759226
 30
0.0
 10
2.089987086
 20
4.627584057
 30
0.0
 10
2.1010791861
 20
4.6279923683
 30
0.0
 10
2.1126859948
 20
4.6284008066
 30
0.0
 10
2.1205892527
 20
4.6286685074
 30
0.0
 10
2.1246166585
 20
4.6288028261
 30
0.0
  0
SPLINE
  5
27D
100
AcDbEntity
  8
0
100
AcDbSpline
 62
7
  6
CONTINUOUS
 70
0
 71
3
 72
66
 73
62
 74
0
 42
0.0000001
 43
0.0000001
 44
0.0000000001
 40
0.0
 40
0.0
 40
0.0
 40
0.0
 40
0.0001872552
 40
0.0004008577
 40
0.000659218
 40
0.0009729623
 40
0.0013480014
 40
0.0017877342
 40
0.0022942276
 40
0.0028688015
 40
0.0042252785
 40
0.0058615486
 40
0.007779263
 40
0.0099788949
 40
0.0124603487
 40
0.0152229731
 40
0.0182655876
 40
0.0215868484
 40
0.0290588147
 40
0.0376231222
 40
0.0472612037
 40
0.0579513131
 40
0.0696691929
 40
0.0823880675
 40
0.1107091657
 40
0.1426531076
 40
0.177923964
 40
0.2161944513
 40
0.257109115
 40
0.3002877175
 40
0.3453288263
 40
0.3918136325
 40
0.4393098211
 40
0.4873756609
 40
0.535564058
 40
0.5834268135
 40
0.6305187268
 40
0.6764018456
 40
0.7206494728
 40
0.7628502196
 40
0.8026117974
 40
0.8395647691
 40
0.8733660262
 40
0.903702126
 40
0.9174817366
 40
0.9302924063
 40
0.942104853
 40
0.9528918498
 40
0.9626289613
 40
0.971294302
 40
0.9788687466
 40
0.9853365446
 40
0.9881513969
 40
0.9906853381
 40
0.9929376421
 40
0.9949079013
 40
0.9965964986
 40
0.9980049969
 40
0.9991367804
 40
0.9996011884
 40
1.0
 40
1.0
 40
1.0
 40
1.0
 10
2.0137228812
 20
4.5151001454
 30
0.0
 10
2.0137228809
 20
4.5151234497
 30
0.0
 10
2.0137335987
 20
4.5151736574
 30
0.0
 10
2.0137779909
 20
4.5152439584
 30
0.0
 10
2.0138485039
 20
4.5153125397
 30
0.0
 10
2.0139451825
 20
4.5153805419
 30
0.0
 10
2.0140683271
 20
4.5154484696
 30
0.0
 10
2.0142181825
 20
4.5155164528
 30
0.0
 10
2.0143948668
 20
4.5155845332
 30
0.0
 10
2.0146826215
 20
4.5156808129
 30
0.0
 10
2.0151109752
 20
4.5157985782
 30
0.0
 10
2.0157070355
 20
4.5159339032
 30
0.0
 10
2.0164102084
 20
4.5160696285
 30
0.0
 10
2.0172201498
 20
4.5162056948
 30
0.0
 10
2.0181365003
 20
4.5163419748
 30
0.0
 10
2.0191587616
 20
4.5164784138
 30
0.0
 10
2.0202863557
 20
4.5166149876
 30
0.0
 10
2.0219977903
 20
4.5168047459
 30
0.0
 10
2.0243955595
 20
4.5170389755
 30
0.0
 10
2.027579245
 20
4.5173109078
 30
0.0
 10
2.0311646881
 20
4.5175832842
 30
0.0
 10
2.035143578
 20
4.5178560324
 30
0.0
 10
2.0395066759
 20
4.5181290524
 30
0.0
 10
2.0460616318
 20
4.5185070187
 30
0.0
 10
2.0551327305
 20
4.5189734179
 30
0.0
 10
2.0670100014
 20
4.5195164591
 30
0.0
 10
2.0801266189
 20
4.5200604139
 30
0.0
 10
2.0943605043
 20
4.5206050878
 30
0.0
 10
2.1095791754
 20
4.5211502454
 30
0.0
 10
2.1256409594
 20
4.5216957584
 30
0.0
 10
2.1423963312
 20
4.522241523
 30
0.0
 10
2.1596893041
 20
4.5227874631
 30
0.0
 10
2.1773588898
 20
4.5233335168
 30
0.0
 10
2.1952405884
 20
4.5238796314
 30
0.0
 10
2.2131679277
 20
4.5244257588
 30
0.0
 10
2.2309740046
 20
4.5249718519
 30
0.0
 10
2.2484930513
 20
4.5255178611
 30
0.0
 10
2.2655619697
 20
4.5260637299
 30
0.0
 10
2.2820218588
 20
4.5266093914
 30
0.0
 10
2.2977194848
 20
4.5271547569
 30
0.0
 10
2.3125087143
 20
4.5276997179
 30
0.0
 10
2.3262518805
 20
4.5282440871
 30
0.0
 10
2.3388210608
 20
4.5287877025
 30
0.0
 10
2.3485068617
 20
4.5292533693
 30
0.0
 10
2.3555814609
 20
4.5296300497
 30
0.0
 10
2.3603529577
 20
4.529903284
 30
0.0
 10
2.3647513735
 20
4.5301763079
 30
0.0
 10
2.3687664976
 20
4.5304490821
 30
0.0
 10
2.3723889921
 20
4.5307215178
 30
0.0
 10
2.3756104766
 20
4.5309934404
 30
0.0
 10
2.3784235013
 20
4.5312647495
 30
0.0
 10
2.380508389
 20
4.5314994481
 30
0.0
 10
2.3819665821
 20
4.5316903737
 30
0.0
 10
2.3829027188
 20
4.5318267021
 30
0.0
 10
2.3837325536
 20
4.5319627979
 30
0.0
 10
2.384455639
 20
4.5320986168
 30
0.0
 10
2.3850717469
 20
4.5322339788
 30
0.0
 10
2.3855806244
 20
4.532368806
 30
0.0
 10
2.3859360193
 20
4.5324867677
 30
0.0
 10
2.3861646233
 20
4.5325839576
 30
0.0
 10
2.386260438
 20
4.5326328825
 30
0.0
 10
2.3863034054
 20
4.5326577265
 30
0.0
  0
SPLINE
  5
27E
100
AcDbEntity
  8
0
100
AcDbSpline
 62
7
  6
CONTINUOUS
 70
0
 71
3
 72
30
 73
26
 74
0
 42
0.0000001
 43
0.0000001
 44
0.0000000001
 40
0.0
 40
0.0
 40
0.0
 40
0.0
 40
0.0017139803
 40
0.0039077935
 40
0.0065953102
 40
0.0097834751
 40
0.0134759906
 40
0.0176745873
 40
0.0275901705
 40
0.0395263386
 40
0.0534709397
 40
0.0694065877
 40
0.0873119446
 40
0.1071615723
 40
0.1289272735
 40
0.1780760794
 40
0.2344690003
 40
0.2977712091
 40
0.3676053898
 40
0.4435543821
 40
0.5251640188
 40
0.6119457217
 40
0.7033801043
 40
0.7989186829
 40
1.0
 40
1.0
 40
1.0
 40
1.0
 10
1.9946280147
 20
4.6024267544
 30
0.0
 10
1.9947013442
 20
4.6024691427
 30
0.0
 10
1.9948774483
 20
4.602550061
 30
0.0
 10
1.9951851799
 20
4.60265789
 30
0.0
 10
1.9955691569
 20
4.6027662983
 30
0.0
 10
1.9960293803
 20
4.6028751217
 30
0.0
 10
1.9965659728
 20
4.6029842448
 30
0.0
 10
1.9974323248
 20
4.6031386928
 30
0.0
 10
1.9987059751
 20
4.603327468
 30
0.0
 10
2.0004616303
 20
4.6035446035
 30
0.0
 10
2.002516636
 20
4.6037624208
 30
0.0
 10
2.004867973
 20
4.603980808
 30
0.0
 10
2.0075121946
 20
4.6041995406
 30
0.0
 10
2.0104453733
 20
4.6044185616
 30
0.0
 10
2.0149203023
 20
4.6047233226
 30
0.0
 10
2.0212003058
 20
4.6050988403
 30
0.0
 10
2.0295326874
 20
4.6055346077
 30
0.0
 10
2.0388884689
 20
4.605971225
 30
0.0
 10
2.0492115566
 20
4.6064085241
 30
0.0
 10
2.0604400594
 20
4.6068462829
 30
0.0
 10
2.0725066276
 20
4.6072843898
 30
0.0
 10
2.0853388956
 20
4.6077227537
 30
0.0
 10
2.0988598587
 20
4.6081613224
 30
0.0
 10
2.1180270112
 20
4.6087564553
 30
0.0
 10
2.1326786907
 20
4.6091870172
 30
0.0
 10
2.1426113668
 20
4.6094728261
 30
0.0
  0
SPLINE
  5
27F
100
AcDbEntity
  8
0
100
AcDbSpline
 62
7
  6
CONTINUOUS
 70
0
 71
3
 72
9
 73
5
 74
0
 42
0.0000001
 43
0.0000001
 44
0.0000000001
 40
0.0
 40
0.0
 40
0.0
 40
0.0
 40
0.2418086875
 40
1.0
 40
1.0
 40
1.0
 40
1.0
 10
2.0139822939
 20
4.5421850644
 30
0.0
 10
2.0139875693
 20
4.5421881146
 30
0.0
 10
2.0140094693
 20
4.5422005845
 30
0.0
 10
2.0140316855
 20
4.5422124963
 30
0.0
 10
2.0140486656
 20
4.5422212574
 30
0.0
  0
SPLINE
  5
280
100
AcDbEntity
  8
0
100
AcDbSpline
 62
7
  6
CONTINUOUS
 70
0
 71
3
 72
64
 73
60
 74
0
 42
0.0000001
 43
0.0000001
 44
0.0000000001
 40
0.0
 40
0.0
 40
0.0
 40
0.0
 40
0.0004323198
 40
0.0009309969
 40
0.0021321815
 40
0.0036101153
 40
0.0053676735
 40
0.0074059703
 40
0.0097250734
 40
0.0152036638
 40
0.021795587
 40
0.0294882482
 40
0.0382652522
 40
0.0481075468
 40
0.05899286
 40
0.0708966729
 40
0.0976483765
 40
0.1281172194
 40
0.162022356
 40
0.1990506233
 40
0.238859597
 40
0.2810809272
 40
0.3253237591
 40
0.3711784422
 40
0.418220298
 40
0.4660136195
 40
0.5141156974
 40
0.5620809548
 40
0.6094651011
 40
0.6558292382
 40
0.7007439616
 40
0.7437933266
 40
0.7845787795
 40
0.8227228447
 40
0.8578727294
 40
0.8897036023
 40
0.9179218025
 40
0.930593629
 40
0.9422678495
 40
0.9529177032
 40
0.9625192931
 40
0.9710509561
 40
0.9784942782
 40
0.9818027962
 40
0.9848337564
 40
0.9875857399
 40
0.990057622
 40
0.9922488484
 40
0.9941592485
 40
0.9957892481
 40
0.9971406371
 40
0.9977131043
 40
0.998217769
 40
0.9986559405
 40
0.9990296764
 40
0.9993423902
 40
0.9996000051
 40
0.9998131034
 40
1.0
 40
1.0
 40
1.0
 40
1.0
 10
2.0140486656
 20
4.5422212574
 30
0.0
 10
2.0140964697
 20
4.5422459225
 30
0.0
 10
2.0142017392
 20
4.5422945529
 30
0.0
 10
2.0144489165
 20
4.5423912016
 30
0.0
 10
2.0148268533
 20
4.5425088599
 30
0.0
 10
2.0153623351
 20
4.5426436017
 30
0.0
 10
2.016004595
 20
4.5427788111
 30
0.0
 10
2.0167533418
 20
4.5429144508
 30
0.0
 10
2.017962121
 20
4.5431064734
 30
0.0
 10
2.0197374037
 20
4.5433410778
 30
0.0
 10
2.0221817189
 20
4.5436109777
 30
0.0
 10
2.0250384907
 20
4.5438817299
 30
0.0
 10
2.0283011808
 20
4.5441532098
 30
0.0
 10
2.0319623022
 20
4.5444251182
 30
0.0
 10
2.0360134145
 20
4.5446973894
 30
0.0
 10
2.0421660368
 20
4.545075604
 30
0.0
 10
2.0507544349
 20
4.5455415718
 30
0.0
 10
2.0620800299
 20
4.546083013
 30
0.0
 10
2.0746855625
 20
4.5466255041
 30
0.0
 10
2.0884541937
 20
4.5471688231
 30
0.0
 10
2.1032583045
 20
4.5477126914
 30
0.0
 10
2.1189606523
 20
4.5482569634
 30
0.0
 10
2.1354156668
 20
4.5488015221
 30
0.0
 10
2.1524707922
 20
4.5493462842
 30
0.0
 10
2.1699679078
 20
4.5498911828
 30
0.0
 10
2.1877447897
 20
4.5504361628
 30
0.0
 10
2.2056366199
 20
4.5509811752
 30
0.0
 10
2.2234775146
 20
4.5515261733
 30
0.0
 10
2.2411020632
 20
4.5520711095
 30
0.0
 10
2.2583468629
 20
4.5526159315
 30
0.0
 10
2.2750520293
 20
4.5531605774
 30
0.0
 10
2.2910626842
 20
4.5537049717
 30
0.0
 10
2.306230391
 20
4.5542490111
 30
0.0
 10
2.320414539
 20
4.5547925674
 30
0.0
 10
2.3334836527
 20
4.5553354052
 30
0.0
 10
2.3453165966
 20
4.5558773322
 30
0.0
 10
2.3543531334
 20
4.5563427792
 30
0.0
 10
2.3608826721
 20
4.5567199791
 30
0.0
 10
2.3652285914
 20
4.5569924332
 30
0.0
 10
2.3691916931
 20
4.5572646228
 30
0.0
 10
2.3727627982
 20
4.5575364366
 30
0.0
 10
2.3759336715
 20
4.5578078088
 30
0.0
 10
2.3783217422
 20
4.5580415581
 30
0.0
 10
2.3800262289
 20
4.5582309266
 30
0.0
 10
2.3811492341
 20
4.5583672164
 30
0.0
 10
2.3821673219
 20
4.5585033751
 30
0.0
 10
2.383079924
 20
4.5586393777
 30
0.0
 10
2.3838865531
 20
4.5587751617
 30
0.0
 10
2.3845868463
 20
4.5589106039
 30
0.0
 10
2.3851804587
 20
4.559045658
 30
0.0
 10
2.3856070481
 20
4.5591631798
 30
0.0
 10
2.3858936214
 20
4.5592592579
 30
0.0
 10
2.3860695856
 20
4.5593271982
 30
0.0
 10
2.3862188265
 20
4.5593950415
 30
0.0
 10
2.3863414605
 20
4.5594628325
 30
0.0
 10
2.3864377338
 20
4.5595307021
 30
0.0
 10
2.386507954
 20
4.5595991467
 30
0.0
 10
2.3865521598
 20
4.5596693025
 30
0.0
 10
2.3865628334
 20
4.5597193904
 30
0.0
 10
2.3865628357
 20
4.5597426454
 30
0.0
  0
SPLINE
  5
281
100
AcDbEntity
  8
0
100
AcDbSpline
 62
7
  6
CONTINUOUS
 70
0
 71
3
 72
69
 73
65
 74
0
 42
0.0000001
 43
0.0000001
 44
0.0000000001
 40
0.0
 40
0.0
 40
0.0
 40
0.0
 40
0.0001706516
 40
0.000370079
 40
0.0006171568
 40
0.0009220091
 40
0.0012900011
 40
0.0017241457
 40
0.0022262507
 40
0.0027974405
 40
0.0041495214
 40
0.005783765
 40
0.0077015348
 40
0.009903125
 40
0.0123880408
 40
0.0151554826
 40
0.0182043858
 40
0.0215332069
 40
0.0290236274
 40
0.0376108915
 40
0.0472759051
 40
0.0579966725
 40
0.0697488025
 40
0.0825050592
 40
0.0962360292
 40
0.1109098562
 40
0.1429474558
 40
0.1783198678
 40
0.2166976262
 40
0.2577230055
 40
0.3010133658
 40
0.3461648578
 40
0.3927561943
 40
0.4403526254
 40
0.488509957
 40
0.5367787615
 40
0.5847085512
 40
0.6318520401
 40
0.6777692697
 40
0.7220317798
 40
0.7642266094
 40
0.8039602163
 40
0.8408621103
 40
0.874588403
 40
0.8901612891
 40
0.9048251023
 40
0.9185457052
 40
0.9312912605
 40
0.943032385
 40
0.9537418677
 40
0.9633953433
 40
0.9719708519
 40
0.9794493229
 40
0.9858148764
 40
0.9885762206
 40
0.9910550195
 40
0.9932504782
 40
0.9951621122
 40
0.9967902377
 40
0.9981362447
 40
0.998704431
 40
0.9992035706
 40
0.9996348117
 40
1.0
 40
1.0
 40
1.0
 40
1.0
 10
2.4058928571
 20
4.5842974647
 30
0.0
 10
2.4058928571
 20
4.5842740295
 30
0.0
 10
2.4058805831
 20
4.5842228919
 30
0.0
 10
2.4058310117
 20
4.5841526432
 30
0.0
 10
2.4057529976
 20
4.5840842395
 30
0.0
 10
2.4056460922
 20
4.5840163214
 30
0.0
 10
2.4055098918
 20
4.5839483915
 30
0.0
 10
2.4053440823
 20
4.5838803595
 30
0.0
 10
2.4051485302
 20
4.5838122061
 30
0.0
 10
2.404829667
 20
4.5837157146
 30
0.0
 10
2.4043552954
 20
4.5835977864
 30
0.0
 10
2.4036954963
 20
4.5834622855
 30
0.0
 10
2.4029170489
 20
4.583326374
 30
0.0
 10
2.4020203413
 20
4.5831901143
 30
0.0
 10
2.4010058085
 20
4.5830536248
 30
0.0
 10
2.399874009
 20
4.5829169666
 30
0.0
 10
2.3986255749
 20
4.5827801829
 30
0.0
 10
2.3967305825
 20
4.5825901138
 30
0.0
 10
2.3940757911
 20
4.5823555016
 30
0.0
 10
2.3905510673
 20
4.5820831483
 30
0.0
 10
2.3865815923
 20
4.5818103405
 30
0.0
 10
2.3821766071
 20
4.5815371551
 30
0.0
 10
2.3773463854
 20
4.5812637166
 30
0.0
 10
2.372102186
 20
4.5809900756
 30
0.0
 10
2.3664562607
 20
4.5807162738
 30
0.0
 10
2.3581643753
 20
4.5803399385
 30
0.0
 10
2.3469015807
 20
4.5798741382
 30
0.0
 10
2.3323841963
 20
4.5793292617
 30
0.0
 10
2.3166317688
 20
4.5787837386
 30
0.0
 10
2.2997914024
 20
4.5782377085
 30
0.0
 10
2.2820203665
 20
4.5776913291
 30
0.0
 10
2.2634846349
 20
4.577144696
 30
0.0
 10
2.2443573184
 20
4.576597888
 30
0.0
 10
2.2248170563
 20
4.5760509669
 30
0.0
 10
2.2050463446
 20
4.5755039857
 30
0.0
 10
2.1852298364
 20
4.5749569927
 30
0.0
 10
2.165552609
 20
4.5744100355
 30
0.0
 10
2.1461984413
 20
4.5738631646
 30
0.0
 10
2.1273480933
 20
4.5733164365
 30
0.0
 10
2.1091776206
 20
4.5727699211
 30
0.0
 10
2.0918567207
 20
4.5722237019
 30
0.0
 10
2.0755471499
 20
4.571677912
 30
0.0
 10
2.0604012196
 20
4.5711326698
 30
0.0
 10
2.0485725392
 20
4.570667512
 30
0.0
 10
2.0397966711
 20
4.5702921073
 30
0.0
 10
2.033766329
 20
4.5700181877
 30
0.0
 10
2.0281246769
 20
4.5697443971
 30
0.0
 10
2.0228848879
 20
4.5694707561
 30
0.0
 10
2.0180592044
 20
4.5691973188
 30
0.0
 10
2.0136588718
 20
4.5689241425
 30
0.0
 10
2.0096941613
 20
4.5686513203
 30
0.0
 10
2.0061742744
 20
4.5683790325
 30
0.0
 10
2.0031073913
 20
4.5681073927
 30
0.0
 10
2.0008390174
 20
4.5678722691
 30
0.0
 10
1.9992567318
 20
4.5676808609
 30
0.0
 10
1.9982447414
 20
4.5675443649
 30
0.0
 10
1.997350586
 20
4.5674081136
 30
0.0
 10
1.9965746991
 20
4.5672722101
 30
0.0
 10
1.9959174671
 20
4.5671367216
 30
0.0
 10
1.9954452413
 20
4.567018788
 30
0.0
 10
1.9951281151
 20
4.5669222755
 30
0.0
 10
1.9949338429
 20
4.5668541249
 30
0.0
 10
1.9947693415
 20
4.5667861024
 30
0.0
 10
1.9946714795
 20
4.5667368521
 30
0.0
 10
1.994628061
 20
4.5667117544
 30
0.0
  0
SPLINE
  5
282
100
AcDbEntity
  8
0
100
AcDbSpline
 62
7
  6
CONTINUOUS
 70
0
 71
3
 72
69
 73
65
 74
0
 42
0.0000001
 43
0.0000001
 44
0.0000000001
 40
0.0
 40
0.0
 40
0.0
 40
0.0
 40
0.0001706516
 40
0.000370079
 40
0.0006171568
 40
0.0009220091
 40
0.0012900011
 40
0.0017241458
 40
0.0022262507
 40
0.0027974405
 40
0.0041495214
 40
0.0057837651
 40
0.0077015349
 40
0.0099031253
 40
0.0123880411
 40
0.0151554829
 40
0.0182043861
 40
0.0215332073
 40
0.029023628
 40
0.0376108926
 40
0.0472759061
 40
0.0579966735
 40
0.0697488038
 40
0.0825050607
 40
0.0962360306
 40
0.1109098576
 40
0.1429474574
 40
0.1783198694
 40
0.2166976281
 40
0.2577230075
 40
0.3010133684
 40
0.3461648608
 40
0.3927561988
 40
0.4403526296
 40
0.488509962
 40
0.5367787662
 40
0.584708556
 40
0.6318520443
 40
0.6777692738
 40
0.7220317837
 40
0.7642266133
 40
0.8039602201
 40
0.8408621142
 40
0.874588407
 40
0.8901612928
 40
0.9048251061
 40
0.918545709
 40
0.9312912639
 40
0.9430323879
 40
0.9537418705
 40
0.9633953459
 40
0.9719708539
 40
0.9794493244
 40
0.9858148777
 40
0.9885762217
 40
0.9910550205
 40
0.993250479
 40
0.9951621128
 40
0.9967902382
 40
0.998136245
 40
0.9987044313
 40
0.9992035708
 40
0.9996348118
 40
1.0
 40
1.0
 40
1.0
 40
1.0
 10
1.9943928571
 20
4.5619753261
 30
0.0
 10
1.9943928571
 20
4.5619987613
 30
0.0
 10
1.9944051312
 20
4.5620498988
 30
0.0
 10
1.9944547026
 20
4.5621201475
 30
0.0
 10
1.9945327167
 20
4.5621885512
 30
0.0
 10
1.9946396221
 20
4.5622564693
 30
0.0
 10
1.9947758225
 20
4.5623243992
 30
0.0
 10
1.994941632
 20
4.5623924312
 30
0.0
 10
1.9951371841
 20
4.5624605847
 30
0.0
 10
1.9954560473
 20
4.5625570762
 30
0.0
 10
1.9959304189
 20
4.5626750044
 30
0.0
 10
1.9965902181
 20
4.5628105052
 30
0.0
 10
1.9973686654
 20
4.5629464168
 30
0.0
 10
1.9982653731
 20
4.5630826765
 30
0.0
 10
1.9992799059
 20
4.563219166
 30
0.0
 10
2.0004117054
 20
4.5633558242
 30
0.0
 10
2.0016601395
 20
4.5634926079
 30
0.0
 10
2.003555132
 20
4.5636826769
 30
0.0
 10
2.0062099235
 20
4.5639172892
 30
0.0
 10
2.0097346473
 20
4.5641896425
 30
0.0
 10
2.0137041225
 20
4.5644624503
 30
0.0
 10
2.0181091077
 20
4.5647356357
 30
0.0
 10
2.0229393294
 20
4.5650090742
 30
0.0
 10
2.0281835289
 20
4.5652827152
 30
0.0
 10
2.0338294542
 20
4.565556517
 30
0.0
 10
2.0421213397
 20
4.5659328523
 30
0.0
 10
2.0533841343
 20
4.5663986526
 30
0.0
 10
2.0679015187
 20
4.5669435291
 30
0.0
 10
2.0836539463
 20
4.5674890522
 30
0.0
 10
2.1004943128
 20
4.5680350823
 30
0.0
 10
2.1182653489
 20
4.5685814617
 30
0.0
 10
2.1368010808
 20
4.5691280948
 30
0.0
 10
2.1559283976
 20
4.5696749028
 30
0.0
 10
2.1754686599
 20
4.5702218239
 30
0.0
 10
2.1952393717
 20
4.5707688052
 30
0.0
 10
2.2150558799
 20
4.5713157982
 30
0.0
 10
2.2347331073
 20
4.5718627553
 30
0.0
 10
2.2540872749
 20
4.5724096262
 30
0.0
 10
2.2729376228
 20
4.5729563543
 30
0.0
 10
2.2911080954
 20
4.5735028698
 30
0.0
 10
2.3084289953
 20
4.5740490889
 30
0.0
 10
2.3247385661
 20
4.5745948788
 30
0.0
 10
2.3398844964
 20
4.5751401211
 30
0.0
 10
2.3517131768
 20
4.5756052789
 30
0.0
 10
2.3604890449
 20
4.5759806835
 30
0.0
 10
2.3665193869
 20
4.5762546031
 30
0.0
 10
2.372161039
 20
4.5765283938
 30
0.0
 10
2.3774008279
 20
4.5768020347
 30
0.0
 10
2.3822265112
 20
4.577075472
 30
0.0
 10
2.3866268438
 20
4.5773486484
 30
0.0
 10
2.3905915541
 20
4.5776214705
 30
0.0
 10
2.3941114409
 20
4.5778937583
 30
0.0
 10
2.3971783238
 20
4.5781653981
 30
0.0
 10
2.3994466976
 20
4.5784005217
 30
0.0
 10
2.4010289831
 20
4.57859193
 30
0.0
 10
2.4020409734
 20
4.5787284259
 30
0.0
 10
2.4029351287
 20
4.5788646772
 30
0.0
 10
2.4037110156
 20
4.5790005808
 30
0.0
 10
2.4043682476
 20
4.5791360693
 30
0.0
 10
2.4048404732
 20
4.5792540028
 30
0.0
 10
2.4051575994
 20
4.5793505153
 30
0.0
 10
2.4053518716
 20
4.5794186659
 30
0.0
 10
2.4055163729
 20
4.5794866884
 30
0.0
 10
2.4056142349
 20
4.5795359388
 30
0.0
 10
2.4056576535
 20
4.5795610365
 30
0.0
  0
SPLINE
  5
283
100
AcDbEntity
  8
0
100
AcDbSpline
 62
7
  6
CONTINUOUS
 70
0
 71
3
 72
42
 73
38
 74
0
 42
0.0000001
 43
0.0000001
 44
0.0000000001
 40
0.0
 40
0.0
 40
0.0
 40
0.0
 40
0.0007643682
 40
0.0017380014
 40
0.0029270157
 40
0.0043344939
 40
0.0059618478
 40
0.0078096679
 40
0.012166887
 40
0.0174034639
 40
0.0235128654
 40
0.0304861206
 40
0.0383121281
 40
0.0469780729
 40
0.0564693688
 40
0.0778621263
 40
0.1023438819
 40
0.1297456857
 40
0.1598777505
 40
0.192530991
 40
0.2274785692
 40
0.2644775162
 40
0.3032705147
 40
0.343587647
 40
0.4276634015
 40
0.5143681286
 40
0.6012917877
 40
0.6860182351
 40
0.7661926486
 40
0.8038699941
 40
0.8395873375
 40
0.8730963351
 40
0.9041641309
 40
0.932575033
 40
0.9581321125
 40
0.980658739
 40
1.0
 40
1.0
 40
1.0
 40
1.0
 10
2.0139823058
 20
4.6136150644
 30
0.0
 10
2.0140610662
 20
4.6136605964
 30
0.0
 10
2.0142494805
 20
4.6137476961
 30
0.0
 10
2.0145780503
 20
4.613863996
 30
0.0
 10
2.0149868094
 20
4.6139808859
 30
0.0
 10
2.015475746
 20
4.614098192
 30
0.0
 10
2.0160449278
 20
4.6142158167
 30
0.0
 10
2.0169622321
 20
4.6143822071
 30
0.0
 10
2.0183089892
 20
4.6145856208
 30
0.0
 10
2.0201633613
 20
4.6148196658
 30
0.0
 10
2.0223311204
 20
4.6150544338
 30
0.0
 10
2.0248085505
 20
4.6152898027
 30
0.0
 10
2.027591435
 20
4.6155255461
 30
0.0
 10
2.0306749489
 20
4.6157615885
 30
0.0
 10
2.0353707316
 20
4.6160898257
 30
0.0
 10
2.0419480153
 20
4.6164942827
 30
0.0
 10
2.0506567125
 20
4.6169638603
 30
0.0
 10
2.0604068523
 20
4.6174343453
 30
0.0
 10
2.0711305364
 20
4.6179055565
 30
0.0
 10
2.082753086
 20
4.6183772554
 30
0.0
 10
2.0951935358
 20
4.6188493221
 30
0.0
 10
2.1083652187
 20
4.6193216567
 30
0.0
 10
2.1221763642
 20
4.6197942042
 30
0.0
 10
2.1415881189
 20
4.6204333973
 30
0.0
 10
2.1667004008
 20
4.621223326
 30
0.0
 10
2.1973578827
 20
4.6221593708
 30
0.0
 10
2.228092847
 20
4.6230954211
 30
0.0
 10
2.2580502298
 20
4.6240308872
 30
0.0
 10
2.2821479061
 20
4.6248246155
 30
0.0
 10
2.3004142802
 20
4.6254678804
 30
0.0
 10
2.3131291284
 20
4.6259400653
 30
0.0
 10
2.3250567526
 20
4.6264119085
 30
0.0
 10
2.3361140625
 20
4.6268833097
 30
0.0
 10
2.3462240374
 20
4.6273541036
 30
0.0
 10
2.3553162959
 20
4.6278239974
 30
0.0
 10
2.3633275356
 20
4.6282926677
 30
0.0
 10
2.3682993301
 20
4.6286299785
 30
0.0
 10
2.3705948152
 20
4.6288028261
 30
0.0
  0
SPLINE
  5
284
100
AcDbEntity
  8
0
100
AcDbSpline
 62
7
  6
CONTINUOUS
 70
0
 71
3
 72
69
 73
65
 74
0
 42
0.0000001
 43
0.0000001
 44
0.0000000001
 40
0.0
 40
0.0
 40
0.0
 40
0.0
 40
0.0001706516
 40
0.000370079
 40
0.0006171568
 40
0.0009220091
 40
0.0012900011
 40
0.0017241458
 40
0.0022262507
 40
0.0027974405
 40
0.0041495214
 40
0.0057837651
 40
0.0077015349
 40
0.0099031252
 40
0.012388041
 40
0.0151554828
 40
0.018204386
 40
0.0215332072
 40
0.0290236277
 40
0.0376108921
 40
0.0472759056
 40
0.0579966731
 40
0.0697488031
 40
0.08250506
 40
0.09623603
 40
0.1109098572
 40
0.1429474569
 40
0.1783198691
 40
0.2166976276
 40
0.2577230071
 40
0.3010133677
 40
0.3461648602
 40
0.3927561975
 40
0.4403526287
 40
0.4885099605
 40
0.536778765
 40
0.5847085548
 40
0.6318520436
 40
0.6777692732
 40
0.7220317833
 40
0.7642266128
 40
0.8039602196
 40
0.8408621137
 40
0.8745884065
 40
0.8901612924
 40
0.9048251056
 40
0.9185457083
 40
0.9312912633
 40
0.9430323876
 40
0.9537418701
 40
0.9633953454
 40
0.9719708537
 40
0.9794493243
 40
0.9858148776
 40
0.9885762217
 40
0.9910550205
 40
0.993250479
 40
0.9951621128
 40
0.9967902382
 40
0.998136245
 40
0.9987044313
 40
0.9992035708
 40
0.9996348118
 40
1.0
 40
1.0
 40
1.0
 40
1.0
 10
1.9943928571
 20
4.5262603261
 30
0.0
 10
1.9943928571
 20
4.5262837613
 30
0.0
 10
1.9944051312
 20
4.5263348988
 30
0.0
 10
1.9944547026
 20
4.5264051475
 30
0.0
 10
1.9945327167
 20
4.5264735512
 30
0.0
 10
1.9946396221
 20
4.5265414693
 30
0.0
 10
1.9947758225
 20
4.5266093992
 30
0.0
 10
1.994941632
 20
4.5266774312
 30
0.0
 10
1.995137184
 20
4.5267455847
 30
0.0
 10
1.9954560473
 20
4.5268420762
 30
0.0
 10
1.9959304189
 20
4.5269600044
 30
0.0
 10
1.996590218
 20
4.5270955052
 30
0.0
 10
1.9973686654
 20
4.5272314168
 30
0.0
 10
1.9982653731
 20
4.5273676765
 30
0.0
 10
1.9992799059
 20
4.527504166
 30
0.0
 10
2.0004117054
 20
4.5276408242
 30
0.0
 10
2.0016601395
 20
4.5277776078
 30
0.0
 10
2.0035551319
 20
4.5279676769
 30
0.0
 10
2.0062099234
 20
4.5282022892
 30
0.0
 10
2.0097346472
 20
4.5284746424
 30
0.0
 10
2.0137041223
 20
4.5287474502
 30
0.0
 10
2.0181091075
 20
4.5290206357
 30
0.0
 10
2.0229393292
 20
4.5292940742
 30
0.0
 10
2.0281835287
 20
4.5295677152
 30
0.0
 10
2.0338294539
 20
4.529841517
 30
0.0
 10
2.0421213394
 20
4.5302178523
 30
0.0
 10
2.0533841341
 20
4.5306836526
 30
0.0
 10
2.0679015185
 20
4.5312285291
 30
0.0
 10
2.0836539462
 20
4.5317740522
 30
0.0
 10
2.1004943126
 20
4.5323200823
 30
0.0
 10
2.1182653487
 20
4.5328664617
 30
0.0
 10
2.1368010805
 20
4.5334130948
 30
0.0
 10
2.1559283972
 20
4.5339599028
 30
0.0
 10
2.1754686594
 20
4.5345068239
 30
0.0
 10
2.1952393712
 20
4.5350538051
 30
0.0
 10
2.2150558794
 20
4.5356007981
 30
0.0
 10
2.2347331068
 20
4.5361477553
 30
0.0
 10
2.2540872745
 20
4.5366946262
 30
0.0
 10
2.2729376226
 20
4.5372413543
 30
0.0
 10
2.2911080952
 20
4.5377878698
 30
0.0
 10
2.3084289951
 20
4.5383340889
 30
0.0
 10
2.3247385659
 20
4.5388798788
 30
0.0
 10
2.3398844962
 20
4.539425121
 30
0.0
 10
2.3517131766
 20
4.5398902789
 30
0.0
 10
2.3604890447
 20
4.5402656835
 30
0.0
 10
2.3665193867
 20
4.5405396031
 30
0.0
 10
2.3721610388
 20
4.5408133938
 30
0.0
 10
2.3774008277
 20
4.5410870347
 30
0.0
 10
2.3822265111
 20
4.541360472
 30
0.0
 10
2.3866268436
 20
4.5416336484
 30
0.0
 10
2.390591554
 20
4.5419064705
 30
0.0
 10
2.3941114408
 20
4.5421787583
 30
0.0
 10
2.3971783237
 20
4.5424503981
 30
0.0
 10
2.3994466975
 20
4.5426855217
 30
0.0
 10
2.4010289831
 20
4.54287693
 30
0.0
 10
2.4020409734
 20
4.5430134259
 30
0.0
 10
2.4029351287
 20
4.5431496772
 30
0.0
 10
2.4037110156
 20
4.5432855808
 30
0.0
 10
2.4043682476
 20
4.5434210693
 30
0.0
 10
2.4048404732
 20
4.5435390028
 30
0.0
 10
2.4051575994
 20
4.5436355153
 30
0.0
 10
2.4053518716
 20
4.5437036659
 30
0.0
 10
2.4055163729
 20
4.5437716884
 30
0.0
 10
2.4056142349
 20
4.5438209388
 30
0.0
 10
2.4056576535
 20
4.5438460365
 30
0.0
  0
SPLINE
  5
285
100
AcDbEntity
  8
0
100
AcDbSpline
 62
7
  6
CONTINUOUS
 70
0
 71
3
 72
69
 73
65
 74
0
 42
0.0000001
 43
0.0000001
 44
0.0000000001
 40
0.0
 40
0.0
 40
0.0
 40
0.0
 40
0.0001706516
 40
0.000370079
 40
0.0006171568
 40
0.0009220091
 40
0.0012900011
 40
0.0017241457
 40
0.0022262507
 40
0.0027974405
 40
0.0041495214
 40
0.0057837651
 40
0.0077015348
 40
0.0099031251
 40
0.0123880409
 40
0.0151554826
 40
0.0182043859
 40
0.021533207
 40
0.0290236275
 40
0.0376108917
 40
0.0472759051
 40
0.0579966725
 40
0.0697488025
 40
0.0825050592
 40
0.0962360291
 40
0.1109098562
 40
0.1429474557
 40
0.1783198677
 40
0.216697626
 40
0.2577230053
 40
0.3010133656
 40
0.3461648578
 40
0.3927561947
 40
0.4403526255
 40
0.488509957
 40
0.5367787615
 40
0.5847085511
 40
0.63185204
 40
0.6777692695
 40
0.7220317796
 40
0.7642266092
 40
0.8039602162
 40
0.8408621103
 40
0.8745884033
 40
0.8901612893
 40
0.9048251026
 40
0.9185457054
 40
0.9312912606
 40
0.9430323851
 40
0.9537418678
 40
0.9633953434
 40
0.971970852
 40
0.9794493229
 40
0.9858148764
 40
0.9885762206
 40
0.9910550196
 40
0.9932504783
 40
0.9951621122
 40
0.9967902377
 40
0.9981362447
 40
0.998704431
 40
0.9992035706
 40
0.9996348117
 40
1.0
 40
1.0
 40
1.0
 40
1.0
 10
2.4058928571
 20
4.5485824647
 30
0.0
 10
2.4058928571
 20
4.5485590295
 30
0.0
 10
2.4058805831
 20
4.5485078919
 30
0.0
 10
2.4058310117
 20
4.5484376432
 30
0.0
 10
2.4057529976
 20
4.5483692395
 30
0.0
 10
2.4056460922
 20
4.5483013214
 30
0.0
 10
2.4055098918
 20
4.5482333915
 30
0.0
 10
2.4053440823
 20
4.5481653595
 30
0.0
 10
2.4051485302
 20
4.5480972061
 30
0.0
 10
2.404829667
 20
4.5480007146
 30
0.0
 10
2.4043552954
 20
4.5478827864
 30
0.0
 10
2.4036954963
 20
4.5477472855
 30
0.0
 10
2.4029170489
 20
4.5476113739
 30
0.0
 10
2.4020203412
 20
4.5474751143
 30
0.0
 10
2.4010058084
 20
4.5473386248
 30
0.0
 10
2.399874009
 20
4.5472019666
 30
0.0
 10
2.3986255749
 20
4.5470651829
 30
0.0
 10
2.3967305825
 20
4.5468751138
 30
0.0
 10
2.3940757911
 20
4.5466405016
 30
0.0
 10
2.3905510673
 20
4.5463681483
 30
0.0
 10
2.3865815922
 20
4.5460953405
 30
0.0
 10
2.3821766071
 20
4.5458221551
 30
0.0
 10
2.3773463854
 20
4.5455487166
 30
0.0
 10
2.372102186
 20
4.5452750756
 30
0.0
 10
2.3664562608
 20
4.5450012738
 30
0.0
 10
2.3581643753
 20
4.5446249385
 30
0.0
 10
2.3469015807
 20
4.5441591382
 30
0.0
 10
2.3323841964
 20
4.5436142617
 30
0.0
 10
2.3166317688
 20
4.5430687386
 30
0.0
 10
2.2997914025
 20
4.5425227085
 30
0.0
 10
2.2820203665
 20
4.5419763291
 30
0.0
 10
2.2634846348
 20
4.541429696
 30
0.0
 10
2.2443573183
 20
4.540882888
 30
0.0
 10
2.2248170562
 20
4.5403359669
 30
0.0
 10
2.2050463445
 20
4.5397889857
 30
0.0
 10
2.1852298364
 20
4.5392419927
 30
0.0
 10
2.165552609
 20
4.5386950355
 30
0.0
 10
2.1461984414
 20
4.5381481646
 30
0.0
 10
2.1273480933
 20
4.5376014365
 30
0.0
 10
2.1091776207
 20
4.5370549211
 30
0.0
 10
2.0918567207
 20
4.5365087019
 30
0.0
 10
2.0755471499
 20
4.535962912
 30
0.0
 10
2.0604012196
 20
4.5354176698
 30
0.0
 10
2.0485725392
 20
4.5349525119
 30
0.0
 10
2.039796671
 20
4.5345771073
 30
0.0
 10
2.0337663289
 20
4.5343031877
 30
0.0
 10
2.0281246768
 20
4.5340293971
 30
0.0
 10
2.0228848878
 20
4.5337557561
 30
0.0
 10
2.0180592044
 20
4.5334823188
 30
0.0
 10
2.0136588717
 20
4.5332091425
 30
0.0
 10
2.0096941613
 20
4.5329363203
 30
0.0
 10
2.0061742744
 20
4.5326640325
 30
0.0
 10
2.0031073913
 20
4.5323923927
 30
0.0
 10
2.0008390174
 20
4.5321572691
 30
0.0
 10
1.9992567318
 20
4.5319658609
 30
0.0
 10
1.9982447414
 20
4.5318293649
 30
0.0
 10
1.997350586
 20
4.5316931136
 30
0.0
 10
1.9965746991
 20
4.5315572101
 30
0.0
 10
1.9959174671
 20
4.5314217216
 30
0.0
 10
1.9954452413
 20
4.531303788
 30
0.0
 10
1.9951281151
 20
4.5312072755
 30
0.0
 10
1.9949338429
 20
4.5311391249
 30
0.0
 10
1.9947693415
 20
4.5310711024
 30
0.0
 10
1.9946714795
 20
4.5310218521
 30
0.0
 10
1.994628061
 20
4.5309967544
 30
0.0
  0
SPLINE
  5
286
100
AcDbEntity
  8
0
100
AcDbSpline
 62
7
  6
CONTINUOUS
 70
0
 71
3
 72
66
 73
62
 74
0
 42
0.0000001
 43
0.0000001
 44
0.0000000001
 40
0.0
 40
0.0
 40
0.0
 40
0.0
 40
0.0001872528
 40
0.0004008693
 40
0.0006592638
 40
0.0009730244
 40
0.0013480486
 40
0.0017877496
 40
0.0022942122
 40
0.0028687752
 40
0.0042253255
 40
0.0058615981
 40
0.0077792482
 40
0.0099788974
 40
0.0124604136
 40
0.0152229868
 40
0.0182655604
 40
0.0215868942
 40
0.0290587998
 40
0.0376231841
 40
0.0472611812
 40
0.057951354
 40
0.069669198
 40
0.0823880812
 40
0.1107091518
 40
0.1426530971
 40
0.1779239716
 40
0.2161944874
 40
0.2571091508
 40
0.3002877415
 40
0.3453288383
 40
0.3918136414
 40
0.4393098324
 40
0.4873756715
 40
0.5355640729
 40
0.5834268197
 40
0.6305187433
 40
0.6764018664
 40
0.7206495055
 40
0.7628502422
 40
0.8026118086
 40
0.8395647591
 40
0.8733660257
 40
0.903702138
 40
0.9174817382
 40
0.930292438
 40
0.9421048443
 40
0.9528918891
 40
0.9626289557
 40
0.9712943338
 40
0.9788687622
 40
0.9853365455
 40
0.9881513938
 40
0.9906853706
 40
0.9929376718
 40
0.9949078912
 40
0.9965965138
 40
0.9980050369
 40
0.9991367825
 40
0.9996011811
 40
1.0
 40
1.0
 40
1.0
 40
1.0
 10
2.0137228679
 20
4.5865301454
 30
0.0
 10
2.0137228643
 20
4.5865534494
 30
0.0
 10
2.0137335791
 20
4.5866036607
 30
0.0
 10
2.013777986
 20
4.5866739607
 30
0.0
 10
2.0138485147
 20
4.5867425362
 30
0.0
 10
2.0139451978
 20
4.5868105388
 30
0.0
 10
2.0140683369
 20
4.5868784686
 30
0.0
 10
2.0142181811
 20
4.5869464531
 30
0.0
 10
2.0143948552
 20
4.5870145346
 30
0.0
 10
2.0146826131
 20
4.5871108173
 30
0.0
 10
2.0151109781
 20
4.5872285725
 30
0.0
 10
2.0157070387
 20
4.5873639013
 30
0.0
 10
2.016410205
 20
4.5874996319
 30
0.0
 10
2.0172201489
 20
4.587635696
 30
0.0
 10
2.0181365037
 20
4.5877719711
 30
0.0
 10
2.0191587606
 20
4.5879084145
 30
0.0
 10
2.0202863521
 20
4.5880449904
 30
0.0
 10
2.0219977839
 20
4.5882347407
 30
0.0
 10
2.0243955633
 20
4.5884689803
 30
0.0
 10
2.0275792412
 20
4.5887409035
 30
0.0
 10
2.0311646906
 20
4.5890132877
 30
0.0
 10
2.0351435738
 20
4.58928603
 30
0.0
 10
2.0395066761
 20
4.5895590534
 30
0.0
 10
2.0460616252
 20
4.5899370178
 30
0.0
 10
2.0551327219
 20
4.5904034184
 30
0.0
 10
2.0670099921
 20
4.5909464592
 30
0.0
 10
2.0801266159
 20
4.5914904139
 30
0.0
 10
2.0943605072
 20
4.5920350876
 30
0.0
 10
2.1095791803
 20
4.5925802453
 30
0.0
 10
2.1256409614
 20
4.5931257584
 30
0.0
 10
2.1423963299
 20
4.593671523
 30
0.0
 10
2.1596893013
 20
4.5942174631
 30
0.0
 10
2.1773588868
 20
4.5947635168
 30
0.0
 10
2.1952405863
 20
4.5953096313
 30
0.0
 10
2.213167925
 20
4.5958557587
 30
0.0
 10
2.2309740028
 20
4.5964018519
 30
0.0
 10
2.2484930503
 20
4.596947861
 30
0.0
 10
2.265561972
 20
4.5974937299
 30
0.0
 10
2.2820218619
 20
4.5980393913
 30
0.0
 10
2.2977194868
 20
4.5985847568
 30
0.0
 10
2.312508711
 20
4.5991297179
 30
0.0
 10
2.3262518744
 20
4.5996740872
 30
0.0
 10
2.3388210548
 20
4.6002177028
 30
0.0
 10
2.3485068573
 20
4.6006833686
 30
0.0
 10
2.3555814604
 20
4.6010600504
 30
0.0
 10
2.3603529548
 20
4.6013332827
 30
0.0
 10
2.3647513751
 20
4.6016063097
 30
0.0
 10
2.3687664949
 20
4.60187908
 30
0.0
 10
2.3723889941
 20
4.6021515196
 30
0.0
 10
2.3756104759
 20
4.6024234391
 30
0.0
 10
2.3784235012
 20
4.6026947499
 30
0.0
 10
2.3805083847
 20
4.6029294476
 30
0.0
 10
2.3819665797
 20
4.6031203751
 30
0.0
 10
2.3829027204
 20
4.6032567011
 30
0.0
 10
2.3837325545
 20
4.6033927959
 30
0.0
 10
2.3844556368
 20
4.6035286196
 30
0.0
 10
2.3850717463
 20
4.6036639797
 30
0.0
 10
2.3855806269
 20
4.6037988016
 30
0.0
 10
2.3859360173
 20
4.6039167682
 30
0.0
 10
2.3861646155
 20
4.604013959
 30
0.0
 10
2.3862604303
 20
4.6040628829
 30
0.0
 10
2.3863033991
 20
4.6040877265
 30
0.0
  0
SPLINE
  5
287
100
AcDbEntity
  8
0
100
AcDbSpline
 62
7
  6
CONTINUOUS
 70
0
 71
3
 72
44
 73
40
 74
0
 42
0.0000001
 43
0.0000001
 44
0.0000000001
 40
0.0
 40
0.0
 40
0.0
 40
0.0
 40
0.0790940706
 40
0.1622970882
 40
0.2482172463
 40
0.3354152546
 40
0.4224307486
 40
0.5078063939
 40
0.5901125198
 40
0.6679709266
 40
0.7048214033
 40
0.7400782987
 40
0.7735939855
 40
0.8052281353
 40
0.8348484336
 40
0.8623311271
 40
0.8875615287
 40
0.9104345309
 40
0.9308551071
 40
0.9487389993
 40
0.956706558
 40
0.9640134297
 40
0.9706526615
 40
0.9766177071
 40
0.9819032774
 40
0.9865051419
 40
0.9904201855
 40
0.9921199065
 40
0.9936478496
 40
0.9950043652
 40
0.9961902258
 40
0.9972069248
 40
0.9980570087
 40
0.9987450458
 40
0.9992799907
 40
0.9994959797
 40
0.9996828949
 40
0.9998476028
 40
1.0
 40
1.0
 40
1.0
 40
1.0
 10
2.2991542254
 20
4.6094728261
 30
0.0
 10
2.2911108899
 20
4.609219333
 30
0.0
 10
2.2746057742
 20
4.608717954
 30
0.0
 10
2.2493617546
 20
4.6079882851
 30
0.0
 10
2.2232928899
 20
4.6072582179
 30
0.0
 10
2.1968359867
 20
4.6065279664
 30
0.0
 10
2.1704345045
 20
4.6057977391
 30
0.0
 10
2.1445309256
 20
4.6050677534
 30
0.0
 10
2.1195593907
 20
4.604338214
 30
0.0
 10
2.0995238552
 20
4.6037201665
 30
0.0
 10
2.0842739183
 20
4.6032214902
 30
0.0
 10
2.073533695
 20
4.6028544596
 30
0.0
 10
2.0633245199
 20
4.602487561
 30
0.0
 10
2.0536892174
 20
4.602120818
 30
0.0
 10
2.0446681977
 20
4.6017542767
 30
0.0
 10
2.0362992824
 20
4.6013880015
 30
0.0
 10
2.0286175559
 20
4.6010220726
 30
0.0
 10
2.0216552148
 20
4.6006566458
 30
0.0
 10
2.0154414437
 20
4.6002918386
 30
0.0
 10
2.0107439525
 20
4.5999778124
 30
0.0
 10
2.0073798868
 20
4.5997233815
 30
0.0
 10
2.0051578331
 20
4.5995401082
 30
0.0
 10
2.0031402591
 20
4.5993570294
 30
0.0
 10
2.00132925
 20
4.59917417
 30
0.0
 10
1.9997266582
 20
4.5989916535
 30
0.0
 10
1.9983341272
 20
4.5988095622
 30
0.0
 10
1.9973065218
 20
4.5986519088
 30
0.0
 10
1.9965911633
 20
4.5985236611
 30
0.0
 10
1.9961337741
 20
4.5984321652
 30
0.0
 10
1.9957297934
 20
4.5983408103
 30
0.0
 10
1.995379258
 20
4.598249627
 30
0.0
 10
1.9950821737
 20
4.5981586892
 30
0.0
 10
1.9948382616
 20
4.5980680671
 30
0.0
 10
1.9946473872
 20
4.5979778104
 30
0.0
 10
1.994523572
 20
4.5978978124
 30
0.0
 10
1.9944542849
 20
4.5978317621
 30
0.0
 10
1.9944193373
 20
4.5977853536
 30
0.0
 10
1.9943978322
 20
4.5977382549
 30
0.0
 10
1.9943928794
 20
4.5977058315
 30
0.0
 10
1.9943928802
 20
4.5976903261
 30
0.0
  0
LINE
  5
288
100
AcDbEntity
  8
0
100
AcDbLine
 62
7
  6
CONTINUOUS
 10
2.0139823104
 20
4.5064700644
 11
2.0143508781
 21
4.5066368498
  0
SPLINE
  5
289
100
AcDbEntity
  8
0
100
AcDbSpline
 62
7
  6
CONTINUOUS
 70
0
 71
3
 72
63
 73
59
 74
0
 42
0.0000001
 43
0.0000001
 44
0.0000000001
 40
0.0
 40
0.0
 40
0.0
 40
0.0
 40
0.0011796712
 40
0.0026321471
 40
0.0043601864
 40
0.0063648867
 40
0.0086465597
 40
0.0112048783
 40
0.0171474402
 40
0.0241827864
 40
0.032296659
 40
0.0414720635
 40
0.0516887634
 40
0.0629241771
 40
0.0751531058
 40
0.102478892
 40
0.1334188159
 40
0.1676917985
 40
0.2049859018
 40
0.2449613521
 40
0.2872537152
 40
0.3314772522
 40
0.3772285418
 40
0.4240901352
 40
0.4716344446
 40
0.5194275949
 40
0.5670334666
 40
0.6140176036
 40
0.6599512943
 40
0.7044154199
 40
0.747004364
 40
0.7873296893
 40
0.8250237442
 40
0.8597430508
 40
0.8911715335
 40
0.9190235653
 40
0.931528217
 40
0.943046915
 40
0.9535538411
 40
0.9630254615
 40
0.9714411522
 40
0.9787826434
 40
0.9820459053
 40
0.9850352545
 40
0.9877493988
 40
0.9901874413
 40
0.9923487047
 40
0.9942329386
 40
0.9958408282
 40
0.9971741796
 40
0.9977390978
 40
0.9982371726
 40
0.9986697434
 40
0.9990389035
 40
0.9993480618
 40
0.999603074
 40
0.9998143824
 40
1.0
 40
1.0
 40
1.0
 40
1.0
 10
2.0143508781
 20
4.5066368498
 30
0.0
 10
2.0144883377
 20
4.5066879579
 30
0.0
 10
2.0148007538
 20
4.5067865182
 30
0.0
 10
2.0153261916
 20
4.5069201969
 30
0.0
 10
2.0159568175
 20
4.5070544095
 30
0.0
 10
2.0166923644
 20
4.5071890188
 30
0.0
 10
2.0175325731
 20
4.5073239032
 30
0.0
 10
2.0188595892
 20
4.507513595
 30
0.0
 10
2.0207771384
 20
4.507746265
 30
0.0
 10
2.0233855187
 20
4.5080146585
 30
0.0
 10
2.0263975602
 20
4.5082837746
 30
0.0
 10
2.0298064146
 20
4.5085534622
 30
0.0
 10
2.0336043809
 20
4.5088235288
 30
0.0
 10
2.037782795
 20
4.5090938934
 30
0.0
 10
2.0440857664
 20
4.5094686684
 30
0.0
 10
2.0528373473
 20
4.5099308774
 30
0.0
 10
2.0643289565
 20
4.5104686131
 30
0.0
 10
2.0770609724
 20
4.5110073014
 30
0.0
 10
2.090917138
 20
4.5115467415
 30
0.0
 10
2.1057709295
 20
4.5120866852
 30
0.0
 10
2.121486688
 20
4.5126269999
 30
0.0
 10
2.1379208758
 20
4.5131675788
 30
0.0
 10
2.154923386
 20
4.5137083445
 30
0.0
 10
2.1723389235
 20
4.5142492347
 30
0.0
 10
2.1900084169
 20
4.5147901973
 30
0.0
 10
2.2077704789
 20
4.5153311855
 30
0.0
 10
2.2254628702
 20
4.5158721544
 30
0.0
 10
2.2429239922
 20
4.5164130577
 30
0.0
 10
2.2599943547
 20
4.5169538445
 30
0.0
 10
2.2765180443
 20
4.5174944541
 30
0.0
 10
2.2923441402
 20
4.5180348119
 30
0.0
 10
2.3073281003
 20
4.5185748155
 30
0.0
 10
2.321333075
 20
4.5191143381
 30
0.0
 10
2.3342311729
 20
4.5196531465
 30
0.0
 10
2.3459046106
 20
4.5201910496
 30
0.0
 10
2.3548168488
 20
4.5206530714
 30
0.0
 10
2.3612549877
 20
4.5210274894
 30
0.0
 10
2.3655391857
 20
4.5212979192
 30
0.0
 10
2.3694455288
 20
4.5215680745
 30
0.0
 10
2.3729651351
 20
4.5218378748
 30
0.0
 10
2.376089972
 20
4.5221072145
 30
0.0
 10
2.378443225
 20
4.5223392388
 30
0.0
 10
2.3801227437
 20
4.5225271901
 30
0.0
 10
2.3812292495
 20
4.5226624658
 30
0.0
 10
2.3822323481
 20
4.5227976165
 30
0.0
 10
2.3831315028
 20
4.5229326023
 30
0.0
 10
2.3839262288
 20
4.5230673695
 30
0.0
 10
2.3846161667
 20
4.5232018142
 30
0.0
 10
2.3852010004
 20
4.5233358677
 30
0.0
 10
2.3856212763
 20
4.523452508
 30
0.0
 10
2.3859035905
 20
4.5235478647
 30
0.0
 10
2.3860769388
 20
4.5236153034
 30
0.0
 10
2.386223956
 20
4.5236826498
 30
0.0
 10
2.3863447696
 20
4.5237499468
 30
0.0
 10
2.3864396267
 20
4.5238173232
 30
0.0
 10
2.3865088201
 20
4.5238852742
 30
0.0
 10
2.3865523592
 20
4.5239549101
 30
0.0
 10
2.3865628565
 20
4.5240045699
 30
0.0
 10
2.3865628571
 20
4.5240276454
 30
0.0
  0
SPLINE
  5
28A
100
AcDbEntity
  8
0
100
AcDbSpline
 62
7
  6
CONTINUOUS
 70
0
 71
3
 72
36
 73
32
 74
0
 42
0.0000001
 43
0.0000001
 44
0.0000000001
 40
0.0
 40
0.0
 40
0.0
 40
0.0
 40
0.1109723108
 40
0.2171542859
 40
0.3180897143
 40
0.4133632853
 40
0.5025729968
 40
0.5853462861
 40
0.6613371533
 40
0.730228786
 40
0.7917349451
 40
0.8456014559
 40
0.8695995801
 40
0.8916084932
 40
0.9116058242
 40
0.9295729545
 40
0.9454935167
 40
0.9593542565
 40
0.971146978
 40
0.9762665296
 40
0.9808684942
 40
0.9849542604
 40
0.9885262714
 40
0.991588724
 40
0.9941490019
 40
0.9962209889
 40
0.9978319399
 40
0.9984824026
 40
0.9990452785
 40
0.9995412094
 40
1.0
 40
1.0
 40
1.0
 40
1.0
 10
2.304826293
 20
4.5069728261
 30
0.0
 10
2.3085771237
 20
4.5070931939
 30
0.0
 10
2.3159167333
 20
4.5073331281
 30
0.0
 10
2.3266673385
 20
4.5077003614
 30
0.0
 10
2.3368867382
 20
4.5080674771
 30
0.0
 10
2.3465318016
 20
4.5084344278
 30
0.0
 10
2.3555622109
 20
4.5088011799
 30
0.0
 10
2.3639399723
 20
4.509167665
 30
0.0
 10
2.3716299418
 20
4.5095338045
 30
0.0
 10
2.3785998598
 20
4.5098994414
 30
0.0
 10
2.3848204877
 20
4.51026446
 30
0.0
 10
2.3895232044
 20
4.5105786588
 30
0.0
 10
2.39289105
 20
4.5108332446
 30
0.0
 10
2.3951156018
 20
4.5110166144
 30
0.0
 10
2.3971354652
 20
4.5111998055
 30
0.0
 10
2.3989485288
 20
4.5113827685
 30
0.0
 10
2.4005529435
 20
4.5115653836
 30
0.0
 10
2.4019470692
 20
4.5117475928
 30
0.0
 10
2.4029758519
 20
4.5119053246
 30
0.0
 10
2.4036920332
 20
4.512033648
 30
0.0
 10
2.4041499318
 20
4.5121252
 30
0.0
 10
2.4045543708
 20
4.5122166099
 30
0.0
 10
2.4049053204
 20
4.5123078423
 30
0.0
 10
2.4052027587
 20
4.5123988267
 30
0.0
 10
2.4054469462
 20
4.5124895006
 30
0.0
 10
2.4056380221
 20
4.5125798143
 30
0.0
 10
2.4057619678
 20
4.5126598612
 30
0.0
 10
2.4058313443
 20
4.5127259462
 30
0.0
 10
2.405866345
 20
4.5127723793
 30
0.0
 10
2.4058878901
 20
4.5128195042
 30
0.0
 10
2.4058928561
 20
4.5128519497
 30
0.0
 10
2.4058928568
 20
4.5128674647
 30
0.0
  0
ENDSEC
  0
SECTION
  2
OBJECTS
  0
DICTIONARY
  5
C
100
AcDbDictionary
280
0
281
1
  3
ACAD_GROUP
350
D
  3
ACAD_MLINESTYLE
350
17
  3
ACAD_LAYOUT
350
1A
  3
ACAD_PLOTSETTINGS
350
19
  3
ACAD_PLOTSTYLENAME
350
E
  0
DICTIONARY
  5
D
102
{ACAD_REACTORS
330
C
102
}
100
AcDbDictionary
280
0
281
1
  0
ACDBDICTIONARYWDFLT
  5
E
102
{ACAD_REACTORS
330
C
102
}
100
AcDbDictionary
281
1
  3
Normal
350
F
100
AcDbDictionaryWithDefault
340
F
  0
DICTIONARY
  5
17
102
{ACAD_REACTORS
330
C
102
}
100
AcDbDictionary
280
0
281
1
  3
Standard
350
18
  0
DICTIONARY
  5
19
102
{ACAD_REACTORS
330
C
102
}
100
AcDbDictionary
281
1
  0
DICTIONARY
  5
1A
102
{ACAD_REACTORS
330
C
102
}
100
AcDbDictionary
281
1
  3
Model
350
28B
  3
Layout1
350
28C
  0
ACDBPLACEHOLDER
  5
F
102
{ACAD_REACTORS
330
E
102
}
  0
MLINESTYLE
  5
18
102
{ACAD_REACTORS
330
17
102
}
100
AcDbMlineStyle
  2
STANDARD
 70
0
  3

 62
256
 51
90.0
 52
90.0
 71
2
 49
0.5
 62
256
  6
BYLAYER
 49
-0.5
 62
256
  6
BYLAYER
  0
LAYOUT
  5
28B
102
{ACAD_REACTORS
330
1A
102
}
100
AcDbPlotSettings
  1

  2
none_device
  4
ANSI_A_(11.00_x_8.50_Inches)
  6

 40
0.0
 41
0.0
 42
0.0
 43
0.0
 44
279.4
 45
215.9
 46
0.0
 47
0.0
 48
0.0
 49
0.0
140
0.0
141
0.0
142
1.0
143
1.0
 70
1024
 72
0
 73
0
 74
0
  7

 75
0
147
1.0
148
0.0
149
0.0
100
AcDbLayout
  1
Model
 70
0
 71
0
 10
0.0
 20
0.0
 11
11.0
 21
8.5
 12
0.0
 22
0.0
 32
0.0
 14
0.0
 24
0.0
 34
0.0
 15
0.0
 25
0.0
 35
0.0
146
0.0
 13
0.0
 23
0.0
 33
0.0
 16
1.0
 26
0.0
 36
0.0
 17
0.0
 27
1.0
 37
0.0
 76
0
330
202
345
0
346
0
  0
LAYOUT
  5
28C
102
{ACAD_REACTORS
330
1A
102
}
100
AcDbPlotSettings
  1

  2
none_device
  4
ANSI_A_(11.00_x_8.50_Inches)
  6

 40
0.0
 41
0.0
 42
0.0
 43
0.0
 44
279.4
 45
215.9
 46
0.0
 47
0.0
 48
0.0
 49
0.0
140
0.0
141
0.0
142
1.0
143
1.0
 70
0
 72
0
 73
0
 74
0
  7

 75
0
147
1.0
148
0.0
149
0.0
100
AcDbLayout
  1
Layout1
 70
0
 71
1
 10
0.0
 20
0.0
 11
11.0
 21
8.5
 12
0.0
 22
0.0
 32
0.0
 14
0.0
 24
0.0
 34
0.0
 15
0.0
 25
0.0
 35
0.0
146
0.0
 13
0.0
 23
0.0
 33
0.0
 16
1.0
 26
0.0
 36
0.0
 17
0.0
 27
1.0
 37
0.0
 76
0
330
203
345
0
346
0
  0
ENDSEC
  0
EOF
