999
DXF file: 201-2_front.dxf
999
Pro/ENGINEER 2018400 by Parametric Technology Corporation
  0
SECTION
  2
HEADER
  9
$ACADVER
  1
AC1027
  9
$DWGCODEPAGE
  3
ANSI_1252
  9
$EXTMAX
 10
11.0
 20
8.5
 30
0.0
  9
$EXTMIN
 10
0.0
 20
0.0
 30
0.0
  9
$LIMMIN
 10
0.0
 20
0.0
  9
$LIMMAX
 10
11.0
 20
8.5
  9
$VIEWCTR
 10
5.5
 20
4.25
  9
$VIEWSIZE
 40
8.5
  9
$CLAYER
  8
0
  9
$LTSCALE
 40
0.605
  9
$CELTYPE
  6
BYLAYER
  9
$DIMSCALE
 40
1.0
  9
$DIMASZ
 40
0.1
  9
$DIMEXO
 40
0.0625
  9
$DIMDLI
 40
0.418
  9
$DIMEXE
 40
0.125
  9
$DIMCEN
 40
0.099
  9
$DIMLFAC
 40
1.0
  9
$DIMBLK
  1
_FILLED
  9
$DIMALT
 70
1
  9
$DIMALTD
 70
1
  9
$DIMALTTD
 70
2
  9
$DIMALTF
 40
25.4
  9
$DIMTXT
 40
0.08
  9
$DIMTOL
 70
1
  9
$DIMLIM
 70
0
  9
$DIMTFAC
 40
1.0
  9
$DIMTP
 40
0.01
  9
$DIMTM
 40
0.01
  9
$DIMGAP
 40
0.09
  9
$DIMDSEP
 70
46
  9
$AUNITS
 70
0
  9
$PDMODE
 70
3
  9
$PDSIZE
 40
0.3125
  9
$HANDSEED
  5
286
  9
$TILEMODE
 70
1
  9
$MEASUREMENT
 70
0
  9
$INSUNITS
 70
1
  0
ENDSEC
  0
SECTION
  2
CLASSES
  0
CLASS
  1
ACDBDICTIONARYWDFLT
  2
AcDbDictionaryWithDefault
  3
AutoCAD 2000
 90
0
 91
1
280
0
281
0
  0
CLASS
  1
ACDBPLACEHOLDER
  2
AcDbPlaceHolder
  3
AutoCAD 2000
 90
0
 91
1
280
0
281
0
  0
CLASS
  1
LAYOUT
  2
AcDbLayout
  3
AutoCAD 2000
 90
0
 91
0
280
0
281
0
  0
ENDSEC
  0
SECTION
  2
TABLES
  0
TABLE
  2
VPORT
  5
8
100
AcDbSymbolTable
 70
2
  0
VPORT
  5
1F4
100
AcDbSymbolTableRecord
100
AcDbViewportTableRecord
  2
*ACTIVE
 70
0
 10
0.0
 20
0.0
 11
1.0
 21
1.0
 12
5.5
 22
4.25
 13
0.0
 23
0.0
 14
1.0
 24
1.0
 15
0.0
 25
0.0
 16
0.0
 26
0.0
 36
1.0
 17
0.0
 27
0.0
 37
0.0
 40
8.5
 41
1.2941176471
 42
50.0
 43
0.0
 44
0.0
 50
0.0
 51
0.0
 71
0
 72
100
 73
1
 74
1
 75
0
 76
0
 77
0
 78
0
  0
ENDTAB
  0
TABLE
  2
LTYPE
  5
5
100
AcDbSymbolTable
 70
6
  0
LTYPE
  5
14
100
AcDbSymbolTableRecord
100
AcDbLinetypeTableRecord
  2
BYBLOCK
 70
0
  3

 72
65
 73
0
 40
0.0
  0
LTYPE
  5
15
100
AcDbSymbolTableRecord
100
AcDbLinetypeTableRecord
  2
BYLAYER
 70
0
  3

 72
65
 73
0
 40
0.0
  0
LTYPE
  5
16
100
AcDbSymbolTableRecord
100
AcDbLinetypeTableRecord
  2
CONTINUOUS
 70
64
  3
Solid line
 72
65
 73
0
 40
0.0
  0
LTYPE
  5
1F5
100
AcDbSymbolTableRecord
100
AcDbLinetypeTableRecord
  2
CENTER
 70
64
  3
____ _ ____ _ ____ _ ____ _ ____ _ ____ _ ____
 72
65
 73
4
 40
0.6
 49
0.375
 74
0
 49
-0.075
 74
0
 49
0.075
 74
0
 49
-0.075
 74
0
  0
LTYPE
  5
1F6
100
AcDbSymbolTableRecord
100
AcDbLinetypeTableRecord
  2
HIDDEN
 70
64
  3
- - - - - - - - - - - - - - - - - - - -
 72
65
 73
2
 40
0.2
 49
0.1
 74
0
 49
-0.1
 74
0
  0
LTYPE
  5
1F7
100
AcDbSymbolTableRecord
100
AcDbLinetypeTableRecord
  2
PHANTOM
 70
64
  3
_____ _ _ _____ _ _ _____ _ _ _____
 72
65
 73
6
 40
0.8
 49
0.45
 74
0
 49
-0.05
 74
0
 49
0.1
 74
0
 49
-0.05
 74
0
 49
0.1
 74
0
 49
-0.05
 74
0
  0
LTYPE
  5
1F8
100
AcDbSymbolTableRecord
100
AcDbLinetypeTableRecord
  2
DOT
 70
64
  3
. . . . . . . . . . . . . . . . . . . .
 72
65
 73
2
 40
0.2
 49
0.1
 74
0
 49
-0.1
 74
0
  0
LTYPE
  5
1F9
100
AcDbSymbolTableRecord
100
AcDbLinetypeTableRecord
  2
DASHED
 70
64
  3
- - - - - - - - - - - - - - - - - - - -
 72
65
 73
2
 40
0.2
 49
0.1
 74
0
 49
-0.1
 74
0
  0
ENDTAB
  0
TABLE
  2
LAYER
  5
2
100
AcDbSymbolTable
 70
36
  0
LAYER
  5
10
100
AcDbSymbolTableRecord
100
AcDbLayerTableRecord
  2
0
 70
0
 62
7
  6
CONTINUOUS
370
-3
390
F
  0
LAYER
  5
1FA
100
AcDbSymbolTableRecord
100
AcDbLayerTableRecord
  2
DEFAULT_1
 70
0
 62
7
  6
CENTER
370
-3
390
F
  0
LAYER
  5
1FB
100
AcDbSymbolTableRecord
100
AcDbLayerTableRecord
  2
DEFAULT_2
 70
0
 62
8
  6
HIDDEN
370
-3
390
F
  0
LAYER
  5
1FC
100
AcDbSymbolTableRecord
100
AcDbLayerTableRecord
  2
DEFAULT_3
 70
0
 62
7
  6
PHANTOM
370
-3
390
F
  0
LAYER
  5
1FD
100
AcDbSymbolTableRecord
100
AcDbLayerTableRecord
  2
DEFAULT_COORDINATE_SYSTEM
 70
0
 62
7
  6
CONTINUOUS
370
-3
390
F
  0
LAYER
  5
1FE
100
AcDbSymbolTableRecord
100
AcDbLayerTableRecord
  2
DEFAULT_DATUM_AXES
 70
0
 62
7
  6
CONTINUOUS
370
-3
390
F
  0
LAYER
  5
1FF
100
AcDbSymbolTableRecord
100
AcDbLayerTableRecord
  2
DEFAULT_DATUM_PLANES
 70
0
 62
7
  6
CONTINUOUS
370
-3
390
F
  0
ENDTAB
  0
TABLE
  2
STYLE
  5
3
100
AcDbSymbolTable
 70
1
  0
STYLE
  5
11
100
AcDbSymbolTableRecord
100
AcDbTextStyleTableRecord
  2
STANDARD
 70
0
 40
0.0
 41
0.8
 50
0.0
 71
0
 42
0.2
  3
txt
  4

  0
STYLE
  5
200
100
AcDbSymbolTableRecord
100
AcDbTextStyleTableRecord
  2
TEXTSTYLE_1
 70
0
 40
0.0
 41
0.8
 50
0.0
 71
0
 42
0.2
  3
gdt
  4

  0
ENDTAB
  0
TABLE
  2
VIEW
  5
6
100
AcDbSymbolTable
 70
0
  0
ENDTAB
  0
TABLE
  2
UCS
  5
7
100
AcDbSymbolTable
 70
0
  0
ENDTAB
  0
TABLE
  2
APPID
  5
9
100
AcDbSymbolTable
 70
1
  0
APPID
  5
201
100
AcDbSymbolTableRecord
100
AcDbRegAppTableRecord
  2
ACAD
 70
0
  0
ENDTAB
  0
TABLE
  2
BLOCK_RECORD
  5
1
100
AcDbSymbolTable
 70
0
  0
BLOCK_RECORD
  5
202
100
AcDbSymbolTableRecord
100
AcDbBlockTableRecord
  2
*Model_Space
  0
BLOCK_RECORD
  5
203
100
AcDbSymbolTableRecord
100
AcDbBlockTableRecord
  2
*Paper_Space
  0
BLOCK_RECORD
  5
204
100
AcDbSymbolTableRecord
100
AcDbBlockTableRecord
  2
_FILLED
  0
ENDTAB
  0
TABLE
  2
DIMSTYLE
  5
A
100
AcDbSymbolTable
 70
1
100
AcDbDimStyleTable
 71
0
  0
DIMSTYLE
105
205
100
AcDbSymbolTableRecord
100
AcDbDimStyleTableRecord
  2
STANDARD
 70
0
  3

  4

 40
1.0
 41
0.1
 42
0.0625
 43
0.38
 44
0.125
 45
0.0
 46
0.0
 47
0.01
 48
0.01
140
0.08
141
0.09
142
0.0
143
25.4
144
1.0
145
0.0
146
1.0
147
0.09
 71
1.0
 72
0.0
 73
1
 74
1
 75
0
 76
0
 77
0
 78
4
 79
1
170
1
171
1
172
0
173
0
174
0
175
0
176
0
177
0
178
0
270
2
179
2
271
2
272
2
273
2
274
2
275
0
280
0
281
0
282
0
283
1
284
4
285
0
286
0
287
3
288
0
340
11
278
46
341
204
342
204
343
204
344
204
  0
ENDTAB
  0
ENDSEC
  0
SECTION
  2
BLOCKS
  0
BLOCK
  5
20
100
AcDbEntity
  8
0
100
AcDbBlockBegin
  2
*Model_Space
 70
0
 10
0.0
 20
0.0
 30
0.0
  3
*Model_Space
  1

  0
ENDBLK
  5
21
100
AcDbEntity
  8
0
100
AcDbBlockEnd
  0
BLOCK
  5
1C
100
AcDbEntity
  8
0
100
AcDbBlockBegin
  2
*Paper_Space
 70
0
 10
0.0
 20
0.0
 30
0.0
  3
*Paper_Space
  1

  0
ENDBLK
  5
1D
100
AcDbEntity
  8
0
100
AcDbBlockEnd
  0
BLOCK
  5
206
100
AcDbEntity
  8
0
100
AcDbBlockBegin
  2
_FILLED
 70
64
 10
0.0
 20
0.0
  3
_FILLED
  1

  0
SOLID
  5
207
100
AcDbEntity
  8
0
  6
BYBLOCK
 62
0
100
AcDbTrace
 10
0.0
 20
0.0
 11
-1.0
 21
0.2
 12
-1.0
 22
-0.2
 13
-1.0
 23
-0.2
  0
ENDBLK
  5
208
100
AcDbEntity
  8
0
  6
BYBLOCK
 62
0
100
AcDbBlockEnd
  0
ENDSEC
  0
SECTION
  2
ENTITIES
  0
MTEXT
  5
209
100
AcDbEntity
  8
0
100
AcDbMText
 62
2
  6
CONTINUOUS
  7
STANDARD
 71
3
 72
1
 10
5.0734083851
 20
3.0112305901
 30
0.0
 11
1.0
 21
0.0
 31
0.0
 73
2
 44
0.9
  1
SCALE  .500
 40
0.08
 41
0.704
  0
LINE
  5
20A
100
AcDbEntity
  8
0
100
AcDbLine
 62
7
  6
CONTINUOUS
 10
0.0
 20
0.0
 11
0.0
 21
8.5
  0
LINE
  5
20B
100
AcDbEntity
  8
0
100
AcDbLine
 62
7
  6
CONTINUOUS
 10
0.0
 20
0.0
 11
11.0
 21
0.0
  0
LINE
  5
20C
100
AcDbEntity
  8
0
100
AcDbLine
 62
7
  6
CONTINUOUS
 10
0.0
 20
8.5
 11
11.0
 21
8.5
  0
LINE
  5
20D
100
AcDbEntity
  8
0
100
AcDbLine
 62
7
  6
CONTINUOUS
 10
11.0
 20
0.0
 11
11.0
 21
8.5
  0
LINE
  5
20E
100
AcDbEntity
  8
0
100
AcDbLine
 62
7
  6
CONTINUOUS
 10
4.2208462733
 20
4.2130628882
 11
5.0958462733
 21
4.2130628882
  0
LINE
  5
20F
100
AcDbEntity
  8
0
100
AcDbLine
 62
7
  6
CONTINUOUS
 10
4.2208462733
 20
4.2130628882
 11
4.2208462733
 21
5.2830628882
  0
LINE
  5
210
100
AcDbEntity
  8
0
100
AcDbLine
 62
7
  6
CONTINUOUS
 10
4.2508462733
 20
4.2130628882
 11
4.2508462733
 21
5.3130628882
  0
LINE
  5
211
100
AcDbEntity
  8
0
100
AcDbLine
 62
7
  6
CONTINUOUS
 10
4.4714972102
 20
4.7380223561
 11
4.4715016249
 21
4.737851767
  0
LINE
  5
212
100
AcDbEntity
  8
0
100
AcDbLine
 62
7
  6
CONTINUOUS
 10
4.4715005303
 20
4.738022398
 11
4.4715016249
 21
4.737851767
  0
LINE
  5
213
100
AcDbEntity
  8
0
100
AcDbLine
 62
7
  6
CONTINUOUS
 10
4.4320962733
 20
4.9719224891
 11
4.4320962733
 21
4.8625891874
  0
LINE
  5
214
100
AcDbEntity
  8
0
100
AcDbLine
 62
7
  6
CONTINUOUS
 10
4.6801135417
 20
4.6065584485
 11
4.6803100903
 21
4.6065754771
  0
LINE
  5
215
100
AcDbEntity
  8
0
100
AcDbLine
 62
7
  6
CONTINUOUS
 10
4.6801135387
 20
4.6065584658
 11
4.6803104386
 21
4.6065735325
  0
LINE
  5
216
100
AcDbEntity
  8
0
100
AcDbLine
 62
7
  6
CONTINUOUS
 10
4.5541043722
 20
4.6270158162
 11
4.5540251318
 21
4.6270493103
  0
LINE
  5
217
100
AcDbEntity
  8
0
100
AcDbLine
 62
7
  6
CONTINUOUS
 10
4.5541037829
 20
4.6270150456
 11
4.5540251318
 21
4.6270493103
  0
LINE
  5
218
100
AcDbEntity
  8
0
100
AcDbLine
 62
7
  6
CONTINUOUS
 10
4.5488462733
 20
4.7135877494
 11
4.5488462733
 21
4.7996019523
  0
LINE
  5
219
100
AcDbEntity
  8
0
100
AcDbLine
 62
7
  6
CONTINUOUS
 10
4.5672922188
 20
4.8105246507
 11
4.5672922188
 21
4.7060572237
  0
LINE
  5
21A
100
AcDbEntity
  8
0
100
AcDbLine
 62
7
  6
CONTINUOUS
 10
4.5575940655
 20
4.8065653962
 11
4.5672922188
 21
4.8105246507
  0
LINE
  5
21B
100
AcDbEntity
  8
0
100
AcDbLine
 62
7
  6
CONTINUOUS
 10
4.6583462733
 20
4.6688845616
 11
4.6399003278
 21
4.6764150873
  0
LINE
  5
21C
100
AcDbEntity
  8
0
100
AcDbLine
 62
7
  6
CONTINUOUS
 10
4.5672922188
 20
4.7060572237
 11
4.5488462733
 21
4.7135877494
  0
LINE
  5
21D
100
AcDbEntity
  8
0
100
AcDbLine
 62
7
  6
CONTINUOUS
 10
4.6399003278
 20
4.8357383582
 11
4.6399003278
 21
4.6764150873
  0
LINE
  5
21E
100
AcDbEntity
  8
0
100
AcDbLine
 62
7
  6
CONTINUOUS
 10
4.6583462733
 20
4.8366030132
 11
4.6583462733
 21
4.6688845616
  0
LINE
  5
21F
100
AcDbEntity
  8
0
100
AcDbLine
 62
7
  6
CONTINUOUS
 10
4.6767922188
 20
4.8357383582
 11
4.6767922188
 21
4.6764150873
  0
LINE
  5
220
100
AcDbEntity
  8
0
100
AcDbLine
 62
7
  6
CONTINUOUS
 10
4.7494003278
 20
4.8105246507
 11
4.7494003278
 21
4.7060572237
  0
LINE
  5
221
100
AcDbEntity
  8
0
100
AcDbLine
 62
7
  6
CONTINUOUS
 10
4.7678462733
 20
4.7135877494
 11
4.7494003278
 21
4.7060572237
  0
LINE
  5
222
100
AcDbEntity
  8
0
100
AcDbLine
 62
7
  6
CONTINUOUS
 10
4.6767922188
 20
4.6764150873
 11
4.6583462733
 21
4.6688845616
  0
LINE
  5
223
100
AcDbEntity
  8
0
100
AcDbLine
 62
7
  6
CONTINUOUS
 10
4.7494003278
 20
4.8105246507
 11
4.7590984811
 21
4.8065653962
  0
LINE
  5
224
100
AcDbEntity
  8
0
100
AcDbLine
 62
7
  6
CONTINUOUS
 10
4.7678462733
 20
4.7996019523
 11
4.7678462733
 21
4.7135877494
  0
LINE
  5
225
100
AcDbEntity
  8
0
100
AcDbLine
 62
7
  6
CONTINUOUS
 10
4.2208462733
 20
4.9460628882
 11
4.4320962733
 21
4.9460628882
  0
LINE
  5
226
100
AcDbEntity
  8
0
100
AcDbLine
 62
7
  6
CONTINUOUS
 10
4.8845962733
 20
4.9460628882
 11
5.0958462733
 21
4.9460628882
  0
LINE
  5
227
100
AcDbEntity
  8
0
100
AcDbLine
 62
7
  6
CONTINUOUS
 10
4.8845962733
 20
4.9719224957
 11
4.8845962733
 21
4.8625891874
  0
LWPOLYLINE
  5
228
100
AcDbEntity
  8
0
100
AcDbPolyline
 62
7
  6
CONTINUOUS
 90
31
 70
0
 10
4.884596276
 20
4.9719207074
 10
4.8845975515
 20
4.9721100107
 10
4.8846272623
 20
4.9728531959
 10
4.884696672
 20
4.9735973615
 10
4.8848062041
 20
4.9743408395
 10
4.8849560337
 20
4.9750808661
 10
4.8851458063
 20
4.97581365
 10
4.8853751538
 20
4.976536751
 10
4.8856437204
 20
4.977248208
 10
4.8859506074
 20
4.9779450674
 10
4.8862949882
 20
4.9786251448
 10
4.8866760058
 20
4.979286478
 10
4.8870923394
 20
4.979926607
 10
4.8875426903
 20
4.9805434929
 10
4.8880258618
 20
4.9811354598
 10
4.8885404567
 20
4.9817007431
 10
4.8890848976
 20
4.9822375793
 10
4.8896577003
 20
4.9827444775
 10
4.890257518
 20
4.9832201655
 10
4.8908828667
 20
4.9836633248
 10
4.8915317742
 20
4.9840724226
 10
4.8922020525
 20
4.9844460106
 10
4.8928921353
 20
4.9847831459
 10
4.8935996539
 20
4.9850826041
 10
4.8943209951
 20
4.9853429713
 10
4.8950541627
 20
4.9855637641
 10
4.8957967776
 20
4.9857444993
 10
4.8965444465
 20
4.9858845368
 10
4.8972941872
 20
4.9859839817
 10
4.8980445273
 20
4.9860432933
 10
4.8987904441
 20
4.9860628911
  0
LINE
  5
229
100
AcDbEntity
  8
0
100
AcDbLine
 62
7
  6
CONTINUOUS
 10
4.2508462733
 20
4.9860628882
 11
5.0658462733
 21
4.9860628882
  0
LWPOLYLINE
  5
22A
100
AcDbEntity
  8
0
100
AcDbPolyline
 62
7
  6
CONTINUOUS
 90
31
 70
0
 10
4.4179021017
 20
4.9860628894
 10
4.4186591068
 20
4.9860427056
 10
4.419422043
 20
4.9859814575
 10
4.4201805356
 20
4.9858793157
 10
4.4209323888
 20
4.9857365714
 10
4.421675429
 20
4.9855536331
 10
4.4224075101
 20
4.9853310243
 10
4.4231265426
 20
4.9850693722
 10
4.4238304056
 20
4.9847694406
 10
4.4245169652
 20
4.9844321432
 10
4.4251842088
 20
4.9840584849
 10
4.4258302298
 20
4.9836495511
 10
4.4264531418
 20
4.9832065537
 10
4.4270511417
 20
4.9827307964
 10
4.4276225011
 20
4.9822236776
 10
4.4281655562
 20
4.9816867012
 10
4.4286787779
 20
4.9811214044
 10
4.4291606437
 20
4.9805294924
 10
4.4296096545
 20
4.9799128715
 10
4.4300245946
 20
4.9792732963
 10
4.4304042434
 20
4.9786127435
 10
4.4307473371
 20
4.9779336119
 10
4.4310530342
 20
4.9772378617
 10
4.4313205265
 20
4.9765276666
 10
4.4315489542
 20
4.975805895
 10
4.4317379637
 20
4.9750744948
 10
4.4318871892
 20
4.9743358924
 10
4.4319962867
 20
4.9735937858
 10
4.4320654198
 20
4.9728508972
 10
4.4320949927
 20
4.9721089089
 10
4.4320962534
 20
4.9719207111
  0
LINE
  5
22B
100
AcDbEntity
  8
0
100
AcDbLine
 62
7
  6
CONTINUOUS
 10
4.2208462733
 20
5.0160628882
 11
5.0958462733
 21
5.0160628882
  0
LINE
  5
22C
100
AcDbEntity
  8
0
100
AcDbLine
 62
7
  6
CONTINUOUS
 10
5.0658462733
 20
4.2130628882
 11
5.0658462733
 21
5.3130628882
  0
LINE
  5
22D
100
AcDbEntity
  8
0
100
AcDbLine
 62
7
  6
CONTINUOUS
 10
5.0958462733
 20
5.2830628882
 11
5.0958462733
 21
4.2130628882
  0
LINE
  5
22E
100
AcDbEntity
  8
0
100
AcDbLine
 62
7
  6
CONTINUOUS
 10
5.0958462733
 20
5.2830628882
 11
4.2208462733
 21
5.2830628882
  0
LINE
  5
22F
100
AcDbEntity
  8
0
100
AcDbLine
 62
7
  6
CONTINUOUS
 10
5.0658462733
 20
5.3130628882
 11
4.2508462733
 21
5.3130628882
  0
ARC
  5
230
100
AcDbEntity
  8
0
100
AcDbCircle
 62
7
  6
CONTINUOUS
 10
4.6640306156
 20
4.6446264582
 40
0.2631611615
100
AcDbArc
 50
89.8474938816
 51
89.9793082748
  0
ARC
  5
231
100
AcDbEntity
  8
0
100
AcDbCircle
 62
7
  6
CONTINUOUS
 10
4.6583610249
 20
4.8674686863
 40
0.261736725
100
AcDbArc
 50
262.0828081647
 51
274.4659198599
  0
ARC
  5
232
100
AcDbEntity
  8
0
100
AcDbCircle
 62
7
  6
CONTINUOUS
 10
4.6639263634
 20
4.6464295941
 40
0.261358406
100
AcDbArc
 50
89.9563110201
 51
102.0241236917
  0
ARC
  5
233
100
AcDbEntity
  8
0
100
AcDbCircle
 62
7
  6
CONTINUOUS
 10
4.6584842042
 20
4.8658784597
 40
0.2601415744
100
AcDbArc
 50
274.4661443726
 51
274.8115475686
  0
ARC
  5
234
100
AcDbEntity
  8
0
100
AcDbCircle
 62
7
  6
CONTINUOUS
 10
4.5615986854
 20
4.8027514913
 40
0.1090024127
100
AcDbArc
 50
180.0062140288
 51
185.8244322005
  0
ARC
  5
235
100
AcDbEntity
  8
0
100
AcDbCircle
 62
7
  6
CONTINUOUS
 10
4.5615958613
 20
4.77749705
 40
0.1089995886
100
AcDbArc
 50
180.0061497176
 51
185.7980473412
  0
ARC
  5
236
100
AcDbEntity
  8
0
100
AcDbCircle
 62
7
  6
CONTINUOUS
 10
4.56135502
 20
4.8027350398
 40
0.1087588004
100
AcDbArc
 50
177.7152153804
 51
178.3347098314
  0
ARC
  5
237
100
AcDbEntity
  8
0
100
AcDbCircle
 62
7
  6
CONTINUOUS
 10
4.5613513043
 20
4.7774810033
 40
0.1087550807
100
AcDbArc
 50
177.7836700947
 51
178.3347774744
  0
ARC
  5
238
100
AcDbEntity
  8
0
100
AcDbCircle
 62
7
  6
CONTINUOUS
 10
4.5612122428
 20
4.752231667
 40
0.1086159615
100
AcDbArc
 50
178.3357660117
 51
180.0003349704
  0
ARC
  5
239
100
AcDbEntity
  8
0
100
AcDbCircle
 62
7
  6
CONTINUOUS
 10
4.5612097858
 20
4.7774847684
 40
0.1086135125
100
AcDbArc
 50
178.3345933922
 51
179.9996928061
  0
ARC
  5
23A
100
AcDbEntity
  8
0
100
AcDbCircle
 62
7
  6
CONTINUOUS
 10
4.5612044972
 20
4.8027390736
 40
0.1086082239
100
AcDbArc
 50
178.334529318
 51
179.9996856614
  0
ARC
  5
23B
100
AcDbEntity
  8
0
100
AcDbCircle
 62
7
  6
CONTINUOUS
 10
4.5693270629
 20
4.740494738
 40
0.0978611344
100
AcDbArc
 50
181.5475959731
 51
190.8615733091
  0
ARC
  5
23C
100
AcDbEntity
  8
0
100
AcDbCircle
 62
7
  6
CONTINUOUS
 10
4.7665115571
 20
4.7901215233
 40
0.0975847166
100
AcDbArc
 50
353.500577147
 51
359.9947079939
  0
ARC
  5
23D
100
AcDbEntity
  8
0
100
AcDbCircle
 62
7
  6
CONTINUOUS
 10
4.7665305373
 20
4.8153744935
 40
0.0975657283
100
AcDbArc
 50
353.4726115977
 51
359.9954989012
  0
ARC
  5
23E
100
AcDbEntity
  8
0
100
AcDbCircle
 62
7
  6
CONTINUOUS
 10
4.7666981546
 20
4.7648532112
 40
0.097398182
100
AcDbArc
 50
1.8597049335
 51
2.4172078311
  0
ARC
  5
23F
100
AcDbEntity
  8
0
100
AcDbCircle
 62
7
  6
CONTINUOUS
 10
4.7667003904
 20
4.7901076975
 40
0.0973959435
100
AcDbArc
 50
1.8596662321
 51
2.3765997001
  0
ARC
  5
240
100
AcDbEntity
  8
0
100
AcDbCircle
 62
7
  6
CONTINUOUS
 10
4.7668188516
 20
4.8153667377
 40
0.0972774227
100
AcDbArc
 50
1.0784400393
 51
1.8583487002
  0
ARC
  5
241
100
AcDbEntity
  8
0
100
AcDbCircle
 62
7
  6
CONTINUOUS
 10
4.7668305684
 20
4.790111678
 40
0.0972657049
100
AcDbArc
 50
0.0004901521
 51
1.8598111665
  0
ARC
  5
242
100
AcDbEntity
  8
0
100
AcDbCircle
 62
7
  6
CONTINUOUS
 10
4.7668329304
 20
4.7648573473
 40
0.0972633429
100
AcDbArc
 50
0.0004972394
 51
1.8598462146
  0
ARC
  5
243
100
AcDbEntity
  8
0
100
AcDbCircle
 62
7
  6
CONTINUOUS
 10
4.7668526804
 20
4.8153675331
 40
0.0972435849
100
AcDbArc
 50
359.9995850268
 51
1.0783466003
  0
ARC
  5
244
100
AcDbEntity
  8
0
100
AcDbCircle
 62
7
  6
CONTINUOUS
 10
4.5686120488
 20
4.7404475088
 40
0.0971451144
100
AcDbArc
 50
177.6962933242
 51
181.4304934696
  0
ARC
  5
245
100
AcDbEntity
  8
0
100
AcDbCircle
 62
7
  6
CONTINUOUS
 10
4.5673536785
 20
4.737285304
 40
0.0947702515
100
AcDbArc
 50
189.1949849534
 51
189.6512449156
  0
ARC
  5
246
100
AcDbEntity
  8
0
100
AcDbCircle
 62
7
  6
CONTINUOUS
 10
4.5660197249
 20
4.7370976306
 40
0.0934234537
100
AcDbArc
 50
180.0122025702
 51
189.2120939542
  0
ARC
  5
247
100
AcDbEntity
  8
0
100
AcDbCircle
 62
7
  6
CONTINUOUS
 10
4.5653757252
 20
4.737077682
 40
0.0927794519
100
AcDbArc
 50
179.4239271995
 51
179.9999680771
  0
ARC
  5
248
100
AcDbEntity
  8
0
100
AcDbCircle
 62
7
  6
CONTINUOUS
 10
4.2508462733
 20
5.2830628882
 40
0.03
100
AcDbArc
 50
90.0
 51
180.0
  0
ARC
  5
249
100
AcDbEntity
  8
0
100
AcDbCircle
 62
7
  6
CONTINUOUS
 10
5.0658462733
 20
5.2830628882
 40
0.03
100
AcDbArc
 50
0.0
 51
90.0
  0
ARC
  5
24A
100
AcDbEntity
  8
0
100
AcDbCircle
 62
7
  6
CONTINUOUS
 10
4.2508462733
 20
5.0160628882
 40
0.03
100
AcDbArc
 50
180.0
 51
270.0
  0
ARC
  5
24B
100
AcDbEntity
  8
0
100
AcDbCircle
 62
7
  6
CONTINUOUS
 10
5.0658462733
 20
5.0160628882
 40
0.03
100
AcDbArc
 50
270.0
 51
360.0
  0
SPLINE
  5
24C
100
AcDbEntity
  8
0
100
AcDbSpline
 62
7
  6
CONTINUOUS
 70
0
 71
3
 72
11
 73
7
 74
0
 42
0.0000001
 43
0.0000001
 44
0.0000000001
 40
0.0
 40
0.0
 40
0.0
 40
0.0
 40
0.2451155829
 40
0.4922523593
 40
0.7433164965
 40
1.0
 40
1.0
 40
1.0
 40
1.0
 10
4.7755962733
 20
4.7582909372
 30
0.0
 10
4.7755962733
 20
4.7608187753
 30
0.0
 10
4.7752663423
 20
4.7659012796
 30
0.0
 10
4.7737883116
 20
4.7734434315
 30
0.0
 10
4.7713413142
 20
4.7808540557
 30
0.0
 10
4.7691065957
 20
4.7856052166
 30
0.0
 10
4.7678462733
 20
4.7879330736
 30
0.0
  0
SPLINE
  5
24D
100
AcDbEntity
  8
0
100
AcDbSpline
 62
7
  6
CONTINUOUS
 70
0
 71
3
 72
11
 73
7
 74
0
 42
0.0000001
 43
0.0000001
 44
0.0000000001
 40
0.0
 40
0.0
 40
0.0
 40
0.0
 40
0.2477938471
 40
0.4964781795
 40
0.7469536093
 40
1.0
 40
1.0
 40
1.0
 40
1.0
 10
4.4525962813
 20
4.752231032
 30
0.0
 10
4.4525963075
 20
4.7490957718
 30
0.0
 10
4.4528688187
 20
4.7428106432
 30
0.0
 10
4.4540927277
 20
4.733427941
 30
0.0
 10
4.4561267982
 20
4.7241191164
 30
0.0
 10
4.4580060709
 20
4.718022719
 30
0.0
 10
4.4590728964
 20
4.7150039629
 30
0.0
  0
SPLINE
  5
24E
100
AcDbEntity
  8
0
100
AcDbSpline
 62
7
  6
CONTINUOUS
 70
0
 71
3
 72
27
 73
23
 74
0
 42
0.0000001
 43
0.0000001
 44
0.0000000001
 40
0.0
 40
0.0
 40
0.0
 40
0.0
 40
0.0260106371
 40
0.0520810476
 40
0.0782699946
 40
0.1046342624
 40
0.1312276925
 40
0.1581005205
 40
0.1852985247
 40
0.2128626563
 40
0.2692023499
 40
0.3273640752
 40
0.3874751375
 40
0.4495748363
 40
0.5136209022
 40
0.5794981308
 40
0.6470278258
 40
0.7159777432
 40
0.7860716755
 40
0.8569997414
 40
0.9284252917
 40
1.0
 40
1.0
 40
1.0
 40
1.0
 10
4.4525962834
 20
4.7553880083
 30
0.0
 10
4.4525963002
 20
4.7578830588
 30
0.0
 10
4.4527686183
 20
4.7628805982
 30
0.0
 10
4.4535432295
 20
4.7703541509
 30
0.0
 10
4.454831871
 20
4.7777911279
 30
0.0
 10
4.4566314006
 20
4.785172688
 30
0.0
 10
4.458936899
 20
4.792480893
 30
0.0
 10
4.4617425596
 20
4.799697671
 30
0.0
 10
4.465041206
 20
4.8068056695
 30
0.0
 10
4.4701209841
 20
4.8161810146
 30
0.0
 10
4.477695924
 20
4.8275506575
 30
0.0
 10
4.4885211505
 20
4.8403744891
 30
0.0
 10
4.5010390446
 20
4.8523628774
 30
0.0
 10
4.5151219096
 20
4.8634018476
 30
0.0
 10
4.5306286423
 20
4.8733887433
 30
0.0
 10
4.5474044575
 20
4.8822303092
 30
0.0
 10
4.5652824584
 20
4.889844329
 30
0.0
 10
4.5840849763
 20
4.8961602973
 30
0.0
 10
4.6036251364
 20
4.9011203168
 30
0.0
 10
4.6237090604
 20
4.9046795391
 30
0.0
 10
4.6441359409
 20
4.9068071088
 30
0.0
 10
4.6578591909
 20
4.907259897
 30
0.0
 10
4.6647249206
 20
4.9072435036
 30
0.0
  0
SPLINE
  5
24F
100
AcDbEntity
  8
0
100
AcDbSpline
 62
7
  6
CONTINUOUS
 70
0
 71
3
 72
26
 73
22
 74
0
 42
0.0000001
 43
0.0000001
 44
0.0000000001
 40
0.0
 40
0.0
 40
0.0
 40
0.0
 40
0.0257136404
 40
0.0514890258
 40
0.0773868033
 40
0.103465692
 40
0.1297813507
 40
0.1563858797
 40
0.1833267753
 40
0.210646819
 40
0.2665437969
 40
0.3243344307
 40
0.3841589151
 40
0.4460694343
 40
0.5100368949
 40
0.5759594163
 40
0.6436719793
 40
0.7129560251
 40
0.7835488823
 40
0.85515358
 40
1.0
 40
1.0
 40
1.0
 40
1.0
 10
4.5175963033
 20
4.7370777337
 30
0.0
 10
4.5175963033
 20
4.7387065384
 30
0.0
 10
4.5177096337
 20
4.7419691917
 30
0.0
 10
4.5182193411
 20
4.7468483408
 30
0.0
 10
4.5190671922
 20
4.7517038973
 30
0.0
 10
4.5202513856
 20
4.7565236533
 30
0.0
 10
4.5217686403
 20
4.7612960665
 30
0.0
 10
4.5236154286
 20
4.7660094086
 30
0.0
 10
4.5257870206
 20
4.7706525489
 30
0.0
 10
4.5291332168
 20
4.7767800354
 30
0.0
 10
4.5341255622
 20
4.7842139379
 30
0.0
 10
4.5412621992
 20
4.792600783
 30
0.0
 10
4.549521172
 20
4.8004471236
 30
0.0
 10
4.55882142
 20
4.807678763
 30
0.0
 10
4.5690733418
 20
4.814228621
 30
0.0
 10
4.5801785185
 20
4.8200354143
 30
0.0
 10
4.5920308238
 20
4.8250447461
 30
0.0
 10
4.6045166114
 20
4.829209433
 30
0.0
 10
4.6175180931
 20
4.8324903941
 30
0.0
 10
4.6354337407
 20
4.8356559826
 30
0.0
 10
4.6491711228
 20
4.8366030132
 30
0.0
 10
4.6583462733
 20
4.8366030132
 30
0.0
  0
SPLINE
  5
250
100
AcDbEntity
  8
0
100
AcDbSpline
 62
7
  6
CONTINUOUS
 70
0
 71
3
 72
15
 73
11
 74
0
 42
0.0000001
 43
0.0000001
 44
0.0000000001
 40
0.0
 40
0.0
 40
0.0
 40
0.0
 40
0.1215152851
 40
0.2433824834
 40
0.3659462876
 40
0.4895377178
 40
0.6144680805
 40
0.7410229087
 40
0.8694587318
 40
1.0
 40
1.0
 40
1.0
 40
1.0
 10
4.432096304
 20
4.8625891874
 30
0.0
 10
4.4320962995
 20
4.8597121153
 30
0.0
 10
4.4323164855
 20
4.8539472315
 30
0.0
 10
4.4333059212
 20
4.8453315763
 30
0.0
 10
4.4349516339
 20
4.8367664403
 30
0.0
 10
4.4372484457
 20
4.8282776796
 30
0.0
 10
4.4401895309
 20
4.8198901311
 30
0.0
 10
4.4437659226
 20
4.8116282487
 30
0.0
 10
4.4479665602
 20
4.8035164924
 30
0.0
 10
4.451148177
 20
4.7982686809
 30
0.0
 10
4.4528347196
 20
4.7956786083
 30
0.0
  0
SPLINE
  5
251
100
AcDbEntity
  8
0
100
AcDbSpline
 62
7
  6
CONTINUOUS
 70
0
 71
3
 72
15
 73
11
 74
0
 42
0.0000001
 43
0.0000001
 44
0.0000000001
 40
0.0
 40
0.0
 40
0.0
 40
0.0
 40
0.1304950529
 40
0.2589012179
 40
0.3854418704
 40
0.5103719758
 40
0.6339749748
 40
0.7565596534
 40
0.8784541462
 40
1.0
 40
1.0
 40
1.0
 40
1.0
 10
4.8640538607
 20
4.7959804873
 30
0.0
 10
4.8657248216
 20
4.798560716
 30
0.0
 10
4.8688768853
 20
4.8037879418
 30
0.0
 10
4.8730379658
 20
4.8118656108
 30
0.0
 10
4.8765804539
 20
4.8200912704
 30
0.0
 10
4.87949352
 20
4.8284407886
 30
0.0
 10
4.8817683515
 20
4.8368900633
 30
0.0
 10
4.8833982647
 20
4.8454146078
 30
0.0
 10
4.8843781837
 20
4.8539889381
 30
0.0
 10
4.884596247
 20
4.8597259663
 30
0.0
 10
4.8845962426
 20
4.8625891874
 30
0.0
  0
SPLINE
  5
252
100
AcDbEntity
  8
0
100
AcDbSpline
 62
7
  6
CONTINUOUS
 70
0
 71
3
 72
11
 73
7
 74
0
 42
0.0000001
 43
0.0000001
 44
0.0000000001
 40
0.0
 40
0.0
 40
0.0
 40
0.0
 40
0.2566835035
 40
0.5077476407
 40
0.7548844171
 40
1.0
 40
1.0
 40
1.0
 40
1.0
 10
4.5488462733
 20
4.7879330736
 30
0.0
 10
4.5475859509
 20
4.7856052166
 30
0.0
 10
4.5453512324
 20
4.7808540557
 30
0.0
 10
4.542904235
 20
4.7734434315
 30
0.0
 10
4.5414262043
 20
4.7659012796
 30
0.0
 10
4.5410962733
 20
4.7608187753
 30
0.0
 10
4.5410962733
 20
4.7582909372
 30
0.0
  0
SPLINE
  5
253
100
AcDbEntity
  8
0
100
AcDbSpline
 62
7
  6
CONTINUOUS
 70
0
 71
3
 72
9
 73
5
 74
0
 42
0.0000001
 43
0.0000001
 44
0.0000000001
 40
0.0
 40
0.0
 40
0.0
 40
0.0
 40
0.2454744263
 40
1.0
 40
1.0
 40
1.0
 40
1.0
 10
4.7494003278
 20
4.8105246507
 30
0.0
 10
4.7485152179
 20
4.8112961146
 30
0.0
 10
4.7448524708
 20
4.8143730512
 30
0.0
 10
4.7409709687
 20
4.8171876596
 30
0.0
 10
4.7379504007
 20
4.8191627096
 30
0.0
  0
SPLINE
  5
254
100
AcDbEntity
  8
0
100
AcDbSpline
 62
7
  6
CONTINUOUS
 70
0
 71
3
 72
28
 73
24
 74
0
 42
0.0000001
 43
0.0000001
 44
0.0000000001
 40
0.0
 40
0.0
 40
0.0
 40
0.0
 40
0.0254088554
 40
0.0508857365
 40
0.0764866743
 40
0.1022740077
 40
0.1283065511
 40
0.1546375253
 40
0.1813161312
 40
0.2083869787
 40
0.2358890023
 40
0.2638556738
 40
0.3212659784
 40
0.3807947766
 40
0.4425068308
 40
0.5063857813
 40
0.5723428375
 40
0.640226216
 40
0.7098308025
 40
0.780907189
 40
0.8531714724
 40
0.9263113308
 40
1.0
 40
1.0
 40
1.0
 40
1.0
 10
4.8640962733
 20
4.7680151676
 30
0.0
 10
4.8640962733
 20
4.7702845486
 30
0.0
 10
4.8639368672
 20
4.7748309789
 30
0.0
 10
4.8632211056
 20
4.7816300358
 30
0.0
 10
4.8620297335
 20
4.7883966573
 30
0.0
 10
4.8603659505
 20
4.795113784
 30
0.0
 10
4.8582338053
 20
4.8017656209
 30
0.0
 10
4.8556382888
 20
4.8083361695
 30
0.0
 10
4.8525857461
 20
4.8148097436
 30
0.0
 10
4.8490833076
 20
4.8211707599
 30
0.0
 10
4.8451393275
 20
4.8274043979
 30
0.0
 10
4.8392540164
 20
4.8355960337
 30
0.0
 10
4.8308077241
 20
4.8454402867
 30
0.0
 10
4.8191740873
 20
4.8564000348
 30
0.0
 10
4.8060607524
 20
4.8665117577
 30
0.0
 10
4.7915901734
 20
4.8756801643
 30
0.0
 10
4.7758954767
 20
4.8838198583
 30
0.0
 10
4.7591209741
 20
4.890853912
 30
0.0
 10
4.7414206285
 20
4.8967152246
 30
0.0
 10
4.7229569693
 20
4.9013471344
 30
0.0
 10
4.7038992775
 20
4.9047038823
 30
0.0
 10
4.6844236681
 20
4.9067514765
 30
0.0
 10
4.6713063737
 20
4.907227789
 30
0.0
 10
4.6647249206
 20
4.9072435036
 30
0.0
  0
SPLINE
  5
255
100
AcDbEntity
  8
0
100
AcDbSpline
 62
7
  6
CONTINUOUS
 70
0
 71
3
 72
34
 73
30
 74
0
 42
0.0000001
 43
0.0000001
 44
0.0000000001
 40
0.0
 40
0.0
 40
0.0
 40
0.0
 40
0.0243428728
 40
0.048804508
 40
0.0734942887
 40
0.0985206384
 40
0.1239789702
 40
0.1499534364
 40
0.1765145523
 40
0.2037183796
 40
0.2316064137
 40
0.260205713
 40
0.2895294849
 40
0.3195779227
 40
0.3503391478
 40
0.3817902021
 40
0.4138980616
 40
0.4466207665
 40
0.47990847
 40
0.5137044269
 40
0.5479459324
 40
0.5825653687
 40
0.6526285401
 40
0.7233098351
 40
0.7939834509
 40
0.8640308185
 40
0.8986459723
 40
0.9328905956
 40
1.0
 40
1.0
 40
1.0
 40
1.0
 10
4.8640962733
 20
4.7932694863
 30
0.0
 10
4.8640962733
 20
4.7964146989
 30
0.0
 10
4.8637894875
 20
4.8027247026
 30
0.0
 10
4.8624128138
 20
4.8121342444
 30
0.0
 10
4.8601254667
 20
4.8214562469
 30
0.0
 10
4.8569389862
 20
4.8306459667
 30
0.0
 10
4.8528681909
 20
4.8396613764
 30
0.0
 10
4.8479323395
 20
4.848460983
 30
0.0
 10
4.8421543095
 20
4.8570047335
 30
0.0
 10
4.8355605129
 20
4.8652538495
 30
0.0
 10
4.8281807796
 20
4.8731709697
 30
0.0
 10
4.8200482826
 20
4.8807202855
 30
0.0
 10
4.8111994023
 20
4.8878676562
 30
0.0
 10
4.8016735309
 20
4.8945806627
 30
0.0
 10
4.7915129429
 20
4.9008287307
 30
0.0
 10
4.7807626769
 20
4.9065832946
 30
0.0
 10
4.7694703759
 20
4.9118179811
 30
0.0
 10
4.757686041
 20
4.9165086276
 30
0.0
 10
4.7454617953
 20
4.9206334201
 30
0.0
 10
4.7328518272
 20
4.9241729631
 30
0.0
 10
4.7199116154
 20
4.9271106033
 30
0.0
 10
4.7022268899
 20
4.930217811
 30
0.0
 10
4.6796472205
 20
4.9325085974
 30
0.0
 10
4.6522922187
 20
4.9326915256
 30
0.0
 10
4.6250422678
 20
4.9303080892
 30
0.0
 10
4.6027261931
 20
4.9261918426
 30
0.0
 10
4.5853583503
 20
4.9216400146
 30
0.0
 10
4.5686047577
 20
4.9163375419
 30
0.0
 10
4.5564289428
 20
4.9114298401
 30
0.0
 10
4.5485789439
 20
4.9077472979
 30
0.0
  0
SPLINE
  5
256
100
AcDbEntity
  8
0
100
AcDbSpline
 62
7
  6
CONTINUOUS
 70
0
 71
3
 72
21
 73
17
 74
0
 42
0.0000001
 43
0.0000001
 44
0.0000000001
 40
0.0
 40
0.0
 40
0.0
 40
0.0
 40
0.1416884042
 40
0.2106993896
 40
0.2783998182
 40
0.4097046594
 40
0.4733768548
 40
0.5357477068
 40
0.5968772922
 40
0.656850148
 40
0.7157751323
 40
0.7737847769
 40
0.8310325882
 40
0.8876895708
 40
0.9439494505
 40
1.0
 40
1.0
 40
1.0
 40
1.0
 10
4.5485789439
 20
4.9077472979
 30
0.0
 10
4.5413914036
 20
4.9043755241
 30
0.0
 10
4.5309451686
 20
4.8988111393
 30
0.0
 10
4.5178346999
 20
4.8903452627
 30
0.0
 10
4.5057042769
 20
4.8814815328
 30
0.0
 10
4.4946061507
 20
4.8717437748
 30
0.0
 10
4.4847542934
 20
4.8612021484
 30
0.0
 10
4.4781266533
 20
4.8530626193
 30
0.0
 10
4.472213626
 20
4.8446419818
 30
0.0
 10
4.4670387619
 20
4.8359719604
 30
0.0
 10
4.4626231531
 20
4.8270859474
 30
0.0
 10
4.4589849309
 20
4.8180181094
 30
0.0
 10
4.4561393129
 20
4.8088037088
 30
0.0
 10
4.4540979441
 20
4.7994782136
 30
0.0
 10
4.4528698612
 20
4.7900793529
 30
0.0
 10
4.4525962733
 20
4.7837829646
 30
0.0
 10
4.4525962733
 20
4.780642327
 30
0.0
  0
SPLINE
  5
257
100
AcDbEntity
  8
0
100
AcDbSpline
 62
7
  6
CONTINUOUS
 70
0
 71
3
 72
11
 73
7
 74
0
 42
0.0000001
 43
0.0000001
 44
0.0000000001
 40
0.0
 40
0.0
 40
0.0
 40
0.0
 40
0.2459593916
 40
0.4935831312
 40
0.7444447463
 40
1.0
 40
1.0
 40
1.0
 40
1.0
 10
4.8640962733
 20
4.7648581914
 30
0.0
 10
4.8640962733
 20
4.7611232013
 30
0.0
 10
4.8636628614
 20
4.7536209243
 30
0.0
 10
4.8617193265
 20
4.7424607678
 30
0.0
 10
4.8584958861
 20
4.731449739
 30
0.0
 10
4.8555393457
 20
4.7243321466
 30
0.0
 10
4.8538678559
 20
4.7208298603
 30
0.0
  0
SPLINE
  5
258
100
AcDbEntity
  8
0
100
AcDbSpline
 62
7
  6
CONTINUOUS
 70
0
 71
3
 72
26
 73
22
 74
0
 42
0.0000001
 43
0.0000001
 44
0.0000000001
 40
0.0
 40
0.0
 40
0.0
 40
0.0
 40
0.14484642
 40
0.2164511177
 40
0.2870439749
 40
0.3563280207
 40
0.4240405837
 40
0.4899631051
 40
0.5539305657
 40
0.6158410849
 40
0.6756655693
 40
0.7334562031
 40
0.789353181
 40
0.8166732247
 40
0.8436141203
 40
0.8702186493
 40
0.896534308
 40
0.9226131967
 40
0.9485109742
 40
0.9742863596
 40
1.0
 40
1.0
 40
1.0
 40
1.0
 10
4.6583462733
 20
4.8366030132
 30
0.0
 10
4.6675214238
 20
4.8366030132
 30
0.0
 10
4.6812588059
 20
4.8356559826
 30
0.0
 10
4.6991744535
 20
4.8324903941
 30
0.0
 10
4.7121759352
 20
4.829209433
 30
0.0
 10
4.7246617228
 20
4.8250447461
 30
0.0
 10
4.7365140281
 20
4.8200354143
 30
0.0
 10
4.7476192048
 20
4.814228621
 30
0.0
 10
4.7578711266
 20
4.807678763
 30
0.0
 10
4.7671713746
 20
4.8004471236
 30
0.0
 10
4.7754303474
 20
4.792600783
 30
0.0
 10
4.7825669844
 20
4.7842139379
 30
0.0
 10
4.7875593298
 20
4.7767800354
 30
0.0
 10
4.790905526
 20
4.7706525489
 30
0.0
 10
4.7930771179
 20
4.7660094086
 30
0.0
 10
4.7949239063
 20
4.7612960665
 30
0.0
 10
4.796441161
 20
4.7565236533
 30
0.0
 10
4.7976253544
 20
4.7517038973
 30
0.0
 10
4.7984732055
 20
4.7468483408
 30
0.0
 10
4.7989829128
 20
4.7419691917
 30
0.0
 10
4.7990962433
 20
4.7387065384
 30
0.0
 10
4.7990962433
 20
4.7370777337
 30
0.0
  0
SPLINE
  5
259
100
AcDbEntity
  8
0
100
AcDbSpline
 62
7
  6
CONTINUOUS
 70
0
 71
3
 72
9
 73
5
 74
0
 42
0.0000001
 43
0.0000001
 44
0.0000000001
 40
0.0
 40
0.0
 40
0.0
 40
0.0
 40
0.2546117469
 40
1.0
 40
1.0
 40
1.0
 40
1.0
 10
4.5787421459
 20
4.8191627096
 30
0.0
 10
4.5777228776
 20
4.8184962436
 30
0.0
 10
4.5737627251
 20
4.8158136572
 30
0.0
 10
4.5699798454
 20
4.8128671923
 30
0.0
 10
4.5672922188
 20
4.8105246507
 30
0.0
  0
SPLINE
  5
25A
100
AcDbEntity
  8
0
100
AcDbSpline
 62
7
  6
CONTINUOUS
 70
0
 71
3
 72
49
 73
45
 74
0
 42
0.0000001
 43
0.0000001
 44
0.0000000001
 40
0.0
 40
0.0
 40
0.0
 40
0.0
 40
0.0132073212
 40
0.0264461398
 40
0.0397416312
 40
0.0531225339
 40
0.0666158857
 40
0.0802460342
 40
0.094035514
 40
0.1080047477
 40
0.122171493
 40
0.1365509421
 40
0.1659841303
 40
0.1963830757
 40
0.2277722279
 40
0.2601364709
 40
0.2934250718
 40
0.3275560772
 40
0.3624209835
 40
0.3978892965
 40
0.4338130861
 40
0.4700313964
 40
0.5063745398
 40
0.5426683972
 40
0.5787385839
 40
0.6144147441
 40
0.6495348014
 40
0.6839493717
 40
0.7175263254
 40
0.7501554807
 40
0.7817535822
 40
0.8122693248
 40
0.8416884548
 40
0.8700384806
 40
0.8838395212
 40
0.8974046955
 40
0.9107506347
 40
0.9238968712
 40
0.9368657627
 40
0.9496823341
 40
0.9623739219
 40
0.974969921
 40
0.9875012633
 40
1.0
 40
1.0
 40
1.0
 40
1.0
 10
4.4525962733
 20
4.8058966457
 30
0.0
 10
4.4525962733
 20
4.8083431851
 30
0.0
 10
4.4527621101
 20
4.8132436986
 30
0.0
 10
4.4535067506
 20
4.8205730347
 30
0.0
 10
4.454746135
 20
4.8278679981
 30
0.0
 10
4.4564768383
 20
4.8351105197
 30
0.0
 10
4.4586944952
 20
4.8422838677
 30
0.0
 10
4.4613937593
 20
4.8493710783
 30
0.0
 10
4.4645677758
 20
4.8563555282
 30
0.0
 10
4.4682088746
 20
4.8632206985
 30
0.0
 10
4.472308036
 20
4.869950886
 30
0.0
 10
4.4784173028
 20
4.8787902851
 30
0.0
 10
4.4871788757
 20
4.8894220365
 30
0.0
 10
4.4992500001
 20
4.9012868103
 30
0.0
 10
4.5128447068
 20
4.9122544376
 30
0.0
 10
4.5278308147
 20
4.9222248767
 30
0.0
 10
4.5440646271
 20
4.931108976
 30
0.0
 10
4.5613906446
 20
4.9388270333
 30
0.0
 10
4.5796432186
 20
4.9453102139
 30
0.0
 10
4.598647897
 20
4.9505011102
 30
0.0
 10
4.618223046
 20
4.9543544127
 30
0.0
 10
4.6381815456
 20
4.956837404
 30
0.0
 10
4.6583325839
 20
4.9579303219
 30
0.0
 10
4.6784834882
 20
4.957626597
 30
0.0
 10
4.6984416052
 20
4.9559329189
 30
0.0
 10
4.7180161607
 20
4.9528691529
 30
0.0
 10
4.7370201093
 20
4.9484681219
 30
0.0
 10
4.7552719276
 20
4.9427752278
 30
0.0
 10
4.7725973187
 20
4.9358479564
 30
0.0
 10
4.7888308537
 20
4.9277551736
 30
0.0
 10
4.8038172914
 20
4.9185765433
 30
0.0
 10
4.8174132907
 20
4.9084010567
 30
0.0
 10
4.8294868819
 20
4.8973284496
 30
0.0
 10
4.8382620206
 20
4.8873499733
 30
0.0
 10
4.8443794526
 20
4.8790310309
 30
0.0
 10
4.8484793243
 20
4.8726955341
 30
0.0
 10
4.8521211188
 20
4.8662248825
 30
0.0
 10
4.8552959498
 20
4.8596348607
 30
0.0
 10
4.8579958938
 20
4.8529418788
 30
0.0
 10
4.8602143517
 20
4.8461626086
 30
0.0
 10
4.8619455408
 20
4.8393139393
 30
0.0
 10
4.8631853857
 20
4.8324129553
 30
0.0
 10
4.8639304205
 20
4.8254773808
 30
0.0
 10
4.8640962803
 20
4.8208390854
 30
0.0
 10
4.8640962631
 20
4.818523805
 30
0.0
  0
SPLINE
  5
25B
100
AcDbEntity
  8
0
100
AcDbSpline
 62
7
  6
CONTINUOUS
 70
0
 71
3
 72
50
 73
46
 74
0
 42
0.0000001
 43
0.0000001
 44
0.0000000001
 40
0.0
 40
0.0
 40
0.0
 40
0.0
 40
0.0125940876
 40
0.0252307929
 40
0.0379353408
 40
0.0507360623
 40
0.0636599568
 40
0.0767312585
 40
0.0899723433
 40
0.1034035334
 40
0.1170426425
 40
0.1309049581
 40
0.1593369205
 40
0.1887807223
 40
0.2192658635
 40
0.2507840606
 40
0.2832928876
 40
0.3167197785
 40
0.3509662657
 40
0.3859120779
 40
0.4214192822
 40
0.4573362656
 40
0.4935016736
 40
0.5297483546
 40
0.5659072401
 40
0.6018113766
 40
0.6372999318
 40
0.6722224576
 40
0.7064432288
 40
0.739845815
 40
0.7723378627
 40
0.8038559561
 40
0.8343705861
 40
0.8492579081
 40
0.8639012578
 40
0.8783084224
 40
0.8924900571
 40
0.9064595868
 40
0.9202333225
 40
0.9338302711
 40
0.9472721867
 40
0.960583024
 40
0.973788606
 40
0.9869175302
 40
1.0
 40
1.0
 40
1.0
 40
1.0
 10
4.8565121231
 20
4.7458570653
 30
0.0
 10
4.8564556649
 20
4.7480124625
 30
0.0
 10
4.8561960329
 20
4.7523281223
 30
0.0
 10
4.8553692882
 20
4.7587746001
 30
0.0
 10
4.8541058063
 20
4.7651861853
 30
0.0
 10
4.8524085002
 20
4.7715475146
 30
0.0
 10
4.8502808302
 20
4.7778443209
 30
0.0
 10
4.8477273485
 20
4.7840622192
 30
0.0
 10
4.8447535038
 20
4.7901869155
 30
0.0
 10
4.841365763
 20
4.7962043081
 30
0.0
 10
4.8375714566
 20
4.8021008432
 30
0.0
 10
4.8319348053
 20
4.80984747
 30
0.0
 10
4.8238854082
 20
4.8191581791
 30
0.0
 10
4.8128423508
 20
4.8295329476
 30
0.0
 10
4.8004304611
 20
4.8391130862
 30
0.0
 10
4.7867609346
 20
4.8478097362
 30
0.0
 10
4.7719553017
 20
4.8555426806
 30
0.0
 10
4.7561459717
 20
4.8622391703
 30
0.0
 10
4.7394749509
 20
4.8678352391
 30
0.0
 10
4.7220928409
 20
4.8722762948
 30
0.0
 10
4.7041575687
 20
4.8755178086
 30
0.0
 10
4.6858330282
 20
4.8775258695
 30
0.0
 10
4.6672876178
 20
4.8782776371
 30
0.0
 10
4.6486927122
 20
4.8777616858
 30
0.0
 10
4.6302210677
 20
4.8759782209
 30
0.0
 10
4.6120452126
 20
4.8729391765
 30
0.0
 10
4.5943358009
 20
4.8686681841
 30
0.0
 10
4.5772600031
 20
4.8632004186
 30
0.0
 10
4.560979872
 20
4.8565822903
 30
0.0
 10
4.5456509288
 20
4.8488711434
 30
0.0
 10
4.5314203176
 20
4.8401342941
 30
0.0
 10
4.5184269694
 20
4.8304499839
 30
0.0
 10
4.5086543077
 20
4.8215871585
 30
0.0
 10
4.5015971426
 20
4.8141067702
 30
0.0
 10
4.4967317537
 20
4.8083648349
 30
0.0
 10
4.4922636002
 20
4.8024594089
 30
0.0
 10
4.4882037775
 20
4.7964042778
 30
0.0
 10
4.4845629454
 20
4.7902136039
 30
0.0
 10
4.4813503046
 20
4.7839021772
 30
0.0
 10
4.4785745423
 20
4.77748488
 30
0.0
 10
4.476242885
 20
4.7709771515
 30
0.0
 10
4.474361818
 20
4.7643946949
 30
0.0
 10
4.4729364289
 20
4.7577533412
 30
0.0
 10
4.4719708692
 20
4.7510694483
 30
0.0
 10
4.4716354537
 20
4.7465903354
 30
0.0
 10
4.4715454474
 20
4.744352396
 30
0.0
  0
SPLINE
  5
25C
100
AcDbEntity
  8
0
100
AcDbSpline
 62
7
  6
CONTINUOUS
 70
0
 71
3
 72
43
 73
39
 74
0
 42
0.0000001
 43
0.0000001
 44
0.0000000001
 40
0.0
 40
0.0
 40
0.0
 40
0.0
 40
0.0126883477
 40
0.0254374028
 40
0.038264588
 40
0.0511859743
 40
0.0773610315
 40
0.1040776985
 40
0.117671202
 40
0.1314315414
 40
0.1453664716
 40
0.1594825225
 40
0.1882710679
 40
0.2178294932
 40
0.2481632287
 40
0.2792587861
 40
0.3110852373
 40
0.3435958532
 40
0.376729882
 40
0.4104142635
 40
0.444565385
 40
0.4790908498
 40
0.5138911703
 40
0.5488614809
 40
0.5838932934
 40
0.6188761589
 40
0.6536994379
 40
0.6882540884
 40
0.7224344255
 40
0.7561400468
 40
0.789277758
 40
0.8217635731
 40
0.8535248699
 40
0.8845025863
 40
0.9146534949
 40
0.9439525885
 40
0.9723953664
 40
1.0
 40
1.0
 40
1.0
 40
1.0
 10
4.4573616042
 20
4.8378768329
 30
0.0
 10
4.4576136592
 20
4.8397436461
 30
0.0
 10
4.4582191584
 20
4.8434734448
 30
0.0
 10
4.4594252756
 20
4.8490273404
 30
0.0
 10
4.4609296813
 20
4.854544086
 30
0.0
 10
4.4633400526
 20
4.8618693364
 30
0.0
 10
4.4671032677
 20
4.8709054834
 30
0.0
 10
4.4717816061
 20
4.8796151153
 30
0.0
 10
4.4760673738
 20
4.8864055553
 30
0.0
 10
4.4795748372
 20
4.8914354521
 30
0.0
 10
4.4833510965
 20
4.8963647401
 30
0.0
 10
4.4887720622
 20
4.902834714
 30
0.0
 10
4.4962058968
 20
4.9106300791
 30
0.0
 10
4.5060411026
 20
4.9194024373
 30
0.0
 10
4.5167912155
 20
4.9276032257
 30
0.0
 10
4.5283910406
 20
4.9351829292
 30
0.0
 10
4.5407706214
 20
4.9420962377
 30
0.0
 10
4.5538548686
 20
4.9483014373
 30
0.0
 10
4.5675641399
 20
4.9537609448
 30
0.0
 10
4.5818146112
 20
4.9584415184
 30
0.0
 10
4.5965187614
 20
4.9623145251
 30
0.0
 10
4.611585872
 20
4.9653561643
 30
0.0
 10
4.6269225643
 20
4.9675476675
 30
0.0
 10
4.6424333651
 20
4.968875459
 30
0.0
 10
4.6580212888
 20
4.9693312914
 30
0.0
 10
4.6735884446
 20
4.9689123354
 30
0.0
 10
4.6890366511
 20
4.9676212447
 30
0.0
 10
4.7042680612
 20
4.9654661733
 30
0.0
 10
4.7191857929
 20
4.9624607556
 30
0.0
 10
4.7336945526
 20
4.9586240449
 30
0.0
 10
4.7477012545
 20
4.953980419
 30
0.0
 10
4.7611156272
 20
4.9485594388
 30
0.0
 10
4.7738507857
 20
4.9423956817
 30
0.0
 10
4.7858238204
 20
4.9355284944
 30
0.0
 10
4.7969561933
 20
4.9280018959
 30
0.0
 10
4.8071746339
 20
4.919863782
 30
0.0
 10
4.8164100398
 20
4.911167594
 30
0.0
 10
4.8219522602
 20
4.9049427063
 30
0.0
 10
4.8245293658
 20
4.9017561161
 30
0.0
  0
SPLINE
  5
25D
100
AcDbEntity
  8
0
100
AcDbSpline
 62
7
  6
CONTINUOUS
 70
0
 71
3
 72
28
 73
24
 74
0
 42
0.0000001
 43
0.0000001
 44
0.0000000001
 40
0.0
 40
0.0
 40
0.0
 40
0.0
 40
0.0253165782
 40
0.0508363979
 40
0.0766056194
 40
0.1026750946
 40
0.1290906209
 40
0.1558911436
 40
0.1831107381
 40
0.2107784103
 40
0.2675241384
 40
0.3262704201
 40
0.3564163312
 40
0.387068564
 40
0.4498413143
 40
0.5144930994
 40
0.5808516314
 40
0.6486943196
 40
0.7177575066
 40
0.7877453305
 40
0.8583391256
 40
0.9292034509
 40
1.0
 40
1.0
 40
1.0
 40
1.0
 10
4.4732190801
 20
4.7220540963
 30
0.0
 10
4.4735787905
 20
4.7199056012
 30
0.0
 10
4.4744498012
 20
4.7156148252
 30
0.0
 10
4.4761955908
 20
4.7092537187
 30
0.0
 10
4.478381263
 20
4.7029612178
 30
0.0
 10
4.4810009552
 20
4.6967532263
 30
0.0
 10
4.4840482149
 20
4.6906443855
 30
0.0
 10
4.4875156129
 20
4.6846495083
 30
0.0
 10
4.4913946421
 20
4.678782823
 30
0.0
 10
4.4971503695
 20
4.6710869348
 30
0.0
 10
4.5053539114
 20
4.6618624299
 30
0.0
 10
4.5146301189
 20
4.6534038727
 30
0.0
 10
4.5227157067
 20
4.6470399597
 30
0.0
 10
4.5313747111
 20
4.6408631552
 30
0.0
 10
4.5429827846
 20
4.6337359881
 30
0.0
 10
4.5579039277
 20
4.6262516364
 30
0.0
 10
4.57378591
 20
4.6198367816
 30
0.0
 10
4.5904761037
 20
4.6145523584
 30
0.0
 10
4.6078152634
 20
4.6104481229
 30
0.0
 10
4.6256375445
 20
4.6075629106
 30
0.0
 10
4.6437728077
 20
4.6059241699
 30
0.0
 10
4.6620465662
 20
4.6055472192
 30
0.0
 10
4.6742331437
 20
4.6061410832
 30
0.0
 10
4.6803036154
 20
4.6066502128
 30
0.0
  0
SPLINE
  5
25E
100
AcDbEntity
  8
0
100
AcDbSpline
 62
7
  6
CONTINUOUS
 70
0
 71
3
 72
13
 73
9
 74
0
 42
0.0000001
 43
0.0000001
 44
0.0000000001
 40
0.0
 40
0.0
 40
0.0
 40
0.0
 40
0.2434004828
 40
0.3673200889
 40
0.4924269721
 40
0.6184943611
 40
0.7452865869
 40
1.0
 40
1.0
 40
1.0
 40
1.0
 10
4.5536628374
 20
4.6259712351
 30
0.0
 10
4.561252553
 20
4.6228169362
 30
0.0
 10
4.5729590287
 20
4.618638462
 30
0.0
 10
4.5889817391
 20
4.6141780608
 30
0.0
 10
4.6013344903
 20
4.6113558735
 30
0.0
 10
4.6138994385
 20
4.6090890803
 30
0.0
 10
4.6308916402
 20
4.6068157784
 30
0.0
 10
4.6437695593
 20
4.6059729087
 30
0.0
 10
4.65236881
 20
4.6057946176
 30
0.0
  0
SPLINE
  5
25F
100
AcDbEntity
  8
0
100
AcDbSpline
 62
7
  6
CONTINUOUS
 70
0
 71
3
 72
27
 73
23
 74
0
 42
0.0000001
 43
0.0000001
 44
0.0000000001
 40
0.0
 40
0.0
 40
0.0
 40
0.0
 40
0.0738350574
 40
0.1468961236
 40
0.2189027277
 40
0.2895945317
 40
0.358738293
 40
0.4261351684
 40
0.4916284773
 40
0.5551116759
 40
0.616536489
 40
0.6759208763
 40
0.7333559795
 40
0.7890111876
 40
0.8162582645
 40
0.8431605058
 40
0.8697609862
 40
0.8961065435
 40
0.9222475587
 40
0.9482396957
 40
0.9741403385
 40
1.0
 40
1.0
 40
1.0
 40
1.0
 10
4.6803104386
 20
4.6065735325
 30
0.0
 10
4.6863568894
 20
4.6070383181
 30
0.0
 10
4.6983605771
 20
4.608348275
 30
0.0
 10
4.7160805024
 20
4.611463015
 30
0.0
 10
4.7333029858
 20
4.6156948256
 30
0.0
 10
4.7498858124
 20
4.6210093133
 30
0.0
 10
4.7656925766
 20
4.6273633014
 30
0.0
 10
4.7805922623
 20
4.6347050845
 30
0.0
 10
4.7944606904
 20
4.6429748589
 30
0.0
 10
4.8071813913
 20
4.6521052462
 30
0.0
 10
4.8186463987
 20
4.6620216283
 30
0.0
 10
4.828757221
 20
4.6726432596
 30
0.0
 10
4.8374245288
 20
4.6838814372
 30
0.0
 10
4.8434232323
 20
4.6937563975
 30
0.0
 10
4.8474027676
 20
4.701854614
 30
0.0
 10
4.8499636167
 20
4.7079771648
 30
0.0
 10
4.8521147706
 20
4.7141770278
 30
0.0
 10
4.853851548
 20
4.7204408217
 30
0.0
 10
4.8551695329
 20
4.7267549636
 30
0.0
 10
4.8560656206
 20
4.7331059196
 30
0.0
 10
4.8565370665
 20
4.7394790198
 30
0.0
 10
4.8565677379
 20
4.7437338642
 30
0.0
 10
4.8565121231
 20
4.7458570653
 30
0.0
  0
SPLINE
  5
260
100
AcDbEntity
  8
0
100
AcDbSpline
 62
7
  6
CONTINUOUS
 70
0
 71
3
 72
17
 73
13
 74
0
 42
0.0000001
 43
0.0000001
 44
0.0000000001
 40
0.0
 40
0.0
 40
0.0
 40
0.0
 40
0.0554153715
 40
0.1115519183
 40
0.1684821785
 40
0.2262862631
 40
0.344721956
 40
0.4672833684
 40
0.5941582481
 40
0.7253586788
 40
0.860733833
 40
1.0
 40
1.0
 40
1.0
 40
1.0
 10
4.4590728964
 20
4.7150039629
 30
0.0
 10
4.4599156925
 20
4.7126852742
 30
0.0
 10
4.4617664375
 20
4.7080722534
 30
0.0
 10
4.464999662
 20
4.7012988266
 30
0.0
 10
4.4686994181
 20
4.6946461867
 30
0.0
 10
4.4742853446
 20
4.6858902061
 30
0.0
 10
4.4824211945
 20
4.6753257763
 30
0.0
 10
4.4937908322
 20
4.6634967216
 30
0.0
 10
4.5067367038
 20
4.6525190851
 30
0.0
 10
4.5211329033
 20
4.6424966001
 30
0.0
 10
4.5368398835
 20
4.633522737
 30
0.0
 10
4.5479421172
 20
4.6283619384
 30
0.0
 10
4.5536628374
 20
4.6259712351
 30
0.0
  0
SPLINE
  5
261
100
AcDbEntity
  8
0
100
AcDbSpline
 62
7
  6
CONTINUOUS
 70
0
 71
3
 72
26
 73
22
 74
0
 42
0.0000001
 43
0.0000001
 44
0.0000000001
 40
0.0
 40
0.0
 40
0.0
 40
0.0
 40
0.0770500077
 40
0.1526321646
 40
0.1892369943
 40
0.2245926872
 40
0.2584300636
 40
0.2906300971
 40
0.3212609441
 40
0.3505837972
 40
0.3789295921
 40
0.406657626
 40
0.4612886311
 40
0.5161927526
 40
0.5720974747
 40
0.6292795769
 40
0.6878178664
 40
0.7477008804
 40
0.8088914681
 40
0.8713696215
 40
1.0
 40
1.0
 40
1.0
 40
1.0
 10
4.4884782211
 20
4.9860628088
 30
0.0
 10
4.489124907
 20
4.9860628864
 30
0.0
 10
4.4904074386
 20
4.985992345
 30
0.0
 10
4.4919729689
 20
4.9856795284
 30
0.0
 10
4.4931417547
 20
4.9852640563
 30
0.0
 10
4.4939419745
 20
4.9848742833
 30
0.0
 10
4.4946559226
 20
4.984406457
 30
0.0
 10
4.4952669562
 20
4.9838681413
 30
0.0
 10
4.4957646542
 20
4.9832720145
 30
0.0
 10
4.4961468541
 20
4.9826335618
 30
0.0
 10
4.4964173686
 20
4.9819669098
 30
0.0
 10
4.4966410217
 20
4.981062311
 30
0.0
 10
4.4966955123
 20
4.9798998253
 30
0.0
 10
4.4964757455
 20
4.9785218374
 30
0.0
 10
4.496037892
 20
4.9771768236
 30
0.0
 10
4.4954257824
 20
4.9758697168
 30
0.0
 10
4.494669539
 20
4.974602303
 30
0.0
 10
4.4937906132
 20
4.9733757269
 30
0.0
 10
4.4928044494
 20
4.972190543
 30
0.0
 10
4.4913468682
 20
4.9706530679
 30
0.0
 10
4.4901411723
 20
4.9695885244
 30
0.0
 10
4.4892960577
 20
4.968916717
 30
0.0
  0
SPLINE
  5
262
100
AcDbEntity
  8
0
100
AcDbSpline
 62
7
  6
CONTINUOUS
 70
0
 71
3
 72
27
 73
23
 74
0
 42
0.0000001
 43
0.0000001
 44
0.0000000001
 40
0.0
 40
0.0
 40
0.0
 40
0.0
 40
0.1286256289
 40
0.1910977099
 40
0.2522880452
 40
0.3121666808
 40
0.3707012851
 40
0.4278824874
 40
0.4837833842
 40
0.5386798937
 40
0.5659910205
 40
0.5933943883
 40
0.6211146635
 40
0.6494594315
 40
0.6787713303
 40
0.7094003428
 40
0.7415991467
 40
0.7754340823
 40
0.8107894046
 40
0.8473873317
 40
0.9229598513
 40
1.0
 40
1.0
 40
1.0
 40
1.0
 10
4.8273964889
 20
4.968916717
 30
0.0
 10
4.8265513397
 20
4.9695885663
 30
0.0
 10
4.8253455948
 20
4.9706531355
 30
0.0
 10
4.8238880774
 20
4.9721907901
 30
0.0
 10
4.8229018161
 20
4.9733759485
 30
0.0
 10
4.822023018
 20
4.9746027027
 30
0.0
 10
4.8212667808
 20
4.975870141
 30
0.0
 10
4.8206546323
 20
4.9771774082
 30
0.0
 10
4.8202168132
 20
4.9785220286
 30
0.0
 10
4.8200337438
 20
4.9796738841
 30
0.0
 10
4.8200296344
 20
4.9805956127
 30
0.0
 10
4.8201069507
 20
4.9812850042
 30
0.0
 10
4.8202754065
 20
4.981967326
 30
0.0
 10
4.8205461187
 20
4.9826337427
 30
0.0
 10
4.8209281432
 20
4.9832722345
 30
0.0
 10
4.8214258568
 20
4.9838683066
 30
0.0
 10
4.8220370396
 20
4.9844064684
 30
0.0
 10
4.8227508927
 20
4.9848745075
 30
0.0
 10
4.8235511951
 20
4.9852641233
 30
0.0
 10
4.8247199328
 20
4.9856795933
 30
0.0
 10
4.8262853925
 20
4.9859923769
 30
0.0
 10
4.827567869
 20
4.9860628761
 30
0.0
 10
4.8282145279
 20
4.9860628088
 30
0.0
  0
SPLINE
  5
263
100
AcDbEntity
  8
0
100
AcDbSpline
 62
7
  6
CONTINUOUS
 70
0
 71
3
 72
25
 73
21
 74
0
 42
0.0000001
 43
0.0000001
 44
0.0000000001
 40
0.0
 40
0.0
 40
0.0
 40
0.0
 40
0.1430791646
 40
0.2139147659
 40
0.2838786296
 40
0.3527093513
 40
0.4201718502
 40
0.4860634789
 40
0.550221326
 40
0.6125292398
 40
0.6729251912
 40
0.7314080053
 40
0.7880435277
 40
0.8429689394
 40
0.8698643677
 40
0.8964170066
 40
0.9226641606
 40
0.9486467882
 40
0.9744095668
 40
1.0
 40
1.0
 40
1.0
 40
1.0
 10
4.6583462733
 20
4.6587656577
 30
0.0
 10
4.6497903648
 20
4.6587656577
 30
0.0
 10
4.6369772514
 20
4.6595896622
 30
0.0
 10
4.620217892
 20
4.6623430829
 30
0.0
 10
4.6080019177
 20
4.6652016334
 30
0.0
 10
4.59620536
 20
4.6688362289
 30
0.0
 10
4.5849250282
 20
4.673217089
 30
0.0
 10
4.5742549604
 20
4.6783082462
 30
0.0
 10
4.5642837813
 20
4.6840680311
 30
0.0
 10
4.5550945224
 20
4.6904494567
 30
0.0
 10
4.5467639722
 20
4.697400506
 30
0.0
 10
4.5393620293
 20
4.7048649319
 30
0.0
 10
4.532951935
 20
4.7127811345
 30
0.0
 10
4.5284501844
 20
4.7197519608
 30
0.0
 10
4.5254128171
 20
4.7254801346
 30
0.0
 10
4.5234286295
 20
4.7298162447
 30
0.0
 10
4.5217269251
 20
4.7342122765
 30
0.0
 10
4.5203115403
 20
4.7386593138
 30
0.0
 10
4.519185314
 20
4.7431476196
 30
0.0
 10
4.518627457
 20
4.7461698658
 30
0.0
 10
4.5183980975
 20
4.7476828473
 30
0.0
  0
SPLINE
  5
264
100
AcDbEntity
  8
0
100
AcDbSpline
 62
7
  6
CONTINUOUS
 70
0
 71
3
 72
26
 73
22
 74
0
 42
0.0000001
 43
0.0000001
 44
0.0000000001
 40
0.0
 40
0.0
 40
0.0
 40
0.0
 40
0.14484642
 40
0.2164511177
 40
0.2870439749
 40
0.3563280207
 40
0.4240405837
 40
0.4899631051
 40
0.5539305657
 40
0.6158410849
 40
0.6756655693
 40
0.7334562031
 40
0.789353181
 40
0.8166732247
 40
0.8436141203
 40
0.8702186493
 40
0.896534308
 40
0.9226131967
 40
0.9485109742
 40
0.9742863596
 40
1.0
 40
1.0
 40
1.0
 40
1.0
 10
4.6583462733
 20
4.6375524543
 30
0.0
 10
4.6491711228
 20
4.6375524543
 30
0.0
 10
4.6354337407
 20
4.6384994848
 30
0.0
 10
4.6175180931
 20
4.6416650734
 30
0.0
 10
4.6045166114
 20
4.6449460345
 30
0.0
 10
4.5920308238
 20
4.6491107214
 30
0.0
 10
4.5801785185
 20
4.6541200531
 30
0.0
 10
4.5690733418
 20
4.6599268464
 30
0.0
 10
4.55882142
 20
4.6664767045
 30
0.0
 10
4.549521172
 20
4.6737083438
 30
0.0
 10
4.5412621992
 20
4.6815546845
 30
0.0
 10
4.5341255622
 20
4.6899415296
 30
0.0
 10
4.5291332168
 20
4.6973754321
 30
0.0
 10
4.5257870206
 20
4.7035029185
 30
0.0
 10
4.5236154286
 20
4.7081460589
 30
0.0
 10
4.5217686403
 20
4.712859401
 30
0.0
 10
4.5202513856
 20
4.7176318141
 30
0.0
 10
4.5190671922
 20
4.7224515701
 30
0.0
 10
4.5182193411
 20
4.7273071267
 30
0.0
 10
4.5177096337
 20
4.7321862757
 30
0.0
 10
4.5175963033
 20
4.7354489291
 30
0.0
 10
4.5175963033
 20
4.7370777337
 30
0.0
  0
SPLINE
  5
265
100
AcDbEntity
  8
0
100
AcDbSpline
 62
7
  6
CONTINUOUS
 70
0
 71
3
 72
13
 73
9
 74
0
 42
0.0000001
 43
0.0000001
 44
0.0000000001
 40
0.0
 40
0.0
 40
0.0
 40
0.0
 40
0.2502601933
 40
0.3761757005
 40
0.5021515854
 40
0.6278568336
 40
0.7529619054
 40
1.0
 40
1.0
 40
1.0
 40
1.0
 10
4.6101728344
 20
4.9274527611
 30
0.0
 10
4.61893431
 20
4.929305582
 30
0.0
 10
4.6322654132
 20
4.9313911411
 30
0.0
 10
4.65018456
 20
4.9327938993
 30
0.0
 10
4.6636978188
 20
4.9331571462
 30
0.0
 10
4.6771829998
 20
4.9328284562
 30
0.0
 10
4.6949516938
 20
4.9314784272
 30
0.0
 10
4.7081443989
 20
4.9294391004
 30
0.0
 10
4.7167943021
 20
4.9276159679
 30
0.0
  0
SPLINE
  5
266
100
AcDbEntity
  8
0
100
AcDbSpline
 62
7
  6
CONTINUOUS
 70
0
 71
3
 72
18
 73
14
 74
0
 42
0.0000001
 43
0.0000001
 44
0.0000000001
 40
0.0
 40
0.0
 40
0.0
 40
0.0
 40
0.0538584131
 40
0.1088609257
 40
0.1650741841
 40
0.2225420958
 40
0.3412544352
 40
0.4025385073
 40
0.4650472649
 40
0.5934703376
 40
0.7259819113
 40
0.8618002594
 40
1.0
 40
1.0
 40
1.0
 40
1.0
 10
4.5010622832
 20
4.9149089367
 30
0.0
 10
4.5025142553
 20
4.917249591
 30
0.0
 10
4.5056321821
 20
4.9218694177
 30
0.0
 10
4.5108573907
 20
4.9285088517
 30
0.0
 10
4.5166584765
 20
4.9349035963
 30
0.0
 10
4.5252200285
 20
4.9431571197
 30
0.0
 10
4.5347674114
 20
4.9507218064
 30
0.0
 10
4.5451256204
 20
4.9575510292
 30
0.0
 10
4.5562831893
 20
4.9640357612
 30
0.0
 10
4.5712479983
 20
4.9711614201
 30
0.0
 10
4.5903851127
 20
4.9780011823
 30
0.0
 10
4.6105697788
 20
4.9831051761
 30
0.0
 10
4.6244356721
 20
4.9852857215
 30
0.0
 10
4.631459512
 20
4.9860729578
 30
0.0
  0
SPLINE
  5
267
100
AcDbEntity
  8
0
100
AcDbSpline
 62
7
  6
CONTINUOUS
 70
0
 71
3
 72
20
 73
16
 74
0
 42
0.0000001
 43
0.0000001
 44
0.0000000001
 40
0.0
 40
0.0
 40
0.0
 40
0.0
 40
0.1395517244
 40
0.2084249954
 40
0.2764974673
 40
0.4096945886
 40
0.4746484537
 40
0.5383694537
 40
0.6007885016
 40
0.6618560991
 40
0.7797816754
 40
0.8367247453
 40
0.8923535666
 40
0.9467440133
 40
1.0
 40
1.0
 40
1.0
 40
1.0
 10
4.6852330346
 20
4.9860729578
 30
0.0
 10
4.6927478417
 20
4.9852306936
 30
0.0
 10
4.7039221982
 20
4.9834380551
 30
0.0
 10
4.7185036471
 20
4.9799736039
 30
0.0
 10
4.732561577
 20
4.9758760079
 30
0.0
 10
4.7460908952
 20
4.9707767191
 30
0.0
 10
4.7589135311
 20
4.9646850949
 30
0.0
 10
4.7680031367
 20
4.9597128397
 30
0.0
 10
4.7766038477
 20
4.9543211525
 30
0.0
 10
4.7872405848
 20
4.9466969249
 30
0.0
 10
4.7969053244
 20
4.9382558212
 30
0.0
 10
4.8053788055
 20
4.9290674445
 30
0.0
 10
4.8110048921
 20
4.9219705009
 30
0.0
 10
4.8159476897
 20
4.9146219952
 30
0.0
 10
4.8188012391
 20
4.9095253816
 30
0.0
 10
4.8201015966
 20
4.9069491934
 30
0.0
  0
SPLINE
  5
268
100
AcDbEntity
  8
0
100
AcDbSpline
 62
7
  6
CONTINUOUS
 70
0
 71
3
 72
10
 73
6
 74
0
 42
0.0000001
 43
0.0000001
 44
0.0000000001
 40
0.0
 40
0.0
 40
0.0
 40
0.0
 40
0.2524553074
 40
0.6286309649
 40
1.0
 40
1.0
 40
1.0
 40
1.0
 10
4.6647310798
 20
4.9077866875
 30
0.0
 10
4.6691246603
 20
4.907774993
 30
0.0
 10
4.6800657899
 20
4.9074722287
 30
0.0
 10
4.6974145009
 20
4.9058993354
 30
0.0
 10
4.7102584235
 20
4.9037332722
 30
0.0
 10
4.7165837622
 20
4.9024059302
 30
0.0
  0
SPLINE
  5
269
100
AcDbEntity
  8
0
100
AcDbSpline
 62
7
  6
CONTINUOUS
 70
0
 71
3
 72
25
 73
21
 74
0
 42
0.0000001
 43
0.0000001
 44
0.0000000001
 40
0.0
 40
0.0
 40
0.0
 40
0.0
 40
0.0255904332
 40
0.0513532118
 40
0.0773358394
 40
0.1035829934
 40
0.1301356323
 40
0.1570310606
 40
0.2119564723
 40
0.2685919947
 40
0.3270748088
 40
0.3874707602
 40
0.449778674
 40
0.5139365211
 40
0.5798281498
 40
0.6472906487
 40
0.7161213704
 40
0.7860852341
 40
0.8569208354
 40
1.0
 40
1.0
 40
1.0
 40
1.0
 10
4.7982944491
 20
4.7476828473
 30
0.0
 10
4.7980650896
 20
4.7461698658
 30
0.0
 10
4.7975072325
 20
4.7431476196
 30
0.0
 10
4.7963810063
 20
4.7386593138
 30
0.0
 10
4.7949656214
 20
4.7342122765
 30
0.0
 10
4.7932639171
 20
4.7298162447
 30
0.0
 10
4.7912797295
 20
4.7254801346
 30
0.0
 10
4.7882423622
 20
4.7197519608
 30
0.0
 10
4.7837406116
 20
4.7127811345
 30
0.0
 10
4.7773305173
 20
4.7048649319
 30
0.0
 10
4.7699285744
 20
4.697400506
 30
0.0
 10
4.7615980242
 20
4.6904494567
 30
0.0
 10
4.7524087653
 20
4.6840680311
 30
0.0
 10
4.7424375862
 20
4.6783082462
 30
0.0
 10
4.7317675184
 20
4.673217089
 30
0.0
 10
4.7204871866
 20
4.6688362289
 30
0.0
 10
4.7086906289
 20
4.6652016334
 30
0.0
 10
4.6964746545
 20
4.6623430829
 30
0.0
 10
4.6797152952
 20
4.6595896622
 30
0.0
 10
4.6669021818
 20
4.6587656577
 30
0.0
 10
4.6583462733
 20
4.6587656577
 30
0.0
  0
SPLINE
  5
26A
100
AcDbEntity
  8
0
100
AcDbSpline
 62
7
  6
CONTINUOUS
 70
0
 71
3
 72
14
 73
10
 74
0
 42
0.0000001
 43
0.0000001
 44
0.0000000001
 40
0.0
 40
0.0
 40
0.0
 40
0.0
 40
0.2320498251
 40
0.2923139937
 40
0.353406422
 40
0.4779123314
 40
0.6052644652
 40
0.7350652167
 40
1.0
 40
1.0
 40
1.0
 40
1.0
 10
4.5672922188
 20
4.7060572237
 30
0.0
 10
4.5719309104
 20
4.7020141291
 30
0.0
 10
4.5782748775
 20
4.6974660374
 30
0.0
 10
4.5863964491
 20
4.6927915683
 30
0.0
 10
4.5921735564
 20
4.6897654715
 30
0.0
 10
4.5997447939
 20
4.6863476159
 30
0.0
 10
4.6092594339
 20
4.6828711887
 30
0.0
 10
4.6225739246
 20
4.6790482344
 30
0.0
 10
4.6329190754
 20
4.6772014962
 30
0.0
 10
4.6399003278
 20
4.6764150873
 30
0.0
  0
SPLINE
  5
26B
100
AcDbEntity
  8
0
100
AcDbSpline
 62
7
  6
CONTINUOUS
 70
0
 71
3
 72
48
 73
44
 74
0
 42
0.0000001
 43
0.0000001
 44
0.0000000001
 40
0.0
 40
0.0
 40
0.0
 40
0.0
 40
0.0124731413
 40
0.0249921217
 40
0.0375874825
 40
0.0502885023
 40
0.0631227912
 40
0.076115931
 40
0.0892911173
 40
0.102669049
 40
0.1162675939
 40
0.1301019069
 40
0.1585134841
 40
0.1879796953
 40
0.2185219561
 40
0.250122542
 40
0.2827290087
 40
0.3162589734
 40
0.3506048301
 40
0.3856383226
 40
0.4212149939
 40
0.4571783756
 40
0.4933641505
 40
0.5296041072
 40
0.5657301355
 40
0.601578158
 40
0.6369920742
 40
0.6718278369
 40
0.7059575072
 40
0.739273521
 40
0.7716929412
 40
0.8031618018
 40
0.8336592895
 40
0.8632014985
 40
0.8918444045
 40
0.9058633889
 40
0.9196974339
 40
0.9333650484
 40
0.9468869999
 40
0.9602858925
 40
0.9735862434
 40
0.9868153642
 40
1.0
 40
1.0
 40
1.0
 40
1.0
 10
4.8640451117
 20
4.81852131
 30
0.0
 10
4.8639711954
 20
4.820799529
 30
0.0
 10
4.863662493
 20
4.8253607339
 30
0.0
 10
4.8627202181
 20
4.8321700896
 30
0.0
 10
4.8613004596
 20
4.838938931
 30
0.0
 10
4.8594066938
 20
4.8456503934
 30
0.0
 10
4.8570436168
 20
4.8522884036
 30
0.0
 10
4.8542167661
 20
4.8588368421
 30
0.0
 10
4.8509331649
 20
4.865280093
 30
0.0
 10
4.8472004392
 20
4.8716025055
 30
0.0
 10
4.8430275635
 20
4.8777892638
 30
0.0
 10
4.8368361444
 20
4.8859079869
 30
0.0
 10
4.8280147328
 20
4.8956379748
 30
0.0
 10
4.8159518626
 20
4.9064285527
 30
0.0
 10
4.802429197
 20
4.9163401081
 30
0.0
 10
4.7875736499
 20
4.9252784963
 30
0.0
 10
4.7715226991
 20
4.9331597135
 30
0.0
 10
4.7544248896
 20
4.9399085642
 30
0.0
 10
4.7364382367
 20
4.9454600285
 30
0.0
 10
4.7177289908
 20
4.949759789
 30
0.0
 10
4.6984701281
 20
4.9527648712
 30
0.0
 10
4.6788397681
 20
4.9544440988
 30
0.0
 10
4.6590195256
 20
4.9547784338
 30
0.0
 10
4.6391928055
 20
4.9537611848
 30
0.0
 10
4.6195430867
 20
4.9513980757
 30
0.0
 10
4.6002521989
 20
4.9477071978
 30
0.0
 10
4.5814986222
 20
4.9427188002
 30
0.0
 10
4.5634558411
 20
4.9364749703
 30
0.0
 10
4.5462907541
 20
4.929029175
 30
0.0
 10
4.5301622057
 20
4.9204457132
 30
0.0
 10
4.5152195957
 20
4.9107990028
 30
0.0
 10
4.5016017738
 20
4.9001730376
 30
0.0
 10
4.4894356743
 20
4.8886599889
 30
0.0
 10
4.4788366202
 20
4.8763618848
 30
0.0
 10
4.4713386555
 20
4.8654671911
 30
0.0
 10
4.4662453335
 20
4.8564807561
 30
0.0
 10
4.462899709
 20
4.8496651605
 30
0.0
 10
4.4600099917
 20
4.8427424681
 30
0.0
 10
4.457583149
 20
4.8357281247
 30
0.0
 10
4.4556247401
 20
4.8286383489
 30
0.0
 10
4.4541397136
 20
4.8214889647
 30
0.0
 10
4.4531315533
 20
4.8142966881
 30
0.0
 10
4.4527787351
 20
4.8094783919
 30
0.0
 10
4.452682681
 20
4.8070708667
 30
0.0
  0
SPLINE
  5
26C
100
AcDbEntity
  8
0
100
AcDbSpline
 62
7
  6
CONTINUOUS
 70
0
 71
3
 72
14
 73
10
 74
0
 42
0.0000001
 43
0.0000001
 44
0.0000000001
 40
0.0
 40
0.0
 40
0.0
 40
0.0
 40
0.2649347833
 40
0.3947355348
 40
0.5220876686
 40
0.646593578
 40
0.7076860063
 40
0.7679501749
 40
1.0
 40
1.0
 40
1.0
 40
1.0
 10
4.6767922188
 20
4.6764150873
 30
0.0
 10
4.6837734712
 20
4.6772014962
 30
0.0
 10
4.694118622
 20
4.6790482344
 30
0.0
 10
4.7074331127
 20
4.6828711887
 30
0.0
 10
4.7169477527
 20
4.6863476159
 30
0.0
 10
4.7245189901
 20
4.6897654715
 30
0.0
 10
4.7302960974
 20
4.6927915683
 30
0.0
 10
4.7384176691
 20
4.6974660374
 30
0.0
 10
4.7447616362
 20
4.7020141291
 30
0.0
 10
4.7494003278
 20
4.7060572237
 30
0.0
  0
SPLINE
  5
26D
100
AcDbEntity
  8
0
100
AcDbSpline
 62
7
  6
CONTINUOUS
 70
0
 71
3
 72
18
 73
14
 74
0
 42
0.0000001
 43
0.0000001
 44
0.0000000001
 40
0.0
 40
0.0
 40
0.0
 40
0.0
 40
0.0538498135
 40
0.108817828
 40
0.1649761122
 40
0.2223745243
 40
0.340928286
 40
0.4021358524
 40
0.4645779985
 40
0.5929201503
 40
0.7254575472
 40
0.8614479145
 40
1.0
 40
1.0
 40
1.0
 40
1.0
 10
4.4992342393
 20
4.9132394769
 30
0.0
 10
4.5006242735
 20
4.9155866152
 30
0.0
 10
4.5036170137
 20
4.9202231474
 30
0.0
 10
4.5086554678
 20
4.9268991234
 30
0.0
 10
4.5142685651
 20
4.9333407171
 30
0.0
 10
4.5225762878
 20
4.9416711487
 30
0.0
 10
4.531875882
 20
4.9493345897
 30
0.0
 10
4.5419944846
 20
4.9562817952
 30
0.0
 10
4.5529158031
 20
4.9629025701
 30
0.0
 10
4.5676028017
 20
4.970225859
 30
0.0
 10
4.5864400227
 20
4.9773403123
 30
0.0
 10
4.6063671197
 20
4.9827578161
 30
0.0
 10
4.6200866789
 20
4.9851678468
 30
0.0
 10
4.627046318
 20
4.9860758631
 30
0.0
  0
SPLINE
  5
26E
100
AcDbEntity
  8
0
100
AcDbSpline
 62
7
  6
CONTINUOUS
 70
0
 71
3
 72
20
 73
16
 74
0
 42
0.0000001
 43
0.0000001
 44
0.0000000001
 40
0.0
 40
0.0
 40
0.0
 40
0.0
 40
0.1399503644
 40
0.2089447066
 40
0.2770912578
 40
0.4103146443
 40
0.4752320421
 40
0.5388914652
 40
0.6012306031
 40
0.6622070936
 40
0.7799457566
 40
0.8368099673
 40
0.89238002
 40
0.9467395732
 40
1.0
 40
1.0
 40
1.0
 40
1.0
 10
4.6896462286
 20
4.9860758631
 30
0.0
 10
4.6971110462
 20
4.9851019367
 30
0.0
 10
4.7081975268
 20
4.9831179477
 30
0.0
 10
4.7226387196
 20
4.9794088447
 30
0.0
 10
4.7365286786
 20
4.9750831779
 30
0.0
 10
4.749866424
 20
4.9697712642
 30
0.0
 10
4.7624741461
 20
4.9634836193
 30
0.0
 10
4.7713910452
 20
4.9583771566
 30
0.0
 10
4.7798098547
 20
4.9528620156
 30
0.0
 10
4.7901961204
 20
4.9450899681
 30
0.0
 10
4.799595381
 20
4.9365197988
 30
0.0
 10
4.8077899699
 20
4.9272261428
 30
0.0
 10
4.8132067017
 20
4.9200620332
 30
0.0
 10
4.8179382552
 20
4.9126576836
 30
0.0
 10
4.8206480676
 20
4.9075329287
 30
0.0
 10
4.8218768056
 20
4.9049448668
 30
0.0
  0
SPLINE
  5
26F
100
AcDbEntity
  8
0
100
AcDbSpline
 62
7
  6
CONTINUOUS
 70
0
 71
3
 72
13
 73
9
 74
0
 42
0.0000001
 43
0.0000001
 44
0.0000000001
 40
0.0
 40
0.0
 40
0.0
 40
0.0
 40
0.2502881963
 40
0.3762162886
 40
0.5022006789
 40
0.6279082616
 40
0.7530072869
 40
1.0
 40
1.0
 40
1.0
 40
1.0
 10
4.6102135742
 20
4.9527156916
 30
0.0
 10
4.6190040211
 20
4.9545731204
 30
0.0
 10
4.6323795856
 20
4.9566610569
 30
0.0
 10
4.6503579439
 20
4.9580580165
 30
0.0
 10
4.6639150434
 20
4.9584123982
 30
0.0
 10
4.6774427394
 20
4.9580703829
 30
0.0
 10
4.6952643692
 20
4.9566969422
 30
0.0
 10
4.7084943912
 20
4.954633549
 30
0.0
 10
4.7171671515
 20
4.9527913964
 30
0.0
  0
SPLINE
  5
270
100
AcDbEntity
  8
0
100
AcDbSpline
 62
7
  6
CONTINUOUS
 70
0
 71
3
 72
26
 73
22
 74
0
 42
0.0000001
 43
0.0000001
 44
0.0000000001
 40
0.0
 40
0.0
 40
0.0
 40
0.0
 40
0.0257136404
 40
0.0514890258
 40
0.0773868033
 40
0.103465692
 40
0.1297813507
 40
0.1563858797
 40
0.1833267753
 40
0.210646819
 40
0.2665437969
 40
0.3243344307
 40
0.3841589151
 40
0.4460694343
 40
0.5100368949
 40
0.5759594163
 40
0.6436719793
 40
0.7129560251
 40
0.7835488823
 40
0.85515358
 40
1.0
 40
1.0
 40
1.0
 40
1.0
 10
4.7990962433
 20
4.7370777337
 30
0.0
 10
4.7990962433
 20
4.7354489291
 30
0.0
 10
4.7989829128
 20
4.7321862757
 30
0.0
 10
4.7984732055
 20
4.7273071267
 30
0.0
 10
4.7976253544
 20
4.7224515701
 30
0.0
 10
4.796441161
 20
4.7176318141
 30
0.0
 10
4.7949239063
 20
4.712859401
 30
0.0
 10
4.7930771179
 20
4.7081460589
 30
0.0
 10
4.790905526
 20
4.7035029185
 30
0.0
 10
4.7875593298
 20
4.6973754321
 30
0.0
 10
4.7825669844
 20
4.6899415296
 30
0.0
 10
4.7754303474
 20
4.6815546845
 30
0.0
 10
4.7671713746
 20
4.6737083438
 30
0.0
 10
4.7578711266
 20
4.6664767045
 30
0.0
 10
4.7476192048
 20
4.6599268464
 30
0.0
 10
4.7365140281
 20
4.6541200531
 30
0.0
 10
4.7246617228
 20
4.6491107214
 30
0.0
 10
4.7121759352
 20
4.6449460345
 30
0.0
 10
4.6991744535
 20
4.6416650734
 30
0.0
 10
4.6812588059
 20
4.6384994848
 30
0.0
 10
4.6675214238
 20
4.6375524543
 30
0.0
 10
4.6583462733
 20
4.6375524543
 30
0.0
  0
SPLINE
  5
271
100
AcDbEntity
  8
0
100
AcDbSpline
 62
7
  6
CONTINUOUS
 70
0
 71
3
 72
11
 73
7
 74
0
 42
0.0000001
 43
0.0000001
 44
0.0000000001
 40
0.0
 40
0.0
 40
0.0
 40
0.0
 40
0.2566835035
 40
0.5077476407
 40
0.7548844171
 40
1.0
 40
1.0
 40
1.0
 40
1.0
 10
4.7678462733
 20
4.7286488008
 30
0.0
 10
4.7691065957
 20
4.7309766577
 30
0.0
 10
4.7713413142
 20
4.7357278186
 30
0.0
 10
4.7737883116
 20
4.7431384428
 30
0.0
 10
4.7752663423
 20
4.7506805948
 30
0.0
 10
4.7755962733
 20
4.755763099
 30
0.0
 10
4.7755962733
 20
4.7582909372
 30
0.0
  0
SPLINE
  5
272
100
AcDbEntity
  8
0
100
AcDbSpline
 62
7
  6
CONTINUOUS
 70
0
 71
3
 72
20
 73
16
 74
0
 42
0.0000001
 43
0.0000001
 44
0.0000000001
 40
0.0
 40
0.0
 40
0.0
 40
0.0
 40
0.0581900092
 40
0.1164997336
 40
0.1750472027
 40
0.2339471836
 40
0.293309226
 40
0.3532368471
 40
0.4138259299
 40
0.4751640581
 40
0.5373292895
 40
0.6003902935
 40
0.7293789692
 40
0.8625205314
 40
1.0
 40
1.0
 40
1.0
 40
1.0
 10
4.8845962426
 20
4.8625891874
 30
0.0
 10
4.8845962388
 20
4.8650126201
 30
0.0
 10
4.8844402076
 20
4.869865915
 30
0.0
 10
4.8837384248
 20
4.8771269868
 30
0.0
 10
4.8825706984
 20
4.8843580295
 30
0.0
 10
4.8809391984
 20
4.8915435149
 30
0.0
 10
4.8788477191
 20
4.8986686609
 30
0.0
 10
4.8763004667
 20
4.90571856
 30
0.0
 10
4.8733030339
 20
4.9126786937
 30
0.0
 10
4.8698616702
 20
4.9195345641
 30
0.0
 10
4.8659835466
 20
4.9262722504
 30
0.0
 10
4.8601989109
 20
4.935144876
 30
0.0
 10
4.8518871816
 20
4.9458723907
 30
0.0
 10
4.8403995439
 20
4.9579483668
 30
0.0
 10
4.8318784439
 20
4.9653537853
 30
0.0
 10
4.8273964889
 20
4.968916717
 30
0.0
  0
SPLINE
  5
273
100
AcDbEntity
  8
0
100
AcDbSpline
 62
7
  6
CONTINUOUS
 70
0
 71
3
 72
51
 73
47
 74
0
 42
0.0000001
 43
0.0000001
 44
0.0000000001
 40
0.0
 40
0.0
 40
0.0
 40
0.0
 40
0.0124777277
 40
0.0250052411
 40
0.0376124603
 40
0.0503296047
 40
0.0631839235
 40
0.07620049
 40
0.0894022182
 40
0.1028094637
 40
0.1164397383
 40
0.1303077357
 40
0.1444253436
 40
0.158801545
 40
0.1734426599
 40
0.1883521987
 40
0.2189698907
 40
0.250643528
 40
0.2833183033
 40
0.3169097673
 40
0.3513085791
 40
0.3863850465
 40
0.4219935829
 40
0.4579768833
 40
0.4941700828
 40
0.5304047359
 40
0.5665127727
 40
0.6023304815
 40
0.6377024322
 40
0.6724855729
 40
0.7065532988
 40
0.7397997239
 40
0.772143965
 40
0.8035344596
 40
0.8339531701
 40
0.8634192665
 40
0.8778175284
 40
0.892003325
 40
0.9059905719
 40
0.9197956258
 40
0.933437364
 40
0.9469368596
 40
0.960317281
 40
0.9736035349
 40
0.9868219522
 40
1.0
 40
1.0
 40
1.0
 40
1.0
 10
4.8640096724
 20
4.7689610498
 30
0.0
 10
4.8639134595
 20
4.7712402931
 30
0.0
 10
4.8635600312
 20
4.7758027011
 30
0.0
 10
4.8625505283
 20
4.7826101268
 30
0.0
 10
4.8610636602
 20
4.7893745249
 30
0.0
 10
4.8591029504
 20
4.7960791058
 30
0.0
 10
4.8566734043
 20
4.802708003
 30
0.0
 10
4.8537805856
 20
4.8092450252
 30
0.0
 10
4.8504316741
 20
4.8156745186
 30
0.0
 10
4.8466345804
 20
4.8219810215
 30
0.0
 10
4.8423983354
 20
4.8281494188
 30
0.0
 10
4.8377330431
 20
4.8341650006
 30
0.0
 10
4.8326495649
 20
4.840013271
 30
0.0
 10
4.827160064
 20
4.8456803809
 30
0.0
 10
4.821277076
 20
4.8511526923
 30
0.0
 10
4.8128537408
 20
4.8582337779
 30
0.0
 10
4.8013949407
 20
4.8665138342
 30
0.0
 10
4.7864426476
 20
4.8753810177
 30
0.0
 10
4.7703038269
 20
4.8831849654
 30
0.0
 10
4.753128844
 20
4.8898504313
 30
0.0
 10
4.7350762852
 20
4.895313277
 30
0.0
 10
4.7163132063
 20
4.8995198901
 30
0.0
 10
4.6970131954
 20
4.9024281207
 30
0.0
 10
4.6773548973
 20
4.9040076482
 30
0.0
 10
4.6575203237
 20
4.9042403324
 30
0.0
 10
4.6376931538
 20
4.9031204175
 30
0.0
 10
4.618057005
 20
4.9006545831
 30
0.0
 10
4.5987937151
 20
4.896861873
 30
0.0
 10
4.580081638
 20
4.8917734875
 30
0.0
 10
4.562094001
 20
4.8854324473
 30
0.0
 10
4.5449973259
 20
4.8778931461
 30
0.0
 10
4.5289499301
 20
4.869220729
 30
0.0
 10
4.5141006775
 20
4.8594905882
 30
0.0
 10
4.5005874104
 20
4.8487870508
 30
0.0
 10
4.4885372676
 20
4.8372047122
 30
0.0
 10
4.4797397443
 20
4.8268216781
 30
0.0
 10
4.4735661891
 20
4.8181830498
 30
0.0
 10
4.469401764
 20
4.8116024649
 30
0.0
 10
4.4656780809
 20
4.8048865605
 30
0.0
 10
4.4624040779
 20
4.798050201
 30
0.0
 10
4.459587323
 20
4.7911090732
 30
0.0
 10
4.4572348129
 20
4.7840788186
 30
0.0
 10
4.4553519923
 20
4.7769755804
 30
0.0
 10
4.4539435452
 20
4.76981544
 30
0.0
 10
4.4530128242
 20
4.7626152411
 30
0.0
 10
4.4527120669
 20
4.7577944168
 30
0.0
 10
4.4526420973
 20
4.755386122
 30
0.0
  0
SPLINE
  5
274
100
AcDbEntity
  8
0
100
AcDbSpline
 62
7
  6
CONTINUOUS
 70
0
 71
3
 72
49
 73
45
 74
0
 42
0.0000001
 43
0.0000001
 44
0.0000000001
 40
0.0
 40
0.0
 40
0.0
 40
0.0
 40
0.0128522666
 40
0.025741375
 40
0.0386943859
 40
0.0517413845
 40
0.0649104394
 40
0.0782268093
 40
0.0917137675
 40
0.1053923217
 40
0.1192806659
 40
0.1333942872
 40
0.1623340981
 40
0.1922907453
 40
0.2232877473
 40
0.255308497
 40
0.2883005402
 40
0.3221802878
 40
0.3568378422
 40
0.3921416553
 40
0.4279431917
 40
0.4640812899
 40
0.5003865401
 40
0.536685477
 40
0.5728047912
 40
0.6085755262
 40
0.6438372879
 40
0.6784426243
 40
0.712261397
 40
0.7451854622
 40
0.7771333252
 40
0.8080549779
 40
0.8379365838
 40
0.8668047226
 40
0.8808848202
 40
0.8947417133
 40
0.9083912764
 40
0.9218521338
 40
0.9351456418
 40
0.9482953811
 40
0.9613269242
 40
0.9742688009
 40
0.9871510042
 40
1.0
 40
1.0
 40
1.0
 40
1.0
 10
4.4726009628
 20
4.738010505
 30
0.0
 10
4.4726225285
 20
4.7401554442
 30
0.0
 10
4.472814807
 20
4.7444514451
 30
0.0
 10
4.4735487577
 20
4.7508725981
 30
0.0
 10
4.4747270748
 20
4.7572605399
 30
0.0
 10
4.4763465311
 20
4.7635991624
 30
0.0
 10
4.478403044
 20
4.7698734955
 30
0.0
 10
4.4808916572
 20
4.7760683419
 30
0.0
 10
4.4838060871
 20
4.7821688235
 30
0.0
 10
4.4871392986
 20
4.7881601698
 30
0.0
 10
4.4908830562
 20
4.7940283598
 30
0.0
 10
4.4964555681
 20
4.8017323333
 30
0.0
 10
4.5044301538
 20
4.8109812906
 30
0.0
 10
4.5153863071
 20
4.8212677335
 30
0.0
 10
4.5277049039
 20
4.8307427059
 30
0.0
 10
4.5412668595
 20
4.8393170687
 30
0.0
 10
4.5559429025
 20
4.8469113926
 30
0.0
 10
4.5715932168
 20
4.8534546854
 30
0.0
 10
4.5880689409
 20
4.8588856893
 30
0.0
 10
4.6052133783
 20
4.8631533811
 30
0.0
 10
4.6228634482
 20
4.8662175806
 30
0.0
 10
4.6408512204
 20
4.8680493873
 30
0.0
 10
4.6590055088
 20
4.8686315033
 30
0.0
 10
4.6771535228
 20
4.8679584311
 30
0.0
 10
4.695122532
 20
4.8660365269
 30
0.0
 10
4.7127415313
 20
4.8628839377
 30
0.0
 10
4.7298428882
 20
4.8585303942
 30
0.0
 10
4.7462639342
 20
4.8530168787
 30
0.0
 10
4.7618484923
 20
4.8463951786
 30
0.0
 10
4.7764483229
 20
4.8387272769
 30
0.0
 10
4.7899243188
 20
4.8300848344
 30
0.0
 10
4.8021479907
 20
4.820547891
 30
0.0
 10
4.8130011025
 20
4.8102061625
 30
0.0
 10
4.8208827782
 20
4.8009170563
 30
0.0
 10
4.8263776116
 20
4.793185412
 30
0.0
 10
4.8300623791
 20
4.787298461
 30
0.0
 10
4.8333353182
 20
4.7812903904
 30
0.0
 10
4.836188429
 20
4.7751753155
 30
0.0
 10
4.8386146935
 20
4.7689679932
 30
0.0
 10
4.8406081367
 20
4.7626834064
 30
0.0
 10
4.8421638009
 20
4.7563366961
 30
0.0
 10
4.8432778719
 20
4.7499428976
 30
0.0
 10
4.8439471857
 20
4.7435182543
 30
0.0
 10
4.8440962733
 20
4.7392222355
 30
0.0
 10
4.8440962733
 20
4.7370777337
 30
0.0
  0
SPLINE
  5
275
100
AcDbEntity
  8
0
100
AcDbSpline
 62
7
  6
CONTINUOUS
 70
0
 71
3
 72
27
 73
23
 74
0
 42
0.0000001
 43
0.0000001
 44
0.0000000001
 40
0.0
 40
0.0
 40
0.0
 40
0.0
 40
0.0259599999
 40
0.0520090616
 40
0.078202309
 40
0.1045951386
 40
0.1312372641
 40
0.1581747147
 40
0.1854496279
 40
0.2130991655
 40
0.2696222655
 40
0.3279611578
 40
0.3882224307
 40
0.4504302751
 40
0.5145329883
 40
0.5804110786
 40
0.647886211
 40
0.7167303744
 40
0.7866748057
 40
0.8574195674
 40
0.928639803
 40
1.0
 40
1.0
 40
1.0
 40
1.0
 10
4.4526775795
 20
4.7816868459
 30
0.0
 10
4.4527724758
 20
4.7841388821
 30
0.0
 10
4.4531289898
 20
4.7890465342
 30
0.0
 10
4.4541605999
 20
4.7963716054
 30
0.0
 10
4.45568684
 20
4.8036518639
 30
0.0
 10
4.4577039172
 20
4.8108696737
 30
0.0
 10
4.460206714
 20
4.8180082306
 30
0.0
 10
4.4631890411
 20
4.825050501
 30
0.0
 10
4.4666436807
 20
4.8319800924
 30
0.0
 10
4.4719052721
 20
4.8411127499
 30
0.0
 10
4.4796531021
 20
4.85217168
 30
0.0
 10
4.4906017424
 20
4.8646274993
 30
0.0
 10
4.5031640556
 20
4.8762576317
 30
0.0
 10
4.5172166211
 20
4.8869553424
 30
0.0
 10
4.5326236979
 20
4.8966245121
 30
0.0
 10
4.5492368943
 20
4.9051779231
 30
0.0
 10
4.5668966684
 20
4.9125387616
 30
0.0
 10
4.5854335836
 20
4.9186412293
 30
0.0
 10
4.6046697644
 20
4.9234313378
 30
0.0
 10
4.6244209303
 20
4.9268673087
 30
0.0
 10
4.6444964149
 20
4.9289204375
 30
0.0
 10
4.6579796096
 20
4.9293569519
 30
0.0
 10
4.6647249206
 20
4.9293408461
 30
0.0
  0
SPLINE
  5
276
100
AcDbEntity
  8
0
100
AcDbSpline
 62
7
  6
CONTINUOUS
 70
0
 71
3
 72
27
 73
23
 74
0
 42
0.0000001
 43
0.0000001
 44
0.0000000001
 40
0.0
 40
0.0
 40
0.0
 40
0.0
 40
0.0734343208
 40
0.1463380614
 40
0.2183970123
 40
0.2893104105
 40
0.3588038144
 40
0.4266346415
 40
0.4926012569
 40
0.5565512879
 40
0.6183905233
 40
0.6780917
 40
0.7357026917
 40
0.7913533841
 40
0.8185197775
 40
0.8452841893
 40
0.8716869792
 40
0.8977732874
 40
0.9235922801
 40
0.9491972444
 40
0.9746471008
 40
1.0
 40
1.0
 40
1.0
 40
1.0
 10
4.6647249206
 20
4.9293408461
 30
0.0
 10
4.6711848501
 20
4.9293254216
 30
0.0
 10
4.684061233
 20
4.9288659102
 30
0.0
 10
4.7031857762
 20
4.9268920276
 30
0.0
 10
4.7219139348
 20
4.9236558702
 30
0.0
 10
4.7400789326
 20
4.9191890899
 30
0.0
 10
4.7575202866
 20
4.9135342899
 30
0.0
 10
4.7740836783
 20
4.9067442278
 30
0.0
 10
4.7896226003
 20
4.8988814694
 30
0.0
 10
4.8039994902
 20
4.8900176265
 30
0.0
 10
4.8170866947
 20
4.8802328731
 30
0.0
 10
4.8287676669
 20
4.8696145802
 30
0.0
 10
4.8389364638
 20
4.8582590183
 30
0.0
 10
4.8461323871
 20
4.848181544
 30
0.0
 10
4.8510173503
 20
4.839865418
 30
0.0
 10
4.8542227229
 20
4.8335621254
 30
0.0
 10
4.8569909982
 20
4.8271583986
 30
0.0
 10
4.8593157447
 20
4.8206687006
 30
0.0
 10
4.8611918595
 20
4.8141082389
 30
0.0
 10
4.8626147658
 20
4.8074918341
 30
0.0
 10
4.8635812482
 20
4.8008351836
 30
0.0
 10
4.8639200759
 20
4.7963748254
 30
0.0
 10
4.8640125587
 20
4.7941464731
 30
0.0
  0
SPLINE
  5
277
100
AcDbEntity
  8
0
100
AcDbSpline
 62
7
  6
CONTINUOUS
 70
0
 71
3
 72
11
 73
7
 74
0
 42
0.0000001
 43
0.0000001
 44
0.0000000001
 40
0.0
 40
0.0
 40
0.0
 40
0.0
 40
0.2451155829
 40
0.4922523593
 40
0.7433164965
 40
1.0
 40
1.0
 40
1.0
 40
1.0
 10
4.5410962733
 20
4.7582909372
 30
0.0
 10
4.5410962733
 20
4.755763099
 30
0.0
 10
4.5414262043
 20
4.7506805948
 30
0.0
 10
4.542904235
 20
4.7431384428
 30
0.0
 10
4.5453512324
 20
4.7357278186
 30
0.0
 10
4.5475859509
 20
4.7309766577
 30
0.0
 10
4.5488462733
 20
4.7286488008
 30
0.0
  0
SPLINE
  5
278
100
AcDbEntity
  8
0
100
AcDbSpline
 62
7
  6
CONTINUOUS
 70
0
 71
3
 72
25
 73
21
 74
0
 42
0.0000001
 43
0.0000001
 44
0.0000000001
 40
0.0
 40
0.0
 40
0.0
 40
0.0
 40
0.026160228
 40
0.0524772204
 40
0.0789873662
 40
0.1057238289
 40
0.1599810177
 40
0.2154887952
 40
0.2437764862
 40
0.2724393057
 40
0.3309328353
 40
0.3910679847
 40
0.452882886
 40
0.5163729872
 40
0.5814945111
 40
0.6481681594
 40
0.7162831215
 40
0.7857011222
 40
0.8562602511
 40
1.0
 40
1.0
 40
1.0
 40
1.0
 10
4.4739247592
 20
4.7213970194
 30
0.0
 10
4.4742155646
 20
4.7196869633
 30
0.0
 10
4.4748931821
 20
4.7162718897
 30
0.0
 10
4.476189851
 20
4.7111950695
 30
0.0
 10
4.4777674135
 20
4.706158114
 30
0.0
 10
4.4802534721
 20
4.6994744846
 30
0.0
 10
4.4840667281
 20
4.691247498
 30
0.0
 10
4.4887270947
 20
4.6833514437
 30
0.0
 10
4.4929603697
 20
4.6772100695
 30
0.0
 10
4.4975910793
 20
4.6711118614
 30
0.0
 10
4.5040180758
 20
4.6637401139
 30
0.0
 10
4.5126248922
 20
4.6554100395
 30
0.0
 10
4.5221258268
 20
4.6475849395
 30
0.0
 10
4.5324618128
 20
4.6403125292
 30
0.0
 10
4.5435693605
 20
4.6336365505
 30
0.0
 10
4.5553803283
 20
4.6275973868
 30
0.0
 10
4.5678220588
 20
4.6222316587
 30
0.0
 10
4.5808192826
 20
4.6175716579
 30
0.0
 10
4.5988881205
 20
4.6123063384
 30
0.0
 10
4.6128700446
 20
4.6095481997
 30
0.0
 10
4.6223091543
 20
4.6082282488
 30
0.0
  0
SPLINE
  5
279
100
AcDbEntity
  8
0
100
AcDbSpline
 62
7
  6
CONTINUOUS
 70
0
 71
3
 72
26
 73
22
 74
0
 42
0.0000001
 43
0.0000001
 44
0.0000000001
 40
0.0
 40
0.0
 40
0.0
 40
0.0
 40
0.0731625412
 40
0.1456389803
 40
0.217151152
 40
0.2874419715
 40
0.3562819307
 40
0.4234761067
 40
0.4888710947
 40
0.5523621972
 40
0.6139006066
 40
0.6734999867
 40
0.7312423366
 40
0.7872817217
 40
0.8418450033
 40
0.8686755902
 40
0.8952531931
 40
0.9216237178
 40
0.947838217
 40
0.973948587
 40
1.0
 40
1.0
 40
1.0
 40
1.0
 10
4.6803045356
 20
4.6066536309
 30
0.0
 10
4.6858655495
 20
4.6071217357
 30
0.0
 10
4.6969088952
 20
4.6084102843
 30
0.0
 10
4.7132115487
 20
4.6114045614
 30
0.0
 10
4.7290660524
 20
4.6154298336
 30
0.0
 10
4.7443418489
 20
4.6204533755
 30
0.0
 10
4.7589142676
 20
4.626434566
 30
0.0
 10
4.7726640708
 20
4.6333251155
 30
0.0
 10
4.7854787465
 20
4.6410695506
 30
0.0
 10
4.7972532206
 20
4.6496056813
 30
0.0
 10
4.8078906011
 20
4.6588651563
 30
0.0
 10
4.8173027243
 20
4.6687737869
 30
0.0
 10
4.825410843
 20
4.6792525471
 30
0.0
 10
4.8321454838
 20
4.6902157894
 30
0.0
 10
4.8365905111
 20
4.699738998
 30
0.0
 10
4.8393873441
 20
4.7074899389
 30
0.0
 10
4.8411007485
 20
4.7133332692
 30
0.0
 10
4.8424370345
 20
4.7192259067
 30
0.0
 10
4.8433937096
 20
4.7251560405
 30
0.0
 10
4.8439682912
 20
4.7311106274
 30
0.0
 10
4.8440962733
 20
4.7350905881
 30
0.0
 10
4.8440962733
 20
4.7370777337
 30
0.0
  0
SPLINE
  5
27A
100
AcDbEntity
  8
0
100
AcDbSpline
 62
7
  6
CONTINUOUS
 70
0
 71
3
 72
32
 73
28
 74
0
 42
0.0000001
 43
0.0000001
 44
0.0000000001
 40
0.0
 40
0.0
 40
0.0
 40
0.0
 40
0.000972225
 40
0.0021432597
 40
0.0036367719
 40
0.0055138487
 40
0.0078051944
 40
0.0105276106
 40
0.0136912337
 40
0.0173029279
 40
0.0258881123
 40
0.0363104763
 40
0.0485868815
 40
0.0627298116
 40
0.0787513
 40
0.0966640733
 40
0.1164800889
 40
0.1382107295
 40
0.1874645765
 40
0.2445384016
 40
0.3095508096
 40
0.3826399993
 40
0.4639542672
 40
0.5536555439
 40
0.651916089
 40
0.7589311329
 40
1.0
 40
1.0
 40
1.0
 40
1.0
 10
4.432096218
 20
4.9719207122
 30
0.0
 10
4.4320962203
 20
4.9719021015
 30
0.0
 10
4.4321075775
 20
4.971860856
 30
0.0
 10
4.4321520424
 20
4.9718058812
 30
0.0
 10
4.4322212933
 20
4.9717526091
 30
0.0
 10
4.4323162569
 20
4.9716998326
 30
0.0
 10
4.4324373373
 20
4.9716471676
 30
0.0
 10
4.4325848689
 20
4.9715945869
 30
0.0
 10
4.4327589906
 20
4.9715420893
 30
0.0
 10
4.4330435748
 20
4.9714679245
 30
0.0
 10
4.4334673083
 20
4.971377954
 30
0.0
 10
4.4340573959
 20
4.9712754617
 30
0.0
 10
4.4347552918
 20
4.9711734905
 30
0.0
 10
4.4355613949
 20
4.9710720908
 30
0.0
 10
4.436476209
 20
4.9709713826
 30
0.0
 10
4.4375002704
 20
4.9708714281
 30
0.0
 10
4.4386341523
 20
4.9707722634
 30
0.0
 10
4.4403669053
 20
4.970635366
 30
0.0
 10
4.4428126559
 20
4.9704689153
 30
0.0
 10
4.4460870889
 20
4.9702797589
 30
0.0
 10
4.4498186223
 20
4.9700940541
 30
0.0
 10
4.4540148374
 20
4.9699120481
 30
0.0
 10
4.4586842031
 20
4.9697340013
 30
0.0
 10
4.4638358616
 20
4.9695600669
 30
0.0
 10
4.4694798726
 20
4.9693902519
 30
0.0
 10
4.4780208934
 20
4.9691609011
 30
0.0
 10
4.484682416
 20
4.9690120985
 30
0.0
 10
4.4892960577
 20
4.968916717
 30
0.0
  0
SPLINE
  5
27B
100
AcDbEntity
  8
0
100
AcDbSpline
 62
7
  6
CONTINUOUS
 70
0
 71
3
 72
14
 73
10
 74
0
 42
0.0000001
 43
0.0000001
 44
0.0000000001
 40
0.0
 40
0.0
 40
0.0
 40
0.0
 40
0.1248993085
 40
0.2507584367
 40
0.3770958809
 40
0.5034375959
 40
0.6293269838
 40
0.7543318454
 40
1.0
 40
1.0
 40
1.0
 40
1.0
 10
4.6803036154
 20
4.6066502128
 30
0.0
 10
4.6749486219
 20
4.6061991453
 30
0.0
 10
4.6641661944
 20
4.6056310949
 30
0.0
 10
4.6479322699
 20
4.6057713903
 30
0.0
 10
4.6316740658
 20
4.6068987332
 30
0.0
 10
4.6155127428
 20
4.6090050732
 30
0.0
 10
4.5995634933
 20
4.6120759369
 30
0.0
 10
4.5788620537
 20
4.6173936535
 30
0.0
 10
4.5637950604
 20
4.6227950709
 30
0.0
 10
4.5541037829
 20
4.6270150456
 30
0.0
  0
SPLINE
  5
27C
100
AcDbEntity
  8
0
100
AcDbSpline
 62
7
  6
CONTINUOUS
 70
0
 71
3
 72
15
 73
11
 74
0
 42
0.0000001
 43
0.0000001
 44
0.0000000001
 40
0.0
 40
0.0
 40
0.0
 40
0.0
 40
0.136518013
 40
0.270023594
 40
0.4002212915
 40
0.526933959
 40
0.6501124329
 40
0.769843818
 40
0.8863514154
 40
1.0
 40
1.0
 40
1.0
 40
1.0
 10
4.5540251318
 20
4.6270493103
 30
0.0
 10
4.5485008349
 20
4.629457186
 30
0.0
 10
4.5377499511
 20
4.6346374683
 30
0.0
 10
4.5224808875
 20
4.6435613685
 30
0.0
 10
4.5083629187
 20
4.6534824723
 30
0.0
 10
4.4955192916
 20
4.6643135545
 30
0.0
 10
4.4840585229
 20
4.6759613701
 30
0.0
 10
4.474075716
 20
4.6883277977
 30
0.0
 10
4.4656530243
 20
4.7013067237
 30
0.0
 10
4.4610698813
 20
4.710401821
 30
0.0
 10
4.4590728964
 20
4.7150039629
 30
0.0
  0
SPLINE
  5
27D
100
AcDbEntity
  8
0
100
AcDbSpline
 62
7
  6
CONTINUOUS
 70
0
 71
3
 72
38
 73
34
 74
0
 42
0.0000001
 43
0.0000001
 44
0.0000000001
 40
0.0
 40
0.0
 40
0.0
 40
0.0
 40
0.0254828885
 40
0.0512127678
 40
0.0773074119
 40
0.1038714116
 40
0.1309932804
 40
0.1587435272
 40
0.1871737526
 40
0.2163165817
 40
0.2461861562
 40
0.2767790946
 40
0.3080757774
 40
0.3400417532
 40
0.3726292334
 40
0.4057787157
 40
0.4394205196
 40
0.4734763024
 40
0.5078605889
 40
0.5424822663
 40
0.5772459937
 40
0.6120536981
 40
0.6468060056
 40
0.6814036294
 40
0.7157488079
 40
0.749746777
 40
0.7833072029
 40
0.8163457015
 40
0.8487854107
 40
0.8805585432
 40
0.9116080271
 40
0.9418892287
 40
1.0
 40
1.0
 40
1.0
 40
1.0
 10
4.4723693896
 20
4.7536998689
 30
0.0
 10
4.4726942798
 20
4.7571277969
 30
0.0
 10
4.4737059741
 20
4.7639880179
 30
0.0
 10
4.4762795093
 20
4.7741293256
 30
0.0
 10
4.4798984368
 20
4.7841022177
 30
0.0
 10
4.4845404564
 20
4.793849352
 30
0.0
 10
4.490177638
 20
4.8033170333
 30
0.0
 10
4.4967764562
 20
4.8124530711
 30
0.0
 10
4.5042981674
 20
4.8212075915
 30
0.0
 10
4.5126990478
 20
4.8295330056
 30
0.0
 10
4.52193062
 20
4.8373842323
 30
0.0
 10
4.5319398878
 20
4.844718864
 30
0.0
 10
4.542669584
 20
4.8514973701
 30
0.0
 10
4.5540584377
 20
4.8576833115
 30
0.0
 10
4.5660414816
 20
4.8632435618
 30
0.0
 10
4.5785504114
 20
4.8681484718
 30
0.0
 10
4.5915139508
 20
4.8723720574
 30
0.0
 10
4.6048582411
 20
4.875892154
 30
0.0
 10
4.6185072528
 20
4.8786905555
 30
0.0
 10
4.6323832116
 20
4.8807531252
 30
0.0
 10
4.6464070389
 20
4.8820699154
 30
0.0
 10
4.6604988122
 20
4.8826352064
 30
0.0
 10
4.6745782252
 20
4.8824475347
 30
0.0
 10
4.6885650447
 20
4.8815097064
 30
0.0
 10
4.7023795709
 20
4.8798287754
 30
0.0
 10
4.7159430899
 20
4.8774160036
 30
0.0
 10
4.7291783422
 20
4.87428679
 30
0.0
 10
4.7420099142
 20
4.8704606297
 30
0.0
 10
4.7543648658
 20
4.8659608052
 30
0.0
 10
4.7661723873
 20
4.860814803
 30
0.0
 10
4.7773668943
 20
4.855052138
 30
0.0
 10
4.7911923642
 20
4.8467124786
 30
0.0
 10
4.80076484
 20
4.8394722235
 30
0.0
 10
4.8066233743
 20
4.8342442374
 30
0.0
  0
SPLINE
  5
27E
100
AcDbEntity
  8
0
100
AcDbSpline
 62
7
  6
CONTINUOUS
 70
0
 71
3
 72
20
 73
16
 74
0
 42
0.0000001
 43
0.0000001
 44
0.0000000001
 40
0.0
 40
0.0
 40
0.0
 40
0.0
 40
0.1374794686
 40
0.2706210308
 40
0.3996097065
 40
0.4626707105
 40
0.5248359419
 40
0.5861740701
 40
0.6467631529
 40
0.706690774
 40
0.7660528164
 40
0.8249527973
 40
0.8835002664
 40
0.9418099908
 40
1.0
 40
1.0
 40
1.0
 40
1.0
 10
4.4892960577
 20
4.968916717
 30
0.0
 10
4.4848141027
 20
4.9653537853
 30
0.0
 10
4.4762930027
 20
4.9579483668
 30
0.0
 10
4.4648053649
 20
4.9458723907
 30
0.0
 10
4.4564936357
 20
4.935144876
 30
0.0
 10
4.4507089999
 20
4.9262722504
 30
0.0
 10
4.4468308764
 20
4.9195345641
 30
0.0
 10
4.4433895126
 20
4.9126786937
 30
0.0
 10
4.4403920799
 20
4.90571856
 30
0.0
 10
4.4378448274
 20
4.8986686609
 30
0.0
 10
4.4357533482
 20
4.8915435149
 30
0.0
 10
4.4341218482
 20
4.8843580295
 30
0.0
 10
4.4329541218
 20
4.8771269868
 30
0.0
 10
4.4322523389
 20
4.869865915
 30
0.0
 10
4.4320963078
 20
4.8650126201
 30
0.0
 10
4.432096304
 20
4.8625891874
 30
0.0
  0
SPLINE
  5
27F
100
AcDbEntity
  8
0
100
AcDbSpline
 62
7
  6
CONTINUOUS
 70
0
 71
3
 72
22
 73
18
 74
0
 42
0.0000001
 43
0.0000001
 44
0.0000000001
 40
0.0
 40
0.0
 40
0.0
 40
0.0
 40
0.1442578234
 40
0.2143985691
 40
0.2830742594
 40
0.3502232089
 40
0.415809581
 40
0.4798259818
 40
0.5422957424
 40
0.6032745408
 40
0.6628519496
 40
0.7211517667
 40
0.7783311722
 40
0.8345787551
 40
0.8901110418
 40
0.9451667552
 40
1.0
 40
1.0
 40
1.0
 40
1.0
 10
4.7477769971
 20
4.9860731436
 30
0.0
 10
4.7556982644
 20
4.9832047214
 30
0.0
 10
4.7672587924
 20
4.9783039918
 30
0.0
 10
4.7818552958
 20
4.9705276952
 30
0.0
 10
4.7921137095
 20
4.9642312506
 30
0.0
 10
4.8017328656
 20
4.9574475952
 30
0.0
 10
4.8106674183
 20
4.9502083831
 30
0.0
 10
4.8188742747
 20
4.9425478154
 30
0.0
 10
4.8263139039
 20
4.9345019597
 30
0.0
 10
4.8329502664
 20
4.9261088091
 30
0.0
 10
4.8387509674
 20
4.9174080481
 30
0.0
 10
4.8436874033
 20
4.9084409799
 30
0.0
 10
4.8477349056
 20
4.8992503714
 30
0.0
 10
4.8508729759
 20
4.8898804977
 30
0.0
 10
4.8530855538
 20
4.8803764516
 30
0.0
 10
4.8543611595
 20
4.8707858576
 30
0.0
 10
4.8545825611
 20
4.8643600322
 30
0.0
 10
4.8545358298
 20
4.8611581235
 30
0.0
  0
SPLINE
  5
280
100
AcDbEntity
  8
0
100
AcDbSpline
 62
7
  6
CONTINUOUS
 70
0
 71
3
 72
22
 73
18
 74
0
 42
0.0000001
 43
0.0000001
 44
0.0000000001
 40
0.0
 40
0.0
 40
0.0
 40
0.0
 40
0.0549367659
 40
0.1100292098
 40
0.1655440313
 40
0.2217336273
 40
0.2788285257
 40
0.3370308589
 40
0.3965101863
 40
0.4574010527
 40
0.5198019015
 40
0.5837751495
 40
0.6493488471
 40
0.7165183978
 40
0.7852488896
 40
0.8554778717
 40
1.0
 40
1.0
 40
1.0
 40
1.0
 10
4.4622354301
 20
4.8584078175
 30
0.0
 10
4.4620965814
 20
4.8616634798
 30
0.0
 10
4.4621437595
 20
4.8682025971
 30
0.0
 10
4.4631935563
 20
4.8779811565
 30
0.0
 10
4.465216524
 20
4.8876821528
 30
0.0
 10
4.4682017838
 20
4.8972551019
 30
0.0
 10
4.4721333633
 20
4.906652169
 30
0.0
 10
4.4769905263
 20
4.9158263773
 30
0.0
 10
4.4827480498
 20
4.9247323285
 30
0.0
 10
4.4893764346
 20
4.9333261952
 30
0.0
 10
4.4968420971
 20
4.941565864
 30
0.0
 10
4.5051074873
 20
4.949411059
 30
0.0
 10
4.5141313267
 20
4.9568235283
 30
0.0
 10
4.5238685113
 20
4.9637670039
 30
0.0
 10
4.534271479
 20
4.9702079339
 30
0.0
 10
4.5490975146
 20
4.9781570853
 30
0.0
 10
4.5608552852
 20
4.9831543883
 30
0.0
 10
4.5689155492
 20
4.9860731435
 30
0.0
  0
SPLINE
  5
281
100
AcDbEntity
  8
0
100
AcDbSpline
 62
7
  6
CONTINUOUS
 70
0
 71
3
 72
32
 73
28
 74
0
 42
0.0000001
 43
0.0000001
 44
0.0000000001
 40
0.0
 40
0.0
 40
0.0
 40
0.0
 40
0.2410685306
 40
0.3480836467
 40
0.4463441473
 40
0.5360453859
 40
0.6173596439
 40
0.6904488441
 40
0.7554612697
 40
0.8125351
 40
0.8617889623
 40
0.8835196192
 40
0.9033356529
 40
0.9212484477
 40
0.937269962
 40
0.9514129224
 40
0.9636893556
 40
0.9741117465
 40
0.9826969596
 40
0.9863086696
 40
0.98947231
 40
0.9921947441
 40
0.9944861068
 40
0.9963631994
 40
0.9978567258
 40
0.9990277712
 40
1.0
 40
1.0
 40
1.0
 40
1.0
 10
4.8273964889
 20
4.968916717
 30
0.0
 10
4.8320101214
 20
4.9690122157
 30
0.0
 10
4.8386716401
 20
4.9691609309
 30
0.0
 10
4.8472126551
 20
4.9693902598
 30
0.0
 10
4.8528566656
 20
4.9695600747
 30
0.0
 10
4.8580083219
 20
4.9697340106
 30
0.0
 10
4.8626776866
 20
4.9699120561
 30
0.0
 10
4.866873902
 20
4.9700940553
 30
0.0
 10
4.870605436
 20
4.9702797556
 30
0.0
 10
4.8738798694
 20
4.9704689151
 30
0.0
 10
4.8763256202
 20
4.9706353699
 30
0.0
 10
4.8780583739
 20
4.9707722686
 30
0.0
 10
4.8791922568
 20
4.9708714335
 30
0.0
 10
4.8802163195
 20
4.9709713877
 30
0.0
 10
4.8811311351
 20
4.971072095
 30
0.0
 10
4.8819372399
 20
4.9711734934
 30
0.0
 10
4.8826351376
 20
4.9712754634
 30
0.0
 10
4.883225227
 20
4.9713779543
 30
0.0
 10
4.8836489621
 20
4.9714679236
 30
0.0
 10
4.8839335477
 20
4.9715420876
 30
0.0
 10
4.8841076705
 20
4.9715945848
 30
0.0
 10
4.8842552033
 20
4.9716471651
 30
0.0
 10
4.8843762849
 20
4.9716998298
 30
0.0
 10
4.8844712496
 20
4.9717526061
 30
0.0
 10
4.8845405016
 20
4.9718058781
 30
0.0
 10
4.8845849676
 20
4.9718608527
 30
0.0
 10
4.8845963258
 20
4.9719020981
 30
0.0
 10
4.8845963286
 20
4.9719207089
 30
0.0
  0
SPLINE
  5
282
100
AcDbEntity
  8
0
100
AcDbSpline
 62
7
  6
CONTINUOUS
 70
0
 71
3
 72
21
 73
17
 74
0
 42
0.0000001
 43
0.0000001
 44
0.0000000001
 40
0.0
 40
0.0
 40
0.0
 40
0.0
 40
0.1419406652
 40
0.2112192635
 40
0.279267406
 40
0.4114404144
 40
0.4755681819
 40
0.5383697275
 40
0.5998666375
 40
0.6601010789
 40
0.7191363662
 40
0.7770569479
 40
0.8339684325
 40
0.8899972521
 40
0.9452878022
 40
1.0
 40
1.0
 40
1.0
 40
1.0
 10
4.5724284637
 20
4.9860665366
 30
0.0
 10
4.5661740543
 20
4.9836957658
 30
0.0
 10
4.5570219058
 20
4.9797309001
 30
0.0
 10
4.5453739503
 20
4.973596421
 30
0.0
 10
4.5344566149
 20
4.9671001856
 30
0.0
 10
4.5242702442
 20
4.9598756004
 30
0.0
 10
4.5149697444
 20
4.9519558891
 30
0.0
 10
4.5085682454
 20
4.9457941344
 30
0.0
 10
4.5026949466
 20
4.9393734432
 30
0.0
 10
4.4973704219
 20
4.9327160261
 30
0.0
 10
4.4926137589
 20
4.9258452575
 30
0.0
 10
4.4884421523
 20
4.9187851255
 30
0.0
 10
4.4848707134
 20
4.9115605251
 30
0.0
 10
4.4819124293
 20
4.904196785
 30
0.0
 10
4.4795784272
 20
4.8967207541
 30
0.0
 10
4.4784392785
 20
4.8916567442
 30
0.0
 10
4.4779784306
 20
4.8891200667
 30
0.0
  0
SPLINE
  5
283
100
AcDbEntity
  8
0
100
AcDbSpline
 62
7
  6
CONTINUOUS
 70
0
 71
3
 72
21
 73
17
 74
0
 42
0.0000001
 43
0.0000001
 44
0.0000000001
 40
0.0
 40
0.0
 40
0.0
 40
0.0
 40
0.0547096323
 40
0.1099422283
 40
0.1658751909
 40
0.2226673049
 40
0.280459361
 40
0.3393699547
 40
0.3994949637
 40
0.4609072351
 40
0.5236563666
 40
0.5877696204
 40
0.7200367431
 40
0.7881990295
 40
0.8576340967
 40
1.0
 40
1.0
 40
1.0
 40
1.0
 10
4.8392510068
 20
4.8858301163
 30
0.0
 10
4.8388729513
 20
4.888441703
 30
0.0
 10
4.8378874418
 20
4.8936598507
 30
0.0
 10
4.8357440206
 20
4.901377168
 30
0.0
 10
4.8329383978
 20
4.9089865598
 30
0.0
 10
4.8294814933
 20
4.9164586792
 30
0.0
 10
4.8253866984
 20
4.9237658147
 30
0.0
 10
4.8206698274
 20
4.9308808334
 30
0.0
 10
4.8153488234
 20
4.9377774616
 30
0.0
 10
4.8094438425
 20
4.9444301344
 30
0.0
 10
4.8029768192
 20
4.950814664
 30
0.0
 10
4.7935416466
 20
4.959021709
 30
0.0
 10
4.783161597
 20
4.9665009893
 30
0.0
 10
4.7720052147
 20
4.9732152953
 30
0.0
 10
4.7600746295
 20
4.9795511553
 30
0.0
 10
4.7506850018
 20
4.9836326494
 30
0.0
 10
4.744264083
 20
4.9860665366
 30
0.0
  0
ENDSEC
  0
SECTION
  2
OBJECTS
  0
DICTIONARY
  5
C
100
AcDbDictionary
280
0
281
1
  3
ACAD_GROUP
350
D
  3
ACAD_MLINESTYLE
350
17
  3
ACAD_LAYOUT
350
1A
  3
ACAD_PLOTSETTINGS
350
19
  3
ACAD_PLOTSTYLENAME
350
E
  0
DICTIONARY
  5
D
102
{ACAD_REACTORS
330
C
102
}
100
AcDbDictionary
280
0
281
1
  0
ACDBDICTIONARYWDFLT
  5
E
102
{ACAD_REACTORS
330
C
102
}
100
AcDbDictionary
281
1
  3
Normal
350
F
100
AcDbDictionaryWithDefault
340
F
  0
DICTIONARY
  5
17
102
{ACAD_REACTORS
330
C
102
}
100
AcDbDictionary
280
0
281
1
  3
Standard
350
18
  0
DICTIONARY
  5
19
102
{ACAD_REACTORS
330
C
102
}
100
AcDbDictionary
281
1
  0
DICTIONARY
  5
1A
102
{ACAD_REACTORS
330
C
102
}
100
AcDbDictionary
281
1
  3
Model
350
284
  3
Layout1
350
285
  0
ACDBPLACEHOLDER
  5
F
102
{ACAD_REACTORS
330
E
102
}
  0
MLINESTYLE
  5
18
102
{ACAD_REACTORS
330
17
102
}
100
AcDbMlineStyle
  2
STANDARD
 70
0
  3

 62
256
 51
90.0
 52
90.0
 71
2
 49
0.5
 62
256
  6
BYLAYER
 49
-0.5
 62
256
  6
BYLAYER
  0
LAYOUT
  5
284
102
{ACAD_REACTORS
330
1A
102
}
100
AcDbPlotSettings
  1

  2
none_device
  4
ANSI_A_(11.00_x_8.50_Inches)
  6

 40
0.0
 41
0.0
 42
0.0
 43
0.0
 44
279.4
 45
215.9
 46
0.0
 47
0.0
 48
0.0
 49
0.0
140
0.0
141
0.0
142
1.0
143
1.0
 70
1024
 72
0
 73
0
 74
0
  7

 75
0
147
1.0
148
0.0
149
0.0
100
AcDbLayout
  1
Model
 70
0
 71
0
 10
0.0
 20
0.0
 11
11.0
 21
8.5
 12
0.0
 22
0.0
 32
0.0
 14
0.0
 24
0.0
 34
0.0
 15
0.0
 25
0.0
 35
0.0
146
0.0
 13
0.0
 23
0.0
 33
0.0
 16
1.0
 26
0.0
 36
0.0
 17
0.0
 27
1.0
 37
0.0
 76
0
330
202
345
0
346
0
  0
LAYOUT
  5
285
102
{ACAD_REACTORS
330
1A
102
}
100
AcDbPlotSettings
  1

  2
none_device
  4
ANSI_A_(11.00_x_8.50_Inches)
  6

 40
0.0
 41
0.0
 42
0.0
 43
0.0
 44
279.4
 45
215.9
 46
0.0
 47
0.0
 48
0.0
 49
0.0
140
0.0
141
0.0
142
1.0
143
1.0
 70
0
 72
0
 73
0
 74
0
  7

 75
0
147
1.0
148
0.0
149
0.0
100
AcDbLayout
  1
Layout1
 70
0
 71
1
 10
0.0
 20
0.0
 11
11.0
 21
8.5
 12
0.0
 22
0.0
 32
0.0
 14
0.0
 24
0.0
 34
0.0
 15
0.0
 25
0.0
 35
0.0
146
0.0
 13
0.0
 23
0.0
 33
0.0
 16
1.0
 26
0.0
 36
0.0
 17
0.0
 27
1.0
 37
0.0
 76
0
330
203
345
0
346
0
  0
ENDSEC
  0
EOF
