ISO-10303-21;
HEADER;
FILE_DESCRIPTION((''),'2;1');
FILE_NAME('206-302','2024-08-02T11:01:50',('rsmith'),(''),
'CREO PARAMETRIC BY PTC INC, 2023134','CREO PARAMETRIC BY PTC INC, 2023134','');
FILE_SCHEMA(('CONFIG_CONTROL_DESIGN'));
ENDSEC;
DATA;
#2=CARTESIAN_POINT('',(0.E0,0.E0,-6.E-2));
#3=DIRECTION('',(0.E0,0.E0,1.E0));
#4=DIRECTION('',(1.E0,0.E0,0.E0));
#5=AXIS2_PLACEMENT_3D('',#2,#3,#4);
#7=DIRECTION('',(0.E0,0.E0,-1.E0));
#8=VECTOR('',#7,6.E-2);
#9=CARTESIAN_POINT('',(-5.475E-1,0.E0,0.E0));
#10=LINE('',#9,#8);
#11=DIRECTION('',(0.E0,0.E0,1.E0));
#12=VECTOR('',#11,1.2E-1);
#13=CARTESIAN_POINT('',(0.E0,-6.3E-1,-1.8E-1));
#14=LINE('',#13,#12);
#15=DIRECTION('',(0.E0,0.E0,1.E0));
#16=VECTOR('',#15,1.2E-1);
#17=CARTESIAN_POINT('',(0.E0,6.3E-1,-1.8E-1));
#18=LINE('',#17,#16);
#19=CARTESIAN_POINT('',(0.E0,0.E0,-6.E-2));
#20=DIRECTION('',(0.E0,0.E0,-1.E0));
#21=DIRECTION('',(0.E0,1.E0,0.E0));
#22=AXIS2_PLACEMENT_3D('',#19,#20,#21);
#24=CARTESIAN_POINT('',(0.E0,0.E0,-6.E-2));
#25=DIRECTION('',(0.E0,0.E0,1.E0));
#26=DIRECTION('',(0.E0,1.E0,0.E0));
#27=AXIS2_PLACEMENT_3D('',#24,#25,#26);
#29=CARTESIAN_POINT('',(0.E0,0.E0,-1.8E-1));
#30=DIRECTION('',(0.E0,0.E0,1.E0));
#31=DIRECTION('',(0.E0,1.E0,0.E0));
#32=AXIS2_PLACEMENT_3D('',#29,#30,#31);
#34=CARTESIAN_POINT('',(0.E0,0.E0,-1.8E-1));
#35=DIRECTION('',(0.E0,0.E0,-1.E0));
#36=DIRECTION('',(0.E0,1.E0,0.E0));
#37=AXIS2_PLACEMENT_3D('',#34,#35,#36);
#39=CARTESIAN_POINT('',(0.E0,0.E0,-1.8E-1));
#40=DIRECTION('',(0.E0,0.E0,-1.E0));
#41=DIRECTION('',(1.E0,0.E0,0.E0));
#42=AXIS2_PLACEMENT_3D('',#39,#40,#41);
#44=CARTESIAN_POINT('',(0.E0,0.E0,-2.4E-1));
#45=DIRECTION('',(0.E0,0.E0,1.E0));
#46=DIRECTION('',(-1.E0,0.E0,0.E0));
#47=AXIS2_PLACEMENT_3D('',#44,#45,#46);
#49=DIRECTION('',(0.E0,0.E0,-1.E0));
#50=VECTOR('',#49,6.E-2);
#51=CARTESIAN_POINT('',(5.475E-1,0.E0,-1.8E-1));
#52=LINE('',#51,#50);
#53=CARTESIAN_POINT('',(0.E0,0.E0,-1.8E-1));
#54=DIRECTION('',(0.E0,0.E0,-1.E0));
#55=DIRECTION('',(-1.E0,0.E0,0.E0));
#56=AXIS2_PLACEMENT_3D('',#53,#54,#55);
#58=CARTESIAN_POINT('',(0.E0,0.E0,-2.4E-1));
#59=DIRECTION('',(0.E0,0.E0,1.E0));
#60=DIRECTION('',(1.E0,0.E0,0.E0));
#61=AXIS2_PLACEMENT_3D('',#58,#59,#60);
#63=DIRECTION('',(0.E0,0.E0,-1.E0));
#64=VECTOR('',#63,6.E-2);
#65=CARTESIAN_POINT('',(-5.475E-1,0.E0,-1.8E-1));
#66=LINE('',#65,#64);
#67=DIRECTION('',(0.E0,0.E0,-1.E0));
#68=VECTOR('',#67,7.E-2);
#69=CARTESIAN_POINT('',(1.E0,0.E0,-2.4E-1));
#70=LINE('',#69,#68);
#71=CARTESIAN_POINT('',(0.E0,0.E0,-2.4E-1));
#72=DIRECTION('',(0.E0,0.E0,-1.E0));
#73=DIRECTION('',(1.E0,0.E0,0.E0));
#74=AXIS2_PLACEMENT_3D('',#71,#72,#73);
#76=DIRECTION('',(0.E0,0.E0,-1.E0));
#77=VECTOR('',#76,7.E-2);
#78=CARTESIAN_POINT('',(-1.E0,0.E0,-2.4E-1));
#79=LINE('',#78,#77);
#80=CARTESIAN_POINT('',(0.E0,0.E0,-3.1E-1));
#81=DIRECTION('',(0.E0,0.E0,1.E0));
#82=DIRECTION('',(1.E0,0.E0,0.E0));
#83=AXIS2_PLACEMENT_3D('',#80,#81,#82);
#85=CARTESIAN_POINT('',(0.E0,0.E0,-3.1E-1));
#86=DIRECTION('',(0.E0,0.E0,1.E0));
#87=DIRECTION('',(-1.E0,0.E0,0.E0));
#88=AXIS2_PLACEMENT_3D('',#85,#86,#87);
#90=CARTESIAN_POINT('',(0.E0,0.E0,-3.1E-1));
#91=DIRECTION('',(0.E0,0.E0,1.E0));
#92=DIRECTION('',(1.E0,0.E0,0.E0));
#93=AXIS2_PLACEMENT_3D('',#90,#91,#92);
#95=CARTESIAN_POINT('',(0.E0,0.E0,-3.1E-1));
#96=DIRECTION('',(0.E0,0.E0,1.E0));
#97=DIRECTION('',(-1.E0,0.E0,0.E0));
#98=AXIS2_PLACEMENT_3D('',#95,#96,#97);
#100=CARTESIAN_POINT('',(0.E0,0.E0,-3.E-2));
#101=DIRECTION('',(0.E0,0.E0,1.E0));
#102=DIRECTION('',(1.E0,0.E0,0.E0));
#103=AXIS2_PLACEMENT_3D('',#100,#101,#102);
#105=DIRECTION('',(0.E0,8.325755667776E-14,-1.E0));
#106=VECTOR('',#105,2.8E-1);
#107=CARTESIAN_POINT('',(1.125E0,-2.344988863468E-14,-3.E-2));
#108=LINE('',#107,#106);
#109=CARTESIAN_POINT('',(1.095E0,0.E0,-3.E-2));
#110=DIRECTION('',(0.E0,1.E0,0.E0));
#111=DIRECTION('',(0.E0,0.E0,1.E0));
#112=AXIS2_PLACEMENT_3D('',#109,#110,#111);
#114=CARTESIAN_POINT('',(0.E0,0.E0,0.E0));
#115=DIRECTION('',(0.E0,0.E0,1.E0));
#116=DIRECTION('',(-1.E0,0.E0,0.E0));
#117=AXIS2_PLACEMENT_3D('',#114,#115,#116);
#119=CARTESIAN_POINT('',(0.E0,0.E0,0.E0));
#120=DIRECTION('',(0.E0,0.E0,1.E0));
#121=DIRECTION('',(1.E0,0.E0,0.E0));
#122=AXIS2_PLACEMENT_3D('',#119,#120,#121);
#124=CARTESIAN_POINT('',(0.E0,0.E0,0.E0));
#125=DIRECTION('',(0.E0,0.E0,-1.E0));
#126=DIRECTION('',(1.E0,0.E0,0.E0));
#127=AXIS2_PLACEMENT_3D('',#124,#125,#126);
#129=CARTESIAN_POINT('',(0.E0,0.E0,0.E0));
#130=DIRECTION('',(0.E0,0.E0,-1.E0));
#131=DIRECTION('',(-1.E0,0.E0,0.E0));
#132=AXIS2_PLACEMENT_3D('',#129,#130,#131);
#134=CARTESIAN_POINT('',(-1.095E0,0.E0,-3.E-2));
#135=DIRECTION('',(0.E0,-1.E0,0.E0));
#136=DIRECTION('',(0.E0,0.E0,1.E0));
#137=AXIS2_PLACEMENT_3D('',#134,#135,#136);
#139=CARTESIAN_POINT('',(0.E0,0.E0,-3.E-2));
#140=DIRECTION('',(0.E0,0.E0,1.E0));
#141=DIRECTION('',(-1.E0,0.E0,0.E0));
#142=AXIS2_PLACEMENT_3D('',#139,#140,#141);
#144=DIRECTION('',(0.E0,-8.315700375410E-14,-1.E0));
#145=VECTOR('',#144,2.8E-1);
#146=CARTESIAN_POINT('',(-1.125E0,2.342173381605E-14,-3.E-2));
#147=LINE('',#146,#145);
#148=CARTESIAN_POINT('',(0.E0,0.E0,-6.E-2));
#149=DIRECTION('',(0.E0,0.E0,1.E0));
#150=DIRECTION('',(-1.E0,0.E0,0.E0));
#151=AXIS2_PLACEMENT_3D('',#148,#149,#150);
#153=DIRECTION('',(0.E0,0.E0,-1.E0));
#154=VECTOR('',#153,6.E-2);
#155=CARTESIAN_POINT('',(5.475E-1,0.E0,0.E0));
#156=LINE('',#155,#154);
#157=CARTESIAN_POINT('',(0.E0,0.E0,-2.4E-1));
#158=DIRECTION('',(0.E0,0.E0,1.E0));
#159=DIRECTION('',(1.E0,0.E0,0.E0));
#160=AXIS2_PLACEMENT_3D('',#157,#158,#159);
#162=CARTESIAN_POINT('',(5.475E-1,0.E0,0.E0));
#163=CARTESIAN_POINT('',(-5.475E-1,0.E0,0.E0));
#164=VERTEX_POINT('',#162);
#165=VERTEX_POINT('',#163);
#166=CARTESIAN_POINT('',(1.125E0,0.E0,-3.1E-1));
#167=CARTESIAN_POINT('',(-1.125E0,0.E0,-3.1E-1));
#168=VERTEX_POINT('',#166);
#169=VERTEX_POINT('',#167);
#170=CARTESIAN_POINT('',(-1.095E0,0.E0,0.E0));
#171=CARTESIAN_POINT('',(1.095E0,0.E0,0.E0));
#172=VERTEX_POINT('',#170);
#173=VERTEX_POINT('',#171);
#174=CARTESIAN_POINT('',(-1.125E0,0.E0,-3.E-2));
#175=CARTESIAN_POINT('',(1.125E0,0.E0,-3.E-2));
#176=VERTEX_POINT('',#174);
#177=VERTEX_POINT('',#175);
#178=CARTESIAN_POINT('',(1.E0,0.E0,-2.4E-1));
#179=CARTESIAN_POINT('',(-1.E0,0.E0,-2.4E-1));
#180=VERTEX_POINT('',#178);
#181=VERTEX_POINT('',#179);
#182=CARTESIAN_POINT('',(1.E0,0.E0,-3.1E-1));
#183=CARTESIAN_POINT('',(-1.E0,0.E0,-3.1E-1));
#184=VERTEX_POINT('',#182);
#185=VERTEX_POINT('',#183);
#186=CARTESIAN_POINT('',(-5.475E-1,0.E0,-2.4E-1));
#187=CARTESIAN_POINT('',(5.475E-1,0.E0,-2.4E-1));
#188=VERTEX_POINT('',#186);
#189=VERTEX_POINT('',#187);
#190=CARTESIAN_POINT('',(0.E0,-6.3E-1,-1.8E-1));
#191=CARTESIAN_POINT('',(0.E0,-6.3E-1,-6.E-2));
#192=VERTEX_POINT('',#190);
#193=VERTEX_POINT('',#191);
#194=CARTESIAN_POINT('',(0.E0,6.3E-1,-1.8E-1));
#195=CARTESIAN_POINT('',(0.E0,6.3E-1,-6.E-2));
#196=VERTEX_POINT('',#194);
#197=VERTEX_POINT('',#195);
#198=CARTESIAN_POINT('',(-5.475E-1,0.E0,-6.E-2));
#199=CARTESIAN_POINT('',(5.475E-1,0.E0,-6.E-2));
#200=VERTEX_POINT('',#198);
#201=VERTEX_POINT('',#199);
#202=CARTESIAN_POINT('',(5.475E-1,0.E0,-1.8E-1));
#203=CARTESIAN_POINT('',(-5.475E-1,0.E0,-1.8E-1));
#204=VERTEX_POINT('',#202);
#205=VERTEX_POINT('',#203);
#206=CARTESIAN_POINT('',(0.E0,0.E0,0.E0));
#207=DIRECTION('',(0.E0,0.E0,1.E0));
#208=DIRECTION('',(1.E0,0.E0,0.E0));
#209=AXIS2_PLACEMENT_3D('',#206,#207,#208);
#210=CYLINDRICAL_SURFACE('',#209,5.475E-1);
#212=ORIENTED_EDGE('',*,*,#211,.T.);
#214=ORIENTED_EDGE('',*,*,#213,.F.);
#216=ORIENTED_EDGE('',*,*,#215,.T.);
#218=ORIENTED_EDGE('',*,*,#217,.T.);
#219=EDGE_LOOP('',(#212,#214,#216,#218));
#220=FACE_OUTER_BOUND('',#219,.F.);
#221=ADVANCED_FACE('',(#220),#210,.F.);
#222=CARTESIAN_POINT('',(0.E0,0.E0,-6.E-2));
#223=DIRECTION('',(0.E0,0.E0,-1.E0));
#224=DIRECTION('',(0.E0,-1.E0,0.E0));
#225=AXIS2_PLACEMENT_3D('',#222,#223,#224);
#226=PLANE('',#225);
#228=ORIENTED_EDGE('',*,*,#227,.F.);
#230=ORIENTED_EDGE('',*,*,#229,.T.);
#231=EDGE_LOOP('',(#228,#230));
#232=FACE_OUTER_BOUND('',#231,.F.);
#234=ORIENTED_EDGE('',*,*,#233,.F.);
#235=ORIENTED_EDGE('',*,*,#211,.F.);
#236=EDGE_LOOP('',(#234,#235));
#237=FACE_BOUND('',#236,.F.);
#238=ADVANCED_FACE('',(#232,#237),#226,.T.);
#239=CARTESIAN_POINT('',(0.E0,0.E0,-5.4E-2));
#240=DIRECTION('',(0.E0,0.E0,-1.E0));
#241=DIRECTION('',(0.E0,-1.E0,0.E0));
#242=AXIS2_PLACEMENT_3D('',#239,#240,#241);
#243=CYLINDRICAL_SURFACE('',#242,6.3E-1);
#245=ORIENTED_EDGE('',*,*,#244,.F.);
#247=ORIENTED_EDGE('',*,*,#246,.F.);
#249=ORIENTED_EDGE('',*,*,#248,.T.);
#250=ORIENTED_EDGE('',*,*,#227,.T.);
#251=EDGE_LOOP('',(#245,#247,#249,#250));
#252=FACE_OUTER_BOUND('',#251,.F.);
#253=ADVANCED_FACE('',(#252),#243,.F.);
#254=CARTESIAN_POINT('',(0.E0,0.E0,-5.4E-2));
#255=DIRECTION('',(0.E0,0.E0,-1.E0));
#256=DIRECTION('',(0.E0,-1.E0,0.E0));
#257=AXIS2_PLACEMENT_3D('',#254,#255,#256);
#258=CYLINDRICAL_SURFACE('',#257,6.3E-1);
#259=ORIENTED_EDGE('',*,*,#244,.T.);
#260=ORIENTED_EDGE('',*,*,#229,.F.);
#261=ORIENTED_EDGE('',*,*,#248,.F.);
#263=ORIENTED_EDGE('',*,*,#262,.T.);
#264=EDGE_LOOP('',(#259,#260,#261,#263));
#265=FACE_OUTER_BOUND('',#264,.F.);
#266=ADVANCED_FACE('',(#265),#258,.F.);
#267=CARTESIAN_POINT('',(0.E0,0.E0,-1.8E-1));
#268=DIRECTION('',(0.E0,0.E0,-1.E0));
#269=DIRECTION('',(0.E0,-1.E0,0.E0));
#270=AXIS2_PLACEMENT_3D('',#267,#268,#269);
#271=PLANE('',#270);
#272=ORIENTED_EDGE('',*,*,#262,.F.);
#273=ORIENTED_EDGE('',*,*,#246,.T.);
#274=EDGE_LOOP('',(#272,#273));
#275=FACE_OUTER_BOUND('',#274,.F.);
#277=ORIENTED_EDGE('',*,*,#276,.F.);
#279=ORIENTED_EDGE('',*,*,#278,.F.);
#280=EDGE_LOOP('',(#277,#279));
#281=FACE_BOUND('',#280,.F.);
#282=ADVANCED_FACE('',(#275,#281),#271,.F.);
#283=CARTESIAN_POINT('',(0.E0,0.E0,0.E0));
#284=DIRECTION('',(0.E0,0.E0,1.E0));
#285=DIRECTION('',(1.E0,0.E0,0.E0));
#286=AXIS2_PLACEMENT_3D('',#283,#284,#285);
#287=CYLINDRICAL_SURFACE('',#286,5.475E-1);
#288=ORIENTED_EDGE('',*,*,#276,.T.);
#290=ORIENTED_EDGE('',*,*,#289,.T.);
#292=ORIENTED_EDGE('',*,*,#291,.T.);
#294=ORIENTED_EDGE('',*,*,#293,.F.);
#295=EDGE_LOOP('',(#288,#290,#292,#294));
#296=FACE_OUTER_BOUND('',#295,.F.);
#297=ADVANCED_FACE('',(#296),#287,.F.);
#298=CARTESIAN_POINT('',(0.E0,0.E0,0.E0));
#299=DIRECTION('',(0.E0,0.E0,1.E0));
#300=DIRECTION('',(1.E0,0.E0,0.E0));
#301=AXIS2_PLACEMENT_3D('',#298,#299,#300);
#302=CYLINDRICAL_SURFACE('',#301,5.475E-1);
#303=ORIENTED_EDGE('',*,*,#278,.T.);
#304=ORIENTED_EDGE('',*,*,#293,.T.);
#306=ORIENTED_EDGE('',*,*,#305,.T.);
#307=ORIENTED_EDGE('',*,*,#289,.F.);
#308=EDGE_LOOP('',(#303,#304,#306,#307));
#309=FACE_OUTER_BOUND('',#308,.F.);
#310=ADVANCED_FACE('',(#309),#302,.F.);
#311=CARTESIAN_POINT('',(0.E0,0.E0,-2.4E-1));
#312=DIRECTION('',(0.E0,0.E0,1.E0));
#313=DIRECTION('',(-1.E0,0.E0,0.E0));
#314=AXIS2_PLACEMENT_3D('',#311,#312,#313);
#315=PLANE('',#314);
#317=ORIENTED_EDGE('',*,*,#316,.F.);
#319=ORIENTED_EDGE('',*,*,#318,.T.);
#320=EDGE_LOOP('',(#317,#319));
#321=FACE_OUTER_BOUND('',#320,.F.);
#322=ORIENTED_EDGE('',*,*,#291,.F.);
#323=ORIENTED_EDGE('',*,*,#305,.F.);
#324=EDGE_LOOP('',(#322,#323));
#325=FACE_BOUND('',#324,.F.);
#326=ADVANCED_FACE('',(#321,#325),#315,.F.);
#327=CARTESIAN_POINT('',(0.E0,0.E0,-3.135E-1));
#328=DIRECTION('',(0.E0,0.E0,1.E0));
#329=DIRECTION('',(-1.E0,0.E0,0.E0));
#330=AXIS2_PLACEMENT_3D('',#327,#328,#329);
#331=CYLINDRICAL_SURFACE('',#330,1.E0);
#333=ORIENTED_EDGE('',*,*,#332,.T.);
#335=ORIENTED_EDGE('',*,*,#334,.F.);
#336=ORIENTED_EDGE('',*,*,#316,.T.);
#338=ORIENTED_EDGE('',*,*,#337,.T.);
#339=EDGE_LOOP('',(#333,#335,#336,#338));
#340=FACE_OUTER_BOUND('',#339,.F.);
#341=ADVANCED_FACE('',(#340),#331,.F.);
#342=CARTESIAN_POINT('',(0.E0,0.E0,-3.1E-1));
#343=DIRECTION('',(0.E0,0.E0,1.E0));
#344=DIRECTION('',(1.E0,0.E0,0.E0));
#345=AXIS2_PLACEMENT_3D('',#342,#343,#344);
#346=PLANE('',#345);
#348=ORIENTED_EDGE('',*,*,#347,.T.);
#350=ORIENTED_EDGE('',*,*,#349,.T.);
#351=EDGE_LOOP('',(#348,#350));
#352=FACE_OUTER_BOUND('',#351,.F.);
#354=ORIENTED_EDGE('',*,*,#353,.F.);
#355=ORIENTED_EDGE('',*,*,#332,.F.);
#356=EDGE_LOOP('',(#354,#355));
#357=FACE_BOUND('',#356,.F.);
#358=ADVANCED_FACE('',(#352,#357),#346,.F.);
#359=CARTESIAN_POINT('',(0.E0,0.E0,0.E0));
#360=DIRECTION('',(0.E0,0.E0,1.E0));
#361=DIRECTION('',(1.E0,0.E0,0.E0));
#362=AXIS2_PLACEMENT_3D('',#359,#360,#361);
#363=CYLINDRICAL_SURFACE('',#362,1.125E0);
#365=ORIENTED_EDGE('',*,*,#364,.T.);
#367=ORIENTED_EDGE('',*,*,#366,.T.);
#368=ORIENTED_EDGE('',*,*,#347,.F.);
#370=ORIENTED_EDGE('',*,*,#369,.F.);
#371=EDGE_LOOP('',(#365,#367,#368,#370));
#372=FACE_OUTER_BOUND('',#371,.F.);
#373=ADVANCED_FACE('',(#372),#363,.T.);
#374=CARTESIAN_POINT('',(0.E0,0.E0,-3.E-2));
#375=DIRECTION('',(0.E0,0.E0,1.E0));
#376=DIRECTION('',(9.999904531721E-1,-4.369618361442E-3,0.E0));
#377=AXIS2_PLACEMENT_3D('',#374,#375,#376);
#378=TOROIDAL_SURFACE('',#377,1.095E0,3.E-2);
#380=ORIENTED_EDGE('',*,*,#379,.T.);
#382=ORIENTED_EDGE('',*,*,#381,.T.);
#383=ORIENTED_EDGE('',*,*,#364,.F.);
#385=ORIENTED_EDGE('',*,*,#384,.F.);
#386=EDGE_LOOP('',(#380,#382,#383,#385));
#387=FACE_OUTER_BOUND('',#386,.F.);
#388=ADVANCED_FACE('',(#387),#378,.T.);
#389=CARTESIAN_POINT('',(0.E0,0.E0,0.E0));
#390=DIRECTION('',(0.E0,0.E0,1.E0));
#391=DIRECTION('',(1.E0,0.E0,0.E0));
#392=AXIS2_PLACEMENT_3D('',#389,#390,#391);
#393=PLANE('',#392);
#395=ORIENTED_EDGE('',*,*,#394,.F.);
#396=ORIENTED_EDGE('',*,*,#379,.F.);
#397=EDGE_LOOP('',(#395,#396));
#398=FACE_OUTER_BOUND('',#397,.F.);
#400=ORIENTED_EDGE('',*,*,#399,.F.);
#401=ORIENTED_EDGE('',*,*,#215,.F.);
#402=EDGE_LOOP('',(#400,#401));
#403=FACE_BOUND('',#402,.F.);
#404=ADVANCED_FACE('',(#398,#403),#393,.T.);
#405=CARTESIAN_POINT('',(0.E0,0.E0,-3.E-2));
#406=DIRECTION('',(0.E0,0.E0,1.E0));
#407=DIRECTION('',(-9.999904531721E-1,4.369618361442E-3,0.E0));
#408=AXIS2_PLACEMENT_3D('',#405,#406,#407);
#409=TOROIDAL_SURFACE('',#408,1.095E0,3.E-2);
#410=ORIENTED_EDGE('',*,*,#394,.T.);
#411=ORIENTED_EDGE('',*,*,#384,.T.);
#413=ORIENTED_EDGE('',*,*,#412,.F.);
#414=ORIENTED_EDGE('',*,*,#381,.F.);
#415=EDGE_LOOP('',(#410,#411,#413,#414));
#416=FACE_OUTER_BOUND('',#415,.F.);
#417=ADVANCED_FACE('',(#416),#409,.T.);
#418=CARTESIAN_POINT('',(0.E0,0.E0,0.E0));
#419=DIRECTION('',(0.E0,0.E0,1.E0));
#420=DIRECTION('',(1.E0,0.E0,0.E0));
#421=AXIS2_PLACEMENT_3D('',#418,#419,#420);
#422=CYLINDRICAL_SURFACE('',#421,1.125E0);
#423=ORIENTED_EDGE('',*,*,#412,.T.);
#424=ORIENTED_EDGE('',*,*,#369,.T.);
#425=ORIENTED_EDGE('',*,*,#349,.F.);
#426=ORIENTED_EDGE('',*,*,#366,.F.);
#427=EDGE_LOOP('',(#423,#424,#425,#426));
#428=FACE_OUTER_BOUND('',#427,.F.);
#429=ADVANCED_FACE('',(#428),#422,.T.);
#430=CARTESIAN_POINT('',(0.E0,0.E0,0.E0));
#431=DIRECTION('',(0.E0,0.E0,1.E0));
#432=DIRECTION('',(1.E0,0.E0,0.E0));
#433=AXIS2_PLACEMENT_3D('',#430,#431,#432);
#434=CYLINDRICAL_SURFACE('',#433,5.475E-1);
#435=ORIENTED_EDGE('',*,*,#233,.T.);
#436=ORIENTED_EDGE('',*,*,#217,.F.);
#437=ORIENTED_EDGE('',*,*,#399,.T.);
#438=ORIENTED_EDGE('',*,*,#213,.T.);
#439=EDGE_LOOP('',(#435,#436,#437,#438));
#440=FACE_OUTER_BOUND('',#439,.F.);
#441=ADVANCED_FACE('',(#440),#434,.F.);
#442=CARTESIAN_POINT('',(0.E0,0.E0,-3.135E-1));
#443=DIRECTION('',(0.E0,0.E0,1.E0));
#444=DIRECTION('',(-1.E0,0.E0,0.E0));
#445=AXIS2_PLACEMENT_3D('',#442,#443,#444);
#446=CYLINDRICAL_SURFACE('',#445,1.E0);
#447=ORIENTED_EDGE('',*,*,#353,.T.);
#448=ORIENTED_EDGE('',*,*,#337,.F.);
#449=ORIENTED_EDGE('',*,*,#318,.F.);
#450=ORIENTED_EDGE('',*,*,#334,.T.);
#451=EDGE_LOOP('',(#447,#448,#449,#450));
#452=FACE_OUTER_BOUND('',#451,.F.);
#453=ADVANCED_FACE('',(#452),#446,.F.);
#457=CARTESIAN_POINT('',(0.E0,0.E0,-1.205E-1));
#458=DIRECTION('',(0.E0,0.E0,1.E0));
#459=DIRECTION('',(0.E0,1.E0,0.E0));
#460=AXIS2_PLACEMENT_3D('',#457,#458,#459);
#462=CARTESIAN_POINT('',(0.E0,5.76E-1,-1.205E-1));
#463=DIRECTION('',(-1.E0,0.E0,0.E0));
#464=DIRECTION('',(0.E0,-1.E0,0.E0));
#465=AXIS2_PLACEMENT_3D('',#462,#463,#464);
#467=CARTESIAN_POINT('',(0.E0,-5.76E-1,-1.205E-1));
#468=DIRECTION('',(1.E0,0.E0,0.E0));
#469=DIRECTION('',(0.E0,1.E0,0.E0));
#470=AXIS2_PLACEMENT_3D('',#467,#468,#469);
#472=CARTESIAN_POINT('',(0.E0,0.E0,-1.205E-1));
#473=DIRECTION('',(0.E0,0.E0,-1.E0));
#474=DIRECTION('',(0.E0,1.E0,0.E0));
#475=AXIS2_PLACEMENT_3D('',#472,#473,#474);
#477=CARTESIAN_POINT('',(0.E0,5.76E-1,-1.205E-1));
#478=DIRECTION('',(-1.E0,0.E0,0.E0));
#479=DIRECTION('',(0.E0,1.E0,0.E0));
#480=AXIS2_PLACEMENT_3D('',#477,#478,#479);
#482=CARTESIAN_POINT('',(0.E0,-5.76E-1,-1.205E-1));
#483=DIRECTION('',(1.E0,0.E0,0.E0));
#484=DIRECTION('',(0.E0,-1.E0,0.E0));
#485=AXIS2_PLACEMENT_3D('',#482,#483,#484);
#487=CARTESIAN_POINT('',(0.E0,0.E0,-1.205E-1));
#488=DIRECTION('',(0.E0,0.E0,-1.E0));
#489=DIRECTION('',(0.E0,1.E0,0.E0));
#490=AXIS2_PLACEMENT_3D('',#487,#488,#489);
#492=CARTESIAN_POINT('',(0.E0,0.E0,-1.205E-1));
#493=DIRECTION('',(0.E0,0.E0,1.E0));
#494=DIRECTION('',(0.E0,1.E0,0.E0));
#495=AXIS2_PLACEMENT_3D('',#492,#493,#494);
#497=CARTESIAN_POINT('',(0.E0,5.245E-1,-1.205E-1));
#498=CARTESIAN_POINT('',(0.E0,6.275E-1,-1.205E-1));
#499=VERTEX_POINT('',#497);
#500=VERTEX_POINT('',#498);
#501=CARTESIAN_POINT('',(0.E0,-5.245E-1,-1.205E-1));
#502=CARTESIAN_POINT('',(0.E0,-6.275E-1,-1.205E-1));
#503=VERTEX_POINT('',#501);
#504=VERTEX_POINT('',#502);
#505=CARTESIAN_POINT('',(0.E0,0.E0,-1.205E-1));
#506=DIRECTION('',(0.E0,0.E0,1.E0));
#507=DIRECTION('',(0.E0,-1.E0,0.E0));
#508=AXIS2_PLACEMENT_3D('',#505,#506,#507);
#509=TOROIDAL_SURFACE('',#508,5.76E-1,5.15E-2);
#511=ORIENTED_EDGE('',*,*,#510,.F.);
#513=ORIENTED_EDGE('',*,*,#512,.T.);
#515=ORIENTED_EDGE('',*,*,#514,.T.);
#517=ORIENTED_EDGE('',*,*,#516,.F.);
#518=EDGE_LOOP('',(#511,#513,#515,#517));
#519=FACE_OUTER_BOUND('',#518,.F.);
#520=ADVANCED_FACE('',(#519),#509,.T.);
#521=CARTESIAN_POINT('',(0.E0,0.E0,-1.205E-1));
#522=DIRECTION('',(0.E0,0.E0,1.E0));
#523=DIRECTION('',(0.E0,-1.E0,0.E0));
#524=AXIS2_PLACEMENT_3D('',#521,#522,#523);
#525=TOROIDAL_SURFACE('',#524,5.76E-1,5.15E-2);
#526=ORIENTED_EDGE('',*,*,#510,.T.);
#528=ORIENTED_EDGE('',*,*,#527,.T.);
#529=ORIENTED_EDGE('',*,*,#514,.F.);
#531=ORIENTED_EDGE('',*,*,#530,.F.);
#532=EDGE_LOOP('',(#526,#528,#529,#531));
#533=FACE_OUTER_BOUND('',#532,.F.);
#534=ADVANCED_FACE('',(#533),#525,.T.);
#535=CARTESIAN_POINT('',(0.E0,0.E0,-1.205E-1));
#536=DIRECTION('',(0.E0,0.E0,1.E0));
#537=DIRECTION('',(0.E0,-1.E0,0.E0));
#538=AXIS2_PLACEMENT_3D('',#535,#536,#537);
#539=TOROIDAL_SURFACE('',#538,5.76E-1,5.15E-2);
#541=ORIENTED_EDGE('',*,*,#540,.T.);
#542=ORIENTED_EDGE('',*,*,#530,.T.);
#544=ORIENTED_EDGE('',*,*,#543,.F.);
#545=ORIENTED_EDGE('',*,*,#527,.F.);
#546=EDGE_LOOP('',(#541,#542,#544,#545));
#547=FACE_OUTER_BOUND('',#546,.F.);
#548=ADVANCED_FACE('',(#547),#539,.T.);
#549=CARTESIAN_POINT('',(0.E0,0.E0,-1.205E-1));
#550=DIRECTION('',(0.E0,0.E0,1.E0));
#551=DIRECTION('',(0.E0,-1.E0,0.E0));
#552=AXIS2_PLACEMENT_3D('',#549,#550,#551);
#553=TOROIDAL_SURFACE('',#552,5.76E-1,5.15E-2);
#554=ORIENTED_EDGE('',*,*,#540,.F.);
#555=ORIENTED_EDGE('',*,*,#516,.T.);
#556=ORIENTED_EDGE('',*,*,#543,.T.);
#557=ORIENTED_EDGE('',*,*,#512,.F.);
#558=EDGE_LOOP('',(#554,#555,#556,#557));
#559=FACE_OUTER_BOUND('',#558,.F.);
#560=ADVANCED_FACE('',(#559),#553,.T.);
#563=DIMENSIONAL_EXPONENTS(1.E0,0.E0,0.E0,0.E0,0.E0,0.E0,0.E0);
#565=LENGTH_MEASURE_WITH_UNIT(LENGTH_MEASURE(2.54E1),#564);
#566=(CONVERSION_BASED_UNIT('INCH',#565)LENGTH_UNIT()NAMED_UNIT(#563));
#567=DIMENSIONAL_EXPONENTS(0.E0,0.E0,0.E0,0.E0,0.E0,0.E0,0.E0);
#569=PLANE_ANGLE_MEASURE_WITH_UNIT(PLANE_ANGLE_MEASURE(1.745329251994E-2),#568);
#570=(CONVERSION_BASED_UNIT('DEGREE',#569)NAMED_UNIT(*)PLANE_ANGLE_UNIT());
#572=UNCERTAINTY_MEASURE_WITH_UNIT(LENGTH_MEASURE(1.777753119063E-4),#566,
'closure',
'Maximum model space distance between geometric entities at asserted connectivities');
#573=(GEOMETRIC_REPRESENTATION_CONTEXT(3)GLOBAL_UNCERTAINTY_ASSIGNED_CONTEXT((
#572))GLOBAL_UNIT_ASSIGNED_CONTEXT((#566,#570,#571))REPRESENTATION_CONTEXT
('ID1','3'));
#575=APPLICATION_CONTEXT(
'CONFIGURATION CONTROLLED 3D DESIGNS OF MECHANICAL PARTS AND ASSEMBLIES');
#576=APPLICATION_PROTOCOL_DEFINITION('international standard',
'config_control_design',1994,#575);
#577=DESIGN_CONTEXT('',#575,'design');
#578=MECHANICAL_CONTEXT('',#575,'mechanical');
#579=PRODUCT('206-302','206-302','NOT SPECIFIED',(#578));
#580=PRODUCT_DEFINITION_FORMATION_WITH_SPECIFIED_SOURCE('1','LAST_VERSION',#579,
.MADE.);
#584=PRODUCT_CATEGORY('part','');
#585=PRODUCT_RELATED_PRODUCT_CATEGORY('detail','',(#579));
#586=PRODUCT_CATEGORY_RELATIONSHIP('','',#584,#585);
#587=SECURITY_CLASSIFICATION_LEVEL('unclassified');
#588=SECURITY_CLASSIFICATION('','',#587);
#589=CC_DESIGN_SECURITY_CLASSIFICATION(#588,(#580));
#590=APPROVAL_STATUS('approved');
#591=APPROVAL(#590,'');
#592=CC_DESIGN_APPROVAL(#591,(#588,#580,#581));
#593=CALENDAR_DATE(124,2,8);
#594=COORDINATED_UNIVERSAL_TIME_OFFSET(4,0,.BEHIND.);
#595=LOCAL_TIME(11,1,5.E1,#594);
#596=DATE_AND_TIME(#593,#595);
#597=APPROVAL_DATE_TIME(#596,#591);
#598=DATE_TIME_ROLE('creation_date');
#599=CC_DESIGN_DATE_AND_TIME_ASSIGNMENT(#596,#598,(#581));
#600=DATE_TIME_ROLE('classification_date');
#601=CC_DESIGN_DATE_AND_TIME_ASSIGNMENT(#596,#600,(#588));
#602=PERSON('UNSPECIFIED','UNSPECIFIED',$,$,$,$);
#603=ORGANIZATION('UNSPECIFIED','UNSPECIFIED','UNSPECIFIED');
#604=PERSON_AND_ORGANIZATION(#602,#603);
#605=APPROVAL_ROLE('approver');
#606=APPROVAL_PERSON_ORGANIZATION(#604,#591,#605);
#607=PERSON_AND_ORGANIZATION_ROLE('creator');
#608=CC_DESIGN_PERSON_AND_ORGANIZATION_ASSIGNMENT(#604,#607,(#580,#581));
#609=PERSON_AND_ORGANIZATION_ROLE('design_supplier');
#610=CC_DESIGN_PERSON_AND_ORGANIZATION_ASSIGNMENT(#604,#609,(#580));
#611=PERSON_AND_ORGANIZATION_ROLE('classification_officer');
#612=CC_DESIGN_PERSON_AND_ORGANIZATION_ASSIGNMENT(#604,#611,(#588));
#613=PERSON_AND_ORGANIZATION_ROLE('design_owner');
#614=CC_DESIGN_PERSON_AND_ORGANIZATION_ASSIGNMENT(#604,#613,(#579));
#6=CIRCLE('',#5,5.475E-1);
#23=CIRCLE('',#22,6.3E-1);
#28=CIRCLE('',#27,6.3E-1);
#33=CIRCLE('',#32,6.3E-1);
#38=CIRCLE('',#37,6.3E-1);
#43=CIRCLE('',#42,5.475E-1);
#48=CIRCLE('',#47,5.475E-1);
#57=CIRCLE('',#56,5.475E-1);
#62=CIRCLE('',#61,5.475E-1);
#75=CIRCLE('',#74,1.E0);
#84=CIRCLE('',#83,1.125E0);
#89=CIRCLE('',#88,1.125E0);
#94=CIRCLE('',#93,1.E0);
#99=CIRCLE('',#98,1.E0);
#104=CIRCLE('',#103,1.125E0);
#113=CIRCLE('',#112,3.E-2);
#118=CIRCLE('',#117,1.095E0);
#123=CIRCLE('',#122,1.095E0);
#128=CIRCLE('',#127,5.475E-1);
#133=CIRCLE('',#132,5.475E-1);
#138=CIRCLE('',#137,3.E-2);
#143=CIRCLE('',#142,1.125E0);
#152=CIRCLE('',#151,5.475E-1);
#161=CIRCLE('',#160,1.E0);
#211=EDGE_CURVE('',#201,#200,#6,.T.);
#213=EDGE_CURVE('',#165,#200,#10,.T.);
#215=EDGE_CURVE('',#165,#164,#133,.T.);
#217=EDGE_CURVE('',#164,#201,#156,.T.);
#227=EDGE_CURVE('',#197,#193,#23,.T.);
#229=EDGE_CURVE('',#197,#193,#28,.T.);
#233=EDGE_CURVE('',#200,#201,#152,.T.);
#244=EDGE_CURVE('',#192,#193,#14,.T.);
#246=EDGE_CURVE('',#196,#192,#38,.T.);
#248=EDGE_CURVE('',#196,#197,#18,.T.);
#262=EDGE_CURVE('',#196,#192,#33,.T.);
#276=EDGE_CURVE('',#204,#205,#43,.T.);
#278=EDGE_CURVE('',#205,#204,#57,.T.);
#289=EDGE_CURVE('',#205,#188,#66,.T.);
#291=EDGE_CURVE('',#188,#189,#48,.T.);
#293=EDGE_CURVE('',#204,#189,#52,.T.);
#305=EDGE_CURVE('',#189,#188,#62,.T.);
#316=EDGE_CURVE('',#180,#181,#75,.T.);
#318=EDGE_CURVE('',#180,#181,#161,.T.);
#332=EDGE_CURVE('',#185,#184,#99,.T.);
#334=EDGE_CURVE('',#180,#184,#70,.T.);
#337=EDGE_CURVE('',#181,#185,#79,.T.);
#347=EDGE_CURVE('',#168,#169,#84,.T.);
#349=EDGE_CURVE('',#169,#168,#89,.T.);
#353=EDGE_CURVE('',#184,#185,#94,.T.);
#364=EDGE_CURVE('',#177,#176,#104,.T.);
#366=EDGE_CURVE('',#176,#169,#147,.T.);
#369=EDGE_CURVE('',#177,#168,#108,.T.);
#379=EDGE_CURVE('',#173,#172,#123,.T.);
#381=EDGE_CURVE('',#172,#176,#138,.T.);
#384=EDGE_CURVE('',#173,#177,#113,.T.);
#394=EDGE_CURVE('',#172,#173,#118,.T.);
#399=EDGE_CURVE('',#164,#165,#128,.T.);
#412=EDGE_CURVE('',#176,#177,#143,.T.);
#454=CLOSED_SHELL('',(#221,#238,#253,#266,#282,#297,#310,#326,#341,#358,#373,
#388,#404,#417,#429,#441,#453));
#455=MANIFOLD_SOLID_BREP('',#454);
#461=CIRCLE('',#460,5.245E-1);
#466=CIRCLE('',#465,5.15E-2);
#471=CIRCLE('',#470,5.15E-2);
#476=CIRCLE('',#475,5.245E-1);
#481=CIRCLE('',#480,5.15E-2);
#486=CIRCLE('',#485,5.15E-2);
#491=CIRCLE('',#490,6.275E-1);
#496=CIRCLE('',#495,6.275E-1);
#510=EDGE_CURVE('',#499,#500,#466,.T.);
#512=EDGE_CURVE('',#499,#503,#461,.T.);
#514=EDGE_CURVE('',#503,#504,#471,.T.);
#516=EDGE_CURVE('',#500,#504,#496,.T.);
#527=EDGE_CURVE('',#500,#504,#491,.T.);
#530=EDGE_CURVE('',#499,#503,#476,.T.);
#540=EDGE_CURVE('',#500,#499,#481,.T.);
#543=EDGE_CURVE('',#504,#503,#486,.T.);
#561=CLOSED_SHELL('',(#520,#534,#548,#560));
#562=MANIFOLD_SOLID_BREP('',#561);
#564=(LENGTH_UNIT()NAMED_UNIT(*)SI_UNIT(.MILLI.,.METRE.));
#568=(NAMED_UNIT(*)PLANE_ANGLE_UNIT()SI_UNIT($,.RADIAN.));
#571=(NAMED_UNIT(*)SI_UNIT($,.STERADIAN.)SOLID_ANGLE_UNIT());
#574=ADVANCED_BREP_SHAPE_REPRESENTATION('',(#455,#562),#573);
#581=PRODUCT_DEFINITION('design','',#580,#577);
#582=PRODUCT_DEFINITION_SHAPE('','SHAPE FOR 206-302.',#581);
#583=SHAPE_DEFINITION_REPRESENTATION(#582,#574);
ENDSEC;
END-ISO-10303-21;
