999
DXF file: 2161_SIDE.dxf
999
Pro/ENGINEER 2023134 by Parametric Technology Corporation
  0
SECTION
  2
HEADER
  9
$ACADVER
  1
AC1032
  9
$DWGCODEPAGE
  3
ANSI_1252
  9
$EXTMAX
 10
11.0
 20
8.5
 30
0.0
  9
$EXTMIN
 10
0.0
 20
0.0
 30
0.0
  9
$LIMMIN
 10
0.0
 20
0.0
  9
$LIMMAX
 10
11.0
 20
8.5
  9
$VIEWCTR
 10
5.5
 20
4.25
  9
$VIEWSIZE
 40
8.5
  9
$CLAYER
  8
0
  9
$LTSCALE
 40
0.605
  9
$CELTYPE
  6
BYLAYER
  9
$DIMSCALE
 40
1.0
  9
$DIMASZ
 40
0.1
  9
$DIMEXO
 40
0.0625
  9
$DIMDLI
 40
0.418
  9
$DIMEXE
 40
0.125
  9
$DIMCEN
 40
0.099
  9
$DIMLFAC
 40
1.0
  9
$DIMBLK
  1
_FILLED
  9
$DIMALT
 70
1
  9
$DIMALTD
 70
2
  9
$DIMALTTD
 70
2
  9
$DIMALTF
 40
25.4
  9
$DIMTXT
 40
0.08
  9
$DIMTOL
 70
1
  9
$DIMLIM
 70
0
  9
$DIMTFAC
 40
1.0
  9
$DIMTP
 40
0.001
  9
$DIMTM
 40
0.001
  9
$DIMGAP
 40
0.09
  9
$DIMDSEP
 70
46
  9
$AUNITS
 70
0
  9
$PDMODE
 70
3
  9
$PDSIZE
 40
0.3125
  9
$HANDSEED
  5
328
  9
$TILEMODE
 70
1
  9
$MEASUREMENT
 70
0
  9
$INSUNITS
 70
1
  0
ENDSEC
  0
SECTION
  2
CLASSES
  0
CLASS
  1
ACDBDICTIONARYWDFLT
  2
AcDbDictionaryWithDefault
  3
AutoCAD 2000
 90
0
 91
1
280
0
281
0
  0
CLASS
  1
ACDBPLACEHOLDER
  2
AcDbPlaceHolder
  3
AutoCAD 2000
 90
0
 91
1
280
0
281
0
  0
CLASS
  1
LAYOUT
  2
AcDbLayout
  3
AutoCAD 2000
 90
0
 91
0
280
0
281
0
  0
ENDSEC
  0
SECTION
  2
TABLES
  0
TABLE
  2
VPORT
  5
8
100
AcDbSymbolTable
 70
2
  0
VPORT
  5
1F4
100
AcDbSymbolTableRecord
100
AcDbViewportTableRecord
  2
*ACTIVE
 70
0
 10
0.0
 20
0.0
 11
1.0
 21
1.0
 12
5.5
 22
4.25
 13
0.0
 23
0.0
 14
1.0
 24
1.0
 15
0.0
 25
0.0
 16
0.0
 26
0.0
 36
1.0
 17
0.0
 27
0.0
 37
0.0
 40
8.5
 41
1.2941176471
 42
50.0
 43
0.0
 44
0.0
 50
0.0
 51
0.0
 71
0
 72
100
 73
1
 74
1
 75
0
 76
0
 77
0
 78
0
  0
ENDTAB
  0
TABLE
  2
LTYPE
  5
5
100
AcDbSymbolTable
 70
6
  0
LTYPE
  5
14
100
AcDbSymbolTableRecord
100
AcDbLinetypeTableRecord
  2
BYBLOCK
 70
0
  3

 72
65
 73
0
 40
0.0
  0
LTYPE
  5
15
100
AcDbSymbolTableRecord
100
AcDbLinetypeTableRecord
  2
BYLAYER
 70
0
  3

 72
65
 73
0
 40
0.0
  0
LTYPE
  5
16
100
AcDbSymbolTableRecord
100
AcDbLinetypeTableRecord
  2
CONTINUOUS
 70
64
  3
Solid line
 72
65
 73
0
 40
0.0
  0
LTYPE
  5
1F5
100
AcDbSymbolTableRecord
100
AcDbLinetypeTableRecord
  2
CENTER
 70
64
  3
____ _ ____ _ ____ _ ____ _ ____ _ ____ _ ____
 72
65
 73
4
 40
0.6
 49
0.375
 74
0
 49
-0.075
 74
0
 49
0.075
 74
0
 49
-0.075
 74
0
  0
LTYPE
  5
1F6
100
AcDbSymbolTableRecord
100
AcDbLinetypeTableRecord
  2
HIDDEN
 70
64
  3
- - - - - - - - - - - - - - - - - - - -
 72
65
 73
2
 40
0.2
 49
0.1
 74
0
 49
-0.1
 74
0
  0
LTYPE
  5
1F7
100
AcDbSymbolTableRecord
100
AcDbLinetypeTableRecord
  2
PHANTOM
 70
64
  3
_____ _ _ _____ _ _ _____ _ _ _____
 72
65
 73
6
 40
0.8
 49
0.45
 74
0
 49
-0.05
 74
0
 49
0.1
 74
0
 49
-0.05
 74
0
 49
0.1
 74
0
 49
-0.05
 74
0
  0
LTYPE
  5
1F8
100
AcDbSymbolTableRecord
100
AcDbLinetypeTableRecord
  2
DOT
 70
64
  3
. . . . . . . . . . . . . . . . . . . .
 72
65
 73
2
 40
0.2
 49
0.1
 74
0
 49
-0.1
 74
0
  0
LTYPE
  5
1F9
100
AcDbSymbolTableRecord
100
AcDbLinetypeTableRecord
  2
DASHED
 70
64
  3
- - - - - - - - - - - - - - - - - - - -
 72
65
 73
2
 40
0.2
 49
0.1
 74
0
 49
-0.1
 74
0
  0
ENDTAB
  0
TABLE
  2
LAYER
  5
2
100
AcDbSymbolTable
 70
36
  0
LAYER
  5
10
100
AcDbSymbolTableRecord
100
AcDbLayerTableRecord
  2
0
 70
0
 62
7
  6
CONTINUOUS
370
-3
390
F
  0
LAYER
  5
1FA
100
AcDbSymbolTableRecord
100
AcDbLayerTableRecord
  2
DEFAULT_1
 70
0
 62
7
  6
CENTER
370
-3
390
F
  0
LAYER
  5
1FB
100
AcDbSymbolTableRecord
100
AcDbLayerTableRecord
  2
DEFAULT_2
 70
0
 62
8
  6
HIDDEN
370
-3
390
F
  0
LAYER
  5
1FC
100
AcDbSymbolTableRecord
100
AcDbLayerTableRecord
  2
DEFAULT_3
 70
0
 62
7
  6
PHANTOM
370
-3
390
F
  0
LAYER
  5
1FD
100
AcDbSymbolTableRecord
100
AcDbLayerTableRecord
  2
DEFAULT_COORDINATE_SYSTEM
 70
0
 62
7
  6
CONTINUOUS
370
-3
390
F
  0
LAYER
  5
1FE
100
AcDbSymbolTableRecord
100
AcDbLayerTableRecord
  2
DEFAULT_DATUM_AXES
 70
0
 62
7
  6
CONTINUOUS
370
-3
390
F
  0
LAYER
  5
1FF
100
AcDbSymbolTableRecord
100
AcDbLayerTableRecord
  2
DEFAULT_DATUM_PLANES
 70
0
 62
7
  6
CONTINUOUS
370
-3
390
F
  0
ENDTAB
  0
TABLE
  2
STYLE
  5
3
100
AcDbSymbolTable
 70
1
  0
STYLE
  5
11
100
AcDbSymbolTableRecord
100
AcDbTextStyleTableRecord
  2
STANDARD
 70
0
 40
0.0
 41
0.8
 50
0.0
 71
0
 42
0.2
  3
txt
  4

  0
STYLE
  5
200
100
AcDbSymbolTableRecord
100
AcDbTextStyleTableRecord
  2
TEXTSTYLE_1
 70
0
 40
0.0
 41
0.8
 50
0.0
 71
0
 42
0.2
  3
gdt
  4

  0
ENDTAB
  0
TABLE
  2
VIEW
  5
6
100
AcDbSymbolTable
 70
0
  0
ENDTAB
  0
TABLE
  2
UCS
  5
7
100
AcDbSymbolTable
 70
0
  0
ENDTAB
  0
TABLE
  2
APPID
  5
9
100
AcDbSymbolTable
 70
1
  0
APPID
  5
201
100
AcDbSymbolTableRecord
100
AcDbRegAppTableRecord
  2
ACAD
 70
0
  0
ENDTAB
  0
TABLE
  2
BLOCK_RECORD
  5
1
100
AcDbSymbolTable
 70
0
  0
BLOCK_RECORD
  5
202
100
AcDbSymbolTableRecord
100
AcDbBlockTableRecord
  2
*Model_Space
  0
BLOCK_RECORD
  5
203
100
AcDbSymbolTableRecord
100
AcDbBlockTableRecord
  2
*Paper_Space
  0
BLOCK_RECORD
  5
204
100
AcDbSymbolTableRecord
100
AcDbBlockTableRecord
  2
_FILLED
  0
ENDTAB
  0
TABLE
  2
DIMSTYLE
  5
A
100
AcDbSymbolTable
 70
1
100
AcDbDimStyleTable
 71
0
  0
DIMSTYLE
105
205
100
AcDbSymbolTableRecord
100
AcDbDimStyleTableRecord
  2
STANDARD
 70
0
  3

  4

 40
1.0
 41
0.1
 42
0.0625
 43
0.38
 44
0.125
 45
0.0
 46
0.0
 47
0.001
 48
0.001
140
0.08
141
0.09
142
0.0
143
25.4
144
1.0
145
0.0
146
1.0
147
0.09
 71
1
 72
0
 73
1
 74
1
 75
0
 76
0
 77
0
 78
4
 79
1
170
1
171
2
172
0
173
0
174
0
175
0
176
0
177
0
178
0
270
2
179
3
271
3
272
3
273
2
274
2
275
0
280
0
281
0
282
0
283
1
284
4
285
0
286
0
287
3
288
0
340
11
278
46
341
204
342
204
343
204
344
204
  0
ENDTAB
  0
ENDSEC
  0
SECTION
  2
BLOCKS
  0
BLOCK
  5
20
100
AcDbEntity
  8
0
100
AcDbBlockBegin
  2
*Model_Space
 70
0
 10
0.0
 20
0.0
 30
0.0
  3
*Model_Space
  1

  0
ENDBLK
  5
21
100
AcDbEntity
  8
0
100
AcDbBlockEnd
  0
BLOCK
  5
1C
100
AcDbEntity
  8
0
100
AcDbBlockBegin
  2
*Paper_Space
 70
0
 10
0.0
 20
0.0
 30
0.0
  3
*Paper_Space
  1

  0
ENDBLK
  5
1D
100
AcDbEntity
  8
0
100
AcDbBlockEnd
  0
BLOCK
  5
206
100
AcDbEntity
  8
0
100
AcDbBlockBegin
  2
_FILLED
 70
64
 10
0.0
 20
0.0
  3
_FILLED
  1

  0
SOLID
  5
207
100
AcDbEntity
  8
0
  6
BYBLOCK
 62
0
100
AcDbTrace
 10
0.0
 20
0.0
 11
-1.0
 21
0.2
 12
-1.0
 22
-0.2
 13
-1.0
 23
-0.2
  0
ENDBLK
  5
208
100
AcDbEntity
  8
0
  6
BYBLOCK
 62
0
100
AcDbBlockEnd
  0
ENDSEC
  0
SECTION
  2
ENTITIES
  0
LINE
  5
209
100
AcDbEntity
  8
0
100
AcDbLine
 62
7
  6
CONTINUOUS
 10
0.0
 20
0.0
 11
0.0
 21
8.5
  0
LINE
  5
20A
100
AcDbEntity
  8
0
100
AcDbLine
 62
7
  6
CONTINUOUS
 10
0.0
 20
0.0
 11
11.0
 21
0.0
  0
LINE
  5
20B
100
AcDbEntity
  8
0
100
AcDbLine
 62
7
  6
CONTINUOUS
 10
0.0
 20
8.5
 11
11.0
 21
8.5
  0
LINE
  5
20C
100
AcDbEntity
  8
0
100
AcDbLine
 62
7
  6
CONTINUOUS
 10
11.0
 20
0.0
 11
11.0
 21
8.5
  0
LINE
  5
20D
100
AcDbEntity
  8
0
100
AcDbLine
 62
7
  6
CONTINUOUS
 10
1.4689508064
 20
2.8314874723
 11
1.4821221455
 21
2.906185848
  0
LINE
  5
20E
100
AcDbEntity
  8
0
100
AcDbLine
 62
7
  6
CONTINUOUS
 10
2.1949906368
 20
2.7128565915
 11
2.1949906368
 21
2.6723116309
  0
LINE
  5
20F
100
AcDbEntity
  8
0
100
AcDbLine
 62
7
  6
CONTINUOUS
 10
2.263881616
 20
2.7128565915
 11
2.263881616
 21
2.6723116309
  0
LINE
  5
210
100
AcDbEntity
  8
0
100
AcDbLine
 62
7
  6
CONTINUOUS
 10
2.4036453956
 20
2.7128565915
 11
2.4036453956
 21
2.6723116309
  0
LINE
  5
211
100
AcDbEntity
  8
0
100
AcDbLine
 62
7
  6
CONTINUOUS
 10
2.4675436872
 20
2.7128565915
 11
2.4675436872
 21
2.6723116309
  0
LINE
  5
212
100
AcDbEntity
  8
0
100
AcDbLine
 62
7
  6
CONTINUOUS
 10
2.6073074667
 20
2.7128565915
 11
2.6073074667
 21
2.6723116309
  0
LINE
  5
213
100
AcDbEntity
  8
0
100
AcDbLine
 62
7
  6
CONTINUOUS
 10
2.762778418
 20
2.7128565915
 11
2.762778418
 21
2.6723116309
  0
LINE
  5
214
100
AcDbEntity
  8
0
100
AcDbLine
 62
7
  6
CONTINUOUS
 10
2.7970758406
 20
2.7128565915
 11
2.7970758406
 21
2.6723116309
  0
LINE
  5
215
100
AcDbEntity
  8
0
100
AcDbLine
 62
7
  6
CONTINUOUS
 10
2.9368396201
 20
2.7128565915
 11
2.9368396201
 21
2.6723116309
  0
LINE
  5
216
100
AcDbEntity
  8
0
100
AcDbLine
 62
7
  6
CONTINUOUS
 10
3.0649528828
 20
2.7128565915
 11
3.0649528828
 21
2.6723116309
  0
LINE
  5
217
100
AcDbEntity
  8
0
100
AcDbLine
 62
7
  6
CONTINUOUS
 10
3.2380759398
 20
2.7128565915
 11
3.2380759398
 21
2.6723116309
  0
LINE
  5
218
100
AcDbEntity
  8
0
100
AcDbLine
 62
7
  6
CONTINUOUS
 10
3.3778397194
 20
2.7128565915
 11
3.3778397194
 21
2.6723116309
  0
LINE
  5
219
100
AcDbEntity
  8
0
100
AcDbLine
 62
7
  6
CONTINUOUS
 10
3.3795693926
 20
2.7128565915
 11
3.3795693926
 21
2.6723116309
  0
LINE
  5
21A
100
AcDbEntity
  8
0
100
AcDbLine
 62
7
  6
CONTINUOUS
 10
3.3939523007
 20
2.7128565915
 11
3.3939523007
 21
2.6723116309
  0
LINE
  5
21B
100
AcDbEntity
  8
0
100
AcDbLine
 62
7
  6
CONTINUOUS
 10
3.5337160802
 20
2.7128565915
 11
3.5337160802
 21
2.6723116309
  0
LINE
  5
21C
100
AcDbEntity
  8
0
100
AcDbLine
 62
7
  6
CONTINUOUS
 10
3.6857204919
 20
2.7128565915
 11
3.6857204919
 21
2.6723116309
  0
LINE
  5
21D
100
AcDbEntity
  8
0
100
AcDbLine
 62
7
  6
CONTINUOUS
 10
3.6868594352
 20
2.7128565915
 11
3.6868594352
 21
2.6723116309
  0
LINE
  5
21E
100
AcDbEntity
  8
0
100
AcDbLine
 62
7
  6
CONTINUOUS
 10
3.7712701644
 20
2.7128565915
 11
3.7712701644
 21
2.6723116309
  0
LINE
  5
21F
100
AcDbEntity
  8
0
100
AcDbLine
 62
7
  6
CONTINUOUS
 10
3.9110339439
 20
2.7128565915
 11
3.9110339439
 21
2.6723116309
  0
LINE
  5
220
100
AcDbEntity
  8
0
100
AcDbLine
 62
7
  6
CONTINUOUS
 10
4.0133528645
 20
2.7128565915
 11
4.0133528645
 21
2.6723116309
  0
LINE
  5
221
100
AcDbEntity
  8
0
100
AcDbLine
 62
7
  6
CONTINUOUS
 10
4.9374315817
 20
5.7186226545
 11
4.9174315817
 21
5.6986226545
  0
LINE
  5
222
100
AcDbEntity
  8
0
100
AcDbLine
 62
7
  6
CONTINUOUS
 10
8.6201874872
 20
2.6526265915
 11
8.5521052117
 21
2.6526265915
  0
LINE
  5
223
100
AcDbEntity
  8
0
100
AcDbLine
 62
7
  6
CONTINUOUS
 10
8.551296508
 20
2.6526265915
 11
8.4509028073
 21
2.6526265915
  0
LINE
  5
224
100
AcDbEntity
  8
0
100
AcDbLine
 62
7
  6
CONTINUOUS
 10
8.3476344369
 20
2.6526265915
 11
8.2472407361
 21
2.6526265915
  0
LINE
  5
225
100
AcDbEntity
  8
0
100
AcDbLine
 62
7
  6
CONTINUOUS
 10
8.0729433927
 20
2.6526265915
 11
7.9177085827
 21
2.6526265915
  0
LINE
  5
226
100
AcDbEntity
  8
0
100
AcDbLine
 62
7
  6
CONTINUOUS
 10
7.9168608688
 20
2.6526265915
 11
7.8906989316
 21
2.6526265915
  0
LINE
  5
227
100
AcDbEntity
  8
0
100
AcDbLine
 62
7
  6
CONTINUOUS
 10
7.7506833357
 20
2.6526265915
 11
7.650289635
 21
2.6526265915
  0
LINE
  5
228
100
AcDbEntity
  8
0
100
AcDbLine
 62
7
  6
CONTINUOUS
 10
7.5771021843
 20
2.6526265915
 11
7.4767084835
 21
2.6526265915
  0
LINE
  5
229
100
AcDbEntity
  8
0
100
AcDbLine
 62
7
  6
CONTINUOUS
 10
7.4766360777
 20
2.6526265915
 11
7.4213685896
 21
2.6526265915
  0
LINE
  5
22A
100
AcDbEntity
  8
0
100
AcDbLine
 62
7
  6
CONTINUOUS
 10
7.4212258234
 20
2.6526265915
 11
7.3681297742
 21
2.6526265915
  0
LINE
  5
22B
100
AcDbEntity
  8
0
100
AcDbLine
 62
7
  6
CONTINUOUS
 10
7.366821303
 20
2.6526265915
 11
7.2664276022
 21
2.6526265915
  0
LINE
  5
22C
100
AcDbEntity
  8
0
100
AcDbLine
 62
7
  6
CONTINUOUS
 10
7.1294576322
 20
2.6526265915
 11
7.044686955
 21
2.6526265915
  0
LINE
  5
22D
100
AcDbEntity
  8
0
100
AcDbLine
 62
7
  6
CONTINUOUS
 10
7.0439079597
 20
2.6526265915
 11
6.9435142589
 21
2.6526265915
  0
LINE
  5
22E
100
AcDbEntity
  8
0
100
AcDbLine
 62
7
  6
CONTINUOUS
 10
6.9426008686
 20
2.6526265915
 11
6.8741244951
 21
2.6526265915
  0
LINE
  5
22F
100
AcDbEntity
  8
0
100
AcDbLine
 62
7
  6
CONTINUOUS
 10
6.8636259974
 20
2.6526265915
 11
6.7632322966
 21
2.6526265915
  0
LINE
  5
230
100
AcDbEntity
  8
0
100
AcDbLine
 62
7
  6
CONTINUOUS
 10
6.7630003727
 20
2.6526265915
 11
6.7438470302
 21
2.6526265915
  0
LINE
  5
231
100
AcDbEntity
  8
0
100
AcDbLine
 62
7
  6
CONTINUOUS
 10
6.6750180202
 20
2.6526265915
 11
6.5746243195
 21
2.6526265915
  0
LINE
  5
232
100
AcDbEntity
  8
0
100
AcDbLine
 62
7
  6
CONTINUOUS
 10
6.4759344935
 20
2.6526265915
 11
6.4427087279
 21
2.6526265915
  0
LINE
  5
233
100
AcDbEntity
  8
0
100
AcDbLine
 62
7
  6
CONTINUOUS
 10
6.4418227559
 20
2.6526265915
 11
6.3414290551
 21
2.6526265915
  0
LINE
  5
234
100
AcDbEntity
  8
0
100
AcDbLine
 62
7
  6
CONTINUOUS
 10
6.3398177707
 20
2.6526265915
 11
6.3209748888
 21
2.6526265915
  0
LINE
  5
235
100
AcDbEntity
  8
0
100
AcDbLine
 62
7
  6
CONTINUOUS
 10
6.2727150306
 20
2.6526265915
 11
6.138826727
 21
2.6526265915
  0
LINE
  5
236
100
AcDbEntity
  8
0
100
AcDbLine
 62
7
  6
CONTINUOUS
 10
6.102390703
 20
2.6526265915
 11
6.0019970023
 21
2.6526265915
  0
LINE
  5
237
100
AcDbEntity
  8
0
100
AcDbLine
 62
7
  6
CONTINUOUS
 10
5.9332829778
 20
2.6526265915
 11
5.798479188
 21
2.6526265915
  0
LINE
  5
238
100
AcDbEntity
  8
0
100
AcDbLine
 62
7
  6
CONTINUOUS
 10
5.7971605855
 20
2.6526265915
 11
5.6619566482
 21
2.6526265915
  0
LINE
  5
239
100
AcDbEntity
  8
0
100
AcDbLine
 62
7
  6
CONTINUOUS
 10
5.631217512
 20
2.6526265915
 11
5.5308238113
 21
2.6526265915
  0
LINE
  5
23A
100
AcDbEntity
  8
0
100
AcDbLine
 62
7
  6
CONTINUOUS
 10
5.5301463873
 20
2.6526265915
 11
5.4946738265
 21
2.6526265915
  0
LINE
  5
23B
100
AcDbEntity
  8
0
100
AcDbLine
 62
7
  6
CONTINUOUS
 10
5.4676284321
 20
2.6526265915
 11
5.3672347313
 21
2.6526265915
  0
LINE
  5
23C
100
AcDbEntity
  8
0
100
AcDbLine
 62
7
  6
CONTINUOUS
 10
5.3101155608
 20
2.6526265915
 11
5.20972186
 21
2.6526265915
  0
LINE
  5
23D
100
AcDbEntity
  8
0
100
AcDbLine
 62
7
  6
CONTINUOUS
 10
5.0361758679
 20
2.6526265915
 11
5.0335948488
 21
2.6526265915
  0
LINE
  5
23E
100
AcDbEntity
  8
0
100
AcDbLine
 62
7
  6
CONTINUOUS
 10
5.1729065152
 20
2.6526265915
 11
5.0377025779
 21
2.6526265915
  0
LINE
  5
23F
100
AcDbEntity
  8
0
100
AcDbLine
 62
7
  6
CONTINUOUS
 10
4.9794410899
 20
2.6526265915
 11
4.8790473891
 21
2.6526265915
  0
LINE
  5
240
100
AcDbEntity
  8
0
100
AcDbLine
 62
7
  6
CONTINUOUS
 10
4.8328661612
 20
2.6526265915
 11
4.7324724604
 21
2.6526265915
  0
LINE
  5
241
100
AcDbEntity
  8
0
100
AcDbLine
 62
7
  6
CONTINUOUS
 10
4.7141835502
 20
2.6526265915
 11
4.6137898495
 21
2.6526265915
  0
LINE
  5
242
100
AcDbEntity
  8
0
100
AcDbLine
 62
7
  6
CONTINUOUS
 10
4.6132838084
 20
2.6526265915
 11
4.5956427357
 21
2.6526265915
  0
LINE
  5
243
100
AcDbEntity
  8
0
100
AcDbLine
 62
7
  6
CONTINUOUS
 10
4.5138882746
 20
2.6526265915
 11
4.4938397583
 21
2.6526265915
  0
LINE
  5
244
100
AcDbEntity
  8
0
100
AcDbLine
 62
7
  6
CONTINUOUS
 10
4.4934341083
 20
2.6526265915
 11
4.3930404075
 21
2.6526265915
  0
LINE
  5
245
100
AcDbEntity
  8
0
100
AcDbLine
 62
7
  6
CONTINUOUS
 10
4.3583392739
 20
2.6526265915
 11
4.2579455731
 21
2.6526265915
  0
LINE
  5
246
100
AcDbEntity
  8
0
100
AcDbLine
 62
7
  6
CONTINUOUS
 10
4.2568074704
 20
2.6526265915
 11
4.1598451432
 21
2.6526265915
  0
LINE
  5
247
100
AcDbEntity
  8
0
100
AcDbLine
 62
7
  6
CONTINUOUS
 10
4.1590237736
 20
2.6526265915
 11
4.1481353038
 21
2.6526265915
  0
LINE
  5
248
100
AcDbEntity
  8
0
100
AcDbLine
 62
7
  6
CONTINUOUS
 10
3.9936678251
 20
2.6526265915
 11
3.8932741243
 21
2.6526265915
  0
LINE
  5
249
100
AcDbEntity
  8
0
100
AcDbLine
 62
7
  6
CONTINUOUS
 10
3.8913489045
 20
2.6526265915
 11
3.7909552038
 21
2.6526265915
  0
LINE
  5
24A
100
AcDbEntity
  8
0
100
AcDbLine
 62
7
  6
CONTINUOUS
 10
3.706104615
 20
2.6526265915
 11
3.7054120983
 21
2.6526265915
  0
LINE
  5
24B
100
AcDbEntity
  8
0
100
AcDbLine
 62
7
  6
CONTINUOUS
 10
3.7894388866
 20
2.6526265915
 11
3.7065444746
 21
2.6526265915
  0
LINE
  5
24C
100
AcDbEntity
  8
0
100
AcDbLine
 62
7
  6
CONTINUOUS
 10
3.5140310409
 20
2.6526265915
 11
3.4136392026
 21
2.6526265915
  0
LINE
  5
24D
100
AcDbEntity
  8
0
100
AcDbLine
 62
7
  6
CONTINUOUS
 10
3.4129238883
 20
2.6526265915
 11
3.3605869797
 21
2.6526265915
  0
LINE
  5
24E
100
AcDbEntity
  8
0
100
AcDbLine
 62
7
  6
CONTINUOUS
 10
3.3598843533
 20
2.6526265915
 11
3.2577609792
 21
2.6526265915
  0
LINE
  5
24F
100
AcDbEntity
  8
0
100
AcDbLine
 62
7
  6
CONTINUOUS
 10
3.0452678434
 20
2.6526265915
 11
2.9448999648
 21
2.6526265915
  0
LINE
  5
250
100
AcDbEntity
  8
0
100
AcDbLine
 62
7
  6
CONTINUOUS
 10
2.9171545807
 20
2.6526265915
 11
2.7824634574
 21
2.6526265915
  0
LINE
  5
251
100
AcDbEntity
  8
0
100
AcDbLine
 62
7
  6
CONTINUOUS
 10
2.5876224273
 20
2.6526265915
 11
2.4872594838
 21
2.6526265915
  0
LINE
  5
252
100
AcDbEntity
  8
0
100
AcDbLine
 62
7
  6
CONTINUOUS
 10
2.3839603562
 20
2.6526265915
 11
2.2835666554
 21
2.6526265915
  0
LINE
  5
253
100
AcDbEntity
  8
0
100
AcDbLine
 62
7
  6
CONTINUOUS
 10
2.2831520497
 20
2.6526265915
 11
2.2146756762
 21
2.6526265915
  0
LINE
  5
254
100
AcDbEntity
  8
0
100
AcDbLine
 62
7
  6
CONTINUOUS
 10
8.6398725266
 20
2.6723116309
 11
8.4312177679
 21
2.6723116309
  0
LINE
  5
255
100
AcDbEntity
  8
0
100
AcDbLine
 62
7
  6
CONTINUOUS
 10
8.3673194762
 20
2.6723116309
 11
8.2275556967
 21
2.6723116309
  0
LINE
  5
256
100
AcDbEntity
  8
0
100
AcDbLine
 62
7
  6
CONTINUOUS
 10
8.0926284321
 20
2.6723116309
 11
7.8710138923
 21
2.6723116309
  0
LINE
  5
257
100
AcDbEntity
  8
0
100
AcDbLine
 62
7
  6
CONTINUOUS
 10
7.7703683751
 20
2.6723116309
 11
7.6306045956
 21
2.6723116309
  0
LINE
  5
258
100
AcDbEntity
  8
0
100
AcDbLine
 62
7
  6
CONTINUOUS
 10
7.5967872236
 20
2.6723116309
 11
7.2467425628
 21
2.6723116309
  0
LINE
  5
259
100
AcDbEntity
  8
0
100
AcDbLine
 62
7
  6
CONTINUOUS
 10
7.1491426715
 20
2.6723116309
 11
6.8833551406
 21
2.6723116309
  0
LINE
  5
25A
100
AcDbEntity
  8
0
100
AcDbLine
 62
7
  6
CONTINUOUS
 10
6.8833110368
 20
2.6723116309
 11
6.7241619908
 21
2.6723116309
  0
LINE
  5
25B
100
AcDbEntity
  8
0
100
AcDbLine
 62
7
  6
CONTINUOUS
 10
6.6947030596
 20
2.6723116309
 11
6.5549392801
 21
2.6723116309
  0
LINE
  5
25C
100
AcDbEntity
  8
0
100
AcDbLine
 62
7
  6
CONTINUOUS
 10
6.4956195328
 20
2.6723116309
 11
6.3012898494
 21
2.6723116309
  0
LINE
  5
25D
100
AcDbEntity
  8
0
100
AcDbLine
 62
7
  6
CONTINUOUS
 10
6.29240007
 20
2.6723116309
 11
5.9823119629
 21
2.6723116309
  0
LINE
  5
25E
100
AcDbEntity
  8
0
100
AcDbLine
 62
7
  6
CONTINUOUS
 10
5.9529680171
 20
2.6723116309
 11
5.347549692
 21
2.6723116309
  0
LINE
  5
25F
100
AcDbEntity
  8
0
100
AcDbLine
 62
7
  6
CONTINUOUS
 10
5.3298006002
 20
2.6723116309
 11
5.0139098094
 21
2.6723116309
  0
LINE
  5
260
100
AcDbEntity
  8
0
100
AcDbLine
 62
7
  6
CONTINUOUS
 10
4.9991261293
 20
2.6723116309
 11
4.8593623497
 21
2.6723116309
  0
LINE
  5
261
100
AcDbEntity
  8
0
100
AcDbLine
 62
7
  6
CONTINUOUS
 10
4.8525512006
 20
2.6723116309
 11
4.5759576963
 21
2.6723116309
  0
LINE
  5
262
100
AcDbEntity
  8
0
100
AcDbLine
 62
7
  6
CONTINUOUS
 10
4.533573314
 20
2.6723116309
 11
4.1284502644
 21
2.6723116309
  0
LINE
  5
263
100
AcDbEntity
  8
0
100
AcDbLine
 62
7
  6
CONTINUOUS
 10
4.0133528645
 20
2.6723116309
 11
3.6857204919
 21
2.6723116309
  0
LINE
  5
264
100
AcDbEntity
  8
0
100
AcDbLine
 62
7
  6
CONTINUOUS
 10
3.5337160802
 20
2.6723116309
 11
3.2380759398
 21
2.6723116309
  0
LINE
  5
265
100
AcDbEntity
  8
0
100
AcDbLine
 62
7
  6
CONTINUOUS
 10
3.0649528828
 20
2.6723116309
 11
2.762778418
 21
2.6723116309
  0
LINE
  5
266
100
AcDbEntity
  8
0
100
AcDbLine
 62
7
  6
CONTINUOUS
 10
2.6073074667
 20
2.6723116309
 11
2.4675436872
 21
2.6723116309
  0
LINE
  5
267
100
AcDbEntity
  8
0
100
AcDbLine
 62
7
  6
CONTINUOUS
 10
2.4036453956
 20
2.6723116309
 11
2.1949906368
 21
2.6723116309
  0
LINE
  5
268
100
AcDbEntity
  8
0
100
AcDbLine
 62
7
  6
CONTINUOUS
 10
5.347549692
 20
2.6810911585
 11
5.3298006002
 21
2.6810911585
  0
LINE
  5
269
100
AcDbEntity
  8
0
100
AcDbLine
 62
7
  6
CONTINUOUS
 10
5.3298006002
 20
2.7125872215
 11
5.347549692
 21
2.7125872215
  0
LINE
  5
26A
100
AcDbEntity
  8
0
100
AcDbLine
 62
7
  6
CONTINUOUS
 10
9.0824315825
 20
2.7128565915
 11
1.7524315825
 21
2.7128565915
  0
LINE
  5
26B
100
AcDbEntity
  8
0
100
AcDbLine
 62
7
  6
CONTINUOUS
 10
9.2674315817
 20
2.7141226545
 11
1.5674315817
 21
2.7141226545
  0
LINE
  5
26C
100
AcDbEntity
  8
0
100
AcDbLine
 62
7
  6
CONTINUOUS
 10
4.1284502644
 20
2.7128565915
 11
4.1284502644
 21
2.6723116309
  0
LINE
  5
26D
100
AcDbEntity
  8
0
100
AcDbLine
 62
7
  6
CONTINUOUS
 10
4.1401601038
 20
2.7128565915
 11
4.1401601038
 21
2.6723116309
  0
LINE
  5
26E
100
AcDbEntity
  8
0
100
AcDbLine
 62
7
  6
CONTINUOUS
 10
4.2382605337
 20
2.7128565915
 11
4.2382605337
 21
2.6723116309
  0
LINE
  5
26F
100
AcDbEntity
  8
0
100
AcDbLine
 62
7
  6
CONTINUOUS
 10
9.365912357
 20
2.8314874723
 11
1.4689508064
 21
2.8314874723
  0
LINE
  5
270
100
AcDbEntity
  8
0
100
AcDbLine
 62
7
  6
CONTINUOUS
 10
9.352741018
 20
2.906185848
 11
1.4821221455
 21
2.906185848
  0
LINE
  5
271
100
AcDbEntity
  8
0
100
AcDbLine
 62
7
  6
CONTINUOUS
 10
4.3733553682
 20
2.7128565915
 11
4.3733553682
 21
2.6723116309
  0
LINE
  5
272
100
AcDbEntity
  8
0
100
AcDbLine
 62
7
  6
CONTINUOUS
 10
4.5131191477
 20
2.7128565915
 11
4.5131191477
 21
2.6723116309
  0
LINE
  5
273
100
AcDbEntity
  8
0
100
AcDbLine
 62
7
  6
CONTINUOUS
 10
4.533573314
 20
2.7128565915
 11
4.533573314
 21
2.6723116309
  0
LINE
  5
274
100
AcDbEntity
  8
0
100
AcDbLine
 62
7
  6
CONTINUOUS
 10
4.5759576963
 20
2.7128565915
 11
4.5759576963
 21
2.6723116309
  0
LINE
  5
275
100
AcDbEntity
  8
0
100
AcDbLine
 62
7
  6
CONTINUOUS
 10
4.5941048101
 20
2.7128565915
 11
4.5941048101
 21
2.6723116309
  0
LINE
  5
276
100
AcDbEntity
  8
0
100
AcDbLine
 62
7
  6
CONTINUOUS
 10
9.1049315817
 20
3.1141226545
 11
1.7299315817
 21
3.1141226545
  0
LINE
  5
277
100
AcDbEntity
  8
0
100
AcDbLine
 62
7
  6
CONTINUOUS
 10
9.0290441889
 20
3.1562489525
 11
1.8058189746
 21
3.1562489525
  0
LINE
  5
278
100
AcDbEntity
  8
0
100
AcDbLine
 62
7
  6
CONTINUOUS
 10
4.712787421
 20
2.7128565915
 11
4.712787421
 21
2.6723116309
  0
LINE
  5
279
100
AcDbEntity
  8
0
100
AcDbLine
 62
7
  6
CONTINUOUS
 10
4.7674315817
 20
4.8841226545
 11
4.7674315817
 21
4.964973489
  0
LINE
  5
27A
100
AcDbEntity
  8
0
100
AcDbLine
 62
7
  6
CONTINUOUS
 10
4.8525512006
 20
2.7128565915
 11
4.8525512006
 21
2.6723116309
  0
LINE
  5
27B
100
AcDbEntity
  8
0
100
AcDbLine
 62
7
  6
CONTINUOUS
 10
4.8593623497
 20
2.7128565915
 11
4.8593623497
 21
2.6723116309
  0
LINE
  5
27C
100
AcDbEntity
  8
0
100
AcDbLine
 62
7
  6
CONTINUOUS
 10
4.9174315817
 20
5.1586226563
 11
4.9174315817
 21
5.6986226545
  0
LINE
  5
27D
100
AcDbEntity
  8
0
100
AcDbLine
 62
7
  6
CONTINUOUS
 10
4.9991261293
 20
2.7128565915
 11
4.9991261293
 21
2.6723116309
  0
LINE
  5
27E
100
AcDbEntity
  8
0
100
AcDbLine
 62
7
  6
CONTINUOUS
 10
5.0139098094
 20
2.7128565915
 11
5.0139098094
 21
2.6723116309
  0
LINE
  5
27F
100
AcDbEntity
  8
0
100
AcDbLine
 62
7
  6
CONTINUOUS
 10
5.0180175386
 20
2.7128565915
 11
5.0180175386
 21
2.6723116309
  0
LINE
  5
280
100
AcDbEntity
  8
0
100
AcDbLine
 62
7
  6
CONTINUOUS
 10
5.0710214202
 20
4.9646226563
 11
5.0710214202
 21
4.964973489
  0
LINE
  5
281
100
AcDbEntity
  8
0
100
AcDbLine
 62
7
  6
CONTINUOUS
 10
5.1577813181
 20
2.7128565915
 11
5.1577813181
 21
2.6723116309
  0
LINE
  5
282
100
AcDbEntity
  8
0
100
AcDbLine
 62
7
  6
CONTINUOUS
 10
5.1900368206
 20
2.7128565915
 11
5.1900368206
 21
2.6723116309
  0
LINE
  5
283
100
AcDbEntity
  8
0
100
AcDbLine
 62
7
  6
CONTINUOUS
 10
5.3298006002
 20
2.7128565915
 11
5.3298006002
 21
2.6723116309
  0
LINE
  5
284
100
AcDbEntity
  8
0
100
AcDbLine
 62
7
  6
CONTINUOUS
 10
5.347549692
 20
2.7128565915
 11
5.347549692
 21
2.6723116309
  0
LINE
  5
285
100
AcDbEntity
  8
0
100
AcDbLine
 62
7
  6
CONTINUOUS
 10
8.4788124531
 20
3.9856287754
 11
2.3560507104
 21
3.9856287754
  0
LINE
  5
286
100
AcDbEntity
  8
0
100
AcDbLine
 62
7
  6
CONTINUOUS
 10
8.457441912
 20
4.0134581988
 11
2.3774212514
 21
4.0134581988
  0
LINE
  5
287
100
AcDbEntity
  8
0
100
AcDbLine
 62
7
  6
CONTINUOUS
 10
8.2247055528
 20
4.2135907184
 11
2.6101576107
 21
4.2135907184
  0
LINE
  5
288
100
AcDbEntity
  8
0
100
AcDbLine
 62
7
  6
CONTINUOUS
 10
5.4873134715
 20
2.7128565915
 11
5.4873134715
 21
2.6723116309
  0
LINE
  5
289
100
AcDbEntity
  8
0
100
AcDbLine
 62
7
  6
CONTINUOUS
 10
5.5111387719
 20
2.7128565915
 11
5.5111387719
 21
2.6723116309
  0
LINE
  5
28A
100
AcDbEntity
  8
0
100
AcDbLine
 62
7
  6
CONTINUOUS
 10
5.6509025514
 20
2.7128565915
 11
5.6509025514
 21
2.6723116309
  0
LINE
  5
28B
100
AcDbEntity
  8
0
100
AcDbLine
 62
7
  6
CONTINUOUS
 10
5.6770818454
 20
2.7128565915
 11
5.6770818454
 21
2.6723116309
  0
LINE
  5
28C
100
AcDbEntity
  8
0
100
AcDbLine
 62
7
  6
CONTINUOUS
 10
5.7638417432
 20
4.9646226563
 11
5.7638417432
 21
4.9649734889
  0
LINE
  5
28D
100
AcDbEntity
  8
0
100
AcDbLine
 62
7
  6
CONTINUOUS
 10
5.8168456249
 20
2.7128565915
 11
5.8168456249
 21
2.6723116309
  0
LINE
  5
28E
100
AcDbEntity
  8
0
100
AcDbLine
 62
7
  6
CONTINUOUS
 10
5.9174315817
 20
5.1586226562
 11
5.9174315817
 21
5.6986226545
  0
LINE
  5
28F
100
AcDbEntity
  8
0
100
AcDbLine
 62
7
  6
CONTINUOUS
 10
5.9529680171
 20
2.7128565915
 11
5.9529680171
 21
2.6723116309
  0
LINE
  5
290
100
AcDbEntity
  8
0
100
AcDbLine
 62
7
  6
CONTINUOUS
 10
5.9823119629
 20
2.7128565915
 11
5.9823119629
 21
2.6723116309
  0
LINE
  5
291
100
AcDbEntity
  8
0
100
AcDbLine
 62
7
  6
CONTINUOUS
 10
6.0674315817
 20
4.8841226545
 11
6.0674315817
 21
4.9649734889
  0
LINE
  5
292
100
AcDbEntity
  8
0
100
AcDbLine
 62
7
  6
CONTINUOUS
 10
6.1220757424
 20
2.7128565915
 11
6.1220757424
 21
2.6723116309
  0
LINE
  5
293
100
AcDbEntity
  8
0
100
AcDbLine
 62
7
  6
CONTINUOUS
 10
6.1526362905
 20
2.7128565915
 11
6.1526362905
 21
2.6723116309
  0
LINE
  5
294
100
AcDbEntity
  8
0
100
AcDbLine
 62
7
  6
CONTINUOUS
 10
6.29240007
 20
2.7128565915
 11
6.29240007
 21
2.6723116309
  0
LINE
  5
295
100
AcDbEntity
  8
0
100
AcDbLine
 62
7
  6
CONTINUOUS
 10
6.3012898494
 20
2.7128565915
 11
6.3012898494
 21
2.6723116309
  0
LINE
  5
296
100
AcDbEntity
  8
0
100
AcDbLine
 62
7
  6
CONTINUOUS
 10
4.7349814639
 20
4.873879144
 11
6.0998816995
 21
4.873879144
  0
LINE
  5
297
100
AcDbEntity
  8
0
100
AcDbLine
 62
7
  6
CONTINUOUS
 10
4.7674315817
 20
4.8841226545
 11
6.0674315817
 21
4.8841226545
  0
LINE
  5
298
100
AcDbEntity
  8
0
100
AcDbLine
 62
7
  6
CONTINUOUS
 10
5.0710214202
 20
4.9646226563
 11
5.7638417432
 21
4.9646226563
  0
LINE
  5
299
100
AcDbEntity
  8
0
100
AcDbLine
 62
7
  6
CONTINUOUS
 10
6.0674315817
 20
4.9649734889
 11
5.7638417432
 21
4.9649734889
  0
LINE
  5
29A
100
AcDbEntity
  8
0
100
AcDbLine
 62
7
  6
CONTINUOUS
 10
5.0710214202
 20
4.964973489
 11
4.7674315817
 21
4.964973489
  0
LINE
  5
29B
100
AcDbEntity
  8
0
100
AcDbLine
 62
7
  6
CONTINUOUS
 10
6.3217440158
 20
2.7128565915
 11
6.3217440158
 21
2.6723116309
  0
LINE
  5
29C
100
AcDbEntity
  8
0
100
AcDbLine
 62
7
  6
CONTINUOUS
 10
6.4615077953
 20
2.7128565915
 11
6.4615077953
 21
2.6723116309
  0
LINE
  5
29D
100
AcDbEntity
  8
0
100
AcDbLine
 62
7
  6
CONTINUOUS
 10
6.4956195328
 20
2.7128565915
 11
6.4956195328
 21
2.6723116309
  0
LINE
  5
29E
100
AcDbEntity
  8
0
100
AcDbLine
 62
7
  6
CONTINUOUS
 10
6.5549392801
 20
2.7128565915
 11
6.5549392801
 21
2.6723116309
  0
LINE
  5
29F
100
AcDbEntity
  8
0
100
AcDbLine
 62
7
  6
CONTINUOUS
 10
5.9174315817
 20
5.1586226562
 11
4.9174315817
 21
5.1586226563
  0
LINE
  5
2A0
100
AcDbEntity
  8
0
100
AcDbLine
 62
7
  6
CONTINUOUS
 10
6.6947030596
 20
2.7128565915
 11
6.6947030596
 21
2.6723116309
  0
LINE
  5
2A1
100
AcDbEntity
  8
0
100
AcDbLine
 62
7
  6
CONTINUOUS
 10
6.7241619908
 20
2.7128565915
 11
6.7241619908
 21
2.6723116309
  0
LINE
  5
2A2
100
AcDbEntity
  8
0
100
AcDbLine
 62
7
  6
CONTINUOUS
 10
6.7435472572
 20
2.7128565915
 11
6.7435472572
 21
2.6723116309
  0
LINE
  5
2A3
100
AcDbEntity
  8
0
100
AcDbLine
 62
7
  6
CONTINUOUS
 10
5.8974315817
 20
5.7186226545
 11
5.9174315817
 21
5.6986226545
  0
LINE
  5
2A4
100
AcDbEntity
  8
0
100
AcDbLine
 62
7
  6
CONTINUOUS
 10
6.8833110368
 20
2.7128565915
 11
6.8833110368
 21
2.6723116309
  0
LINE
  5
2A5
100
AcDbEntity
  8
0
100
AcDbLine
 62
7
  6
CONTINUOUS
 10
6.9238292195
 20
2.7128565915
 11
6.9238292195
 21
2.6723116309
  0
LINE
  5
2A6
100
AcDbEntity
  8
0
100
AcDbLine
 62
7
  6
CONTINUOUS
 10
7.063592999
 20
2.7128565915
 11
7.063592999
 21
2.6723116309
  0
LINE
  5
2A7
100
AcDbEntity
  8
0
100
AcDbLine
 62
7
  6
CONTINUOUS
 10
7.1491426715
 20
2.7128565915
 11
7.1491426715
 21
2.6723116309
  0
LINE
  5
2A8
100
AcDbEntity
  8
0
100
AcDbLine
 62
7
  6
CONTINUOUS
 10
5.9174315817
 20
5.6986226545
 11
4.9174315817
 21
5.6986226545
  0
LINE
  5
2A9
100
AcDbEntity
  8
0
100
AcDbLine
 62
7
  6
CONTINUOUS
 10
5.8974315817
 20
5.7186226545
 11
4.9374315817
 21
5.7186226545
  0
LINE
  5
2AA
100
AcDbEntity
  8
0
100
AcDbLine
 62
7
  6
CONTINUOUS
 10
7.2467425628
 20
2.7128565915
 11
7.2467425628
 21
2.6723116309
  0
LINE
  5
2AB
100
AcDbEntity
  8
0
100
AcDbLine
 62
7
  6
CONTINUOUS
 10
7.3865063423
 20
2.7128565915
 11
7.3865063423
 21
2.6723116309
  0
LINE
  5
2AC
100
AcDbEntity
  8
0
100
AcDbLine
 62
7
  6
CONTINUOUS
 10
7.4409108627
 20
2.7128565915
 11
7.4409108627
 21
2.6723116309
  0
LINE
  5
2AD
100
AcDbEntity
  8
0
100
AcDbLine
 62
7
  6
CONTINUOUS
 10
7.4570234441
 20
2.7128565915
 11
7.4570234441
 21
2.6723116309
  0
LINE
  5
2AE
100
AcDbEntity
  8
0
100
AcDbLine
 62
7
  6
CONTINUOUS
 10
7.5967872236
 20
2.7128565915
 11
7.5967872236
 21
2.6723116309
  0
LINE
  5
2AF
100
AcDbEntity
  8
0
100
AcDbLine
 62
7
  6
CONTINUOUS
 10
7.6306045956
 20
2.7128565915
 11
7.6306045956
 21
2.6723116309
  0
LINE
  5
2B0
100
AcDbEntity
  8
0
100
AcDbLine
 62
7
  6
CONTINUOUS
 10
7.7703683751
 20
2.7128565915
 11
7.7703683751
 21
2.6723116309
  0
LINE
  5
2B1
100
AcDbEntity
  8
0
100
AcDbLine
 62
7
  6
CONTINUOUS
 10
7.8710138923
 20
2.7128565915
 11
7.8710138923
 21
2.6723116309
  0
LINE
  5
2B2
100
AcDbEntity
  8
0
100
AcDbLine
 62
7
  6
CONTINUOUS
 10
7.8980235433
 20
2.7128565915
 11
7.8980235433
 21
2.6723116309
  0
LINE
  5
2B3
100
AcDbEntity
  8
0
100
AcDbLine
 62
7
  6
CONTINUOUS
 10
8.0377873229
 20
2.7128565915
 11
8.0377873229
 21
2.6723116309
  0
LINE
  5
2B4
100
AcDbEntity
  8
0
100
AcDbLine
 62
7
  6
CONTINUOUS
 10
8.0926284321
 20
2.7128565915
 11
8.0926284321
 21
2.6723116309
  0
LINE
  5
2B5
100
AcDbEntity
  8
0
100
AcDbLine
 62
7
  6
CONTINUOUS
 10
8.2275556967
 20
2.7128565915
 11
8.2275556967
 21
2.6723116309
  0
LINE
  5
2B6
100
AcDbEntity
  8
0
100
AcDbLine
 62
7
  6
CONTINUOUS
 10
8.3673194762
 20
2.7128565915
 11
8.3673194762
 21
2.6723116309
  0
LINE
  5
2B7
100
AcDbEntity
  8
0
100
AcDbLine
 62
7
  6
CONTINUOUS
 10
8.4312177679
 20
2.7128565915
 11
8.4312177679
 21
2.6723116309
  0
LINE
  5
2B8
100
AcDbEntity
  8
0
100
AcDbLine
 62
7
  6
CONTINUOUS
 10
8.5709815474
 20
2.7128565915
 11
8.5709815474
 21
2.6723116309
  0
LINE
  5
2B9
100
AcDbEntity
  8
0
100
AcDbLine
 62
7
  6
CONTINUOUS
 10
8.6398725266
 20
2.7128565915
 11
8.6398725266
 21
2.6723116309
  0
LINE
  5
2BA
100
AcDbEntity
  8
0
100
AcDbLine
 62
7
  6
CONTINUOUS
 10
9.365912357
 20
2.8314874723
 11
9.352741018
 21
2.906185848
  0
ARC
  5
2BB
100
AcDbEntity
  8
0
100
AcDbCircle
 62
7
  6
CONTINUOUS
 10
2.9908467271
 20
2.9672801037
 40
1.2
100
AcDbArc
 50
121.9376896146
 51
170.9396892033
  0
ARC
  5
2BC
100
AcDbEntity
  8
0
100
AcDbCircle
 62
7
  6
CONTINUOUS
 10
1.7299315817
 20
2.8624903583
 40
0.2516322963
100
AcDbArc
 50
90.0
 51
170.0
  0
ARC
  5
2BD
100
AcDbEntity
  8
0
100
AcDbCircle
 62
7
  6
CONTINUOUS
 10
1.5674315817
 20
2.8141226545
 40
0.1
100
AcDbArc
 50
170.0
 51
270.0
  0
ARC
  5
2BE
100
AcDbEntity
  8
0
100
AcDbCircle
 62
7
  6
CONTINUOUS
 10
1.7524315825
 20
2.7728565915
 40
0.06
100
AcDbArc
 50
258.2154030816
 51
270.0
  0
ARC
  5
2BF
100
AcDbEntity
  8
0
100
AcDbCircle
 62
7
  6
CONTINUOUS
 10
1.7564428182
 20
3.1641226545
 40
0.05
100
AcDbArc
 50
270.0
 51
350.9396892033
  0
ARC
  5
2C0
100
AcDbEntity
  8
0
100
AcDbCircle
 62
7
  6
CONTINUOUS
 10
2.81676088
 20
2.6723116309
 40
0.0196850394
100
AcDbArc
 50
180.0
 51
270.0
  0
ARC
  5
2C1
100
AcDbEntity
  8
0
100
AcDbCircle
 62
7
  6
CONTINUOUS
 10
2.9171545808
 20
2.6723116309
 40
0.0196850394
100
AcDbArc
 50
270.0
 51
360.0
  0
ARC
  5
2C2
100
AcDbEntity
  8
0
100
AcDbCircle
 62
7
  6
CONTINUOUS
 10
3.2577609792
 20
2.6723116309
 40
0.0196850394
100
AcDbArc
 50
180.0
 51
270.0
  0
ARC
  5
2C3
100
AcDbEntity
  8
0
100
AcDbCircle
 62
7
  6
CONTINUOUS
 10
3.35815468
 20
2.6723116309
 40
0.0196850394
100
AcDbArc
 50
270.0
 51
360.0
  0
ARC
  5
2C4
100
AcDbEntity
  8
0
100
AcDbCircle
 62
7
  6
CONTINUOUS
 10
2.2146756762
 20
2.6723116309
 40
0.0196850394
100
AcDbArc
 50
180.0
 51
270.0
  0
ARC
  5
2C5
100
AcDbEntity
  8
0
100
AcDbCircle
 62
7
  6
CONTINUOUS
 10
3.4136373401
 20
2.6723116309
 40
0.0196850394
100
AcDbArc
 50
180.0
 51
270.0
  0
ARC
  5
2C6
100
AcDbEntity
  8
0
100
AcDbCircle
 62
7
  6
CONTINUOUS
 10
2.3839603562
 20
2.6723116309
 40
0.0196850394
100
AcDbArc
 50
270.0
 51
360.0
  0
ARC
  5
2C7
100
AcDbEntity
  8
0
100
AcDbCircle
 62
7
  6
CONTINUOUS
 10
2.2835666554
 20
2.6723116309
 40
0.0196850394
100
AcDbArc
 50
180.0
 51
270.0
  0
ARC
  5
2C8
100
AcDbEntity
  8
0
100
AcDbCircle
 62
7
  6
CONTINUOUS
 10
2.5876224274
 20
2.6723116309
 40
0.0196850394
100
AcDbArc
 50
270.0
 51
360.0
  0
ARC
  5
2C9
100
AcDbEntity
  8
0
100
AcDbCircle
 62
7
  6
CONTINUOUS
 10
2.4872287266
 20
2.6723116309
 40
0.0196850394
100
AcDbArc
 50
180.0
 51
270.0
  0
ARC
  5
2CA
100
AcDbEntity
  8
0
100
AcDbCircle
 62
7
  6
CONTINUOUS
 10
2.7824634573
 20
2.6723116309
 40
0.0196850394
100
AcDbArc
 50
180.0
 51
270.0
  0
ARC
  5
2CB
100
AcDbEntity
  8
0
100
AcDbCircle
 62
7
  6
CONTINUOUS
 10
3.0452678434
 20
2.6723116309
 40
0.0196850394
100
AcDbArc
 50
270.0
 51
360.0
  0
ARC
  5
2CC
100
AcDbEntity
  8
0
100
AcDbCircle
 62
7
  6
CONTINUOUS
 10
2.9448741426
 20
2.6723116309
 40
0.0196850394
100
AcDbArc
 50
225.2293041684
 51
270.0
  0
ARC
  5
2CD
100
AcDbEntity
  8
0
100
AcDbCircle
 62
7
  6
CONTINUOUS
 10
3.3598843533
 20
2.6723116309
 40
0.0196850394
100
AcDbArc
 50
270.0
 51
360.0
  0
ARC
  5
2CE
100
AcDbEntity
  8
0
100
AcDbCircle
 62
7
  6
CONTINUOUS
 10
2.6519102046
 20
3.9296440317
 40
0.287
100
AcDbArc
 50
98.3650423907
 51
163.0201466586
  0
ARC
  5
2CF
100
AcDbEntity
  8
0
100
AcDbCircle
 62
7
  6
CONTINUOUS
 10
2.3296008763
 20
4.0280599701
 40
0.05
100
AcDbArc
 50
301.9376896146
 51
343.0201466586
  0
ARC
  5
2D0
100
AcDbEntity
  8
0
100
AcDbCircle
 62
7
  6
CONTINUOUS
 10
4.7324724604
 20
2.6723116309
 40
0.0196850394
100
AcDbArc
 50
180.0
 51
270.0
  0
ARC
  5
2D1
100
AcDbEntity
  8
0
100
AcDbCircle
 62
7
  6
CONTINUOUS
 10
4.8328661612
 20
2.6723116309
 40
0.0196850394
100
AcDbArc
 50
270.0
 51
360.0
  0
ARC
  5
2D2
100
AcDbEntity
  8
0
100
AcDbCircle
 62
7
  6
CONTINUOUS
 10
4.5138882746
 20
2.6723116309
 40
0.0196850394
100
AcDbArc
 50
270.0
 51
360.0
  0
ARC
  5
2D3
100
AcDbEntity
  8
0
100
AcDbCircle
 62
7
  6
CONTINUOUS
 10
5.0335948488
 20
2.6723116309
 40
0.0196850394
100
AcDbArc
 50
180.0
 51
270.0
  0
ARC
  5
2D4
100
AcDbEntity
  8
0
100
AcDbCircle
 62
7
  6
CONTINUOUS
 10
4.1598451432
 20
2.6723116309
 40
0.0196850394
100
AcDbArc
 50
180.0
 51
270.0
  0
ARC
  5
2D5
100
AcDbEntity
  8
0
100
AcDbCircle
 62
7
  6
CONTINUOUS
 10
3.7054055313
 20
2.6723116309
 40
0.0196850394
100
AcDbArc
 50
180.0
 51
270.0
  0
ARC
  5
2D6
100
AcDbEntity
  8
0
100
AcDbCircle
 62
7
  6
CONTINUOUS
 10
5.20972186
 20
2.6723116309
 40
0.0196850394
100
AcDbArc
 50
180.0
 51
270.0
  0
ARC
  5
2D7
100
AcDbEntity
  8
0
100
AcDbCircle
 62
7
  6
CONTINUOUS
 10
5.3101155608
 20
2.6723116309
 40
0.0196850394
100
AcDbArc
 50
270.0
 51
360.0
  0
ARC
  5
2D8
100
AcDbEntity
  8
0
100
AcDbCircle
 62
7
  6
CONTINUOUS
 10
5.1729065152
 20
2.6723116309
 40
0.0196850394
100
AcDbArc
 50
270.0
 51
339.2872663556
  0
ARC
  5
2D9
100
AcDbEntity
  8
0
100
AcDbCircle
 62
7
  6
CONTINUOUS
 10
4.5956427357
 20
2.6723116309
 40
0.0196850394
100
AcDbArc
 50
180.0
 51
270.0
  0
ARC
  5
2DA
100
AcDbEntity
  8
0
100
AcDbCircle
 62
7
  6
CONTINUOUS
 10
3.9936678251
 20
2.6723116309
 40
0.0196850394
100
AcDbArc
 50
270.0
 51
360.0
  0
ARC
  5
2DB
100
AcDbEntity
  8
0
100
AcDbCircle
 62
7
  6
CONTINUOUS
 10
3.8932741243
 20
2.6723116309
 40
0.0196850394
100
AcDbArc
 50
267.2727272727
 51
270.0
  0
ARC
  5
2DC
100
AcDbEntity
  8
0
100
AcDbCircle
 62
7
  6
CONTINUOUS
 10
3.7065444746
 20
2.6723116309
 40
0.0196850394
100
AcDbArc
 50
180.0
 51
270.0
  0
ARC
  5
2DD
100
AcDbEntity
  8
0
100
AcDbCircle
 62
7
  6
CONTINUOUS
 10
3.7909552038
 20
2.6723116309
 40
0.0196850394
100
AcDbArc
 50
180.0
 51
270.0
  0
ARC
  5
2DE
100
AcDbEntity
  8
0
100
AcDbCircle
 62
7
  6
CONTINUOUS
 10
3.8913489046
 20
2.6723116309
 40
0.0196850394
100
AcDbArc
 50
270.0
 51
360.0
  0
ARC
  5
2DF
100
AcDbEntity
  8
0
100
AcDbCircle
 62
7
  6
CONTINUOUS
 10
3.5140310409
 20
2.6723116309
 40
0.0196850394
100
AcDbArc
 50
270.0
 51
360.0
  0
ARC
  5
2E0
100
AcDbEntity
  8
0
100
AcDbCircle
 62
7
  6
CONTINUOUS
 10
4.6137898494
 20
2.6723116309
 40
0.0196850394
100
AcDbArc
 50
180.0
 51
270.0
  0
ARC
  5
2E1
100
AcDbEntity
  8
0
100
AcDbCircle
 62
7
  6
CONTINUOUS
 10
4.7141835502
 20
2.6723116309
 40
0.0196850394
100
AcDbArc
 50
270.0
 51
297.6848067047
  0
ARC
  5
2E2
100
AcDbEntity
  8
0
100
AcDbCircle
 62
7
  6
CONTINUOUS
 10
4.1481353038
 20
2.6723116309
 40
0.0196850394
100
AcDbArc
 50
180.0
 51
270.0
  0
ARC
  5
2E3
100
AcDbEntity
  8
0
100
AcDbCircle
 62
7
  6
CONTINUOUS
 10
4.3930404075
 20
2.6723116309
 40
0.0196850394
100
AcDbArc
 50
180.0
 51
270.0
  0
ARC
  5
2E4
100
AcDbEntity
  8
0
100
AcDbCircle
 62
7
  6
CONTINUOUS
 10
4.4934341083
 20
2.6723116309
 40
0.0196850394
100
AcDbArc
 50
270.0
 51
360.0
  0
ARC
  5
2E5
100
AcDbEntity
  8
0
100
AcDbCircle
 62
7
  6
CONTINUOUS
 10
5.0377025779
 20
2.6723116309
 40
0.0196850394
100
AcDbArc
 50
180.0
 51
270.0
  0
ARC
  5
2E6
100
AcDbEntity
  8
0
100
AcDbCircle
 62
7
  6
CONTINUOUS
 10
5.1380962787
 20
2.6723116309
 40
0.0196850394
100
AcDbArc
 50
270.0
 51
360.0
  0
ARC
  5
2E7
100
AcDbEntity
  8
0
100
AcDbCircle
 62
7
  6
CONTINUOUS
 10
5.3672347313
 20
2.6723116309
 40
0.0196850394
100
AcDbArc
 50
180.0
 51
270.0
  0
ARC
  5
2E8
100
AcDbEntity
  8
0
100
AcDbCircle
 62
7
  6
CONTINUOUS
 10
4.2579455731
 20
2.6723116309
 40
0.0196850394
100
AcDbArc
 50
180.0
 51
270.0
  0
ARC
  5
2E9
100
AcDbEntity
  8
0
100
AcDbCircle
 62
7
  6
CONTINUOUS
 10
4.3583392739
 20
2.6723116309
 40
0.0196850394
100
AcDbArc
 50
270.0
 51
331.8393081967
  0
ARC
  5
2EA
100
AcDbEntity
  8
0
100
AcDbCircle
 62
7
  6
CONTINUOUS
 10
4.8790473891
 20
2.6723116309
 40
0.0196850394
100
AcDbArc
 50
180.0
 51
270.0
  0
ARC
  5
2EB
100
AcDbEntity
  8
0
100
AcDbCircle
 62
7
  6
CONTINUOUS
 10
4.9794410899
 20
2.6723116309
 40
0.0196850394
100
AcDbArc
 50
270.0
 51
360.0
  0
ARC
  5
2EC
100
AcDbEntity
  8
0
100
AcDbCircle
 62
7
  6
CONTINUOUS
 10
4.9674315817
 20
4.964973489
 40
0.2
100
AcDbArc
 50
104.4775121859
 51
180.0
  0
ARC
  5
2ED
100
AcDbEntity
  8
0
100
AcDbCircle
 62
7
  6
CONTINUOUS
 10
4.7790697005
 20
4.7841226545
 40
0.1
100
AcDbArc
 50
90.0
 51
116.1601930919
  0
ARC
  5
2EE
100
AcDbEntity
  8
0
100
AcDbCircle
 62
7
  6
CONTINUOUS
 10
1.5637288247
 20
11.3300344867
 40
7.1929677541
100
AcDbArc
 50
278.3650423907
 51
296.1601930919
  0
ARC
  5
2EF
100
AcDbEntity
  8
0
100
AcDbCircle
 62
7
  6
CONTINUOUS
 10
7.366821303
 20
2.6723116309
 40
0.0196850394
100
AcDbArc
 50
270.0
 51
360.0
  0
ARC
  5
2F0
100
AcDbEntity
  8
0
100
AcDbCircle
 62
7
  6
CONTINUOUS
 10
6.4759344935
 20
2.6723116309
 40
0.0196850394
100
AcDbArc
 50
270.0
 51
360.0
  0
ARC
  5
2F1
100
AcDbEntity
  8
0
100
AcDbCircle
 62
7
  6
CONTINUOUS
 10
5.4946738265
 20
2.6723116309
 40
0.0196850394
100
AcDbArc
 50
226.6057107239
 51
270.0
  0
ARC
  5
2F2
100
AcDbEntity
  8
0
100
AcDbCircle
 62
7
  6
CONTINUOUS
 10
6.3209748888
 20
2.6723116309
 40
0.0196850394
100
AcDbArc
 50
180.0
 51
270.0
  0
ARC
  5
2F3
100
AcDbEntity
  8
0
100
AcDbCircle
 62
7
  6
CONTINUOUS
 10
5.832889277
 20
2.6723116309
 40
0.0196850394
100
AcDbArc
 50
204.8238965534
 51
270.0
  0
ARC
  5
2F4
100
AcDbEntity
  8
0
100
AcDbCircle
 62
7
  6
CONTINUOUS
 10
5.9332829778
 20
2.6723116309
 40
0.0196850394
100
AcDbArc
 50
270.0
 51
360.0
  0
ARC
  5
2F5
100
AcDbEntity
  8
0
100
AcDbCircle
 62
7
  6
CONTINUOUS
 10
5.5308238112
 20
2.6723116309
 40
0.0196850394
100
AcDbArc
 50
180.0
 51
270.0
  0
ARC
  5
2F6
100
AcDbEntity
  8
0
100
AcDbCircle
 62
7
  6
CONTINUOUS
 10
5.631217512
 20
2.6723116309
 40
0.0196850394
100
AcDbArc
 50
270.0
 51
360.0
  0
ARC
  5
2F7
100
AcDbEntity
  8
0
100
AcDbCircle
 62
7
  6
CONTINUOUS
 10
6.1388267269
 20
2.6723116309
 40
0.0196850394
100
AcDbArc
 50
202.2392868529
 51
270.0
  0
ARC
  5
2F8
100
AcDbEntity
  8
0
100
AcDbCircle
 62
7
  6
CONTINUOUS
 10
5.6619566482
 20
2.6723116309
 40
0.0196850394
100
AcDbArc
 50
218.6569237257
 51
270.0
  0
ARC
  5
2F9
100
AcDbEntity
  8
0
100
AcDbCircle
 62
7
  6
CONTINUOUS
 10
7.1294576322
 20
2.6723116309
 40
0.0196850394
100
AcDbArc
 50
270.0
 51
360.0
  0
ARC
  5
2FA
100
AcDbEntity
  8
0
100
AcDbCircle
 62
7
  6
CONTINUOUS
 10
5.6967668847
 20
2.6723116309
 40
0.0196850394
100
AcDbArc
 50
180.0
 51
270.0
  0
ARC
  5
2FB
100
AcDbEntity
  8
0
100
AcDbCircle
 62
7
  6
CONTINUOUS
 10
5.7971605855
 20
2.6723116309
 40
0.0196850394
100
AcDbArc
 50
270.0
 51
360.0
  0
ARC
  5
2FC
100
AcDbEntity
  8
0
100
AcDbCircle
 62
7
  6
CONTINUOUS
 10
6.8741244951
 20
2.6723116309
 40
0.0196850394
100
AcDbArc
 50
254.5303969441
 51
270.0
  0
ARC
  5
2FD
100
AcDbEntity
  8
0
100
AcDbCircle
 62
7
  6
CONTINUOUS
 10
6.7438470302
 20
2.6723116309
 40
0.0196850394
100
AcDbArc
 50
180.0
 51
270.0
  0
ARC
  5
2FE
100
AcDbEntity
  8
0
100
AcDbCircle
 62
7
  6
CONTINUOUS
 10
6.1723213299
 20
2.6723116309
 40
0.0196850394
100
AcDbArc
 50
180.0
 51
270.0
  0
ARC
  5
2FF
100
AcDbEntity
  8
0
100
AcDbCircle
 62
7
  6
CONTINUOUS
 10
6.2727150307
 20
2.6723116309
 40
0.0196850394
100
AcDbArc
 50
270.0
 51
360.0
  0
ARC
  5
300
100
AcDbEntity
  8
0
100
AcDbCircle
 62
7
  6
CONTINUOUS
 10
5.4676284321
 20
2.6723116309
 40
0.0196850394
100
AcDbArc
 50
270.0
 51
360.0
  0
ARC
  5
301
100
AcDbEntity
  8
0
100
AcDbCircle
 62
7
  6
CONTINUOUS
 10
6.3414290551
 20
2.6723116309
 40
0.0196850394
100
AcDbArc
 50
180.0
 51
270.0
  0
ARC
  5
302
100
AcDbEntity
  8
0
100
AcDbCircle
 62
7
  6
CONTINUOUS
 10
6.4418227559
 20
2.6723116309
 40
0.0196850394
100
AcDbArc
 50
270.0
 51
360.0
  0
ARC
  5
303
100
AcDbEntity
  8
0
100
AcDbCircle
 62
7
  6
CONTINUOUS
 10
6.9435142589
 20
2.6723116309
 40
0.0196850394
100
AcDbArc
 50
180.0
 51
270.0
  0
ARC
  5
304
100
AcDbEntity
  8
0
100
AcDbCircle
 62
7
  6
CONTINUOUS
 10
7.0439079597
 20
2.6723116309
 40
0.0196850394
100
AcDbArc
 50
270.0
 51
360.0
  0
ARC
  5
305
100
AcDbEntity
  8
0
100
AcDbCircle
 62
7
  6
CONTINUOUS
 10
6.5746243195
 20
2.6723116309
 40
0.0196850394
100
AcDbArc
 50
180.0
 51
270.0
  0
ARC
  5
306
100
AcDbEntity
  8
0
100
AcDbCircle
 62
7
  6
CONTINUOUS
 10
6.6750180202
 20
2.6723116309
 40
0.0196850394
100
AcDbArc
 50
270.0
 51
360.0
  0
ARC
  5
307
100
AcDbEntity
  8
0
100
AcDbCircle
 62
7
  6
CONTINUOUS
 10
6.0019970023
 20
2.6723116309
 40
0.0196850394
100
AcDbArc
 50
180.0
 51
270.0
  0
ARC
  5
308
100
AcDbEntity
  8
0
100
AcDbCircle
 62
7
  6
CONTINUOUS
 10
6.102390703
 20
2.6723116309
 40
0.0196850394
100
AcDbArc
 50
270.0
 51
360.0
  0
ARC
  5
309
100
AcDbEntity
  8
0
100
AcDbCircle
 62
7
  6
CONTINUOUS
 10
6.7632322966
 20
2.6723116309
 40
0.0196850394
100
AcDbArc
 50
180.0
 51
270.0
  0
ARC
  5
30A
100
AcDbEntity
  8
0
100
AcDbCircle
 62
7
  6
CONTINUOUS
 10
6.8636259974
 20
2.6723116309
 40
0.0196850394
100
AcDbArc
 50
270.0
 51
360.0
  0
ARC
  5
30B
100
AcDbEntity
  8
0
100
AcDbCircle
 62
7
  6
CONTINUOUS
 10
7.2664276022
 20
2.6723116309
 40
0.0196850394
100
AcDbArc
 50
180.0
 51
270.0
  0
ARC
  5
30C
100
AcDbEntity
  8
0
100
AcDbCircle
 62
7
  6
CONTINUOUS
 10
5.8674315817
 20
4.9649734889
 40
0.2
100
AcDbArc
 50
0.0
 51
75.5224878141
  0
ARC
  5
30D
100
AcDbEntity
  8
0
100
AcDbCircle
 62
7
  6
CONTINUOUS
 10
6.055793463
 20
4.7841226545
 40
0.1
100
AcDbArc
 50
63.8398069081
 51
90.0
  0
ARC
  5
30E
100
AcDbEntity
  8
0
100
AcDbCircle
 62
7
  6
CONTINUOUS
 10
7.8440164364
 20
2.9672801037
 40
1.2
100
AcDbArc
 50
9.0603107967
 51
58.0623103854
  0
ARC
  5
30F
100
AcDbEntity
  8
0
100
AcDbCircle
 62
7
  6
CONTINUOUS
 10
9.1049315817
 20
2.8624903583
 40
0.2516322963
100
AcDbArc
 50
10.0
 51
90.0
  0
ARC
  5
310
100
AcDbEntity
  8
0
100
AcDbCircle
 62
7
  6
CONTINUOUS
 10
9.2674315817
 20
2.8141226545
 40
0.1
100
AcDbArc
 50
270.0
 51
10.0
  0
ARC
  5
311
100
AcDbEntity
  8
0
100
AcDbCircle
 62
7
  6
CONTINUOUS
 10
9.0824315825
 20
2.7728565915
 40
0.06
100
AcDbArc
 50
270.0
 51
281.7845969184
  0
ARC
  5
312
100
AcDbEntity
  8
0
100
AcDbCircle
 62
7
  6
CONTINUOUS
 10
9.0784203452
 20
3.1641226545
 40
0.05
100
AcDbArc
 50
189.0603107967
 51
270.0
  0
ARC
  5
313
100
AcDbEntity
  8
0
100
AcDbCircle
 62
7
  6
CONTINUOUS
 10
7.9177085827
 20
2.6723116309
 40
0.0196850394
100
AcDbArc
 50
180.0
 51
270.0
  0
ARC
  5
314
100
AcDbEntity
  8
0
100
AcDbCircle
 62
7
  6
CONTINUOUS
 10
8.0181022835
 20
2.6723116309
 40
0.0196850394
100
AcDbArc
 50
270.0
 51
360.0
  0
ARC
  5
315
100
AcDbEntity
  8
0
100
AcDbCircle
 62
7
  6
CONTINUOUS
 10
8.2472407361
 20
2.6723116309
 40
0.0196850394
100
AcDbArc
 50
180.0
 51
270.0
  0
ARC
  5
316
100
AcDbEntity
  8
0
100
AcDbCircle
 62
7
  6
CONTINUOUS
 10
8.3476344369
 20
2.6723116309
 40
0.0196850394
100
AcDbArc
 50
270.0
 51
360.0
  0
ARC
  5
317
100
AcDbEntity
  8
0
100
AcDbCircle
 62
7
  6
CONTINUOUS
 10
8.4509028073
 20
2.6723116309
 40
0.0196850394
100
AcDbArc
 50
180.0
 51
270.0
  0
ARC
  5
318
100
AcDbEntity
  8
0
100
AcDbCircle
 62
7
  6
CONTINUOUS
 10
8.5512965081
 20
2.6723116309
 40
0.0196850394
100
AcDbArc
 50
270.0
 51
360.0
  0
ARC
  5
319
100
AcDbEntity
  8
0
100
AcDbCircle
 62
7
  6
CONTINUOUS
 10
8.6201874872
 20
2.6723116309
 40
0.0196850394
100
AcDbArc
 50
270.0
 51
360.0
  0
ARC
  5
31A
100
AcDbEntity
  8
0
100
AcDbCircle
 62
7
  6
CONTINUOUS
 10
8.0729433927
 20
2.6723116309
 40
0.0196850394
100
AcDbArc
 50
270.0
 51
360.0
  0
ARC
  5
31B
100
AcDbEntity
  8
0
100
AcDbCircle
 62
7
  6
CONTINUOUS
 10
7.4212258234
 20
2.6723116309
 40
0.0196850394
100
AcDbArc
 50
270.0
 51
360.0
  0
ARC
  5
31C
100
AcDbEntity
  8
0
100
AcDbCircle
 62
7
  6
CONTINUOUS
 10
7.4767084835
 20
2.6723116309
 40
0.0196850394
100
AcDbArc
 50
180.0
 51
270.0
  0
ARC
  5
31D
100
AcDbEntity
  8
0
100
AcDbCircle
 62
7
  6
CONTINUOUS
 10
7.5771021843
 20
2.6723116309
 40
0.0196850394
100
AcDbArc
 50
270.0
 51
360.0
  0
ARC
  5
31E
100
AcDbEntity
  8
0
100
AcDbCircle
 62
7
  6
CONTINUOUS
 10
7.8906989316
 20
2.6723116309
 40
0.0196850394
100
AcDbArc
 50
180.0
 51
270.0
  0
ARC
  5
31F
100
AcDbEntity
  8
0
100
AcDbCircle
 62
7
  6
CONTINUOUS
 10
7.6502896349
 20
2.6723116309
 40
0.0196850394
100
AcDbArc
 50
180.0
 51
270.0
  0
ARC
  5
320
100
AcDbEntity
  8
0
100
AcDbCircle
 62
7
  6
CONTINUOUS
 10
7.7506833357
 20
2.6723116309
 40
0.0196850394
100
AcDbArc
 50
270.0
 51
360.0
  0
ARC
  5
321
100
AcDbEntity
  8
0
100
AcDbCircle
 62
7
  6
CONTINUOUS
 10
8.1829529589
 20
3.9296440317
 40
0.287
100
AcDbArc
 50
16.9798533414
 51
81.6349576093
  0
ARC
  5
322
100
AcDbEntity
  8
0
100
AcDbCircle
 62
7
  6
CONTINUOUS
 10
8.5052622871
 20
4.0280599701
 40
0.05
100
AcDbArc
 50
196.9798533414
 51
238.0623103854
  0
ARC
  5
323
100
AcDbEntity
  8
0
100
AcDbCircle
 62
7
  6
CONTINUOUS
 10
9.2711343387
 20
11.3300344867
 40
7.1929677541
100
AcDbArc
 50
243.8398069081
 51
261.6349576093
  0
SPLINE
  5
324
100
AcDbEntity
  8
0
100
AcDbSpline
 62
7
  6
CONTINUOUS
 70
0
 71
3
 72
46
 73
42
 74
0
 42
0.0000001
 43
0.0000001
 44
0.0000000001
 40
0.0
 40
0.0
 40
0.0
 40
0.0
 40
0.0624797256
 40
0.0937226116
 40
0.124965951
 40
0.1562090986
 40
0.1874514305
 40
0.2186934418
 40
0.2499367794
 40
0.2811810864
 40
0.3124249063
 40
0.3436693515
 40
0.3749159793
 40
0.4061620217
 40
0.4374079448
 40
0.4686570233
 40
0.4999055764
 40
0.5311540661
 40
0.5624062041
 40
0.5936564848
 40
0.6092829863
 40
0.6249112173
 40
0.6561642558
 40
0.687416689
 40
0.7186708071
 40
0.7499236277
 40
0.7811767366
 40
0.8124298216
 40
0.8280595376
 40
0.8436892552
 40
0.8593202942
 40
0.8749504535
 40
0.8905812407
 40
0.9062127599
 40
0.9218428098
 40
0.9374727561
 40
0.9531035562
 40
0.9609209027
 40
0.9687395756
 40
0.984374811
 40
1.0
 40
1.0
 40
1.0
 40
1.0
 10
5.4174314331
 20
5.1381785697
 30
0.0
 10
5.4262751392
 20
5.1381785711
 30
0.0
 10
5.4395421784
 20
5.1379961308
 30
0.0
 10
5.4572199756
 20
5.1373734479
 30
0.0
 10
5.4704710008
 20
5.1367133068
 30
0.0
 10
5.4837106006
 20
5.135855262
 30
0.0
 10
5.4969348573
 20
5.134787844
 30
0.0
 10
5.5101395616
 20
5.1335001152
 30
0.0
 10
5.5233201158
 20
5.1319819677
 30
0.0
 10
5.5364705071
 20
5.1302187956
 30
0.0
 10
5.5495830917
 20
5.1281916291
 30
0.0
 10
5.5626494675
 20
5.1258826869
 30
0.0
 10
5.5756597738
 20
5.1232737533
 30
0.0
 10
5.5886009279
 20
5.1203389233
 30
0.0
 10
5.6014579688
 20
5.1170527837
 30
0.0
 10
5.6142138429
 20
5.1133911195
 30
0.0
 10
5.6268462622
 20
5.109321385
 30
0.0
 10
5.6393291642
 20
5.1048111749
 30
0.0
 10
5.6516322715
 20
5.0998295835
 30
0.0
 10
5.661703447
 20
5.0952519944
 30
0.0
 10
5.669627966
 20
5.0913163113
 30
0.0
 10
5.6774565055
 20
5.0871922613
 30
0.0
 10
5.6870447722
 20
5.081669759
 30
0.0
 10
5.6981673901
 20
5.074416756
 30
0.0
 10
5.7088309738
 20
5.0665015173
 30
0.0
 10
5.7189419508
 20
5.0578882786
 30
0.0
 10
5.7283924516
 20
5.0485528549
 30
0.0
 10
5.7356131653
 20
5.0401559556
 30
0.0
 10
5.7409232145
 20
5.0330747632
 30
0.0
 10
5.7446545706
 20
5.0275826811
 30
0.0
 10
5.7481139803
 20
5.0219151725
 30
0.0
 10
5.7512821675
 20
5.0160794021
 30
0.0
 10
5.7541377886
 20
5.0100841379
 30
0.0
 10
5.7566612862
 20
5.0039414971
 30
0.0
 10
5.758834882
 20
4.9976663448
 30
0.0
 10
5.7606390666
 20
4.9912752005
 30
0.0
 10
5.7618235072
 20
4.9858684705
 30
0.0
 10
5.7625728987
 20
4.9815061032
 30
0.0
 10
5.7631879468
 20
4.9771221156
 30
0.0
 10
5.7637031078
 20
4.9716110567
 30
0.0
 10
5.7638417432
 20
4.9671851596
 30
0.0
 10
5.7638417432
 20
4.9649734889
 30
0.0
  0
SPLINE
  5
325
100
AcDbEntity
  8
0
100
AcDbSpline
 62
7
  6
CONTINUOUS
 70
0
 71
3
 72
46
 73
42
 74
0
 42
0.0000001
 43
0.0000001
 44
0.0000000001
 40
0.0
 40
0.0
 40
0.0
 40
0.0
 40
0.0156252105
 40
0.0312605361
 40
0.0390792804
 40
0.0468966933
 40
0.0625275976
 40
0.0781576435
 40
0.093787765
 40
0.1094193747
 40
0.1250503071
 40
0.1406804995
 40
0.1563115983
 40
0.1719414412
 40
0.1875711608
 40
0.2188244795
 40
0.2500775372
 40
0.2813305565
 40
0.3125845254
 40
0.3438371485
 40
0.3750899879
 40
0.3907182863
 40
0.4063449225
 40
0.4375950309
 40
0.4688470832
 40
0.5000956619
 40
0.531343996
 40
0.5625930471
 40
0.5938389789
 40
0.6250848452
 40
0.6563313832
 40
0.6875758383
 40
0.7188195465
 40
0.7500637356
 40
0.78130705
 40
0.8125490055
 40
0.8437912392
 40
0.8750342816
 40
0.9062775385
 40
0.9375203574
 40
1.0
 40
1.0
 40
1.0
 40
1.0
 10
5.0710214202
 20
4.964973489
 30
0.0
 10
5.0710214202
 20
4.9671851611
 30
0.0
 10
5.0711600616
 20
4.9716110709
 30
0.0
 10
5.0716752319
 20
4.9771221508
 30
0.0
 10
5.0722902748
 20
4.9815061684
 30
0.0
 10
5.0730396697
 20
4.9858685669
 30
0.0
 10
5.0742241373
 20
4.9912753261
 30
0.0
 10
5.0760283247
 20
4.997666505
 30
0.0
 10
5.0782019457
 20
5.0039416838
 30
0.0
 10
5.0807254938
 20
5.010084345
 30
0.0
 10
5.0835811044
 20
5.0160796509
 30
0.0
 10
5.086749331
 20
5.021915434
 30
0.0
 10
5.0902087819
 20
5.0275829473
 30
0.0
 10
5.0939401422
 20
5.0330750533
 30
0.0
 10
5.0992502488
 20
5.0401562595
 30
0.0
 10
5.106470994
 20
5.0485531549
 30
0.0
 10
5.1159215426
 20
5.0578885948
 30
0.0
 10
5.1260325482
 20
5.0665017835
 30
0.0
 10
5.1366961428
 20
5.0744170505
 30
0.0
 10
5.1478187892
 20
5.0816699498
 30
0.0
 10
5.1574070185
 20
5.0871925168
 30
0.0
 10
5.1652355828
 20
5.0913165093
 30
0.0
 10
5.1731601328
 20
5.0952521236
 30
0.0
 10
5.1832312477
 20
5.099829782
 30
0.0
 10
5.1955343418
 20
5.1048113254
 30
0.0
 10
5.2080172388
 20
5.1093214256
 30
0.0
 10
5.2206495897
 20
5.1133912686
 30
0.0
 10
5.2334054489
 20
5.1170528355
 30
0.0
 10
5.2462624644
 20
5.120338918
 30
0.0
 10
5.2592035523
 20
5.1232738327
 30
0.0
 10
5.2722138206
 20
5.1258827301
 30
0.0
 10
5.2852801758
 20
5.1281915759
 30
0.0
 10
5.2983927089
 20
5.1302188042
 30
0.0
 10
5.3115430501
 20
5.1319820175
 30
0.0
 10
5.3247235788
 20
5.1335000625
 30
0.0
 10
5.3379282467
 20
5.134787802
 30
0.0
 10
5.3511524538
 20
5.1358552624
 30
0.0
 10
5.3643920035
 20
5.1367133161
 30
0.0
 10
5.3776429858
 20
5.1373734042
 30
0.0
 10
5.3953207366
 20
5.1379961013
 30
0.0
 10
5.4085877451
 20
5.1381785683
 30
0.0
 10
5.4174314331
 20
5.1381785697
 30
0.0
  0
ENDSEC
  0
SECTION
  2
OBJECTS
  0
DICTIONARY
  5
C
100
AcDbDictionary
280
0
281
1
  3
ACAD_GROUP
350
D
  3
ACAD_MLINESTYLE
350
17
  3
ACAD_LAYOUT
350
1A
  3
ACAD_PLOTSETTINGS
350
19
  3
ACAD_PLOTSTYLENAME
350
E
  0
DICTIONARY
  5
D
102
{ACAD_REACTORS
330
C
102
}
100
AcDbDictionary
280
0
281
1
  0
ACDBDICTIONARYWDFLT
  5
E
102
{ACAD_REACTORS
330
C
102
}
100
AcDbDictionary
281
1
  3
Normal
350
F
100
AcDbDictionaryWithDefault
340
F
  0
DICTIONARY
  5
17
102
{ACAD_REACTORS
330
C
102
}
100
AcDbDictionary
280
0
281
1
  3
Standard
350
18
  0
DICTIONARY
  5
19
102
{ACAD_REACTORS
330
C
102
}
100
AcDbDictionary
281
1
  0
DICTIONARY
  5
1A
102
{ACAD_REACTORS
330
C
102
}
100
AcDbDictionary
281
1
  3
Model
350
326
  3
Layout1
350
327
  0
ACDBPLACEHOLDER
  5
F
102
{ACAD_REACTORS
330
E
102
}
  0
MLINESTYLE
  5
18
102
{ACAD_REACTORS
330
17
102
}
100
AcDbMlineStyle
  2
STANDARD
 70
0
  3

 62
256
 51
90.0
 52
90.0
 71
2
 49
0.5
 62
256
  6
BYLAYER
 49
-0.5
 62
256
  6
BYLAYER
  0
LAYOUT
  5
326
102
{ACAD_REACTORS
330
1A
102
}
100
AcDbPlotSettings
  1

  2
none_device
  4
ANSI_A_(11.00_x_8.50_Inches)
  6

 40
0.0
 41
0.0
 42
0.0
 43
0.0
 44
279.4
 45
215.9
 46
0.0
 47
0.0
 48
0.0
 49
0.0
140
0.0
141
0.0
142
1.0
143
1.0
 70
1024
 72
0
 73
0
 74
0
  7

 75
0
147
1.0
148
0.0
149
0.0
100
AcDbLayout
  1
Model
 70
0
 71
0
 10
0.0
 20
0.0
 11
11.0
 21
8.5
 12
0.0
 22
0.0
 32
0.0
 14
0.0
 24
0.0
 34
0.0
 15
0.0
 25
0.0
 35
0.0
146
0.0
 13
0.0
 23
0.0
 33
0.0
 16
1.0
 26
0.0
 36
0.0
 17
0.0
 27
1.0
 37
0.0
 76
0
330
202
345
0
346
0
  0
LAYOUT
  5
327
102
{ACAD_REACTORS
330
1A
102
}
100
AcDbPlotSettings
  1

  2
none_device
  4
ANSI_A_(11.00_x_8.50_Inches)
  6

 40
0.0
 41
0.0
 42
0.0
 43
0.0
 44
279.4
 45
215.9
 46
0.0
 47
0.0
 48
0.0
 49
0.0
140
0.0
141
0.0
142
1.0
143
1.0
 70
0
 72
0
 73
0
 74
0
  7

 75
0
147
1.0
148
0.0
149
0.0
100
AcDbLayout
  1
Layout1
 70
0
 71
1
 10
0.0
 20
0.0
 11
11.0
 21
8.5
 12
0.0
 22
0.0
 32
0.0
 14
0.0
 24
0.0
 34
0.0
 15
0.0
 25
0.0
 35
0.0
146
0.0
 13
0.0
 23
0.0
 33
0.0
 16
1.0
 26
0.0
 36
0.0
 17
0.0
 27
1.0
 37
0.0
 76
0
330
203
345
0
346
0
  0
ENDSEC
  0
EOF
