999
DXF file: 2470-5173_RIGHT.dxf
999
Pro/ENGINEER 2023134 by Parametric Technology Corporation
  0
SECTION
  2
HEADER
  9
$ACADVER
  1
AC1032
  9
$DWGCODEPAGE
  3
ANSI_1252
  9
$EXTMAX
 10
11.0
 20
8.5
 30
0.0
  9
$EXTMIN
 10
0.0
 20
0.0
 30
0.0
  9
$LIMMIN
 10
0.0
 20
0.0
  9
$LIMMAX
 10
11.0
 20
8.5
  9
$VIEWCTR
 10
5.5
 20
4.25
  9
$VIEWSIZE
 40
8.5
  9
$CLAYER
  8
0
  9
$LTSCALE
 40
0.605
  9
$CELTYPE
  6
BYLAYER
  9
$DIMSCALE
 40
1.0
  9
$DIMASZ
 40
0.1
  9
$DIMEXO
 40
0.0625
  9
$DIMDLI
 40
0.418
  9
$DIMEXE
 40
0.125
  9
$DIMCEN
 40
0.099
  9
$DIMLFAC
 40
1.0
  9
$DIMBLK
  1
_FILLED
  9
$DIMALT
 70
1
  9
$DIMALTD
 70
2
  9
$DIMALTTD
 70
2
  9
$DIMALTF
 40
25.4
  9
$DIMTXT
 40
0.08
  9
$DIMTOL
 70
1
  9
$DIMLIM
 70
0
  9
$DIMTFAC
 40
1.0
  9
$DIMTP
 40
0.001
  9
$DIMTM
 40
0.001
  9
$DIMGAP
 40
0.09
  9
$DIMDSEP
 70
46
  9
$AUNITS
 70
0
  9
$PDMODE
 70
3
  9
$PDSIZE
 40
0.3125
  9
$HANDSEED
  5
383
  9
$TILEMODE
 70
1
  9
$MEASUREMENT
 70
0
  9
$INSUNITS
 70
1
  0
ENDSEC
  0
SECTION
  2
CLASSES
  0
CLASS
  1
ACDBDICTIONARYWDFLT
  2
AcDbDictionaryWithDefault
  3
AutoCAD 2000
 90
0
 91
1
280
0
281
0
  0
CLASS
  1
ACDBPLACEHOLDER
  2
AcDbPlaceHolder
  3
AutoCAD 2000
 90
0
 91
1
280
0
281
0
  0
CLASS
  1
LAYOUT
  2
AcDbLayout
  3
AutoCAD 2000
 90
0
 91
0
280
0
281
0
  0
ENDSEC
  0
SECTION
  2
TABLES
  0
TABLE
  2
VPORT
  5
8
100
AcDbSymbolTable
 70
2
  0
VPORT
  5
1F4
100
AcDbSymbolTableRecord
100
AcDbViewportTableRecord
  2
*ACTIVE
 70
0
 10
0.0
 20
0.0
 11
1.0
 21
1.0
 12
5.5
 22
4.25
 13
0.0
 23
0.0
 14
1.0
 24
1.0
 15
0.0
 25
0.0
 16
0.0
 26
0.0
 36
1.0
 17
0.0
 27
0.0
 37
0.0
 40
8.5
 41
1.2941176471
 42
50.0
 43
0.0
 44
0.0
 50
0.0
 51
0.0
 71
0
 72
100
 73
1
 74
1
 75
0
 76
0
 77
0
 78
0
  0
ENDTAB
  0
TABLE
  2
LTYPE
  5
5
100
AcDbSymbolTable
 70
6
  0
LTYPE
  5
14
100
AcDbSymbolTableRecord
100
AcDbLinetypeTableRecord
  2
BYBLOCK
 70
0
  3

 72
65
 73
0
 40
0.0
  0
LTYPE
  5
15
100
AcDbSymbolTableRecord
100
AcDbLinetypeTableRecord
  2
BYLAYER
 70
0
  3

 72
65
 73
0
 40
0.0
  0
LTYPE
  5
16
100
AcDbSymbolTableRecord
100
AcDbLinetypeTableRecord
  2
CONTINUOUS
 70
64
  3
Solid line
 72
65
 73
0
 40
0.0
  0
LTYPE
  5
1F5
100
AcDbSymbolTableRecord
100
AcDbLinetypeTableRecord
  2
CENTER
 70
64
  3
____ _ ____ _ ____ _ ____ _ ____ _ ____ _ ____
 72
65
 73
4
 40
0.6
 49
0.375
 74
0
 49
-0.075
 74
0
 49
0.075
 74
0
 49
-0.075
 74
0
  0
LTYPE
  5
1F6
100
AcDbSymbolTableRecord
100
AcDbLinetypeTableRecord
  2
HIDDEN
 70
64
  3
- - - - - - - - - - - - - - - - - - - -
 72
65
 73
2
 40
0.2
 49
0.1
 74
0
 49
-0.1
 74
0
  0
LTYPE
  5
1F7
100
AcDbSymbolTableRecord
100
AcDbLinetypeTableRecord
  2
PHANTOM
 70
64
  3
_____ _ _ _____ _ _ _____ _ _ _____
 72
65
 73
6
 40
0.8
 49
0.45
 74
0
 49
-0.05
 74
0
 49
0.1
 74
0
 49
-0.05
 74
0
 49
0.1
 74
0
 49
-0.05
 74
0
  0
LTYPE
  5
1F8
100
AcDbSymbolTableRecord
100
AcDbLinetypeTableRecord
  2
DOT
 70
64
  3
. . . . . . . . . . . . . . . . . . . .
 72
65
 73
2
 40
0.2
 49
0.1
 74
0
 49
-0.1
 74
0
  0
LTYPE
  5
1F9
100
AcDbSymbolTableRecord
100
AcDbLinetypeTableRecord
  2
DASHED
 70
64
  3
- - - - - - - - - - - - - - - - - - - -
 72
65
 73
2
 40
0.2
 49
0.1
 74
0
 49
-0.1
 74
0
  0
ENDTAB
  0
TABLE
  2
LAYER
  5
2
100
AcDbSymbolTable
 70
36
  0
LAYER
  5
10
100
AcDbSymbolTableRecord
100
AcDbLayerTableRecord
  2
0
 70
0
 62
7
  6
CONTINUOUS
370
-3
390
F
  0
LAYER
  5
1FA
100
AcDbSymbolTableRecord
100
AcDbLayerTableRecord
  2
DEFAULT_1
 70
0
 62
7
  6
CENTER
370
-3
390
F
  0
LAYER
  5
1FB
100
AcDbSymbolTableRecord
100
AcDbLayerTableRecord
  2
DEFAULT_2
 70
0
 62
8
  6
HIDDEN
370
-3
390
F
  0
LAYER
  5
1FC
100
AcDbSymbolTableRecord
100
AcDbLayerTableRecord
  2
DEFAULT_3
 70
0
 62
7
  6
PHANTOM
370
-3
390
F
  0
LAYER
  5
1FD
100
AcDbSymbolTableRecord
100
AcDbLayerTableRecord
  2
DEFAULT_COORDINATE_SYSTEM
 70
0
 62
7
  6
CONTINUOUS
370
-3
390
F
  0
LAYER
  5
1FE
100
AcDbSymbolTableRecord
100
AcDbLayerTableRecord
  2
DEFAULT_DATUM_AXES
 70
0
 62
7
  6
CONTINUOUS
370
-3
390
F
  0
LAYER
  5
1FF
100
AcDbSymbolTableRecord
100
AcDbLayerTableRecord
  2
DEFAULT_DATUM_PLANES
 70
0
 62
7
  6
CONTINUOUS
370
-3
390
F
  0
ENDTAB
  0
TABLE
  2
STYLE
  5
3
100
AcDbSymbolTable
 70
1
  0
STYLE
  5
11
100
AcDbSymbolTableRecord
100
AcDbTextStyleTableRecord
  2
STANDARD
 70
0
 40
0.0
 41
0.8
 50
0.0
 71
0
 42
0.2
  3
txt
  4

  0
STYLE
  5
200
100
AcDbSymbolTableRecord
100
AcDbTextStyleTableRecord
  2
TEXTSTYLE_1
 70
0
 40
0.0
 41
0.8
 50
0.0
 71
0
 42
0.2
  3
gdt
  4

  0
ENDTAB
  0
TABLE
  2
VIEW
  5
6
100
AcDbSymbolTable
 70
0
  0
ENDTAB
  0
TABLE
  2
UCS
  5
7
100
AcDbSymbolTable
 70
0
  0
ENDTAB
  0
TABLE
  2
APPID
  5
9
100
AcDbSymbolTable
 70
1
  0
APPID
  5
201
100
AcDbSymbolTableRecord
100
AcDbRegAppTableRecord
  2
ACAD
 70
0
  0
ENDTAB
  0
TABLE
  2
BLOCK_RECORD
  5
1
100
AcDbSymbolTable
 70
0
  0
BLOCK_RECORD
  5
202
100
AcDbSymbolTableRecord
100
AcDbBlockTableRecord
  2
*Model_Space
  0
BLOCK_RECORD
  5
203
100
AcDbSymbolTableRecord
100
AcDbBlockTableRecord
  2
*Paper_Space
  0
BLOCK_RECORD
  5
204
100
AcDbSymbolTableRecord
100
AcDbBlockTableRecord
  2
_FILLED
  0
ENDTAB
  0
TABLE
  2
DIMSTYLE
  5
A
100
AcDbSymbolTable
 70
1
100
AcDbDimStyleTable
 71
0
  0
DIMSTYLE
105
205
100
AcDbSymbolTableRecord
100
AcDbDimStyleTableRecord
  2
STANDARD
 70
0
  3

  4

 40
1.0
 41
0.1
 42
0.0625
 43
0.38
 44
0.125
 45
0.0
 46
0.0
 47
0.001
 48
0.001
140
0.08
141
0.09
142
0.0
143
25.4
144
1.0
145
0.0
146
1.0
147
0.09
 71
1
 72
0
 73
1
 74
1
 75
0
 76
0
 77
0
 78
4
 79
1
170
1
171
2
172
0
173
0
174
0
175
0
176
0
177
0
178
0
270
2
179
3
271
3
272
3
273
2
274
2
275
0
280
0
281
0
282
0
283
1
284
4
285
0
286
0
287
3
288
0
340
11
278
46
341
204
342
204
343
204
344
204
  0
ENDTAB
  0
ENDSEC
  0
SECTION
  2
BLOCKS
  0
BLOCK
  5
20
100
AcDbEntity
  8
0
100
AcDbBlockBegin
  2
*Model_Space
 70
0
 10
0.0
 20
0.0
 30
0.0
  3
*Model_Space
  1

  0
ENDBLK
  5
21
100
AcDbEntity
  8
0
100
AcDbBlockEnd
  0
BLOCK
  5
1C
100
AcDbEntity
  8
0
100
AcDbBlockBegin
  2
*Paper_Space
 70
0
 10
0.0
 20
0.0
 30
0.0
  3
*Paper_Space
  1

  0
ENDBLK
  5
1D
100
AcDbEntity
  8
0
100
AcDbBlockEnd
  0
BLOCK
  5
206
100
AcDbEntity
  8
0
100
AcDbBlockBegin
  2
_FILLED
 70
64
 10
0.0
 20
0.0
  3
_FILLED
  1

  0
SOLID
  5
207
100
AcDbEntity
  8
0
  6
BYBLOCK
 62
0
100
AcDbTrace
 10
0.0
 20
0.0
 11
-1.0
 21
0.2
 12
-1.0
 22
-0.2
 13
-1.0
 23
-0.2
  0
ENDBLK
  5
208
100
AcDbEntity
  8
0
  6
BYBLOCK
 62
0
100
AcDbBlockEnd
  0
ENDSEC
  0
SECTION
  2
ENTITIES
  0
LINE
  5
209
100
AcDbEntity
  8
0
100
AcDbLine
 62
7
  6
CONTINUOUS
 10
0.0
 20
0.0
 11
0.0
 21
8.5
  0
LINE
  5
20A
100
AcDbEntity
  8
0
100
AcDbLine
 62
7
  6
CONTINUOUS
 10
0.0
 20
0.0
 11
11.0
 21
0.0
  0
LINE
  5
20B
100
AcDbEntity
  8
0
100
AcDbLine
 62
7
  6
CONTINUOUS
 10
0.0
 20
8.5
 11
11.0
 21
8.5
  0
LINE
  5
20C
100
AcDbEntity
  8
0
100
AcDbLine
 62
7
  6
CONTINUOUS
 10
11.0
 20
0.0
 11
11.0
 21
8.5
  0
LINE
  5
20D
100
AcDbEntity
  8
0
100
AcDbLine
 62
7
  6
CONTINUOUS
 10
6.3583881566
 20
1.0364175861
 11
7.2301438009
 21
1.0364175861
  0
LINE
  5
20E
100
AcDbEntity
  8
0
100
AcDbLine
 62
7
  6
CONTINUOUS
 10
6.4348192551
 20
1.2309939654
 11
6.4382794303
 21
1.2314280504
  0
LINE
  5
20F
100
AcDbEntity
  8
0
100
AcDbLine
 62
7
  6
CONTINUOUS
 10
6.3496886502
 20
1.0527970919
 11
7.2388433073
 21
1.0527970919
  0
LINE
  5
210
100
AcDbEntity
  8
0
100
AcDbLine
 62
7
  6
CONTINUOUS
 10
6.4195909787
 20
1.1284675857
 11
7.1689409788
 21
1.1284675857
  0
LINE
  5
211
100
AcDbEntity
  8
0
100
AcDbLine
 62
7
  6
CONTINUOUS
 10
6.4062356181
 20
1.151481282
 11
7.1822963394
 21
1.151481282
  0
LINE
  5
212
100
AcDbEntity
  8
0
100
AcDbLine
 62
7
  6
CONTINUOUS
 10
6.4195473423
 20
1.2149487765
 11
7.1689846152
 21
1.2149487765
  0
LINE
  5
213
100
AcDbEntity
  8
0
100
AcDbLine
 62
7
  6
CONTINUOUS
 10
6.4348192551
 20
1.2309939654
 11
7.1537127024
 21
1.2309939654
  0
LINE
  5
214
100
AcDbEntity
  8
0
100
AcDbLine
 62
7
  6
CONTINUOUS
 10
6.4382794303
 20
1.2314280504
 11
7.1502525272
 21
1.2314280504
  0
LINE
  5
215
100
AcDbEntity
  8
0
100
AcDbLine
 62
7
  6
CONTINUOUS
 10
7.0778210661
 20
1.3911248373
 11
6.5107108914
 21
1.3911248373
  0
LINE
  5
216
100
AcDbEntity
  8
0
100
AcDbLine
 62
7
  6
CONTINUOUS
 10
7.0776022695
 20
1.4105517594
 11
6.510929688
 21
1.4105517594
  0
LINE
  5
217
100
AcDbEntity
  8
0
100
AcDbLine
 62
7
  6
CONTINUOUS
 10
7.0690565169
 20
1.4522506771
 11
6.5194754406
 21
1.4522506771
  0
LINE
  5
218
100
AcDbEntity
  8
0
100
AcDbLine
 62
7
  6
CONTINUOUS
 10
7.0605311212
 20
1.4657383092
 11
6.5280008363
 21
1.4657383092
  0
LINE
  5
219
100
AcDbEntity
  8
0
100
AcDbLine
 62
7
  6
CONTINUOUS
 10
7.1537127024
 20
1.2309939654
 11
7.1502525272
 21
1.2314280504
  0
LINE
  5
21A
100
AcDbEntity
  8
0
100
AcDbLine
 62
7
  6
CONTINUOUS
 10
7.0548154234
 20
1.6455964179
 11
6.5337165341
 21
1.6455964179
  0
LINE
  5
21B
100
AcDbEntity
  8
0
100
AcDbLine
 62
7
  6
CONTINUOUS
 10
7.065709854
 20
1.6727087639
 11
6.5228221035
 21
1.6727087639
  0
LINE
  5
21C
100
AcDbEntity
  8
0
100
AcDbLine
 62
7
  6
CONTINUOUS
 10
7.0574875249
 20
1.7136764969
 11
6.5310444326
 21
1.7136764969
  0
LINE
  5
21D
100
AcDbEntity
  8
0
100
AcDbLine
 62
7
  6
CONTINUOUS
 10
7.0480584516
 20
1.7284897726
 11
6.5404735059
 21
1.7284897726
  0
LINE
  5
21E
100
AcDbEntity
  8
0
100
AcDbLine
 62
7
  6
CONTINUOUS
 10
6.7312545325
 20
1.9169642786
 11
6.857277425
 21
1.9169642786
  0
LINE
  5
21F
100
AcDbEntity
  8
0
100
AcDbLine
 62
7
  6
CONTINUOUS
 10
6.7003714641
 20
1.9294277063
 11
6.8881604934
 21
1.9294277063
  0
LINE
  5
220
100
AcDbEntity
  8
0
100
AcDbLine
 62
7
  6
CONTINUOUS
 10
6.6927621832
 20
1.9562125235
 11
6.8957697743
 21
1.9562125235
  0
LINE
  5
221
100
AcDbEntity
  8
0
100
AcDbLine
 62
7
  6
CONTINUOUS
 10
6.6991115436
 20
1.9705240835
 11
6.8894204139
 21
1.9705240835
  0
LINE
  5
222
100
AcDbEntity
  8
0
100
AcDbLine
 62
7
  6
CONTINUOUS
 10
6.7155159787
 20
2.0549175861
 11
6.8730159787
 21
2.0549175861
  0
LINE
  5
223
100
AcDbEntity
  8
0
100
AcDbLine
 62
7
  6
CONTINUOUS
 10
3.4205914287
 20
4.7262137006
 11
3.4199380536
 21
4.7219438752
  0
LINE
  5
224
100
AcDbEntity
  8
0
100
AcDbLine
 62
7
  6
CONTINUOUS
 10
3.4072250878
 20
4.6388642718
 11
3.4069639098
 21
4.6371574659
  0
LINE
  5
225
100
AcDbEntity
  8
0
100
AcDbLine
 62
7
  6
CONTINUOUS
 10
3.5721440495
 20
4.9032842676
 11
3.5688087484
 21
4.8814879774
  0
LINE
  5
226
100
AcDbEntity
  8
0
100
AcDbLine
 62
7
  6
CONTINUOUS
 10
3.5738739138
 20
4.9030195612
 11
3.6372446345
 21
5.317149075
  0
LINE
  5
227
100
AcDbEntity
  8
0
100
AcDbLine
 62
7
  6
CONTINUOUS
 10
3.7585614483
 20
6.1076441197
 11
3.7387084657
 21
5.9779042971
  0
LINE
  5
228
100
AcDbEntity
  8
0
100
AcDbLine
 62
7
  6
CONTINUOUS
 10
3.7470118143
 20
5.9766337062
 11
3.7456882821
 21
5.9679843847
  0
LINE
  5
229
100
AcDbEntity
  8
0
100
AcDbLine
 62
7
  6
CONTINUOUS
 10
3.582953483
 20
4.5983783433
 11
3.5804523198
 21
4.5820331688
  0
LINE
  5
22A
100
AcDbEntity
  8
0
100
AcDbLine
 62
7
  6
CONTINUOUS
 10
3.5980811458
 20
4.5960634856
 11
3.5955799826
 21
4.5797183111
  0
LINE
  5
22B
100
AcDbEntity
  8
0
100
AcDbLine
 62
7
  6
CONTINUOUS
 10
6.7155159787
 20
2.3279175861
 11
6.8730159787
 21
2.3279175861
  0
LINE
  5
22C
100
AcDbEntity
  8
0
100
AcDbLine
 62
7
  6
CONTINUOUS
 10
6.7155159787
 20
2.3500027921
 11
6.8730159787
 21
2.3500027921
  0
LINE
  5
22D
100
AcDbEntity
  8
0
100
AcDbLine
 62
7
  6
CONTINUOUS
 10
6.7097508316
 20
2.3613247707
 11
6.8787811259
 21
2.3613247707
  0
LINE
  5
22E
100
AcDbEntity
  8
0
100
AcDbLine
 62
7
  6
CONTINUOUS
 10
6.7015419921
 20
2.3825786164
 11
6.8869899654
 21
2.3825786164
  0
LINE
  5
22F
100
AcDbEntity
  8
0
100
AcDbLine
 62
7
  6
CONTINUOUS
 10
6.6905315717
 20
2.4894284909
 11
6.8980003858
 21
2.4894284909
  0
LINE
  5
230
100
AcDbEntity
  8
0
100
AcDbLine
 62
7
  6
CONTINUOUS
 10
6.8975825323
 20
2.5070785981
 11
6.6909494252
 21
2.5070785981
  0
LINE
  5
231
100
AcDbEntity
  8
0
100
AcDbLine
 62
7
  6
CONTINUOUS
 10
6.896209102
 20
2.5146245082
 11
6.6923228554
 21
2.5146245082
  0
LINE
  5
232
100
AcDbEntity
  8
0
100
AcDbLine
 62
7
  6
CONTINUOUS
 10
3.6265118521
 20
4.5917129762
 11
3.6240106889
 21
4.5753678017
  0
LINE
  5
233
100
AcDbEntity
  8
0
100
AcDbLine
 62
7
  6
CONTINUOUS
 10
3.6619263969
 20
4.5862937893
 11
3.6594252337
 21
4.5699486148
  0
LINE
  5
234
100
AcDbEntity
  8
0
100
AcDbLine
 62
7
  6
CONTINUOUS
 10
3.6648164391
 20
4.5858515507
 11
3.6623152759
 21
4.5695063762
  0
LINE
  5
235
100
AcDbEntity
  8
0
100
AcDbLine
 62
7
  6
CONTINUOUS
 10
3.7002309838
 20
4.5804323639
 11
3.6977298207
 21
4.5640871894
  0
LINE
  5
236
100
AcDbEntity
  8
0
100
AcDbLine
 62
7
  6
CONTINUOUS
 10
3.7083748082
 20
4.5791861836
 11
3.705873645
 21
4.5628410091
  0
LINE
  5
237
100
AcDbEntity
  8
0
100
AcDbLine
 62
7
  6
CONTINUOUS
 10
3.743789353
 20
4.5737669968
 11
3.7412881898
 21
4.5574218223
  0
LINE
  5
238
100
AcDbEntity
  8
0
100
AcDbLine
 62
7
  6
CONTINUOUS
 10
3.7519331774
 20
4.5725208165
 11
3.7494320142
 21
4.556175642
  0
LINE
  5
239
100
AcDbEntity
  8
0
100
AcDbLine
 62
7
  6
CONTINUOUS
 10
3.7873477221
 20
4.5671016296
 11
3.7848465589
 21
4.5507564551
  0
LINE
  5
23A
100
AcDbEntity
  8
0
100
AcDbLine
 62
7
  6
CONTINUOUS
 10
3.7902377643
 20
4.566659391
 11
3.7877366012
 21
4.5503142165
  0
LINE
  5
23B
100
AcDbEntity
  8
0
100
AcDbLine
 62
7
  6
CONTINUOUS
 10
3.8256523091
 20
4.5612402042
 11
3.8231511459
 21
4.5448950297
  0
LINE
  5
23C
100
AcDbEntity
  8
0
100
AcDbLine
 62
7
  6
CONTINUOUS
 10
3.8540830154
 20
4.5568896948
 11
3.8515818522
 21
4.5405445203
  0
LINE
  5
23D
100
AcDbEntity
  8
0
100
AcDbLine
 62
7
  6
CONTINUOUS
 10
3.8692106782
 20
4.5545748371
 11
3.8667095151
 21
4.5382296626
  0
LINE
  5
23E
100
AcDbEntity
  8
0
100
AcDbLine
 62
7
  6
CONTINUOUS
 10
6.7003714641
 20
1.9294277063
 11
6.7312545325
 21
1.9169642786
  0
LINE
  5
23F
100
AcDbEntity
  8
0
100
AcDbLine
 62
7
  6
CONTINUOUS
 10
4.0185480523
 20
4.8208292316
 11
4.0178590143
 21
4.8138632265
  0
LINE
  5
240
100
AcDbEntity
  8
0
100
AcDbLine
 62
7
  6
CONTINUOUS
 10
4.1034108623
 20
4.8054009199
 11
4.1040999003
 21
4.812366925
  0
LINE
  5
241
100
AcDbEntity
  8
0
100
AcDbLine
 62
7
  6
CONTINUOUS
 10
3.9800966006
 20
5.0989787125
 11
3.9415024023
 21
4.8467644973
  0
LINE
  5
242
100
AcDbEntity
  8
0
100
AcDbLine
 62
7
  6
CONTINUOUS
 10
3.9468874483
 20
4.8459404695
 11
3.9451403858
 21
4.8345233651
  0
LINE
  5
243
100
AcDbEntity
  8
0
100
AcDbLine
 62
7
  6
CONTINUOUS
 10
3.9979681927
 20
5.0962439746
 11
3.9560386933
 21
4.8222334692
  0
LINE
  5
244
100
AcDbEntity
  8
0
100
AcDbLine
 62
7
  6
CONTINUOUS
 10
4.1248141779
 20
5.9188218207
 11
4.1234906457
 21
5.9101724992
  0
LINE
  5
245
100
AcDbEntity
  8
0
100
AcDbLine
 62
7
  6
CONTINUOUS
 10
4.1529705092
 20
6.0472910524
 11
4.1331175265
 21
5.9175512298
  0
LINE
  5
246
100
AcDbEntity
  8
0
100
AcDbLine
 62
7
  6
CONTINUOUS
 10
4.0114949927
 20
5.1204305279
 11
4.032345641
 21
5.2566901252
  0
LINE
  5
247
100
AcDbEntity
  8
0
100
AcDbLine
 62
7
  6
CONTINUOUS
 10
4.0122407376
 20
5.1044790361
 11
3.968753375
 21
4.8202878495
  0
LINE
  5
248
100
AcDbEntity
  8
0
100
AcDbLine
 62
7
  6
CONTINUOUS
 10
4.0210620602
 20
5.0927101163
 11
3.9807207995
 21
4.8290787967
  0
LINE
  5
249
100
AcDbEntity
  8
0
100
AcDbLine
 62
7
  6
CONTINUOUS
 10
4.0272059431
 20
5.0634440489
 11
4.0104876931
 21
4.9541897963
  0
LINE
  5
24A
100
AcDbEntity
  8
0
100
AcDbLine
 62
7
  6
CONTINUOUS
 10
3.9959837937
 20
4.8594063892
 11
3.9895117467
 21
4.8171113723
  0
LINE
  5
24B
100
AcDbEntity
  8
0
100
AcDbLine
 62
7
  6
CONTINUOUS
 10
4.012282758
 20
4.9022887864
 11
4.0066281098
 21
4.8653354944
  0
LINE
  5
24C
100
AcDbEntity
  8
0
100
AcDbLine
 62
7
  6
CONTINUOUS
 10
4.0479643147
 20
5.0602675717
 11
4.0348951353
 21
4.9748601021
  0
LINE
  5
24D
100
AcDbEntity
  8
0
100
AcDbLine
 62
7
  6
CONTINUOUS
 10
4.0108292089
 20
4.8175885687
 11
4.0102701183
 21
4.8139348951
  0
LINE
  5
24E
100
AcDbEntity
  8
0
100
AcDbLine
 62
7
  6
CONTINUOUS
 10
4.0598552979
 20
4.9991424514
 11
4.0655462091
 21
5.0363327228
  0
LINE
  5
24F
100
AcDbEntity
  8
0
100
AcDbLine
 62
7
  6
CONTINUOUS
 10
4.0913914605
 20
4.8523648791
 11
4.0970461088
 21
4.889318171
  0
LINE
  5
250
100
AcDbEntity
  8
0
100
AcDbLine
 62
7
  6
CONTINUOUS
 10
4.0623710847
 20
4.6280076131
 11
4.0617177096
 21
4.6237377876
  0
LINE
  5
251
100
AcDbEntity
  8
0
100
AcDbLine
 62
7
  6
CONTINUOUS
 10
4.0490047438
 20
4.5406581842
 11
4.0487435658
 21
4.5389513784
  0
LINE
  5
252
100
AcDbEntity
  8
0
100
AcDbLine
 62
7
  6
CONTINUOUS
 10
4.0082628168
 20
4.94984325
 11
3.996153186
 21
4.8999746783
  0
LINE
  5
253
100
AcDbEntity
  8
0
100
AcDbLine
 62
7
  6
CONTINUOUS
 10
4.0150651336
 20
4.9481914372
 11
4.0029555028
 21
4.8983228655
  0
LINE
  5
254
100
AcDbEntity
  8
0
100
AcDbLine
 62
7
  6
CONTINUOUS
 10
3.6193755396
 20
4.5621371573
 11
3.6267392671
 21
4.5698450069
  0
LINE
  5
255
100
AcDbEntity
  8
0
100
AcDbLine
 62
7
  6
CONTINUOUS
 10
3.6478062459
 20
4.5577866479
 11
3.6594252337
 21
4.5699486148
  0
LINE
  5
256
100
AcDbEntity
  8
0
100
AcDbLine
 62
7
  6
CONTINUOUS
 10
3.6861108329
 20
4.5519252225
 11
3.6977298207
 21
4.5640871894
  0
LINE
  5
257
100
AcDbEntity
  8
0
100
AcDbLine
 62
7
  6
CONTINUOUS
 10
3.729669202
 20
4.5452598553
 11
3.7412881898
 21
4.5574218223
  0
LINE
  5
258
100
AcDbEntity
  8
0
100
AcDbLine
 62
7
  6
CONTINUOUS
 10
3.7732275712
 20
4.5385944882
 11
3.7848465589
 21
4.5507564551
  0
LINE
  5
259
100
AcDbEntity
  8
0
100
AcDbLine
 62
7
  6
CONTINUOUS
 10
3.8115321581
 20
4.5327330628
 11
3.8231511459
 21
4.5448950297
  0
LINE
  5
25A
100
AcDbEntity
  8
0
100
AcDbLine
 62
7
  6
CONTINUOUS
 10
3.8399628644
 20
4.5283825534
 11
3.8515818522
 21
4.5405445203
  0
LINE
  5
25B
100
AcDbEntity
  8
0
100
AcDbLine
 62
7
  6
CONTINUOUS
 10
3.8550905273
 20
4.5260676956
 11
3.8667095151
 21
4.5382296626
  0
LINE
  5
25C
100
AcDbEntity
  8
0
100
AcDbLine
 62
7
  6
CONTINUOUS
 10
4.1689826702
 20
5.4269131903
 11
4.1622689964
 21
5.4249316293
  0
LINE
  5
25D
100
AcDbEntity
  8
0
100
AcDbLine
 62
7
  6
CONTINUOUS
 10
3.5879027023
 20
4.5669531782
 11
3.5804523198
 21
4.5820331688
  0
LINE
  5
25E
100
AcDbEntity
  8
0
100
AcDbLine
 62
7
  6
CONTINUOUS
 10
3.6030303651
 20
4.5646383205
 11
3.5955799826
 21
4.5797183111
  0
LINE
  5
25F
100
AcDbEntity
  8
0
100
AcDbLine
 62
7
  6
CONTINUOUS
 10
3.6314610714
 20
4.5602878111
 11
3.6240106889
 21
4.5753678017
  0
LINE
  5
260
100
AcDbEntity
  8
0
100
AcDbLine
 62
7
  6
CONTINUOUS
 10
3.6697656584
 20
4.5544263856
 11
3.6623152759
 21
4.5695063762
  0
LINE
  5
261
100
AcDbEntity
  8
0
100
AcDbLine
 62
7
  6
CONTINUOUS
 10
3.7133240275
 20
4.5477610185
 11
3.705873645
 21
4.5628410091
  0
LINE
  5
262
100
AcDbEntity
  8
0
100
AcDbLine
 62
7
  6
CONTINUOUS
 10
3.7568823967
 20
4.5410956514
 11
3.7494320142
 21
4.556175642
  0
LINE
  5
263
100
AcDbEntity
  8
0
100
AcDbLine
 62
7
  6
CONTINUOUS
 10
3.7951869836
 20
4.5352342259
 11
3.7877366012
 21
4.5503142165
  0
LINE
  5
264
100
AcDbEntity
  8
0
100
AcDbLine
 62
7
  6
CONTINUOUS
 10
4.0536776196
 20
4.9240628826
 11
4.0188478059
 21
4.9104833056
  0
LINE
  5
265
100
AcDbEntity
  8
0
100
AcDbLine
 62
7
  6
CONTINUOUS
 10
4.0499965989
 20
4.8305907829
 11
4.0848264127
 21
4.8441703598
  0
LINE
  5
266
100
AcDbEntity
  8
0
100
AcDbLine
 62
7
  6
CONTINUOUS
 10
4.0052298828
 20
4.8526529925
 11
3.9986253382
 21
4.850333512
  0
LINE
  5
267
100
AcDbEntity
  8
0
100
AcDbLine
 62
7
  6
CONTINUOUS
 10
6.9471066757
 20
3.2267379326
 11
6.6414252818
 21
3.2267379326
  0
LINE
  5
268
100
AcDbEntity
  8
0
100
AcDbLine
 62
7
  6
CONTINUOUS
 10
6.9583171934
 20
3.2616779571
 11
6.6302147641
 21
3.2616779571
  0
LINE
  5
269
100
AcDbEntity
  8
0
100
AcDbLine
 62
7
  6
CONTINUOUS
 10
3.8236176899
 20
4.5308837165
 11
3.8188958856
 21
4.5404409124
  0
LINE
  5
26A
100
AcDbEntity
  8
0
100
AcDbLine
 62
7
  6
CONTINUOUS
 10
3.9986253382
 20
4.850333512
 11
4.0089857543
 21
4.8208330134
  0
LINE
  5
26B
100
AcDbEntity
  8
0
100
AcDbLine
 62
7
  6
CONTINUOUS
 10
4.0052298828
 20
4.8526529925
 11
4.0155902989
 21
4.8231524939
  0
LINE
  5
26C
100
AcDbEntity
  8
0
100
AcDbLine
 62
7
  6
CONTINUOUS
 10
4.0155902989
 20
4.8231524939
 11
4.0089857543
 21
4.8208330134
  0
LINE
  5
26D
100
AcDbEntity
  8
0
100
AcDbLine
 62
7
  6
CONTINUOUS
 10
6.9512937248
 20
3.2954424825
 11
6.6372382327
 21
3.2954424825
  0
LINE
  5
26E
100
AcDbEntity
  8
0
100
AcDbLine
 62
7
  6
CONTINUOUS
 10
6.9419088958
 20
3.3016811598
 11
6.6466230617
 21
3.3016811598
  0
LINE
  5
26F
100
AcDbEntity
  8
0
100
AcDbLine
 62
7
  6
CONTINUOUS
 10
6.5685367648
 20
3.6168445303
 11
7.0199951927
 21
3.6168445303
  0
LINE
  5
270
100
AcDbEntity
  8
0
100
AcDbLine
 62
7
  6
CONTINUOUS
 10
6.55411463
 20
3.6537158191
 11
7.0344173275
 21
3.6537158191
  0
LINE
  5
271
100
AcDbEntity
  8
0
100
AcDbLine
 62
7
  6
CONTINUOUS
 10
6.5555969998
 20
3.7068561795
 11
7.0329349577
 21
3.7068561795
  0
LINE
  5
272
100
AcDbEntity
  8
0
100
AcDbLine
 62
7
  6
CONTINUOUS
 10
7.0192198641
 20
3.7149675861
 11
6.5693120934
 21
3.7149675861
  0
LINE
  5
273
100
AcDbEntity
  8
0
100
AcDbLine
 62
7
  6
CONTINUOUS
 10
7.0369793813
 20
3.7247604657
 11
6.5515525761
 21
3.7247604657
  0
LINE
  5
274
100
AcDbEntity
  8
0
100
AcDbLine
 62
7
  6
CONTINUOUS
 10
4.0163093256
 20
4.9501218863
 11
4.0119953926
 21
4.9556345972
  0
LINE
  5
275
100
AcDbEntity
  8
0
100
AcDbLine
 62
7
  6
CONTINUOUS
 10
4.0104422477
 20
4.8555527365
 11
4.0396174131
 21
4.8321790215
  0
LINE
  5
276
100
AcDbEntity
  8
0
100
AcDbLine
 62
7
  6
CONTINUOUS
 10
4.0932319709
 20
4.8991009289
 11
4.0640568055
 21
4.922474644
  0
LINE
  5
277
100
AcDbEntity
  8
0
100
AcDbLine
 62
7
  6
CONTINUOUS
 10
4.0178006083
 20
5.1020186365
 11
4.0178730377
 21
5.1019502535
  0
LINE
  5
278
100
AcDbEntity
  8
0
100
AcDbLine
 62
7
  6
CONTINUOUS
 10
6.5771765381
 20
4.0656507733
 11
7.0113554194
 21
4.0656507733
  0
LINE
  5
279
100
AcDbEntity
  8
0
100
AcDbLine
 62
7
  6
CONTINUOUS
 10
6.5768121921
 20
4.0935332918
 11
7.0117197654
 21
4.0935332918
  0
LINE
  5
27A
100
AcDbEntity
  8
0
100
AcDbLine
 62
7
  6
CONTINUOUS
 10
7.0011424565
 20
4.1535665587
 11
6.587389501
 21
4.1535665587
  0
LINE
  5
27B
100
AcDbEntity
  8
0
100
AcDbLine
 62
7
  6
CONTINUOUS
 10
3.5879027023
 20
4.5669531782
 11
3.6193755396
 21
4.5621371573
  0
LINE
  5
27C
100
AcDbEntity
  8
0
100
AcDbLine
 62
7
  6
CONTINUOUS
 10
3.6314610714
 20
4.5602878111
 11
3.6478062459
 21
4.5577866479
  0
LINE
  5
27D
100
AcDbEntity
  8
0
100
AcDbLine
 62
7
  6
CONTINUOUS
 10
3.6697656584
 20
4.5544263856
 11
3.6861108329
 21
4.5519252225
  0
LINE
  5
27E
100
AcDbEntity
  8
0
100
AcDbLine
 62
7
  6
CONTINUOUS
 10
3.7133240275
 20
4.5477610185
 11
3.729669202
 21
4.5452598553
  0
LINE
  5
27F
100
AcDbEntity
  8
0
100
AcDbLine
 62
7
  6
CONTINUOUS
 10
3.7568823967
 20
4.5410956514
 11
3.7732275712
 21
4.5385944882
  0
LINE
  5
280
100
AcDbEntity
  8
0
100
AcDbLine
 62
7
  6
CONTINUOUS
 10
3.7951869836
 20
4.5352342259
 11
3.8115321581
 21
4.5327330628
  0
LINE
  5
281
100
AcDbEntity
  8
0
100
AcDbLine
 62
7
  6
CONTINUOUS
 10
3.8236176899
 20
4.5308837165
 11
3.8550905273
 21
4.5260676956
  0
LINE
  5
282
100
AcDbEntity
  8
0
100
AcDbLine
 62
7
  6
CONTINUOUS
 10
3.5804523198
 20
4.5820331688
 11
3.6594252337
 21
4.5699486148
  0
LINE
  5
283
100
AcDbEntity
  8
0
100
AcDbLine
 62
7
  6
CONTINUOUS
 10
3.6623152759
 20
4.5695063762
 11
3.6977298207
 21
4.5640871894
  0
LINE
  5
284
100
AcDbEntity
  8
0
100
AcDbLine
 62
7
  6
CONTINUOUS
 10
3.705873645
 20
4.5628410091
 11
3.7412881898
 21
4.5574218223
  0
LINE
  5
285
100
AcDbEntity
  8
0
100
AcDbLine
 62
7
  6
CONTINUOUS
 10
3.7494320142
 20
4.556175642
 11
3.7848465589
 21
4.5507564551
  0
LINE
  5
286
100
AcDbEntity
  8
0
100
AcDbLine
 62
7
  6
CONTINUOUS
 10
3.7877366012
 20
4.5503142165
 11
3.8667095151
 21
4.5382296626
  0
LINE
  5
287
100
AcDbEntity
  8
0
100
AcDbLine
 62
7
  6
CONTINUOUS
 10
3.5748892164
 20
4.5996123495
 11
3.8772749448
 21
4.5533408309
  0
LINE
  5
288
100
AcDbEntity
  8
0
100
AcDbLine
 62
7
  6
CONTINUOUS
 10
4.0367761414
 20
4.5301604312
 11
3.415754857
 21
4.6251900415
  0
LINE
  5
289
100
AcDbEntity
  8
0
100
AcDbLine
 62
7
  6
CONTINUOUS
 10
3.4069639098
 20
4.6371574659
 11
4.0487435658
 21
4.5389513784
  0
LINE
  5
28A
100
AcDbEntity
  8
0
100
AcDbLine
 62
7
  6
CONTINUOUS
 10
3.4072250878
 20
4.6388642718
 11
4.0490047438
 21
4.5406581842
  0
LINE
  5
28B
100
AcDbEntity
  8
0
100
AcDbLine
 62
7
  6
CONTINUOUS
 10
4.0465066795
 20
4.545959872
 11
3.4111942625
 21
4.6431763329
  0
LINE
  5
28C
100
AcDbEntity
  8
0
100
AcDbLine
 62
7
  6
CONTINUOUS
 10
3.4268189126
 20
4.7148480991
 11
4.0530297899
 21
4.6190243695
  0
LINE
  5
28D
100
AcDbEntity
  8
0
100
AcDbLine
 62
7
  6
CONTINUOUS
 10
3.4236963148
 20
4.7160986382
 11
4.0563834609
 21
4.6192839002
  0
LINE
  5
28E
100
AcDbEntity
  8
0
100
AcDbLine
 62
7
  6
CONTINUOUS
 10
3.4199380536
 20
4.7219438752
 11
4.0617177096
 21
4.6237377876
  0
LINE
  5
28F
100
AcDbEntity
  8
0
100
AcDbLine
 62
7
  6
CONTINUOUS
 10
3.4205914287
 20
4.7262137006
 11
4.0623710847
 21
4.6280076131
  0
LINE
  5
290
100
AcDbEntity
  8
0
100
AcDbLine
 62
7
  6
CONTINUOUS
 10
3.4294049478
 20
4.7350080767
 11
4.0565907465
 21
4.6390351632
  0
LINE
  5
291
100
AcDbEntity
  8
0
100
AcDbLine
 62
7
  6
CONTINUOUS
 10
4.1391970901
 20
4.8268497175
 11
4.1327288825
 21
4.829525963
  0
LINE
  5
292
100
AcDbEntity
  8
0
100
AcDbLine
 62
7
  6
CONTINUOUS
 10
4.0178590143
 20
4.8138632265
 11
4.1034108623
 21
4.8054009199
  0
LINE
  5
293
100
AcDbEntity
  8
0
100
AcDbLine
 62
7
  6
CONTINUOUS
 10
4.0185480523
 20
4.8208292316
 11
4.1040999003
 21
4.812366925
  0
LINE
  5
294
100
AcDbEntity
  8
0
100
AcDbLine
 62
7
  6
CONTINUOUS
 10
3.9627895579
 20
4.7567972693
 11
3.5541294984
 21
4.8193310458
  0
LINE
  5
295
100
AcDbEntity
  8
0
100
AcDbLine
 62
7
  6
CONTINUOUS
 10
3.9717863094
 20
4.773167201
 11
3.5504397127
 21
4.8376422905
  0
LINE
  5
296
100
AcDbEntity
  8
0
100
AcDbLine
 62
7
  6
CONTINUOUS
 10
3.5688087484
 20
4.8814879774
 11
4.0206493041
 21
4.8123466565
  0
LINE
  5
297
100
AcDbEntity
  8
0
100
AcDbLine
 62
7
  6
CONTINUOUS
 10
3.9451403858
 20
4.8345233651
 11
4.0075306497
 21
4.8249763131
  0
LINE
  5
298
100
AcDbEntity
  8
0
100
AcDbLine
 62
7
  6
CONTINUOUS
 10
3.5721440495
 20
4.9032842676
 11
3.9468874483
 21
4.8459404695
  0
LINE
  5
299
100
AcDbEntity
  8
0
100
AcDbLine
 62
7
  6
CONTINUOUS
 10
4.0067679127
 20
4.999297444
 11
4.0531157061
 21
4.992205235
  0
LINE
  5
29A
100
AcDbEntity
  8
0
100
AcDbLine
 62
7
  6
CONTINUOUS
 10
4.0029555028
 20
4.8983228655
 11
3.996153186
 21
4.8999746783
  0
LINE
  5
29B
100
AcDbEntity
  8
0
100
AcDbLine
 62
7
  6
CONTINUOUS
 10
4.0150651336
 20
4.9481914372
 11
4.0082628168
 21
4.94984325
  0
LINE
  5
29C
100
AcDbEntity
  8
0
100
AcDbLine
 62
7
  6
CONTINUOUS
 10
4.2180192985
 20
5.6168479849
 11
4.2237981409
 21
5.6128976708
  0
LINE
  5
29D
100
AcDbEntity
  8
0
100
AcDbLine
 62
7
  6
CONTINUOUS
 10
4.2067249499
 20
5.6251086575
 11
4.2012094437
 21
5.6294190161
  0
LINE
  5
29E
100
AcDbEntity
  8
0
100
AcDbLine
 62
7
  6
CONTINUOUS
 10
4.0272059431
 20
5.0634440489
 11
4.0479643147
 21
5.0602675717
  0
LINE
  5
29F
100
AcDbEntity
  8
0
100
AcDbLine
 62
7
  6
CONTINUOUS
 10
3.9800966006
 20
5.0989787125
 11
4.0210620602
 21
5.0927101163
  0
LINE
  5
2A0
100
AcDbEntity
  8
0
100
AcDbLine
 62
7
  6
CONTINUOUS
 10
3.6372446345
 20
5.317149075
 11
4.032345641
 21
5.2566901252
  0
LINE
  5
2A1
100
AcDbEntity
  8
0
100
AcDbLine
 62
7
  6
CONTINUOUS
 10
3.6492120589
 20
5.3259400222
 11
4.0235546938
 21
5.2686575496
  0
LINE
  5
2A2
100
AcDbEntity
  8
0
100
AcDbLine
 62
7
  6
CONTINUOUS
 10
3.6460322126
 20
5.3806181392
 11
4.0429400188
 21
5.3198827102
  0
LINE
  5
2A3
100
AcDbEntity
  8
0
100
AcDbLine
 62
7
  6
CONTINUOUS
 10
3.6562636914
 20
5.3954231941
 11
4.0376040445
 21
5.3370699201
  0
LINE
  5
2A4
100
AcDbEntity
  8
0
100
AcDbLine
 62
7
  6
CONTINUOUS
 10
6.5947659787
 20
4.1558329297
 11
6.5947659787
 21
5.8615484721
  0
LWPOLYLINE
  5
2A5
100
AcDbEntity
  8
0
100
AcDbPolyline
 62
7
  6
CONTINUOUS
 90
3
 70
0
 10
7.0220912497
 20
2.4753009672
 10
7.0219224831
 20
2.4760583525
 10
7.0217649482
 20
2.4767736821
  0
LINE
  5
2A6
100
AcDbEntity
  8
0
100
AcDbLine
 62
7
  6
CONTINUOUS
 10
6.8894204139
 20
1.9705240835
 11
6.8730159787
 21
2.0549175861
  0
LINE
  5
2A7
100
AcDbEntity
  8
0
100
AcDbLine
 62
7
  6
CONTINUOUS
 10
6.666613201
 20
2.072691576
 11
6.6666132483
 21
2.0991641777
  0
LINE
  5
2A8
100
AcDbEntity
  8
0
100
AcDbLine
 62
7
  6
CONTINUOUS
 10
6.6761409787
 20
1.9031837897
 11
6.6761409787
 21
2.0872467957
  0
LINE
  5
2A9
100
AcDbEntity
  8
0
100
AcDbLine
 62
7
  6
CONTINUOUS
 10
6.7155159787
 20
2.3279175861
 11
6.7155159787
 21
2.3500027921
  0
LINE
  5
2AA
100
AcDbEntity
  8
0
100
AcDbLine
 62
7
  6
CONTINUOUS
 10
6.7942659788
 20
1.8274175861
 11
6.7942659788
 21
1.7519729907
  0
LINE
  5
2AB
100
AcDbEntity
  8
0
100
AcDbLine
 62
7
  6
CONTINUOUS
 10
6.5688842679
 20
2.4878350796
 11
6.5688937998
 21
2.487901403
  0
LINE
  5
2AC
100
AcDbEntity
  8
0
100
AcDbLine
 62
7
  6
CONTINUOUS
 10
6.5688937998
 20
2.487901403
 11
6.5688730297
 21
2.4877645372
  0
LINE
  5
2AD
100
AcDbEntity
  8
0
100
AcDbLine
 62
7
  6
CONTINUOUS
 10
6.5688730297
 20
2.4877645372
 11
6.5688203222
 21
2.48742978
  0
LINE
  5
2AE
100
AcDbEntity
  8
0
100
AcDbLine
 62
7
  6
CONTINUOUS
 10
6.5688203222
 20
2.48742978
 11
6.5687317884
 21
2.4868888697
  0
LINE
  5
2AF
100
AcDbEntity
  8
0
100
AcDbLine
 62
7
  6
CONTINUOUS
 10
6.5687317884
 20
2.4868888697
 11
6.5686510585
 21
2.4864112261
  0
LINE
  5
2B0
100
AcDbEntity
  8
0
100
AcDbLine
 62
7
  6
CONTINUOUS
 10
4.1869483064
 20
5.455356851
 11
4.1937804028
 21
5.4568808127
  0
LINE
  5
2B1
100
AcDbEntity
  8
0
100
AcDbLine
 62
7
  6
CONTINUOUS
 10
3.7333687958
 20
5.8993073077
 11
4.1147091489
 21
5.8409540337
  0
LINE
  5
2B2
100
AcDbEntity
  8
0
100
AcDbLine
 62
7
  6
CONTINUOUS
 10
3.7280328215
 20
5.9164945176
 11
4.1249406276
 21
5.8557590886
  0
LINE
  5
2B3
100
AcDbEntity
  8
0
100
AcDbLine
 62
7
  6
CONTINUOUS
 10
3.7456882821
 20
5.9679843847
 11
4.1234906457
 21
5.9101724992
  0
LINE
  5
2B4
100
AcDbEntity
  8
0
100
AcDbLine
 62
7
  6
CONTINUOUS
 10
4.1331175265
 20
5.9175512298
 11
3.7387084657
 21
5.9779042971
  0
LINE
  5
2B5
100
AcDbEntity
  8
0
100
AcDbLine
 62
7
  6
CONTINUOUS
 10
7.0217649482
 20
2.4767736821
 11
7.0214703277
 21
2.4781349436
  0
LINE
  5
2B6
100
AcDbEntity
  8
0
100
AcDbLine
 62
7
  6
CONTINUOUS
 10
7.0214703277
 20
2.4781349436
 11
7.0212029473
 21
2.4794001628
  0
LINE
  5
2B7
100
AcDbEntity
  8
0
100
AcDbLine
 62
7
  6
CONTINUOUS
 10
7.0212029473
 20
2.4794001628
 11
7.0209620789
 21
2.4805681867
  0
LINE
  5
2B8
100
AcDbEntity
  8
0
100
AcDbLine
 62
7
  6
CONTINUOUS
 10
7.0209620789
 20
2.4805681867
 11
7.0207461658
 21
2.4816418254
  0
LINE
  5
2B9
100
AcDbEntity
  8
0
100
AcDbLine
 62
7
  6
CONTINUOUS
 10
7.0207461658
 20
2.4816418254
 11
7.0205512201
 21
2.4826361889
  0
LINE
  5
2BA
100
AcDbEntity
  8
0
100
AcDbLine
 62
7
  6
CONTINUOUS
 10
7.0205512201
 20
2.4826361889
 11
7.0203772511
 21
2.4835467206
  0
LINE
  5
2BB
100
AcDbEntity
  8
0
100
AcDbLine
 62
7
  6
CONTINUOUS
 10
7.0203772511
 20
2.4835467206
 11
7.0202237678
 21
2.4843712461
  0
LINE
  5
2BC
100
AcDbEntity
  8
0
100
AcDbLine
 62
7
  6
CONTINUOUS
 10
7.0202237678
 20
2.4843712461
 11
7.0200904156
 21
2.4851067489
  0
LINE
  5
2BD
100
AcDbEntity
  8
0
100
AcDbLine
 62
7
  6
CONTINUOUS
 10
7.0200904156
 20
2.4851067489
 11
7.0199767324
 21
2.4857506614
  0
LINE
  5
2BE
100
AcDbEntity
  8
0
100
AcDbLine
 62
7
  6
CONTINUOUS
 10
7.0199767324
 20
2.4857506614
 11
7.0198821645
 21
2.4863008429
  0
LINE
  5
2BF
100
AcDbEntity
  8
0
100
AcDbLine
 62
7
  6
CONTINUOUS
 10
7.0198821645
 20
2.4863008429
 11
7.0197749214
 21
2.4869456656
  0
LINE
  5
2C0
100
AcDbEntity
  8
0
100
AcDbLine
 62
7
  6
CONTINUOUS
 10
7.0197749214
 20
2.4869456656
 11
7.0197064114
 21
2.4873743711
  0
LWPOLYLINE
  5
2C1
100
AcDbEntity
  8
0
100
AcDbPolyline
 62
7
  6
CONTINUOUS
 90
3
 70
0
 10
7.0197064114
 20
2.4873743711
 10
7.0196727164
 20
2.4875935451
 10
7.0196682066
 20
2.4876237499
  0
LINE
  5
2C2
100
AcDbEntity
  8
0
100
AcDbLine
 62
7
  6
CONTINUOUS
 10
6.8730159787
 20
2.3279175861
 11
6.8730159787
 21
2.3500027921
  0
LINE
  5
2C3
100
AcDbEntity
  8
0
100
AcDbLine
 62
7
  6
CONTINUOUS
 10
6.9123909787
 20
2.0872467957
 11
6.9123909787
 21
1.9031837896
  0
LINE
  5
2C4
100
AcDbEntity
  8
0
100
AcDbLine
 62
7
  6
CONTINUOUS
 10
6.9219187092
 20
2.0991641777
 11
6.9219187565
 21
2.072691576
  0
LINE
  5
2C5
100
AcDbEntity
  8
0
100
AcDbLine
 62
7
  6
CONTINUOUS
 10
6.9937659787
 20
4.1558329297
 11
6.9937659787
 21
5.8615484721
  0
LINE
  5
2C6
100
AcDbEntity
  8
0
100
AcDbLine
 62
7
  6
CONTINUOUS
 10
6.5686510585
 20
2.4864112261
 11
6.5685518428
 21
2.485839461
  0
LINE
  5
2C7
100
AcDbEntity
  8
0
100
AcDbLine
 62
7
  6
CONTINUOUS
 10
6.5685518428
 20
2.485839461
 11
6.5684331349
 21
2.4851731233
  0
LINE
  5
2C8
100
AcDbEntity
  8
0
100
AcDbLine
 62
7
  6
CONTINUOUS
 10
6.5684331349
 20
2.4851731233
 11
6.5682940704
 21
2.4844127399
  0
LINE
  5
2C9
100
AcDbEntity
  8
0
100
AcDbLine
 62
7
  6
CONTINUOUS
 10
6.5682940704
 20
2.4844127399
 11
6.5681339308
 21
2.4835597159
  0
LINE
  5
2CA
100
AcDbEntity
  8
0
100
AcDbLine
 62
7
  6
CONTINUOUS
 10
6.5681339308
 20
2.4835597159
 11
6.567952105
 21
2.4826160259
  0
LINE
  5
2CB
100
AcDbEntity
  8
0
100
AcDbLine
 62
7
  6
CONTINUOUS
 10
6.567952105
 20
2.4826160259
 11
6.5677484865
 21
2.4815861271
  0
LINE
  5
2CC
100
AcDbEntity
  8
0
100
AcDbLine
 62
7
  6
CONTINUOUS
 10
6.5677484865
 20
2.4815861271
 11
6.5675217228
 21
2.4804681011
  0
LINE
  5
2CD
100
AcDbEntity
  8
0
100
AcDbLine
 62
7
  6
CONTINUOUS
 10
6.5675217228
 20
2.4804681011
 11
6.5672678621
 21
2.479247578
  0
LINE
  5
2CE
100
AcDbEntity
  8
0
100
AcDbLine
 62
7
  6
CONTINUOUS
 10
6.5672678621
 20
2.479247578
 11
6.5669862082
 21
2.4779262441
  0
LINE
  5
2CF
100
AcDbEntity
  8
0
100
AcDbLine
 62
7
  6
CONTINUOUS
 10
6.5669862082
 20
2.4779262441
 11
6.5666761752
 21
2.4765061172
  0
LINE
  5
2D0
100
AcDbEntity
  8
0
100
AcDbLine
 62
7
  6
CONTINUOUS
 10
6.5666761752
 20
2.4765061172
 11
6.5663998138
 21
2.4752677585
  0
LINE
  5
2D1
100
AcDbEntity
  8
0
100
AcDbLine
 62
7
  6
CONTINUOUS
 10
6.5947659787
 20
5.8615484721
 11
6.9937659787
 21
5.8615484721
  0
LINE
  5
2D2
100
AcDbEntity
  8
0
100
AcDbLine
 62
7
  6
CONTINUOUS
 10
3.7585614483
 20
6.1076441197
 11
4.1529705092
 21
6.0472910524
  0
LINE
  5
2D3
100
AcDbEntity
  8
0
100
AcDbLine
 62
7
  6
CONTINUOUS
 10
6.6991115436
 20
1.9705240835
 11
6.7155159787
 21
2.0549175861
  0
LINE
  5
2D4
100
AcDbEntity
  8
0
100
AcDbLine
 62
7
  6
CONTINUOUS
 10
6.8881604934
 20
1.9294277063
 11
6.857277425
 21
1.9169642786
  0
ARC
  5
2D5
100
AcDbEntity
  8
0
100
AcDbCircle
 62
7
  6
CONTINUOUS
 10
-29.1895953271
 20
3.2037272591
 40
35.7605184048
100
AcDbArc
 50
358.8289111002
 51
0.6619144145
  0
ARC
  5
2D6
100
AcDbEntity
  8
0
100
AcDbCircle
 62
7
  6
CONTINUOUS
 10
-29.1792304552
 20
3.2038206389
 40
35.7501587722
100
AcDbArc
 50
357.634856843
 51
357.9474599138
  0
ARC
  5
2D7
100
AcDbEntity
  8
0
100
AcDbCircle
 62
7
  6
CONTINUOUS
 10
4.9981658975
 20
1.6043764397
 40
1.5361037193
100
AcDbArc
 50
354.8218327104
 51
1.5376658332
  0
ARC
  5
2D8
100
AcDbEntity
  8
0
100
AcDbCircle
 62
7
  6
CONTINUOUS
 10
6.1734749885
 20
1.2334324817
 40
0.2467651466
100
AcDbArc
 50
340.6036698976
 51
355.7042991221
  0
ARC
  5
2D9
100
AcDbEntity
  8
0
100
AcDbCircle
 62
7
  6
CONTINUOUS
 10
6.5278005385
 20
2.4186675318
 40
0.17745
100
AcDbArc
 50
348.2656032343
 51
23.5010340151
  0
ARC
  5
2DA
100
AcDbEntity
  8
0
100
AcDbCircle
 62
7
  6
CONTINUOUS
 10
6.571497008
 20
3.2235698855
 40
0.07
100
AcDbArc
 50
2.5939678411
 51
32.9837411235
  0
ARC
  5
2DB
100
AcDbEntity
  8
0
100
AcDbCircle
 62
7
  6
CONTINUOUS
 10
6.49173162
 20
1.6444708136
 40
0.042
100
AcDbArc
 50
1.5357166436
 51
42.2473174355
  0
ARC
  5
2DC
100
AcDbEntity
  8
0
100
AcDbCircle
 62
7
  6
CONTINUOUS
 10
6.6647545922
 20
1.9772023983
 40
0.035
100
AcDbArc
 50
323.1508184991
 51
349.0
  0
ARC
  5
2DD
100
AcDbEntity
  8
0
100
AcDbCircle
 62
7
  6
CONTINUOUS
 10
6.6507659787
 20
3.2750157822
 40
0.0245
100
AcDbArc
 50
123.5148367581
 51
212.9837411234
  0
ARC
  5
2DE
100
AcDbEntity
  8
0
100
AcDbCircle
 62
7
  6
CONTINUOUS
 10
6.7221031108
 20
2.3783077386
 40
0.021
100
AcDbArc
 50
168.2656025308
 51
233.97035423
  0
ARC
  5
2DF
100
AcDbEntity
  8
0
100
AcDbCircle
 62
7
  6
CONTINUOUS
 10
6.7097896822
 20
2.4978025689
 40
0.021
100
AcDbArc
 50
153.7866008351
 51
203.5010340151
  0
ARC
  5
2E0
100
AcDbEntity
  8
0
100
AcDbCircle
 62
7
  6
CONTINUOUS
 10
6.4369975862
 20
1.2136300697
 40
0.0175
100
AcDbArc
 50
97.1504999999
 51
175.6783986727
  0
ARC
  5
2E1
100
AcDbEntity
  8
0
100
AcDbCircle
 62
7
  6
CONTINUOUS
 10
6.4227463433
 20
1.1456807688
 40
0.0175
100
AcDbArc
 50
160.6427122555
 51
259.6123840846
  0
ARC
  5
2E2
100
AcDbEntity
  8
0
100
AcDbCircle
 62
7
  6
CONTINUOUS
 10
6.5105721513
 20
1.4673165803
 40
0.0175
100
AcDbArc
 50
300.5812285451
 51
354.8256393571
  0
ARC
  5
2E3
100
AcDbEntity
  8
0
100
AcDbCircle
 62
7
  6
CONTINUOUS
 10
6.5229884138
 20
1.7292119583
 40
0.0175
100
AcDbArc
 50
297.4093030826
 51
357.6348601802
  0
ARC
  5
2E4
100
AcDbEntity
  8
0
100
AcDbCircle
 62
7
  6
CONTINUOUS
 10
6.496264884
 20
1.4010022293
 40
0.0175
100
AcDbArc
 50
325.6378089839
 51
33.0716529704
  0
ARC
  5
2E5
100
AcDbEntity
  8
0
100
AcDbCircle
 62
7
  6
CONTINUOUS
 10
6.7067659787
 20
1.9457175861
 40
0.0175
100
AcDbArc
 50
143.1508184991
 51
248.5677469906
  0
ARC
  5
2E6
100
AcDbEntity
  8
0
100
AcDbCircle
 62
7
  6
CONTINUOUS
 10
6.7015159787
 20
2.3500027921
 40
0.014
100
AcDbArc
 50
0.0
 51
53.9703542418
  0
ARC
  5
2E7
100
AcDbEntity
  8
0
100
AcDbCircle
 62
7
  6
CONTINUOUS
 10
6.6783892538
 20
2.5132626175
 40
0.014
100
AcDbArc
 50
333.7866008349
 51
5.5824415985
  0
ARC
  5
2E8
100
AcDbEntity
  8
0
100
AcDbCircle
 62
7
  6
CONTINUOUS
 10
6.3583881566
 20
1.0469175861
 40
0.0105
100
AcDbArc
 50
145.9474567342
 51
270.0
  0
ARC
  5
2E9
100
AcDbEntity
  8
0
100
AcDbCircle
 62
7
  6
CONTINUOUS
 10
-6.7280665503
 20
3.8462812168
 40
13.6892
100
AcDbArc
 50
354.4175584015
 51
357.4060321589
  0
ARC
  5
2EA
100
AcDbEntity
  8
0
100
AcDbCircle
 62
7
  6
CONTINUOUS
 10
4.1332135833
 20
4.7963064798
 40
0.17494378
100
AcDbArc
 50
193.0522469054
 51
244.0245821914
  0
ARC
  5
2EB
100
AcDbEntity
  8
0
100
AcDbCircle
 62
7
  6
CONTINUOUS
 10
6.5125404978
 20
3.6161979362
 40
0.056
100
AcDbArc
 50
0.6615703295
 51
42.0641469949
  0
ARC
  5
2EC
100
AcDbEntity
  8
0
100
AcDbCircle
 62
7
  6
CONTINUOUS
 10
6.5826968459
 20
3.6795093635
 40
0.0385
100
AcDbArc
 50
134.7401082816
 51
222.0641469981
  0
ARC
  5
2ED
100
AcDbEntity
  8
0
100
AcDbCircle
 62
7
  6
CONTINUOUS
 10
6.6052659787
 20
4.1194684423
 40
0.0385
100
AcDbArc
 50
117.6664875678
 51
222.3486482012
  0
ARC
  5
2EE
100
AcDbEntity
  8
0
100
AcDbCircle
 62
7
  6
CONTINUOUS
 10
3.4135815707
 20
4.6804040735
 40
0.0371
100
AcDbArc
 50
67.6390698991
 51
74.178898083
  0
ARC
  5
2EF
100
AcDbEntity
  8
0
100
AcDbCircle
 62
7
  6
CONTINUOUS
 10
4.0553612267
 20
4.5821979859
 40
0.0371
100
AcDbArc
 50
88.421101917
 51
94.9609301009
  0
ARC
  5
2F0
100
AcDbEntity
  8
0
100
AcDbCircle
 62
7
  6
CONTINUOUS
 10
4.0474709548
 20
4.5826972191
 40
0.03675
100
AcDbArc
 50
268.4964558983
 51
81.3
  0
ARC
  5
2F1
100
AcDbEntity
  8
0
100
AcDbCircle
 62
7
  6
CONTINUOUS
 10
3.4212600775
 20
4.6785209488
 40
0.03675
100
AcDbArc
 50
81.3
 51
254.1035441017
  0
ARC
  5
2F2
100
AcDbEntity
  8
0
100
AcDbCircle
 62
7
  6
CONTINUOUS
 10
6.5753059787
 20
3.6869675861
 40
0.028
100
AcDbArc
 50
90.0
 51
134.740108284
  0
ARC
  5
2F3
100
AcDbEntity
  8
0
100
AcDbCircle
 62
7
  6
CONTINUOUS
 10
3.9636635935
 20
4.7962815144
 40
0.0245
100
AcDbArc
 50
289.3622389438
 51
78.2305502817
  0
ARC
  5
2F4
100
AcDbEntity
  8
0
100
AcDbCircle
 62
7
  6
CONTINUOUS
 10
6.5693120934
 20
3.7359675861
 40
0.021
100
AcDbArc
 50
212.2539214193
 51
270.0
  0
ARC
  5
2F5
100
AcDbEntity
  8
0
100
AcDbCircle
 62
7
  6
CONTINUOUS
 10
6.597140307
 20
4.1349675861
 40
0.021
100
AcDbArc
 50
96.4919289694
 51
117.6664875678
  0
ARC
  5
2F6
100
AcDbEntity
  8
0
100
AcDbCircle
 62
7
  6
CONTINUOUS
 10
6.5612919449
 20
4.0793868462
 40
0.021
100
AcDbArc
 50
319.1486554382
 51
42.3486482012
  0
ARC
  5
2F7
100
AcDbEntity
  8
0
100
AcDbCircle
 62
7
  6
CONTINUOUS
 10
3.9764278614
 20
4.7599590219
 40
0.014
100
AcDbArc
 50
109.3622389438
 51
193.0522469054
  0
ARC
  5
2F8
100
AcDbEntity
  8
0
100
AcDbCircle
 62
7
  6
CONTINUOUS
 10
3.8789423869
 20
4.5642376139
 40
0.011023622
100
AcDbArc
 50
261.3
 51
288.4118807534
  0
ARC
  5
2F9
100
AcDbEntity
  8
0
100
AcDbCircle
 62
7
  6
CONTINUOUS
 10
3.5765566585
 20
4.6105091325
 40
0.011023622
100
AcDbArc
 50
234.1881192466
 51
261.3
  0
ARC
  5
2FA
100
AcDbEntity
  8
0
100
AcDbCircle
 62
7
  6
CONTINUOUS
 10
4.03836438
 20
4.540539617
 40
0.0105
100
AcDbArc
 50
261.3
 51
351.3
  0
ARC
  5
2FB
100
AcDbEntity
  8
0
100
AcDbCircle
 62
7
  6
CONTINUOUS
 10
3.4173430956
 20
4.6355692273
 40
0.0105
100
AcDbArc
 50
171.3
 51
261.3
  0
ARC
  5
2FC
100
AcDbEntity
  8
0
100
AcDbCircle
 62
7
  6
CONTINUOUS
 10
4.0519918989
 20
4.6295958517
 40
0.0105
100
AcDbArc
 50
351.3
 51
64.0245821914
  0
ARC
  5
2FD
100
AcDbEntity
  8
0
100
AcDbCircle
 62
7
  6
CONTINUOUS
 10
3.4309706145
 20
4.724625462
 40
0.0105
100
AcDbArc
 50
98.5754178086
 51
171.3
  0
ARC
  5
2FE
100
AcDbEntity
  8
0
100
AcDbCircle
 62
7
  6
CONTINUOUS
 10
4.0438151509
 20
4.5414523035
 40
0.00525
100
AcDbArc
 50
351.3
 51
59.158017883
  0
ARC
  5
2FF
100
AcDbEntity
  8
0
100
AcDbCircle
 62
7
  6
CONTINUOUS
 10
3.4124146807
 20
4.6380701524
 40
0.00525
100
AcDbArc
 50
103.441982117
 51
171.3
  0
ARC
  5
300
100
AcDbEntity
  8
0
100
AcDbCircle
 62
7
  6
CONTINUOUS
 10
4.0565281167
 20
4.6245319069
 40
0.00525
100
AcDbArc
 50
268.421101917
 51
351.3
  0
ARC
  5
301
100
AcDbEntity
  8
0
100
AcDbCircle
 62
7
  6
CONTINUOUS
 10
3.4251276465
 20
4.7211497558
 40
0.00525
100
AcDbArc
 50
171.3
 51
254.178898083
  0
ARC
  5
302
100
AcDbEntity
  8
0
100
AcDbCircle
 62
7
  6
CONTINUOUS
 10
3.403318886
 20
4.9079960634
 40
0.17494378
100
AcDbArc
 50
278.5754178086
 51
329.5477530946
  0
ARC
  5
303
100
AcDbEntity
  8
0
100
AcDbCircle
 62
7
  6
CONTINUOUS
 10
3.5651028583
 20
4.8572698772
 40
0.0245
100
AcDbArc
 50
81.3
 51
233.2377610562
  0
ARC
  5
304
100
AcDbEntity
  8
0
100
AcDbCircle
 62
7
  6
CONTINUOUS
 10
3.5420607723
 20
4.8264265267
 40
0.014
100
AcDbArc
 50
329.5477530946
 51
53.2377610562
  0
ARC
  5
305
100
AcDbEntity
  8
0
100
AcDbCircle
 62
7
  6
CONTINUOUS
 10
3.1689659491
 20
5.2282865531
 40
1.05
100
AcDbArc
 50
337.5224876215
 51
12.5744964419
  0
ARC
  5
306
100
AcDbEntity
  8
0
100
AcDbCircle
 62
7
  6
CONTINUOUS
 10
3.1689659491
 20
5.2282865531
 40
1.043
100
AcDbArc
 50
337.5224876215
 51
12.5744964419
  0
ARC
  5
307
100
AcDbEntity
  8
0
100
AcDbCircle
 62
7
  6
CONTINUOUS
 10
4.0811821465
 20
4.8793270181
 40
0.0875
100
AcDbArc
 50
166.351
 51
199.351
  0
ARC
  5
308
100
AcDbEntity
  8
0
100
AcDbCircle
 62
7
  6
CONTINUOUS
 10
4.0811821465
 20
4.8793270181
 40
0.0805
100
AcDbArc
 50
166.351
 51
199.351
  0
ARC
  5
309
100
AcDbEntity
  8
0
100
AcDbCircle
 62
7
  6
CONTINUOUS
 10
4.1068560521
 20
4.8402309453
 40
0.035
100
AcDbArc
 50
264.351
 51
337.5224876215
  0
ARC
  5
30A
100
AcDbEntity
  8
0
100
AcDbCircle
 62
7
  6
CONTINUOUS
 10
4.1068560521
 20
4.8402309453
 40
0.028
100
AcDbArc
 50
264.351
 51
337.5224876215
  0
ARC
  5
30B
100
AcDbEntity
  8
0
100
AcDbCircle
 62
7
  6
CONTINUOUS
 10
4.0447878375
 20
5.0395092
 40
0.021
100
AcDbArc
 50
351.3
 51
81.3
  0
ARC
  5
30C
100
AcDbEntity
  8
0
100
AcDbCircle
 62
7
  6
CONTINUOUS
 10
4.0222375427
 20
4.8227258423
 40
0.0105
100
AcDbArc
 50
261.3
 51
292.5744822756
  0
ARC
  5
30D
100
AcDbEntity
  8
0
100
AcDbCircle
 62
7
  6
CONTINUOUS
 10
3.9703416137
 20
4.8306670353
 40
0.0105
100
AcDbArc
 50
261.3
 51
351.3
  0
ARC
  5
30E
100
AcDbEntity
  8
0
100
AcDbCircle
 62
7
  6
CONTINUOUS
 10
4.0287941817
 20
5.0738232347
 40
0.0105
100
AcDbArc
 50
171.3
 51
261.3
  0
ARC
  5
30F
100
AcDbEntity
  8
0
100
AcDbCircle
 62
7
  6
CONTINUOUS
 10
4.0106828744
 20
5.0942983549
 40
0.0105
100
AcDbArc
 50
351.3
 51
76.7135225507
  0
ARC
  5
310
100
AcDbEntity
  8
0
100
AcDbCircle
 62
7
  6
CONTINUOUS
 10
4.018466292
 20
4.9473655308
 40
0.0105
100
AcDbArc
 50
128.0447054086
 51
166.351
  0
ARC
  5
311
100
AcDbEntity
  8
0
100
AcDbCircle
 62
7
  6
CONTINUOUS
 10
4.0188925713
 20
4.8243122341
 40
0.0105
100
AcDbArc
 50
199.351
 51
264.351
  0
ARC
  5
312
100
AcDbEntity
  8
0
100
AcDbCircle
 62
7
  6
CONTINUOUS
 10
4.0170072956
 20
4.8637472558
 40
0.0105
100
AcDbArc
 50
171.3
 51
231.3
  0
ARC
  5
313
100
AcDbEntity
  8
0
100
AcDbCircle
 62
7
  6
CONTINUOUS
 10
4.046182461
 20
4.8403735408
 40
0.0105
100
AcDbArc
 50
231.3
 51
291.3
  0
ARC
  5
314
100
AcDbEntity
  8
0
100
AcDbCircle
 62
7
  6
CONTINUOUS
 10
4.0810122747
 20
4.8539531177
 40
0.0105
100
AcDbArc
 50
291.3
 51
351.3
  0
ARC
  5
315
100
AcDbEntity
  8
0
100
AcDbCircle
 62
7
  6
CONTINUOUS
 10
4.086666923
 20
4.8909064096
 40
0.0105
100
AcDbArc
 50
351.3
 51
51.3
  0
ARC
  5
316
100
AcDbEntity
  8
0
100
AcDbCircle
 62
7
  6
CONTINUOUS
 10
4.0574917576
 20
4.9142801247
 40
0.0105
100
AcDbArc
 50
51.3
 51
111.3
  0
ARC
  5
317
100
AcDbEntity
  8
0
100
AcDbCircle
 62
7
  6
CONTINUOUS
 10
4.0226619438
 20
4.9007005478
 40
0.0105
100
AcDbArc
 50
111.3
 51
171.3
  0
ARC
  5
318
100
AcDbEntity
  8
0
100
AcDbCircle
 62
7
  6
CONTINUOUS
 10
4.018466292
 20
4.9473655308
 40
0.0035
100
AcDbArc
 50
128.0447054086
 51
166.351
  0
ARC
  5
319
100
AcDbEntity
  8
0
100
AcDbCircle
 62
7
  6
CONTINUOUS
 10
4.0188925713
 20
4.8243122341
 40
0.0035
100
AcDbArc
 50
199.351
 51
264.351
  0
ARC
  5
31A
100
AcDbEntity
  8
0
100
AcDbCircle
 62
7
  6
CONTINUOUS
 10
3.7418536165
 20
5.3008447675
 40
0.4453453443
100
AcDbArc
 50
308.0447054086
 51
16.4441234751
  0
ARC
  5
31B
100
AcDbEntity
  8
0
100
AcDbCircle
 62
7
  6
CONTINUOUS
 10
3.7418536165
 20
5.3008447675
 40
0.4383453443
100
AcDbArc
 50
308.0447054086
 51
16.4441234751
  0
ARC
  5
31C
100
AcDbEntity
  8
0
100
AcDbCircle
 62
7
  6
CONTINUOUS
 10
3.6534473619
 20
5.3536178511
 40
0.028
100
AcDbArc
 50
105.3566589759
 51
261.3
  0
ARC
  5
31D
100
AcDbEntity
  8
0
100
AcDbCircle
 62
7
  6
CONTINUOUS
 10
4.0277899968
 20
5.2963353784
 40
0.028
100
AcDbArc
 50
261.3
 51
57.2433410241
  0
ARC
  5
31E
100
AcDbEntity
  8
0
100
AcDbCircle
 62
7
  6
CONTINUOUS
 10
4.0322533643
 20
5.1172540507
 40
0.021
100
AcDbArc
 50
171.3
 51
226.5100998661
  0
ARC
  5
31F
100
AcDbEntity
  8
0
100
AcDbCircle
 62
7
  6
CONTINUOUS
 10
4.0505150298
 20
5.3316563761
 40
0.014
100
AcDbArc
 50
157.2518168628
 51
237.2433410241
  0
ARC
  5
320
100
AcDbEntity
  8
0
100
AcDbCircle
 62
7
  6
CONTINUOUS
 10
3.642324638
 20
5.3941182833
 40
0.014
100
AcDbArc
 50
285.3566589759
 51
5.3481831372
  0
ARC
  5
321
100
AcDbEntity
  8
0
100
AcDbCircle
 62
7
  6
CONTINUOUS
 10
4.0219664552
 20
5.2582783638
 40
0.0105
100
AcDbArc
 50
351.3
 51
81.3
  0
ARC
  5
322
100
AcDbEntity
  8
0
100
AcDbCircle
 62
7
  6
CONTINUOUS
 10
3.6476238203
 20
5.3155608364
 40
0.0105
100
AcDbArc
 50
81.3
 51
171.3
  0
ARC
  5
323
100
AcDbEntity
  8
0
100
AcDbCircle
 62
7
  6
CONTINUOUS
 10
3.0692801489
 20
5.7430857243
 40
1.05
100
AcDbArc
 50
337.2518168628
 51
5.3481831372
  0
ARC
  5
324
100
AcDbEntity
  8
0
100
AcDbCircle
 62
7
  6
CONTINUOUS
 10
3.7431828435
 20
5.9400418494
 40
0.028
100
AcDbArc
 50
84.2703493529
 51
237.2433410241
  0
ARC
  5
325
100
AcDbEntity
  8
0
100
AcDbCircle
 62
7
  6
CONTINUOUS
 10
4.1175254784
 20
5.8827593768
 40
0.028
100
AcDbArc
 50
285.3566589759
 51
78.3296506472
  0
ARC
  5
326
100
AcDbEntity
  8
0
100
AcDbCircle
 62
7
  6
CONTINUOUS
 10
4.1286482022
 20
5.8422589445
 40
0.014
100
AcDbArc
 50
105.3566589759
 51
185.3481831372
  0
ARC
  5
327
100
AcDbEntity
  8
0
100
AcDbCircle
 62
7
  6
CONTINUOUS
 10
3.7204578105
 20
5.9047208518
 40
0.014
100
AcDbArc
 50
337.2518168628
 51
57.2433410241
  0
ARC
  5
328
100
AcDbEntity
  8
0
100
AcDbCircle
 62
7
  6
CONTINUOUS
 10
4.2122404561
 20
5.6207982989
 40
0.014
100
AcDbArc
 50
325.644182167
 51
141.9924348994
  0
ARC
  5
329
100
AcDbEntity
  8
0
100
AcDbCircle
 62
7
  6
CONTINUOUS
 10
4.2122404561
 20
5.6207982989
 40
0.007
100
AcDbArc
 50
325.644182167
 51
141.9924348994
  0
ARC
  5
32A
100
AcDbEntity
  8
0
100
AcDbCircle
 62
7
  6
CONTINUOUS
 10
4.8477093222
 20
5.9976051633
 40
3.2410024491
100
AcDbArc
 50
303.5148368333
 51
303.714059479
  0
ARC
  5
32B
100
AcDbEntity
  8
0
100
AcDbCircle
 62
7
  6
CONTINUOUS
 10
5.3668037075
 20
5.8615484721
 40
1.6269622712
100
AcDbArc
 50
0.0
 51
171.3
  0
ARC
  5
32C
100
AcDbEntity
  8
0
100
AcDbCircle
 62
7
  6
CONTINUOUS
 10
5.3668037073
 20
5.861548469
 40
1.2279622715
100
AcDbArc
 50
0.0000001453
 51
171.2999998547
  0
ARC
  5
32D
100
AcDbEntity
  8
0
100
AcDbCircle
 62
7
  6
CONTINUOUS
 10
4.7016926914
 20
5.4932915036
 40
1.05
100
AcDbArc
 50
157.2518168628
 51
185.3481831372
  0
ARC
  5
32E
100
AcDbEntity
  8
0
100
AcDbCircle
 62
7
  6
CONTINUOUS
 10
4.3804633953
 20
5.4893323613
 40
0.2275
100
AcDbArc
 50
141.9924348994
 51
196.4441234751
  0
ARC
  5
32F
100
AcDbEntity
  8
0
100
AcDbCircle
 62
7
  6
CONTINUOUS
 10
4.3804633953
 20
5.4893323613
 40
0.2205
100
AcDbArc
 50
141.9924348994
 51
196.4441234751
  0
ARC
  5
330
100
AcDbEntity
  8
0
100
AcDbCircle
 62
7
  6
CONTINUOUS
 10
4.388495149
 20
5.5003137221
 40
0.2065
100
AcDbArc
 50
145.644182167
 51
192.5744964419
  0
ARC
  5
331
100
AcDbEntity
  8
0
100
AcDbCircle
 62
7
  6
CONTINUOUS
 10
4.388495149
 20
5.5003137221
 40
0.1995
100
AcDbArc
 50
145.644182167
 51
192.5744964419
  0
ARC
  5
332
100
AcDbEntity
  8
0
100
AcDbCircle
 62
7
  6
CONTINUOUS
 10
8.59036606
 20
1.6043764397
 40
1.5361037193
100
AcDbArc
 50
178.4623341669
 51
185.1781672896
  0
ARC
  5
333
100
AcDbEntity
  8
0
100
AcDbCircle
 62
7
  6
CONTINUOUS
 10
7.4150569687
 20
1.2334324816
 40
0.2467651466
100
AcDbArc
 50
184.2957008704
 51
199.3963301095
  0
ARC
  5
334
100
AcDbEntity
  8
0
100
AcDbCircle
 62
7
  6
CONTINUOUS
 10
6.7942659787
 20
2.0689175861
 40
0.1645
100
AcDbArc
 50
247.4773700075
 51
292.5226299925
  0
ARC
  5
335
100
AcDbEntity
  8
0
100
AcDbCircle
 62
7
  6
CONTINUOUS
 10
6.7942664322
 20
2.0726917386
 40
0.1276532313
100
AcDbArc
 50
180.0000729745
 51
202.2769831502
  0
ARC
  5
336
100
AcDbEntity
  8
0
100
AcDbCircle
 62
7
  6
CONTINUOUS
 10
6.7942720492
 20
2.0726900392
 40
0.1276465072
100
AcDbArc
 50
337.7226873446
 51
0.0006897922
  0
ARC
  5
337
100
AcDbEntity
  8
0
100
AcDbCircle
 62
7
  6
CONTINUOUS
 10
7.0968003375
 20
1.6444708136
 40
0.042
100
AcDbArc
 50
137.7526825645
 51
178.4642833564
  0
ARC
  5
338
100
AcDbEntity
  8
0
100
AcDbCircle
 62
7
  6
CONTINUOUS
 10
6.9237773653
 20
1.9772023983
 40
0.035
100
AcDbArc
 50
191.0
 51
216.8491815009
  0
ARC
  5
339
100
AcDbEntity
  8
0
100
AcDbCircle
 62
7
  6
CONTINUOUS
 10
7.1515343713
 20
1.2136300697
 40
0.0175
100
AcDbArc
 50
4.3216013273
 51
82.8495000001
  0
ARC
  5
33A
100
AcDbEntity
  8
0
100
AcDbCircle
 62
7
  6
CONTINUOUS
 10
7.1657856142
 20
1.1456807688
 40
0.0175
100
AcDbArc
 50
280.3876159107
 51
19.3572877752
  0
ARC
  5
33B
100
AcDbEntity
  8
0
100
AcDbCircle
 62
7
  6
CONTINUOUS
 10
7.0779598062
 20
1.4673165803
 40
0.0175
100
AcDbArc
 50
185.1743606429
 51
239.4187714549
  0
ARC
  5
33C
100
AcDbEntity
  8
0
100
AcDbCircle
 62
7
  6
CONTINUOUS
 10
7.0655435437
 20
1.7292119583
 40
0.0175
100
AcDbArc
 50
182.3651398198
 51
242.5906969174
  0
ARC
  5
33D
100
AcDbEntity
  8
0
100
AcDbCircle
 62
7
  6
CONTINUOUS
 10
7.0922670735
 20
1.4010022293
 40
0.0175
100
AcDbArc
 50
146.9283470296
 51
214.3621910161
  0
ARC
  5
33E
100
AcDbEntity
  8
0
100
AcDbCircle
 62
7
  6
CONTINUOUS
 10
6.8817659787
 20
1.9457175861
 40
0.0175
100
AcDbArc
 50
291.4322530094
 51
36.8491815009
  0
ARC
  5
33F
100
AcDbEntity
  8
0
100
AcDbCircle
 62
7
  6
CONTINUOUS
 10
7.2301438009
 20
1.0469175861
 40
0.0105
100
AcDbArc
 50
270.0
 51
34.0525432658
  0
ARC
  5
340
100
AcDbEntity
  8
0
100
AcDbCircle
 62
7
  6
CONTINUOUS
 10
6.7942659787
 20
2.1914175861
 40
0.364
100
AcDbArc
 50
106.6658993637
 51
73.3341006362
  0
ARC
  5
341
100
AcDbEntity
  8
0
100
AcDbCircle
 62
7
  6
CONTINUOUS
 10
6.7942659787
 20
2.1914175861
 40
0.3612368421
100
AcDbArc
 50
106.7525092366
 51
73.2474907633
  0
ARC
  5
342
100
AcDbEntity
  8
0
100
AcDbCircle
 62
7
  6
CONTINUOUS
 10
6.7942659787
 20
2.1914175861
 40
0.3535
100
AcDbArc
 50
107.0026578365
 51
72.9973421634
  0
ARC
  5
343
100
AcDbEntity
  8
0
100
AcDbCircle
 62
7
  6
CONTINUOUS
 10
6.7942659787
 20
2.1914175861
 40
0.3146773091
100
AcDbArc
 50
109.181670045
 51
70.818329955
  0
ARC
  5
344
100
AcDbEntity
  8
0
100
AcDbCircle
 62
7
  6
CONTINUOUS
 10
6.7942659787
 20
2.1914175861
 40
0.3115
100
AcDbArc
 50
109.1458443919
 51
247.7150274955
  0
ARC
  5
345
100
AcDbEntity
  8
0
100
AcDbCircle
 62
7
  6
CONTINUOUS
 10
6.7942659787
 20
2.1914175861
 40
0.3115
100
AcDbArc
 50
292.2849725045
 51
70.8541556081
  0
ARC
  5
346
100
AcDbEntity
  8
0
100
AcDbCircle
 62
7
  6
CONTINUOUS
 10
6.7942659787
 20
2.1914175861
 40
0.3098525246
100
AcDbArc
 50
247.590123076
 51
292.409876924
  0
ARC
  5
347
100
AcDbEntity
  8
0
100
AcDbCircle
 62
7
  6
CONTINUOUS
 10
6.7942659787
 20
2.1914175861
 40
0.285207984
100
AcDbArc
 50
109.2565486191
 51
245.5328513726
  0
ARC
  5
348
100
AcDbEntity
  8
0
100
AcDbCircle
 62
7
  6
CONTINUOUS
 10
6.7942659787
 20
2.1914175861
 40
0.285207984
100
AcDbArc
 50
294.4671486274
 51
70.7434513809
  0
ARC
  5
349
100
AcDbEntity
  8
0
100
AcDbCircle
 62
7
  6
CONTINUOUS
 10
6.7942659787
 20
2.1914175861
 40
0.2650464146
100
AcDbArc
 50
296.4666392137
 51
70.0628541239
  0
ARC
  5
34A
100
AcDbEntity
  8
0
100
AcDbCircle
 62
7
  6
CONTINUOUS
 10
6.7942659787
 20
2.1914175861
 40
0.2650464146
100
AcDbArc
 50
109.9371458761
 51
243.5333607863
  0
ARC
  5
34B
100
AcDbEntity
  8
0
100
AcDbCircle
 62
7
  6
CONTINUOUS
 10
6.7942659787
 20
2.1914175861
 40
0.1575
100
AcDbArc
 50
119.9264348666
 51
240.0735651334
  0
ARC
  5
34C
100
AcDbEntity
  8
0
100
AcDbCircle
 62
7
  6
CONTINUOUS
 10
6.7942659787
 20
2.1914175861
 40
0.1575
100
AcDbArc
 50
299.9264348666
 51
60.0735651334
  0
CIRCLE
  5
34D
100
AcDbEntity
  8
0
100
AcDbCircle
 62
7
  6
CONTINUOUS
 10
6.7942659787
 20
2.1914175861
 40
0.0989949494
  0
CIRCLE
  5
34E
100
AcDbEntity
  8
0
100
AcDbCircle
 62
7
  6
CONTINUOUS
 10
6.7942659787
 20
2.1914175861
 40
0.098
  0
CIRCLE
  5
34F
100
AcDbEntity
  8
0
100
AcDbCircle
 62
7
  6
CONTINUOUS
 10
6.7942659787
 20
2.1914175861
 40
0.077087533
  0
CIRCLE
  5
350
100
AcDbEntity
  8
0
100
AcDbCircle
 62
7
  6
CONTINUOUS
 10
6.7942659787
 20
2.1914175861
 40
0.0712804083
  0
ARC
  5
351
100
AcDbEntity
  8
0
100
AcDbCircle
 62
7
  6
CONTINUOUS
 10
6.8870159787
 20
2.3500027921
 40
0.014
100
AcDbArc
 50
126.029645771
 51
180.0
  0
ARC
  5
352
100
AcDbEntity
  8
0
100
AcDbCircle
 62
7
  6
CONTINUOUS
 10
6.8664288467
 20
2.3783077386
 40
0.021
100
AcDbArc
 50
306.0296457654
 51
11.7343974534
  0
ARC
  5
353
100
AcDbEntity
  8
0
100
AcDbCircle
 62
7
  6
CONTINUOUS
 10
6.8787422753
 20
2.4978025689
 40
0.021
100
AcDbArc
 50
336.4989659849
 51
26.2133991649
  0
ARC
  5
354
100
AcDbEntity
  8
0
100
AcDbCircle
 62
7
  6
CONTINUOUS
 10
6.9101427037
 20
2.5132626175
 40
0.014
100
AcDbArc
 50
174.4175584015
 51
206.213399165
  0
ARC
  5
355
100
AcDbEntity
  8
0
100
AcDbCircle
 62
7
  6
CONTINUOUS
 10
6.7942659787
 20
3.0804175861
 40
0.266
100
AcDbArc
 50
56.2859404457
 51
123.7140595543
  0
ARC
  5
356
100
AcDbEntity
  8
0
100
AcDbCircle
 62
7
  6
CONTINUOUS
 10
7.060731419
 20
2.4186675318
 40
0.17745
100
AcDbArc
 50
156.4989659849
 51
191.7343967657
  0
ARC
  5
357
100
AcDbEntity
  8
0
100
AcDbCircle
 62
7
  6
CONTINUOUS
 10
7.0170349495
 20
3.2235698855
 40
0.07
100
AcDbArc
 50
147.0162588765
 51
177.4060321589
  0
ARC
  5
358
100
AcDbEntity
  8
0
100
AcDbCircle
 62
7
  6
CONTINUOUS
 10
6.9377659787
 20
3.2750157822
 40
0.0245
100
AcDbArc
 50
327.0162588766
 51
56.4851632419
  0
ARC
  5
359
100
AcDbEntity
  8
0
100
AcDbCircle
 62
7
  6
CONTINUOUS
 10
42.7781272846
 20
3.2037272591
 40
35.7605184048
100
AcDbArc
 50
179.3380855855
 51
181.1710888998
  0
ARC
  5
35A
100
AcDbEntity
  8
0
100
AcDbCircle
 62
7
  6
CONTINUOUS
 10
42.7677624122
 20
3.2038206388
 40
35.7501587717
100
AcDbArc
 50
182.0525400862
 51
182.365143157
  0
ARC
  5
35B
100
AcDbEntity
  8
0
100
AcDbCircle
 62
7
  6
CONTINUOUS
 10
20.3165985078
 20
3.8462812168
 40
13.6892
100
AcDbArc
 50
182.5939678411
 51
185.5824415985
  0
ARC
  5
35C
100
AcDbEntity
  8
0
100
AcDbCircle
 62
7
  6
CONTINUOUS
 10
8.7408226353
 20
5.9976051633
 40
3.2410024491
100
AcDbArc
 50
236.285940521
 51
236.4851631667
  0
ARC
  5
35D
100
AcDbEntity
  8
0
100
AcDbCircle
 62
7
  6
CONTINUOUS
 10
6.7942659787
 20
3.8779244439
 40
0.287
100
AcDbArc
 50
139.1486554382
 51
212.2539214193
  0
ARC
  5
35E
100
AcDbEntity
  8
0
100
AcDbCircle
 62
7
  6
CONTINUOUS
 10
6.7942659787
 20
3.8779244439
 40
0.287
100
AcDbArc
 50
327.7460785807
 51
40.8513445618
  0
ARC
  5
35F
100
AcDbEntity
  8
0
100
AcDbCircle
 62
7
  6
CONTINUOUS
 10
7.0759914597
 20
3.6161979362
 40
0.056
100
AcDbArc
 50
137.9358529956
 51
179.3384296706
  0
ARC
  5
360
100
AcDbEntity
  8
0
100
AcDbCircle
 62
7
  6
CONTINUOUS
 10
7.0058351116
 20
3.6795093635
 40
0.0385
100
AcDbArc
 50
317.9358530022
 51
45.2598917642
  0
ARC
  5
361
100
AcDbEntity
  8
0
100
AcDbCircle
 62
7
  6
CONTINUOUS
 10
6.9832659787
 20
4.1194684423
 40
0.0385
100
AcDbArc
 50
317.6513517988
 51
62.3335124323
  0
ARC
  5
362
100
AcDbEntity
  8
0
100
AcDbCircle
 62
7
  6
CONTINUOUS
 10
7.0132259787
 20
3.6869675861
 40
0.028
100
AcDbArc
 50
45.2598917617
 51
90.0
  0
ARC
  5
363
100
AcDbEntity
  8
0
100
AcDbCircle
 62
7
  6
CONTINUOUS
 10
7.0192198641
 20
3.7359675861
 40
0.021
100
AcDbArc
 50
270.0
 51
327.7460785807
  0
ARC
  5
364
100
AcDbEntity
  8
0
100
AcDbCircle
 62
7
  6
CONTINUOUS
 10
6.9913916505
 20
4.1349675861
 40
0.021
100
AcDbArc
 50
62.3335124322
 51
83.5080710306
  0
ARC
  5
365
100
AcDbEntity
  8
0
100
AcDbCircle
 62
7
  6
CONTINUOUS
 10
7.0272400126
 20
4.0793868462
 40
0.021
100
AcDbArc
 50
137.6513517988
 51
220.8513445618
  0
SPLINE
  5
366
100
AcDbEntity
  8
0
100
AcDbSpline
 62
7
  6
CONTINUOUS
 70
0
 71
3
 72
15
 73
11
 74
0
 42
0.0000001
 43
0.0000001
 44
0.0000000001
 40
0.0
 40
0.0
 40
0.0
 40
0.0
 40
0.1254799552
 40
0.2504633409
 40
0.3751289415
 40
0.4996569101
 40
0.6242279972
 40
0.7490227656
 40
0.8742208107
 40
1.0
 40
1.0
 40
1.0
 40
1.0
 10
7.2388433073
 20
1.0527970919
 30
0.0
 10
7.236421401
 20
1.0563806226
 30
0.0
 10
7.2314533803
 20
1.0634441622
 30
0.0
 10
7.22361936
 20
1.0737349099
 30
0.0
 10
7.2154211644
 20
1.0836957638
 30
0.0
 10
7.2068589644
 20
1.0933264626
 30
0.0
 10
7.1979327897
 20
1.1026269853
 30
0.0
 10
7.1886426624
 20
1.1115973034
 30
0.0
 10
7.17898883
 20
1.120237231
 30
0.0
 10
7.1723285899
 20
1.1257618991
 30
0.0
 10
7.1689409787
 20
1.1284675861
 30
0.0
  0
SPLINE
  5
367
100
AcDbEntity
  8
0
100
AcDbSpline
 62
7
  6
CONTINUOUS
 70
0
 71
3
 72
15
 73
11
 74
0
 42
0.0000001
 43
0.0000001
 44
0.0000000001
 40
0.0
 40
0.0
 40
0.0
 40
0.0
 40
0.1254799552
 40
0.2504633409
 40
0.3751289415
 40
0.4996569101
 40
0.6242279972
 40
0.7490227656
 40
0.8742208107
 40
1.0
 40
1.0
 40
1.0
 40
1.0
 10
6.3496886502
 20
1.0527970919
 30
0.0
 10
6.3521105565
 20
1.0563806226
 30
0.0
 10
6.3570785772
 20
1.0634441622
 30
0.0
 10
6.3649125975
 20
1.0737349099
 30
0.0
 10
6.3731107931
 20
1.0836957638
 30
0.0
 10
6.3816729931
 20
1.0933264626
 30
0.0
 10
6.3905991678
 20
1.1026269853
 30
0.0
 10
6.3998892951
 20
1.1115973034
 30
0.0
 10
6.4095431275
 20
1.120237231
 30
0.0
 10
6.4162033676
 20
1.1257618991
 30
0.0
 10
6.4195909787
 20
1.1284675861
 30
0.0
  0
SPLINE
  5
368
100
AcDbEntity
  8
0
100
AcDbSpline
 62
7
  6
CONTINUOUS
 70
0
 71
3
 72
15
 73
11
 74
0
 42
0.0000001
 43
0.0000001
 44
0.0000000001
 40
0.0
 40
0.0
 40
0.0
 40
0.0
 40
0.1261033766
 40
0.2514197256
 40
0.3761823674
 40
0.5006277371
 40
0.624994079
 40
0.7495200913
 40
0.8744435567
 40
1.0
 40
1.0
 40
1.0
 40
1.0
 10
7.1502525272
 20
1.2314280504
 30
0.0
 10
7.1484000745
 20
1.238600629
 30
0.0
 10
7.1444047234
 20
1.2528250885
 30
0.0
 10
7.1375190384
 20
1.2738306578
 30
0.0
 10
7.1297625923
 20
1.294427002
 30
0.0
 10
7.1211355385
 20
1.3146133929
 30
0.0
 10
7.1116379334
 20
1.3343897014
 30
0.0
 10
7.1012698172
 20
1.3537557917
 30
0.0
 10
7.0900316275
 20
1.372711047
 30
0.0
 10
7.0819841345
 20
1.3850362142
 30
0.0
 10
7.0778210661
 20
1.3911248373
 30
0.0
  0
SPLINE
  5
369
100
AcDbEntity
  8
0
100
AcDbSpline
 62
7
  6
CONTINUOUS
 70
0
 71
3
 72
15
 73
11
 74
0
 42
0.0000001
 43
0.0000001
 44
0.0000000001
 40
0.0
 40
0.0
 40
0.0
 40
0.0
 40
0.1261033766
 40
0.2514197256
 40
0.3761823674
 40
0.5006277371
 40
0.624994079
 40
0.7495200913
 40
0.8744435567
 40
1.0
 40
1.0
 40
1.0
 40
1.0
 10
6.4382794303
 20
1.2314280504
 30
0.0
 10
6.440131883
 20
1.238600629
 30
0.0
 10
6.4441272341
 20
1.2528250885
 30
0.0
 10
6.4510129191
 20
1.2738306578
 30
0.0
 10
6.4587693652
 20
1.294427002
 30
0.0
 10
6.467396419
 20
1.3146133929
 30
0.0
 10
6.4768940241
 20
1.3343897014
 30
0.0
 10
6.4872621403
 20
1.3537557917
 30
0.0
 10
6.49850033
 20
1.372711047
 30
0.0
 10
6.506547823
 20
1.3850362142
 30
0.0
 10
6.5107108914
 20
1.3911248373
 30
0.0
  0
SPLINE
  5
36A
100
AcDbEntity
  8
0
100
AcDbSpline
 62
7
  6
CONTINUOUS
 70
0
 71
3
 72
26
 73
22
 74
0
 42
0.0000001
 43
0.0000001
 44
0.0000000001
 40
0.0
 40
0.0
 40
0.0
 40
0.0
 40
0.0645389845
 40
0.0969857159
 40
0.1294195189
 40
0.1617582438
 40
0.1939327142
 40
0.2259171532
 40
0.2577399615
 40
0.3209875611
 40
0.3838654313
 40
0.4464711336
 40
0.5088478984
 40
0.5710007185
 40
0.6329129403
 40
0.6945631635
 40
0.7559424649
 40
0.8170720044
 40
0.8780209483
 40
0.9389243337
 40
1.0
 40
1.0
 40
1.0
 40
1.0
 10
7.0776022695
 20
1.4105517593
 30
0.0
 10
7.0781598105
 20
1.4114079511
 30
0.0
 10
7.0789441897
 20
1.4127307909
 30
0.0
 10
7.0798699861
 20
1.4145591114
 30
0.0
 10
7.0805008135
 20
1.4159636633
 30
0.0
 10
7.0810604631
 20
1.4173934583
 30
0.0
 10
7.0815423413
 20
1.4188439077
 30
0.0
 10
7.0819419429
 20
1.420310728
 30
0.0
 10
7.0823661888
 20
1.4222776964
 30
0.0
 10
7.0826991928
 20
1.4247609129
 30
0.0
 10
7.0827912335
 20
1.4277522636
 30
0.0
 10
7.082586008
 20
1.4307240683
 30
0.0
 10
7.0820941934
 20
1.433650196
 30
0.0
 10
7.0813263642
 20
1.4365048398
 30
0.0
 10
7.0802929176
 20
1.4392621224
 30
0.0
 10
7.079004106
 20
1.4418961519
 30
0.0
 10
7.0774700226
 20
1.4443809688
 30
0.0
 10
7.0757006634
 20
1.4466904784
 30
0.0
 10
7.0737057539
 20
1.4487985035
 30
0.0
 10
7.0714955163
 20
1.4506783049
 30
0.0
 10
7.0698889244
 20
1.4517587607
 30
0.0
 10
7.0690565169
 20
1.4522506771
 30
0.0
  0
SPLINE
  5
36B
100
AcDbEntity
  8
0
100
AcDbSpline
 62
7
  6
CONTINUOUS
 70
0
 71
3
 72
26
 73
22
 74
0
 42
0.0000001
 43
0.0000001
 44
0.0000000001
 40
0.0
 40
0.0
 40
0.0
 40
0.0
 40
0.0645389845
 40
0.0969857159
 40
0.1294195189
 40
0.1617582438
 40
0.1939327142
 40
0.2259171532
 40
0.2577399615
 40
0.3209875611
 40
0.3838654313
 40
0.4464711336
 40
0.5088478984
 40
0.5710007185
 40
0.6329129403
 40
0.6945631635
 40
0.7559424649
 40
0.8170720044
 40
0.8780209483
 40
0.9389243337
 40
1.0
 40
1.0
 40
1.0
 40
1.0
 10
6.510929688
 20
1.4105517593
 30
0.0
 10
6.510372147
 20
1.4114079511
 30
0.0
 10
6.5095877678
 20
1.4127307909
 30
0.0
 10
6.5086619714
 20
1.4145591114
 30
0.0
 10
6.508031144
 20
1.4159636633
 30
0.0
 10
6.5074714944
 20
1.4173934583
 30
0.0
 10
6.5069896162
 20
1.4188439077
 30
0.0
 10
6.5065900146
 20
1.420310728
 30
0.0
 10
6.5061657687
 20
1.4222776964
 30
0.0
 10
6.5058327647
 20
1.4247609129
 30
0.0
 10
6.505740724
 20
1.4277522636
 30
0.0
 10
6.5059459495
 20
1.4307240683
 30
0.0
 10
6.5064377641
 20
1.433650196
 30
0.0
 10
6.5072055933
 20
1.4365048398
 30
0.0
 10
6.5082390399
 20
1.4392621224
 30
0.0
 10
6.5095278515
 20
1.4418961519
 30
0.0
 10
6.5110619349
 20
1.4443809688
 30
0.0
 10
6.5128312941
 20
1.4466904784
 30
0.0
 10
6.5148262036
 20
1.4487985035
 30
0.0
 10
6.5170364412
 20
1.4506783049
 30
0.0
 10
6.5186430331
 20
1.4517587607
 30
0.0
 10
6.5194754406
 20
1.4522506771
 30
0.0
  0
SPLINE
  5
36C
100
AcDbEntity
  8
0
100
AcDbSpline
 62
7
  6
CONTINUOUS
 70
0
 71
3
 72
22
 73
18
 74
0
 42
0.0000001
 43
0.0000001
 44
0.0000000001
 40
0.0
 40
0.0
 40
0.0
 40
0.0
 40
0.0699746846
 40
0.1369610029
 40
0.2018060688
 40
0.2652185808
 40
0.3277543573
 40
0.3898155996
 40
0.451661994
 40
0.5134300033
 40
0.5751566419
 40
0.6368049925
 40
0.759348477
 40
0.820186456
 40
0.8805729024
 40
0.9404886975
 40
1.0
 40
1.0
 40
1.0
 40
1.0
 10
7.065709854
 20
1.6727087639
 30
0.0
 10
7.066462111
 20
1.6735370122
 30
0.0
 10
7.0678343202
 20
1.6752532346
 30
0.0
 10
7.0695036862
 20
1.6780252829
 30
0.0
 10
7.0707503067
 20
1.6808974362
 30
0.0
 10
7.0715935506
 20
1.6838379946
 30
0.0
 10
7.0720538772
 20
1.6868164844
 30
0.0
 10
7.0721517597
 20
1.6898029417
 30
0.0
 10
7.0719075215
 20
1.6927680609
 30
0.0
 10
7.0713412551
 20
1.6956827259
 30
0.0
 10
7.0704723383
 20
1.6985186293
 30
0.0
 10
7.0689409655
 20
1.7021457489
 30
0.0
 10
7.0668776151
 20
1.7055137293
 30
0.0
 10
7.0643564553
 20
1.7084932397
 30
0.0
 10
7.0622605156
 20
1.710500812
 30
0.0
 10
7.0599752715
 20
1.7122547851
 30
0.0
 10
7.0583322725
 20
1.7132384473
 30
0.0
 10
7.0574875249
 20
1.7136764969
 30
0.0
  0
SPLINE
  5
36D
100
AcDbEntity
  8
0
100
AcDbSpline
 62
7
  6
CONTINUOUS
 70
0
 71
3
 72
22
 73
18
 74
0
 42
0.0000001
 43
0.0000001
 44
0.0000000001
 40
0.0
 40
0.0
 40
0.0
 40
0.0
 40
0.0699746846
 40
0.1369610029
 40
0.2018060688
 40
0.2652185808
 40
0.3277543573
 40
0.3898155996
 40
0.451661994
 40
0.5134300033
 40
0.5751566419
 40
0.6368049925
 40
0.759348477
 40
0.820186456
 40
0.8805729024
 40
0.9404886975
 40
1.0
 40
1.0
 40
1.0
 40
1.0
 10
6.5228221035
 20
1.6727087639
 30
0.0
 10
6.5220698465
 20
1.6735370122
 30
0.0
 10
6.5206976373
 20
1.6752532346
 30
0.0
 10
6.5190282713
 20
1.6780252829
 30
0.0
 10
6.5177816507
 20
1.6808974362
 30
0.0
 10
6.5169384069
 20
1.6838379946
 30
0.0
 10
6.5164780803
 20
1.6868164844
 30
0.0
 10
6.5163801978
 20
1.6898029417
 30
0.0
 10
6.516624436
 20
1.6927680609
 30
0.0
 10
6.5171907024
 20
1.6956827259
 30
0.0
 10
6.5180596192
 20
1.6985186293
 30
0.0
 10
6.5195909919
 20
1.7021457489
 30
0.0
 10
6.5216543424
 20
1.7055137293
 30
0.0
 10
6.5241755022
 20
1.7084932397
 30
0.0
 10
6.5262714419
 20
1.710500812
 30
0.0
 10
6.528556686
 20
1.7122547851
 30
0.0
 10
6.530199685
 20
1.7132384473
 30
0.0
 10
6.5310444326
 20
1.7136764969
 30
0.0
  0
SPLINE
  5
36E
100
AcDbEntity
  8
0
100
AcDbSpline
 62
7
  6
CONTINUOUS
 70
0
 71
3
 72
32
 73
28
 74
0
 42
0.0000001
 43
0.0000001
 44
0.0000000001
 40
0.0
 40
0.0
 40
0.0
 40
0.0
 40
0.0434937703
 40
0.0904866655
 40
0.1151865988
 40
0.1406308043
 40
0.1667760515
 40
0.1935960681
 40
0.2492647556
 40
0.2781190186
 40
0.3076567298
 40
0.3378804427
 40
0.3687907108
 40
0.4003800918
 40
0.4326390711
 40
0.4991280767
 40
0.5333397883
 40
0.5681796276
 40
0.6394211695
 40
0.7120237382
 40
0.785133153
 40
0.8216234244
 40
0.857951227
 40
0.8940327398
 40
0.9297865456
 40
0.9651340526
 40
1.0
 40
1.0
 40
1.0
 40
1.0
 10
6.6729601692
 20
2.5345986978
 30
0.0
 10
6.6723379836
 20
2.5380871368
 30
0.0
 10
6.6710863776
 20
2.545352338
 30
0.0
 10
6.6695858655
 20
2.5546161365
 30
0.0
 10
6.6683742133
 20
2.5624367258
 30
0.0
 10
6.6674504926
 20
2.5685831123
 30
0.0
 10
6.6665293611
 20
2.5749044877
 30
0.0
 10
6.6652905922
 20
2.5836679275
 30
0.0
 10
6.6640716516
 20
2.5926569827
 30
0.0
 10
6.6628617699
 20
2.6018705485
 30
0.0
 10
6.6619393861
 20
2.6090310184
 30
0.0
 10
6.6610108632
 20
2.6163595676
 30
0.0
 10
6.6600743266
 20
2.6238555755
 30
0.0
 10
6.6591215273
 20
2.631516654
 30
0.0
 10
6.6578054355
 20
2.6420535188
 30
0.0
 10
6.6564371499
 20
2.6527991966
 30
0.0
 10
6.6549858732
 20
2.6637460998
 30
0.0
 10
6.6534351832
 20
2.6750702903
 30
0.0
 10
6.6513448894
 20
2.6894774541
 30
0.0
 10
6.6485469227
 20
2.7069308586
 30
0.0
 10
6.6459127005
 20
2.7215408783
 30
0.0
 10
6.6435873422
 20
2.7332004503
 30
0.0
 10
6.641733046
 20
2.7418770128
 30
0.0
 10
6.6397607431
 20
2.7504660201
 30
0.0
 10
6.6376636175
 20
2.7589432531
 30
0.0
 10
6.6354348833
 20
2.7672844223
 30
0.0
 10
6.6338447575
 20
2.7727799052
 30
0.0
 10
6.6330239672
 20
2.775499307
 30
0.0
  0
LINE
  5
36F
100
AcDbEntity
  8
0
100
AcDbLine
 62
7
  6
CONTINUOUS
 10
6.7942659787
 20
4.1558428901
 11
6.9937659787
 21
4.1558329297
  0
SPLINE
  5
370
100
AcDbEntity
  8
0
100
AcDbSpline
 62
7
  6
CONTINUOUS
 70
0
 71
3
 72
24
 73
20
 74
0
 42
0.0000001
 43
0.0000001
 44
0.0000000001
 40
0.0
 40
0.0
 40
0.0
 40
0.0
 40
0.0386770332
 40
0.0790617302
 40
0.1219589088
 40
0.1678555111
 40
0.2169986873
 40
0.2694840543
 40
0.3253241802
 40
0.3845037593
 40
0.4470230278
 40
0.5129425482
 40
0.5824344118
 40
0.6558446227
 40
0.7337621507
 40
0.817008051
 40
0.9061727916
 40
0.9527293416
 40
1.0
 40
1.0
 40
1.0
 40
1.0
 10
3.9504169849
 20
4.8230937115
 30
0.0
 10
3.9502455472
 20
4.8231199452
 30
0.0
 10
3.9499000073
 20
4.8232106251
 30
0.0
 10
3.9494031641
 20
4.8234448826
 30
0.0
 10
3.9489217897
 20
4.8237705454
 30
0.0
 10
3.9484566575
 20
4.824180307
 30
0.0
 10
3.9480081997
 20
4.8246679883
 30
0.0
 10
3.9475771459
 20
4.8252282196
 30
0.0
 10
3.9471644381
 20
4.8258565125
 30
0.0
 10
3.9467714062
 20
4.8265494175
 30
0.0
 10
3.9463999239
 20
4.8273047701
 30
0.0
 10
3.9460528034
 20
4.8281221048
 30
0.0
 10
3.9457345416
 20
4.829003264
 30
0.0
 10
3.9454526159
 20
4.8299531012
 30
0.0
 10
3.9452199818
 20
4.8309798441
 30
0.0
 10
3.945059478
 20
4.8320922183
 30
0.0
 10
3.9450177263
 20
4.833075584
 30
0.0
 10
3.9450589958
 20
4.8338955989
 30
0.0
 10
3.9451083233
 20
4.8343138357
 30
0.0
 10
3.9451403858
 20
4.8345233651
 30
0.0
  0
SPLINE
  5
371
100
AcDbEntity
  8
0
100
AcDbSpline
 62
7
  6
CONTINUOUS
 70
0
 71
3
 72
23
 73
19
 74
0
 42
0.0000001
 43
0.0000001
 44
0.0000000001
 40
0.0
 40
0.0
 40
0.0
 40
0.0
 40
0.0647915322
 40
0.1294471761
 40
0.1938988661
 40
0.2580820011
 40
0.3219421257
 40
0.3854348384
 40
0.4485280173
 40
0.5112029739
 40
0.5734553851
 40
0.6352957311
 40
0.6967492138
 40
0.7578551528
 40
0.8186656504
 40
0.8792443754
 40
0.9396624528
 40
1.0
 40
1.0
 40
1.0
 40
1.0
 10
3.9986048564
 20
5.1279111687
 30
0.0
 10
3.9984990267
 20
5.1272660331
 30
0.0
 10
3.9983435741
 20
5.1259672016
 30
0.0
 10
3.9982812557
 20
5.1240093413
 30
0.0
 10
3.9983903769
 20
5.1220595034
 30
0.0
 10
3.9986700615
 20
5.1201348644
 30
0.0
 10
3.9991178883
 20
5.1182521649
 30
0.0
 10
3.9997300009
 20
5.1164278444
 30
0.0
 10
4.0005011049
 20
5.114677832
 30
0.0
 10
4.0014245225
 20
5.1130174274
 30
0.0
 10
4.0024922423
 20
5.1114611632
 30
0.0
 10
4.0036949846
 20
5.1100226779
 30
0.0
 10
4.0050222765
 20
5.1087145954
 30
0.0
 10
4.0064625472
 20
5.1075484123
 30
0.0
 10
4.0080031965
 20
5.1065343896
 30
0.0
 10
4.0096308035
 20
5.1056814569
 30
0.0
 10
4.0113308714
 20
5.1049971671
 30
0.0
 10
4.012503464
 20
5.1046572213
 30
0.0
 10
4.0130959847
 20
5.104517303
 30
0.0
  0
SPLINE
  5
372
100
AcDbEntity
  8
0
100
AcDbSpline
 62
7
  6
CONTINUOUS
 70
0
 71
3
 72
23
 73
19
 74
0
 42
0.0000001
 43
0.0000001
 44
0.0000000001
 40
0.0
 40
0.0
 40
0.0
 40
0.0
 40
0.1580708191
 40
0.3204617741
 40
0.4007122707
 40
0.4789575254
 40
0.5542232325
 40
0.6256005662
 40
0.6922720584
 40
0.7535423723
 40
0.8088782985
 40
0.8579663024
 40
0.9008024541
 40
0.9200168641
 40
0.9378894796
 40
0.970243434
 40
0.9853011334
 40
1.0
 40
1.0
 40
1.0
 40
1.0
 10
6.9219187565
 20
2.072691576
 30
0.0
 10
6.9213745271
 20
2.0726156727
 30
0.0
 10
6.9202630716
 20
2.0725169438
 30
0.0
 10
6.918868319
 20
2.0725140827
 30
0.0
 10
6.9177547603
 20
2.0725849839
 30
0.0
 10
6.9169466809
 20
2.0726736156
 30
0.0
 10
6.9161742933
 20
2.0727965153
 30
0.0
 10
6.9154488115
 20
2.0729518659
 30
0.0
 10
6.9147807179
 20
2.0731373557
 30
0.0
 10
6.9141795831
 20
2.073350247
 30
0.0
 10
6.9136537854
 20
2.0735875066
 30
0.0
 10
6.9132106234
 20
2.0738458497
 30
0.0
 10
6.9129043828
 20
2.0740843032
 30
0.0
 10
6.9127107018
 20
2.074284208
 30
0.0
 10
6.912561638
 20
2.0744743498
 30
0.0
 10
6.9124535753
 20
2.0746778785
 30
0.0
 10
6.9123998269
 20
2.0748878385
 30
0.0
 10
6.9123909787
 20
2.0749914888
 30
0.0
 10
6.9123909787
 20
2.0750425861
 30
0.0
  0
SPLINE
  5
373
100
AcDbEntity
  8
0
100
AcDbSpline
 62
7
  6
CONTINUOUS
 70
0
 71
3
 72
43
 73
39
 74
0
 42
0.0000001
 43
0.0000001
 44
0.0000000001
 40
0.0
 40
0.0
 40
0.0
 40
0.0
 40
0.0000179692
 40
0.0000718668
 40
0.0001616693
 40
0.0002873533
 40
0.0004488953
 40
0.0006462719
 40
0.0011484354
 40
0.0017936566
 40
0.0025817486
 40
0.0035125249
 40
0.0045857991
 40
0.0071590963
 40
0.010300154
 40
0.0140074416
 40
0.0182781618
 40
0.0231081614
 40
0.0284932449
 40
0.0344292453
 40
0.0409120259
 40
0.0555013645
 40
0.0722220486
 40
0.0910265564
 40
0.111867892
 40
0.1346992559
 40
0.1594689131
 40
0.1861248016
 40
0.214617102
 40
0.2769142429
 40
0.3459875213
 40
0.4215092049
 40
0.5032072626
 40
0.5908777152
 40
0.6843909813
 40
0.7837028434
 40
0.8888621701
 40
1.0
 40
1.0
 40
1.0
 40
1.0
 10
4.0114949927
 20
5.1204305279
 30
0.0
 10
4.0114949516
 20
5.1204304473
 30
0.0
 10
4.011494648
 20
5.1204310627
 30
0.0
 10
4.0114941344
 20
5.1204313062
 30
0.0
 10
4.0114931645
 20
5.1204324779
 30
0.0
 10
4.01149186
 20
5.1204337577
 30
0.0
 10
4.0114901612
 20
5.1204355464
 30
0.0
 10
4.0114871528
 20
5.1204386483
 30
0.0
 10
4.0114824464
 20
5.1204435252
 30
0.0
 10
4.0114756705
 20
5.1204505199
 30
0.0
 10
4.0114673869
 20
5.1204590648
 30
0.0
 10
4.0114575963
 20
5.1204691473
 30
0.0
 10
4.0114415337
 20
5.1204856654
 30
0.0
 10
4.0114176865
 20
5.1205101316
 30
0.0
 10
4.0113845347
 20
5.1205440432
 30
0.0
 10
4.0113453535
 20
5.1205840088
 30
0.0
 10
4.0113001368
 20
5.1206299625
 30
0.0
 10
4.0112488681
 20
5.120681809
 30
0.0
 10
4.0111915407
 20
5.1207394522
 30
0.0
 10
4.0111281468
 20
5.1208027947
 30
0.0
 10
4.0110316536
 20
5.1208985568
 30
0.0
 10
4.0108958976
 20
5.1210318188
 30
0.0
 10
4.0107144521
 20
5.1212070624
 30
0.0
 10
4.0105084707
 20
5.1214021843
 30
0.0
 10
4.0102778562
 20
5.1216160034
 30
0.0
 10
4.0100225366
 20
5.1218473082
 30
0.0
 10
4.0097423267
 20
5.1220946887
 30
0.0
 10
4.009437057
 20
5.1223566843
 30
0.0
 10
4.0089827344
 20
5.1227349519
 30
0.0
 10
4.0083517226
 20
5.1232345422
 30
0.0
 10
4.0075122015
 20
5.1238511641
 30
0.0
 10
4.006567682
 20
5.1244884103
 30
0.0
 10
4.0055161263
 20
5.1251324164
 30
0.0
 10
4.0043555353
 20
5.1257691116
 30
0.0
 10
4.0030837036
 20
5.1263837158
 30
0.0
 10
4.0016984122
 20
5.1269609435
 30
0.0
 10
4.0001975794
 20
5.1274845656
 30
0.0
 10
3.9991482005
 20
5.1277780509
 30
0.0
 10
3.9986048558
 20
5.1279111688
 30
0.0
  0
SPLINE
  5
374
100
AcDbEntity
  8
0
100
AcDbSpline
 62
7
  6
CONTINUOUS
 70
0
 71
3
 72
11
 73
7
 74
0
 42
0.0000001
 43
0.0000001
 44
0.0000000001
 40
0.0
 40
0.0
 40
0.0
 40
0.0
 40
0.2358249466
 40
0.4782674539
 40
0.7317709553
 40
1.0
 40
1.0
 40
1.0
 40
1.0
 10
3.9986048558
 20
5.1279111688
 30
0.0
 10
3.9984244109
 20
5.1279553778
 30
0.0
 10
3.9980506067
 20
5.1280156156
 30
0.0
 10
3.9974720806
 20
5.1280184928
 30
0.0
 10
3.9968739959
 20
5.1279353833
 30
0.0
 10
3.9964763701
 20
5.1278268541
 30
0.0
 10
3.9962758687
 20
5.1277601397
 30
0.0
  0
SPLINE
  5
375
100
AcDbEntity
  8
0
100
AcDbSpline
 62
7
  6
CONTINUOUS
 70
0
 71
3
 72
25
 73
21
 74
0
 42
0.0000001
 43
0.0000001
 44
0.0000000001
 40
0.0
 40
0.0
 40
0.0
 40
0.0
 40
0.0362778777
 40
0.0558879887
 40
0.076517126
 40
0.1208881382
 40
0.1694556031
 40
0.2221210451
 40
0.2787237548
 40
0.3390631668
 40
0.4028818431
 40
0.4699166146
 40
0.5398628817
 40
0.6123835778
 40
0.6871274378
 40
0.7636954151
 40
0.8025337693
 40
0.8416705552
 40
0.9205951847
 40
1.0
 40
1.0
 40
1.0
 40
1.0
 10
3.9962758687
 20
5.1277601397
 30
0.0
 10
3.9958834981
 20
5.127629586
 30
0.0
 10
3.995296376
 20
5.1273740532
 30
0.0
 10
3.9945350173
 20
5.1269480889
 30
0.0
 10
3.9937233179
 20
5.1264260944
 30
0.0
 10
3.9926957203
 20
5.125634797
 30
0.0
 10
3.9914777816
 20
5.1245046015
 30
0.0
 10
3.9902567055
 20
5.1231811559
 30
0.0
 10
3.9890444597
 20
5.1216734198
 30
0.0
 10
3.987853736
 20
5.1199904428
 30
0.0
 10
3.9866958409
 20
5.1181428843
 30
0.0
 10
3.9855841535
 20
5.1161409686
 30
0.0
 10
3.9845309344
 20
5.1139966548
 30
0.0
 10
3.9835478303
 20
5.1117232385
 30
0.0
 10
3.9826478361
 20
5.1093348487
 30
0.0
 10
3.9819789903
 20
5.10727228
 30
0.0
 10
3.9814935561
 20
5.105578757
 30
0.0
 10
3.9810413209
 20
5.1038482711
 30
0.0
 10
3.9805483331
 20
5.1016512328
 30
0.0
 10
3.980233521
 20
5.0998734069
 30
0.0
 10
3.9800966006
 20
5.0989787125
 30
0.0
  0
SPLINE
  5
376
100
AcDbEntity
  8
0
100
AcDbSpline
 62
7
  6
CONTINUOUS
 70
0
 71
3
 72
23
 73
19
 74
0
 42
0.0000001
 43
0.0000001
 44
0.0000000001
 40
0.0
 40
0.0
 40
0.0
 40
0.0
 40
0.158070821
 40
0.3204617789
 40
0.4007122771
 40
0.4789575334
 40
0.5542232421
 40
0.6256005771
 40
0.6922720704
 40
0.7535423849
 40
0.8088783112
 40
0.8579663144
 40
0.9008024647
 40
0.9200168736
 40
0.9378894878
 40
0.9702434386
 40
0.9853011358
 40
1.0
 40
1.0
 40
1.0
 40
1.0
 10
6.666613201
 20
2.072691576
 30
0.0
 10
6.6671574304
 20
2.0726156727
 30
0.0
 10
6.6682688859
 20
2.0725169439
 30
0.0
 10
6.6696636385
 20
2.0725140829
 30
0.0
 10
6.6707771971
 20
2.0725849841
 30
0.0
 10
6.6715852766
 20
2.0726736159
 30
0.0
 10
6.6723576642
 20
2.0727965155
 30
0.0
 10
6.673083146
 20
2.0729518661
 30
0.0
 10
6.6737512396
 20
2.073137356
 30
0.0
 10
6.6743523744
 20
2.0733502473
 30
0.0
 10
6.6748781721
 20
2.0735875068
 30
0.0
 10
6.6753213341
 20
2.0738458499
 30
0.0
 10
6.6756275747
 20
2.0740843033
 30
0.0
 10
6.6758212557
 20
2.0742842081
 30
0.0
 10
6.6759703195
 20
2.0744743499
 30
0.0
 10
6.6760783822
 20
2.0746778785
 30
0.0
 10
6.6761321306
 20
2.0748878385
 30
0.0
 10
6.6761409787
 20
2.0749914888
 30
0.0
 10
6.6761409787
 20
2.0750425861
 30
0.0
  0
SPLINE
  5
377
100
AcDbEntity
  8
0
100
AcDbSpline
 62
7
  6
CONTINUOUS
 70
0
 71
3
 72
24
 73
20
 74
0
 42
0.0000001
 43
0.0000001
 44
0.0000000001
 40
0.0
 40
0.0
 40
0.0
 40
0.0
 40
0.1129492634
 40
0.2290623388
 40
0.288296692
 40
0.3483139449
 40
0.4706566449
 40
0.5330831357
 40
0.5964037893
 40
0.6606925897
 40
0.7260780875
 40
0.7592328903
 40
0.7927106499
 40
0.8265271484
 40
0.8606814464
 40
0.8951593688
 40
0.9299232685
 40
0.9649026774
 40
1.0
 40
1.0
 40
1.0
 40
1.0
 10
4.0122407376
 20
5.1044790361
 30
0.0
 10
4.0115742248
 20
5.1044780261
 30
0.0
 10
4.010221872
 20
5.1044036426
 30
0.0
 10
4.0085378341
 20
5.1041438736
 30
0.0
 10
4.0071836543
 20
5.1038329465
 30
0.0
 10
4.0058113052
 20
5.1034453147
 30
0.0
 10
4.0044528706
 20
5.1029434017
 30
0.0
 10
4.0031310539
 20
5.1023121564
 30
0.0
 10
4.0021536609
 20
5.10176014
 30
0.0
 10
4.0012097402
 20
5.1011206175
 30
0.0
 10
4.0004657949
 20
5.100509479
 30
0.0
 10
3.9999086643
 20
5.0999643186
 30
0.0
 10
3.9995120551
 20
5.0995232019
 30
0.0
 10
3.9991431891
 20
5.0990510568
 30
0.0
 10
3.9988079228
 20
5.0985471447
 30
0.0
 10
3.9985161168
 20
5.0980103579
 30
0.0
 10
3.9982722048
 20
5.0974448035
 30
0.0
 10
3.9980834615
 20
5.0968545466
 30
0.0
 10
3.9979995439
 20
5.0964486973
 30
0.0
 10
3.9979681927
 20
5.0962439746
 30
0.0
  0
SPLINE
  5
378
100
AcDbEntity
  8
0
100
AcDbSpline
 62
7
  6
CONTINUOUS
 70
0
 71
3
 72
23
 73
19
 74
0
 42
0.0000001
 43
0.0000001
 44
0.0000000001
 40
0.0
 40
0.0
 40
0.0
 40
0.0
 40
0.063271719
 40
0.1268548586
 40
0.1906612511
 40
0.2545930079
 40
0.3185499236
 40
0.3824305776
 40
0.4461359616
 40
0.5095723496
 40
0.5726542475
 40
0.6353071609
 40
0.6974701402
 40
0.7590980616
 40
0.8201633695
 40
0.8806580114
 40
0.9405924548
 40
1.0
 40
1.0
 40
1.0
 40
1.0
 10
3.9962758661
 20
5.1277601388
 30
0.0
 10
3.9962241265
 20
5.127115831
 30
0.0
 10
3.9961765957
 20
5.1258188512
 30
0.0
 10
3.9962724491
 20
5.1238711699
 30
0.0
 10
3.9965343104
 20
5.1219318617
 30
0.0
 10
3.9969599208
 20
5.1200179412
 30
0.0
 10
3.9975455645
 20
5.1181459736
 30
0.0
 10
3.9982861668
 20
5.1163322191
 30
0.0
 10
3.9991753093
 20
5.1145924221
 30
0.0
 10
4.0002052951
 20
5.1129416966
 30
0.0
 10
4.0013672099
 20
5.1113943918
 30
0.0
 10
4.0026509983
 20
5.1099639705
 30
0.0
 10
4.0040455462
 20
5.108662894
 30
0.0
 10
4.0055387819
 20
5.1075025172
 30
0.0
 10
4.0071177481
 20
5.106492988
 30
0.0
 10
4.008768807
 20
5.1056431589
 30
0.0
 10
4.0104773887
 20
5.1049605461
 30
0.0
 10
4.0116502996
 20
5.1046194438
 30
0.0
 10
4.0122407402
 20
5.1044790361
 30
0.0
  0
SPLINE
  5
379
100
AcDbEntity
  8
0
100
AcDbSpline
 62
7
  6
CONTINUOUS
 70
0
 71
3
 72
37
 73
33
 74
0
 42
0.0000001
 43
0.0000001
 44
0.0000000001
 40
0.0
 40
0.0
 40
0.0
 40
0.0
 40
0.0678195207
 40
0.1352826377
 40
0.1688586299
 40
0.2023182549
 40
0.235650426
 40
0.268844173
 40
0.3347680758
 40
0.3999870353
 40
0.4322943706
 40
0.4643757718
 40
0.4962129703
 40
0.5277881317
 40
0.5590849342
 40
0.5900871733
 40
0.620780669
 40
0.6511543882
 40
0.6812017292
 40
0.7109218155
 40
0.7694126568
 40
0.7982663071
 40
0.8269225432
 40
0.8412009307
 40
0.8554594504
 40
0.8697109592
 40
0.8839693597
 40
0.8982492644
 40
0.9125655593
 40
0.9413609477
 40
0.9704714358
 40
1.0
 40
1.0
 40
1.0
 40
1.0
 10
7.02340756
 20
2.4742319976
 30
0.0
 10
7.0230670063
 20
2.4823181536
 30
0.0
 10
7.0223400913
 20
2.498446022
 30
0.0
 10
7.0212780251
 20
2.518569259
 30
0.0
 10
7.0203097506
 20
2.5345906679
 30
0.0
 10
7.0195186526
 20
2.5465420986
 30
0.0
 10
7.01865221
 20
2.5584425992
 30
0.0
 10
7.0173875719
 20
2.5741981054
 30
0.0
 10
7.015573564
 20
2.5937264606
 30
0.0
 10
7.013357246
 20
2.6131078098
 30
0.0
 10
7.0112855917
 20
2.6284358408
 30
0.0
 10
7.0095708396
 20
2.639790862
 30
0.0
 10
7.0076715964
 20
2.6510280148
 30
0.0
 10
7.0055664825
 20
2.6621333236
 30
0.0
 10
7.0032335089
 20
2.6730913829
 30
0.0
 10
7.0006474889
 20
2.6838846161
 30
0.0
 10
6.9977815995
 20
2.6944932751
 30
0.0
 10
6.9946068084
 20
2.7048948372
 30
0.0
 10
6.9910917618
 20
2.715064745
 30
0.0
 10
6.9859356155
 20
2.7282040905
 30
0.0
 10
6.9799354168
 20
2.7408530288
 30
0.0
 10
6.9729512369
 20
2.7528130589
 30
0.0
 10
6.9681765225
 20
2.759934223
 30
0.0
 10
6.9640936791
 20
2.7654049776
 30
0.0
 10
6.9608988211
 20
2.7693896233
 30
0.0
 10
6.9575658979
 20
2.7732563739
 30
0.0
 10
6.9540932697
 20
2.7770016858
 30
0.0
 10
6.9504799795
 20
2.7806225542
 30
0.0
 10
6.9454650617
 20
2.7852889597
 30
0.0
 10
6.9388306052
 20
2.7908042896
 30
0.0
 10
6.9303232155
 20
2.7968609213
 30
0.0
 10
6.9243336204
 20
2.8004932471
 30
0.0
 10
6.9212587722
 20
2.802214486
 30
0.0
  0
LINE
  5
37A
100
AcDbEntity
  8
0
100
AcDbLine
 62
7
  6
CONTINUOUS
 10
4.0130959849
 20
5.1045173029
 11
4.0122407347
 21
5.1044790353
  0
SPLINE
  5
37B
100
AcDbEntity
  8
0
100
AcDbSpline
 62
7
  6
CONTINUOUS
 70
0
 71
3
 72
15
 73
11
 74
0
 42
0.0000001
 43
0.0000001
 44
0.0000000001
 40
0.0
 40
0.0
 40
0.0
 40
0.0
 40
0.1278462597
 40
0.2546426673
 40
0.3804959974
 40
0.505522702
 40
0.6298473836
 40
0.7536067868
 40
0.8769528066
 40
1.0
 40
1.0
 40
1.0
 40
1.0
 10
6.6672733276
 20
2.8022149391
 30
0.0
 10
6.665651487
 20
2.8013075658
 30
0.0
 10
6.6624540954
 20
2.7994405341
 30
0.0
 10
6.6577856702
 20
2.7964720331
 30
0.0
 10
6.6532683691
 20
2.793349622
 30
0.0
 10
6.6489042441
 20
2.7900760227
 30
0.0
 10
6.644694506
 20
2.7866541923
 30
0.0
 10
6.6406399525
 20
2.783086646
 30
0.0
 10
6.6367428865
 20
2.7793747065
 30
0.0
 10
6.6342462548
 20
2.7768052122
 30
0.0
 10
6.6330240105
 20
2.7754993063
 30
0.0
  0
SPLINE
  5
37C
100
AcDbEntity
  8
0
100
AcDbSpline
 62
7
  6
CONTINUOUS
 70
0
 71
3
 72
37
 73
33
 74
0
 42
0.0000001
 43
0.0000001
 44
0.0000000001
 40
0.0
 40
0.0
 40
0.0
 40
0.0
 40
0.0282097049
 40
0.0423264757
 40
0.05645783
 40
0.0706131657
 40
0.0848003114
 40
0.1132907779
 40
0.1419745334
 40
0.1708876933
 40
0.2000580581
 40
0.2295071153
 40
0.2592457475
 40
0.2892737163
 40
0.3195845117
 40
0.3501669739
 40
0.3810072524
 40
0.4120914447
 40
0.4434057926
 40
0.4749380464
 40
0.5066764395
 40
0.5386087459
 40
0.5707223547
 40
0.6030047875
 40
0.63544526
 40
0.668032551
 40
0.7336070203
 40
0.7996519822
 40
0.8328305874
 40
0.8661028756
 40
0.9329022839
 40
1.0
 40
1.0
 40
1.0
 40
1.0
 10
6.6330240105
 20
2.7754993063
 30
0.0
 10
6.6310067958
 20
2.7733379156
 30
0.0
 10
6.6280901282
 20
2.7699902406
 30
0.0
 10
6.6244106832
 20
2.7653557789
 30
0.0
 10
6.6217510433
 20
2.7617945933
 30
0.0
 10
6.6191914591
 20
2.7581519313
 30
0.0
 10
6.615904873
 20
2.753183673
 30
0.0
 10
6.6120331116
 20
2.7467805752
 30
0.0
 10
6.6077556986
 20
2.7388328745
 30
0.0
 10
6.6038203141
 20
2.7306316647
 30
0.0
 10
6.6002063701
 20
2.7221970144
 30
0.0
 10
6.596894647
 20
2.7135468928
 30
0.0
 10
6.5938643183
 20
2.7046995657
 30
0.0
 10
6.5910930266
 20
2.6956735387
 30
0.0
 10
6.5885595086
 20
2.6864864211
 30
0.0
 10
6.5862432942
 20
2.6771546228
 30
0.0
 10
6.5841249086
 20
2.6676930452
 30
0.0
 10
6.5821871114
 20
2.6581147153
 30
0.0
 10
6.5804137071
 20
2.6484309718
 30
0.0
 10
6.5787907415
 20
2.6386514675
 30
0.0
 10
6.5773051563
 20
2.6287847313
 30
0.0
 10
6.5759448583
 20
2.6188385069
 30
0.0
 10
6.5746985489
 20
2.6088199513
 30
0.0
 10
6.5735553365
 20
2.5987355496
 30
0.0
 10
6.5725064544
 20
2.5885910216
 30
0.0
 10
6.571218586
 20
2.574964015
 30
0.0
 10
6.5698037427
 20
2.5578121652
 30
0.0
 10
6.568602158
 20
2.5405822202
 30
0.0
 10
6.5677429365
 20
2.5267227456
 30
0.0
 10
6.5669424629
 20
2.5127805518
 30
0.0
 10
6.5660464517
 20
2.4952833514
 30
0.0
 10
6.5654193802
 20
2.4812643877
 30
0.0
 10
6.5651231415
 20
2.4742385486
 30
0.0
  0
SPLINE
  5
37D
100
AcDbEntity
  8
0
100
AcDbSpline
 62
7
  6
CONTINUOUS
 70
0
 71
3
 72
40
 73
36
 74
0
 42
0.0000001
 43
0.0000001
 44
0.0000000001
 40
0.0
 40
0.0
 40
0.0
 40
0.0
 40
0.0315860498
 40
0.062686985
 40
0.0932858685
 40
0.1233712282
 40
0.1529488338
 40
0.1820487853
 40
0.2107243731
 40
0.2390402105
 40
0.2670710469
 40
0.2949029442
 40
0.3087758135
 40
0.32263564
 40
0.3503684516
 40
0.37822097
 40
0.4063066247
 40
0.4347317614
 40
0.4635893488
 40
0.4929563241
 40
0.5228926979
 40
0.5534421208
 40
0.5846316276
 40
0.6164712985
 40
0.6489553429
 40
0.6820637465
 40
0.715763922
 40
0.7500126272
 40
0.7847577333
 40
0.8199400186
 40
0.8554945245
 40
0.891351907
 40
0.9274389193
 40
0.9636809266
 40
1.0
 40
1.0
 40
1.0
 40
1.0
 10
6.5612746095
 20
1.9117574111
 30
0.0
 10
6.5617858981
 20
1.9084740114
 30
0.0
 10
6.5628852744
 20
1.9019703788
 30
0.0
 10
6.5648081527
 20
1.892344975
 30
0.0
 10
6.5670175886
 20
1.8829428714
 30
0.0
 10
6.5695414755
 20
1.8737858631
 30
0.0
 10
6.57240619
 20
1.8648946287
 30
0.0
 10
6.5756348359
 20
1.856286636
 30
0.0
 10
6.5792453255
 20
1.8479756591
 30
0.0
 10
6.5832559556
 20
1.8399751392
 30
0.0
 10
6.5876838208
 20
1.8322996337
 30
0.0
 10
6.5917388065
 20
1.8261792443
 30
0.0
 10
6.5952002639
 20
1.8214675473
 30
0.0
 10
6.5988080389
 20
1.8168801896
 30
0.0
 10
6.6036086692
 20
1.8113651399
 30
0.0
 10
6.6098219445
 20
1.8051208886
 30
0.0
 10
6.6164875175
 20
1.7992511738
 30
0.0
 10
6.623597937
 20
1.7937550579
 30
0.0
 10
6.6311436773
 20
1.7886305241
 30
0.0
 10
6.6391126715
 20
1.783875359
 30
0.0
 10
6.647490704
 20
1.7794877026
 30
0.0
 10
6.6562600482
 20
1.7754633769
 30
0.0
 10
6.6653994449
 20
1.7717943201
 30
0.0
 10
6.6748856381
 20
1.7684711115
 30
0.0
 10
6.684693709
 20
1.7654838725
 30
0.0
 10
6.6947968414
 20
1.7628206702
 30
0.0
 10
6.705167399
 20
1.7604702516
 30
0.0
 10
6.7157767097
 20
1.7584205362
 30
0.0
 10
6.7265961428
 20
1.7566630873
 30
0.0
 10
6.7375966986
 20
1.7551921043
 30
0.0
 10
6.7487487299
 20
1.7540019348
 30
0.0
 10
6.7600220493
 20
1.7530864342
 30
0.0
 10
6.7713863766
 20
1.7524400332
 30
0.0
 10
6.7828110728
 20
1.7520567857
 30
0.0
 10
6.7904450555
 20
1.7519720241
 30
0.0
 10
6.7942659571
 20
1.7519728196
 30
0.0
  0
LINE
  5
37E
100
AcDbEntity
  8
0
100
AcDbLine
 62
7
  6
CONTINUOUS
 10
6.7942659571
 20
1.7519728196
 11
6.7948875263
 21
1.7519683492
  0
SPLINE
  5
37F
100
AcDbEntity
  8
0
100
AcDbSpline
 62
7
  6
CONTINUOUS
 70
0
 71
3
 72
44
 73
40
 74
0
 42
0.0000001
 43
0.0000001
 44
0.0000000001
 40
0.0
 40
0.0
 40
0.0
 40
0.0
 40
0.0363264004
 40
0.0544648148
 40
0.0725725667
 40
0.0906406864
 40
0.1086600452
 40
0.1445140498
 40
0.1800621392
 40
0.2152354232
 40
0.2499694423
 40
0.2842056572
 40
0.317892627
 40
0.3509876107
 40
0.3834582638
 40
0.4152843732
 40
0.4464598113
 40
0.476994554
 40
0.5069163873
 40
0.5216627808
 40
0.5362748876
 40
0.565127266
 40
0.5935528291
 40
0.6216413689
 40
0.6494948994
 40
0.6772241031
 40
0.7049437165
 40
0.7327697334
 40
0.7608142008
 40
0.7891700064
 40
0.8179013144
 40
0.8470543357
 40
0.8766636635
 40
0.9067523488
 40
0.9219806257
 40
0.9373329225
 40
0.9528119152
 40
0.9684194751
 40
1.0
 40
1.0
 40
1.0
 40
1.0
 10
6.7948875263
 20
1.7519683492
 30
0.0
 10
6.7987016467
 20
1.7519749397
 30
0.0
 10
6.8044203707
 20
1.7520484932
 30
0.0
 10
6.8120370509
 20
1.7522709433
 30
0.0
 10
6.8177353291
 20
1.7525008024
 30
0.0
 10
6.8234180964
 20
1.7527957626
 30
0.0
 10
6.8309564718
 20
1.7532768386
 30
0.0
 10
6.8403149887
 20
1.7540442674
 30
0.0
 10
6.8514419367
 20
1.755242102
 30
0.0
 10
6.8624162481
 20
1.7567232594
 30
0.0
 10
6.8732081376
 20
1.7584941388
 30
0.0
 10
6.8837885032
 20
1.7605609355
 30
0.0
 10
6.8941291679
 20
1.7629295848
 30
0.0
 10
6.9042022622
 20
1.765609145
 30
0.0
 10
6.9139808047
 20
1.7686090527
 30
0.0
 10
6.9234391332
 20
1.771938427
 30
0.0
 10
6.9325527969
 20
1.7756073336
 30
0.0
 10
6.9412984598
 20
1.7796262227
 30
0.0
 10
6.9482958638
 20
1.7832936589
 30
0.0
 10
6.9536826437
 20
1.7864134001
 30
0.0
 10
6.9588815958
 20
1.7896282283
 30
0.0
 10
6.965123084
 20
1.793881943
 30
0.0
 10
6.9722083983
 20
1.7993810212
 30
0.0
 10
6.9788505368
 20
1.8052513313
 30
0.0
 10
6.9850443058
 20
1.8114904968
 30
0.0
 10
6.9907876789
 20
1.8180953922
 30
0.0
 10
6.9960825608
 20
1.8250611924
 30
0.0
 10
7.0009335033
 20
1.8323825923
 30
0.0
 10
7.005346786
 20
1.8400525497
 30
0.0
 10
7.0093357338
 20
1.8480571085
 30
0.0
 10
7.0129231004
 20
1.856375604
 30
0.0
 10
7.0161321304
 20
1.864987164
 30
0.0
 10
7.0189858077
 20
1.8738720595
 30
0.0
 10
7.0210785183
 20
1.8814578324
 30
0.0
 10
7.0226006511
 20
1.887643601
 30
0.0
 10
7.0236726848
 20
1.8923596161
 30
0.0
 10
7.0246728162
 20
1.8971320698
 30
0.0
 10
7.02591795
 20
1.9035931925
 30
0.0
 10
7.0267448243
 20
1.9084791344
 30
0.0
 10
7.0272567071
 20
1.9117552134
 30
0.0
  0
LINE
  5
380
100
AcDbEntity
  8
0
100
AcDbLine
 62
7
  6
CONTINUOUS
 10
6.5947659787
 20
4.1558329297
 11
6.7942659787
 21
4.1558428901
  0
ENDSEC
  0
SECTION
  2
OBJECTS
  0
DICTIONARY
  5
C
100
AcDbDictionary
280
0
281
1
  3
ACAD_GROUP
350
D
  3
ACAD_MLINESTYLE
350
17
  3
ACAD_LAYOUT
350
1A
  3
ACAD_PLOTSETTINGS
350
19
  3
ACAD_PLOTSTYLENAME
350
E
  0
DICTIONARY
  5
D
102
{ACAD_REACTORS
330
C
102
}
100
AcDbDictionary
280
0
281
1
  0
ACDBDICTIONARYWDFLT
  5
E
102
{ACAD_REACTORS
330
C
102
}
100
AcDbDictionary
281
1
  3
Normal
350
F
100
AcDbDictionaryWithDefault
340
F
  0
DICTIONARY
  5
17
102
{ACAD_REACTORS
330
C
102
}
100
AcDbDictionary
280
0
281
1
  3
Standard
350
18
  0
DICTIONARY
  5
19
102
{ACAD_REACTORS
330
C
102
}
100
AcDbDictionary
281
1
  0
DICTIONARY
  5
1A
102
{ACAD_REACTORS
330
C
102
}
100
AcDbDictionary
281
1
  3
Model
350
381
  3
Layout1
350
382
  0
ACDBPLACEHOLDER
  5
F
102
{ACAD_REACTORS
330
E
102
}
  0
MLINESTYLE
  5
18
102
{ACAD_REACTORS
330
17
102
}
100
AcDbMlineStyle
  2
STANDARD
 70
0
  3

 62
256
 51
90.0
 52
90.0
 71
2
 49
0.5
 62
256
  6
BYLAYER
 49
-0.5
 62
256
  6
BYLAYER
  0
LAYOUT
  5
381
102
{ACAD_REACTORS
330
1A
102
}
100
AcDbPlotSettings
  1

  2
none_device
  4
ANSI_A_(11.00_x_8.50_Inches)
  6

 40
0.0
 41
0.0
 42
0.0
 43
0.0
 44
279.4
 45
215.9
 46
0.0
 47
0.0
 48
0.0
 49
0.0
140
0.0
141
0.0
142
1.0
143
1.0
 70
1024
 72
0
 73
0
 74
0
  7

 75
0
147
1.0
148
0.0
149
0.0
100
AcDbLayout
  1
Model
 70
0
 71
0
 10
0.0
 20
0.0
 11
11.0
 21
8.5
 12
0.0
 22
0.0
 32
0.0
 14
0.0
 24
0.0
 34
0.0
 15
0.0
 25
0.0
 35
0.0
146
0.0
 13
0.0
 23
0.0
 33
0.0
 16
1.0
 26
0.0
 36
0.0
 17
0.0
 27
1.0
 37
0.0
 76
0
330
202
345
0
346
0
  0
LAYOUT
  5
382
102
{ACAD_REACTORS
330
1A
102
}
100
AcDbPlotSettings
  1

  2
none_device
  4
ANSI_A_(11.00_x_8.50_Inches)
  6

 40
0.0
 41
0.0
 42
0.0
 43
0.0
 44
279.4
 45
215.9
 46
0.0
 47
0.0
 48
0.0
 49
0.0
140
0.0
141
0.0
142
1.0
143
1.0
 70
0
 72
0
 73
0
 74
0
  7

 75
0
147
1.0
148
0.0
149
0.0
100
AcDbLayout
  1
Layout1
 70
0
 71
1
 10
0.0
 20
0.0
 11
11.0
 21
8.5
 12
0.0
 22
0.0
 32
0.0
 14
0.0
 24
0.0
 34
0.0
 15
0.0
 25
0.0
 35
0.0
146
0.0
 13
0.0
 23
0.0
 33
0.0
 16
1.0
 26
0.0
 36
0.0
 17
0.0
 27
1.0
 37
0.0
 76
0
330
203
345
0
346
0
  0
ENDSEC
  0
EOF
