999
DXF file: 2470-5173_TOP.dxf
999
Pro/ENGINEER 2023134 by Parametric Technology Corporation
  0
SECTION
  2
HEADER
  9
$ACADVER
  1
AC1032
  9
$DWGCODEPAGE
  3
ANSI_1252
  9
$EXTMAX
 10
11.0
 20
8.5
 30
0.0
  9
$EXTMIN
 10
0.0
 20
0.0
 30
0.0
  9
$LIMMIN
 10
0.0
 20
0.0
  9
$LIMMAX
 10
11.0
 20
8.5
  9
$VIEWCTR
 10
5.5
 20
4.25
  9
$VIEWSIZE
 40
8.5
  9
$CLAYER
  8
0
  9
$LTSCALE
 40
0.605
  9
$CELTYPE
  6
BYLAYER
  9
$DIMSCALE
 40
1.0
  9
$DIMASZ
 40
0.1
  9
$DIMEXO
 40
0.0625
  9
$DIMDLI
 40
0.418
  9
$DIMEXE
 40
0.125
  9
$DIMCEN
 40
0.099
  9
$DIMLFAC
 40
1.0
  9
$DIMBLK
  1
_FILLED
  9
$DIMALT
 70
1
  9
$DIMALTD
 70
2
  9
$DIMALTTD
 70
2
  9
$DIMALTF
 40
25.4
  9
$DIMTXT
 40
0.08
  9
$DIMTOL
 70
1
  9
$DIMLIM
 70
0
  9
$DIMTFAC
 40
1.0
  9
$DIMTP
 40
0.001
  9
$DIMTM
 40
0.001
  9
$DIMGAP
 40
0.09
  9
$DIMDSEP
 70
46
  9
$AUNITS
 70
0
  9
$PDMODE
 70
3
  9
$PDSIZE
 40
0.3125
  9
$HANDSEED
  5
2C2
  9
$TILEMODE
 70
1
  9
$MEASUREMENT
 70
0
  9
$INSUNITS
 70
1
  0
ENDSEC
  0
SECTION
  2
CLASSES
  0
CLASS
  1
ACDBDICTIONARYWDFLT
  2
AcDbDictionaryWithDefault
  3
AutoCAD 2000
 90
0
 91
1
280
0
281
0
  0
CLASS
  1
ACDBPLACEHOLDER
  2
AcDbPlaceHolder
  3
AutoCAD 2000
 90
0
 91
1
280
0
281
0
  0
CLASS
  1
LAYOUT
  2
AcDbLayout
  3
AutoCAD 2000
 90
0
 91
0
280
0
281
0
  0
ENDSEC
  0
SECTION
  2
TABLES
  0
TABLE
  2
VPORT
  5
8
100
AcDbSymbolTable
 70
2
  0
VPORT
  5
1F4
100
AcDbSymbolTableRecord
100
AcDbViewportTableRecord
  2
*ACTIVE
 70
0
 10
0.0
 20
0.0
 11
1.0
 21
1.0
 12
5.5
 22
4.25
 13
0.0
 23
0.0
 14
1.0
 24
1.0
 15
0.0
 25
0.0
 16
0.0
 26
0.0
 36
1.0
 17
0.0
 27
0.0
 37
0.0
 40
8.5
 41
1.2941176471
 42
50.0
 43
0.0
 44
0.0
 50
0.0
 51
0.0
 71
0
 72
100
 73
1
 74
1
 75
0
 76
0
 77
0
 78
0
  0
ENDTAB
  0
TABLE
  2
LTYPE
  5
5
100
AcDbSymbolTable
 70
6
  0
LTYPE
  5
14
100
AcDbSymbolTableRecord
100
AcDbLinetypeTableRecord
  2
BYBLOCK
 70
0
  3

 72
65
 73
0
 40
0.0
  0
LTYPE
  5
15
100
AcDbSymbolTableRecord
100
AcDbLinetypeTableRecord
  2
BYLAYER
 70
0
  3

 72
65
 73
0
 40
0.0
  0
LTYPE
  5
16
100
AcDbSymbolTableRecord
100
AcDbLinetypeTableRecord
  2
CONTINUOUS
 70
64
  3
Solid line
 72
65
 73
0
 40
0.0
  0
LTYPE
  5
1F5
100
AcDbSymbolTableRecord
100
AcDbLinetypeTableRecord
  2
CENTER
 70
64
  3
____ _ ____ _ ____ _ ____ _ ____ _ ____ _ ____
 72
65
 73
4
 40
0.6
 49
0.375
 74
0
 49
-0.075
 74
0
 49
0.075
 74
0
 49
-0.075
 74
0
  0
LTYPE
  5
1F6
100
AcDbSymbolTableRecord
100
AcDbLinetypeTableRecord
  2
HIDDEN
 70
64
  3
- - - - - - - - - - - - - - - - - - - -
 72
65
 73
2
 40
0.2
 49
0.1
 74
0
 49
-0.1
 74
0
  0
LTYPE
  5
1F7
100
AcDbSymbolTableRecord
100
AcDbLinetypeTableRecord
  2
PHANTOM
 70
64
  3
_____ _ _ _____ _ _ _____ _ _ _____
 72
65
 73
6
 40
0.8
 49
0.45
 74
0
 49
-0.05
 74
0
 49
0.1
 74
0
 49
-0.05
 74
0
 49
0.1
 74
0
 49
-0.05
 74
0
  0
LTYPE
  5
1F8
100
AcDbSymbolTableRecord
100
AcDbLinetypeTableRecord
  2
DOT
 70
64
  3
. . . . . . . . . . . . . . . . . . . .
 72
65
 73
2
 40
0.2
 49
0.1
 74
0
 49
-0.1
 74
0
  0
LTYPE
  5
1F9
100
AcDbSymbolTableRecord
100
AcDbLinetypeTableRecord
  2
DASHED
 70
64
  3
- - - - - - - - - - - - - - - - - - - -
 72
65
 73
2
 40
0.2
 49
0.1
 74
0
 49
-0.1
 74
0
  0
ENDTAB
  0
TABLE
  2
LAYER
  5
2
100
AcDbSymbolTable
 70
36
  0
LAYER
  5
10
100
AcDbSymbolTableRecord
100
AcDbLayerTableRecord
  2
0
 70
0
 62
7
  6
CONTINUOUS
370
-3
390
F
  0
LAYER
  5
1FA
100
AcDbSymbolTableRecord
100
AcDbLayerTableRecord
  2
DEFAULT_1
 70
0
 62
7
  6
CENTER
370
-3
390
F
  0
LAYER
  5
1FB
100
AcDbSymbolTableRecord
100
AcDbLayerTableRecord
  2
DEFAULT_2
 70
0
 62
8
  6
HIDDEN
370
-3
390
F
  0
LAYER
  5
1FC
100
AcDbSymbolTableRecord
100
AcDbLayerTableRecord
  2
DEFAULT_3
 70
0
 62
7
  6
PHANTOM
370
-3
390
F
  0
LAYER
  5
1FD
100
AcDbSymbolTableRecord
100
AcDbLayerTableRecord
  2
DEFAULT_COORDINATE_SYSTEM
 70
0
 62
7
  6
CONTINUOUS
370
-3
390
F
  0
LAYER
  5
1FE
100
AcDbSymbolTableRecord
100
AcDbLayerTableRecord
  2
DEFAULT_DATUM_AXES
 70
0
 62
7
  6
CONTINUOUS
370
-3
390
F
  0
LAYER
  5
1FF
100
AcDbSymbolTableRecord
100
AcDbLayerTableRecord
  2
DEFAULT_DATUM_PLANES
 70
0
 62
7
  6
CONTINUOUS
370
-3
390
F
  0
ENDTAB
  0
TABLE
  2
STYLE
  5
3
100
AcDbSymbolTable
 70
1
  0
STYLE
  5
11
100
AcDbSymbolTableRecord
100
AcDbTextStyleTableRecord
  2
STANDARD
 70
0
 40
0.0
 41
0.8
 50
0.0
 71
0
 42
0.2
  3
txt
  4

  0
STYLE
  5
200
100
AcDbSymbolTableRecord
100
AcDbTextStyleTableRecord
  2
TEXTSTYLE_1
 70
0
 40
0.0
 41
0.8
 50
0.0
 71
0
 42
0.2
  3
gdt
  4

  0
ENDTAB
  0
TABLE
  2
VIEW
  5
6
100
AcDbSymbolTable
 70
0
  0
ENDTAB
  0
TABLE
  2
UCS
  5
7
100
AcDbSymbolTable
 70
0
  0
ENDTAB
  0
TABLE
  2
APPID
  5
9
100
AcDbSymbolTable
 70
1
  0
APPID
  5
201
100
AcDbSymbolTableRecord
100
AcDbRegAppTableRecord
  2
ACAD
 70
0
  0
ENDTAB
  0
TABLE
  2
BLOCK_RECORD
  5
1
100
AcDbSymbolTable
 70
0
  0
BLOCK_RECORD
  5
202
100
AcDbSymbolTableRecord
100
AcDbBlockTableRecord
  2
*Model_Space
  0
BLOCK_RECORD
  5
203
100
AcDbSymbolTableRecord
100
AcDbBlockTableRecord
  2
*Paper_Space
  0
BLOCK_RECORD
  5
204
100
AcDbSymbolTableRecord
100
AcDbBlockTableRecord
  2
_FILLED
  0
ENDTAB
  0
TABLE
  2
DIMSTYLE
  5
A
100
AcDbSymbolTable
 70
1
100
AcDbDimStyleTable
 71
0
  0
DIMSTYLE
105
205
100
AcDbSymbolTableRecord
100
AcDbDimStyleTableRecord
  2
STANDARD
 70
0
  3

  4

 40
1.0
 41
0.1
 42
0.0625
 43
0.38
 44
0.125
 45
0.0
 46
0.0
 47
0.001
 48
0.001
140
0.08
141
0.09
142
0.0
143
25.4
144
1.0
145
0.0
146
1.0
147
0.09
 71
1
 72
0
 73
1
 74
1
 75
0
 76
0
 77
0
 78
4
 79
1
170
1
171
2
172
0
173
0
174
0
175
0
176
0
177
0
178
0
270
2
179
3
271
3
272
3
273
2
274
2
275
0
280
0
281
0
282
0
283
1
284
4
285
0
286
0
287
3
288
0
340
11
278
46
341
204
342
204
343
204
344
204
  0
ENDTAB
  0
ENDSEC
  0
SECTION
  2
BLOCKS
  0
BLOCK
  5
20
100
AcDbEntity
  8
0
100
AcDbBlockBegin
  2
*Model_Space
 70
0
 10
0.0
 20
0.0
 30
0.0
  3
*Model_Space
  1

  0
ENDBLK
  5
21
100
AcDbEntity
  8
0
100
AcDbBlockEnd
  0
BLOCK
  5
1C
100
AcDbEntity
  8
0
100
AcDbBlockBegin
  2
*Paper_Space
 70
0
 10
0.0
 20
0.0
 30
0.0
  3
*Paper_Space
  1

  0
ENDBLK
  5
1D
100
AcDbEntity
  8
0
100
AcDbBlockEnd
  0
BLOCK
  5
206
100
AcDbEntity
  8
0
100
AcDbBlockBegin
  2
_FILLED
 70
64
 10
0.0
 20
0.0
  3
_FILLED
  1

  0
SOLID
  5
207
100
AcDbEntity
  8
0
  6
BYBLOCK
 62
0
100
AcDbTrace
 10
0.0
 20
0.0
 11
-1.0
 21
0.2
 12
-1.0
 22
-0.2
 13
-1.0
 23
-0.2
  0
ENDBLK
  5
208
100
AcDbEntity
  8
0
  6
BYBLOCK
 62
0
100
AcDbBlockEnd
  0
ENDSEC
  0
SECTION
  2
ENTITIES
  0
LINE
  5
209
100
AcDbEntity
  8
0
100
AcDbLine
 62
7
  6
CONTINUOUS
 10
0.0
 20
0.0
 11
0.0
 21
8.5
  0
LINE
  5
20A
100
AcDbEntity
  8
0
100
AcDbLine
 62
7
  6
CONTINUOUS
 10
0.0
 20
0.0
 11
11.0
 21
0.0
  0
LINE
  5
20B
100
AcDbEntity
  8
0
100
AcDbLine
 62
7
  6
CONTINUOUS
 10
0.0
 20
8.5
 11
11.0
 21
8.5
  0
LINE
  5
20C
100
AcDbEntity
  8
0
100
AcDbLine
 62
7
  6
CONTINUOUS
 10
11.0
 20
0.0
 11
11.0
 21
8.5
  0
LINE
  5
20D
100
AcDbEntity
  8
0
100
AcDbLine
 62
7
  6
CONTINUOUS
 10
5.0525951603
 20
6.0099306495
 11
5.0334084957
 21
6.003767686
  0
LINE
  5
20E
100
AcDbEntity
  8
0
100
AcDbLine
 62
7
  6
CONTINUOUS
 10
5.0334084957
 20
6.003767686
 11
5.0266356832
 21
6.001605536
  0
LINE
  5
20F
100
AcDbEntity
  8
0
100
AcDbLine
 62
7
  6
CONTINUOUS
 10
5.0577004348
 20
6.0115475698
 11
5.0525951603
 21
6.0099306495
  0
LINE
  5
210
100
AcDbEntity
  8
0
100
AcDbLine
 62
7
  6
CONTINUOUS
 10
5.0629168793
 20
6.0131766805
 11
5.0577004348
 21
6.0115475698
  0
LINE
  5
211
100
AcDbEntity
  8
0
100
AcDbLine
 62
7
  6
CONTINUOUS
 10
5.0682393727
 20
6.014808684
 11
5.0629168793
 21
6.0131766805
  0
LINE
  5
212
100
AcDbEntity
  8
0
100
AcDbLine
 62
7
  6
CONTINUOUS
 10
4.5752768031
 20
2.6913267031
 11
4.5752814798
 21
2.6906733614
  0
LINE
  5
213
100
AcDbEntity
  8
0
100
AcDbLine
 62
7
  6
CONTINUOUS
 10
4.5752768031
 20
2.6913267031
 11
4.5752774762
 21
2.6906733534
  0
LINE
  5
214
100
AcDbEntity
  8
0
100
AcDbLine
 62
7
  6
CONTINUOUS
 10
4.7004910362
 20
5.7441575394
 11
4.700491031
 21
2.8857584424
  0
LINE
  5
215
100
AcDbEntity
  8
0
100
AcDbLine
 62
7
  6
CONTINUOUS
 10
4.7004913945
 20
5.7441575474
 11
4.700491031
 21
5.7441114251
  0
LINE
  5
216
100
AcDbEntity
  8
0
100
AcDbLine
 62
7
  6
CONTINUOUS
 10
5.0993125753
 20
5.7441114251
 11
5.0993120239
 21
5.7441813835
  0
LINE
  5
217
100
AcDbEntity
  8
0
100
AcDbLine
 62
7
  6
CONTINUOUS
 10
5.0993125753
 20
2.8857584424
 11
5.0993125632
 21
5.7441813877
  0
LINE
  5
218
100
AcDbEntity
  8
0
100
AcDbLine
 62
7
  6
CONTINUOUS
 10
5.0993120294
 20
5.744042161
 11
5.0993125753
 21
5.7441114251
  0
LINE
  5
219
100
AcDbEntity
  8
0
100
AcDbLine
 62
7
  6
CONTINUOUS
 10
5.2245268031
 20
2.6906733279
 11
5.2245268031
 21
2.6913267031
  0
LINE
  5
21A
100
AcDbEntity
  8
0
100
AcDbLine
 62
7
  6
CONTINUOUS
 10
5.2245221264
 20
2.6906733614
 11
5.2245268031
 21
2.6913267031
  0
LINE
  5
21B
100
AcDbEntity
  8
0
100
AcDbLine
 62
7
  6
CONTINUOUS
 10
5.4625268031
 20
6.0906114251
 11
5.4625268031
 21
5.3976114251
  0
LINE
  5
21C
100
AcDbEntity
  8
0
100
AcDbLine
 62
7
  6
CONTINUOUS
 10
5.4894647841
 20
5.382874583
 11
5.4894647841
 21
6.1053482672
  0
LINE
  5
21D
100
AcDbEntity
  8
0
100
AcDbLine
 62
7
  6
CONTINUOUS
 10
5.5158911308
 20
5.3906114251
 11
5.5158911308
 21
6.0976114251
  0
LINE
  5
21E
100
AcDbEntity
  8
0
100
AcDbLine
 62
7
  6
CONTINUOUS
 10
5.5325268031
 20
5.3906114251
 11
5.5325268031
 21
6.0976114251
  0
LINE
  5
21F
100
AcDbEntity
  8
0
100
AcDbLine
 62
7
  6
CONTINUOUS
 10
5.693587168
 20
6.0587887342
 11
5.693587168
 21
5.4294341159
  0
LINE
  5
220
100
AcDbEntity
  8
0
100
AcDbLine
 62
7
  6
CONTINUOUS
 10
5.7278219911
 20
6.0548767404
 11
5.7278219911
 21
5.4333461097
  0
LINE
  5
221
100
AcDbEntity
  8
0
100
AcDbLine
 62
7
  6
CONTINUOUS
 10
5.8622673
 20
5.8663251314
 11
5.8622881093
 21
5.8666216051
  0
LINE
  5
222
100
AcDbEntity
  8
0
100
AcDbLine
 62
7
  6
CONTINUOUS
 10
5.8622881093
 20
5.8666216051
 11
5.8623029363
 21
5.866819083
  0
LINE
  5
223
100
AcDbEntity
  8
0
100
AcDbLine
 62
7
  6
CONTINUOUS
 10
5.8623029363
 20
5.866819083
 11
5.8623170218
 21
5.866995833
  0
LINE
  5
224
100
AcDbEntity
  8
0
100
AcDbLine
 62
7
  6
CONTINUOUS
 10
5.8623170218
 20
5.866995833
 11
5.8623302834
 21
5.8671523034
  0
LINE
  5
225
100
AcDbEntity
  8
0
100
AcDbLine
 62
7
  6
CONTINUOUS
 10
5.8623302834
 20
5.8671523034
 11
5.8623426181
 21
5.8672888433
  0
LINE
  5
226
100
AcDbEntity
  8
0
100
AcDbLine
 62
7
  6
CONTINUOUS
 10
5.8623426181
 20
5.8672888433
 11
5.8623538954
 21
5.8674056828
  0
LINE
  5
227
100
AcDbEntity
  8
0
100
AcDbLine
 62
7
  6
CONTINUOUS
 10
5.8623538954
 20
5.8674056828
 11
5.8623607459
 21
5.8674726861
  0
LINE
  5
228
100
AcDbEntity
  8
0
100
AcDbLine
 62
7
  6
CONTINUOUS
 10
5.8623607459
 20
5.8674726861
 11
5.8623669926
 21
5.8675309652
  0
LINE
  5
229
100
AcDbEntity
  8
0
100
AcDbLine
 62
7
  6
CONTINUOUS
 10
5.8623669926
 20
5.8675309652
 11
5.8623725535
 21
5.8675803875
  0
LINE
  5
22A
100
AcDbEntity
  8
0
100
AcDbLine
 62
7
  6
CONTINUOUS
 10
5.8623725535
 20
5.8675803875
 11
5.8623773493
 21
5.8676209333
  0
LINE
  5
22B
100
AcDbEntity
  8
0
100
AcDbLine
 62
7
  6
CONTINUOUS
 10
5.8623773493
 20
5.8676209333
 11
5.8623812718
 21
5.8676524356
  0
LWPOLYLINE
  5
22C
100
AcDbEntity
  8
0
100
AcDbPolyline
 62
7
  6
CONTINUOUS
 90
3
 70
0
 10
5.8623812718
 20
5.8676524356
 10
5.8623841858
 20
5.8676746376
 10
5.8623852305
 20
5.8676822694
  0
LINE
  5
22D
100
AcDbEntity
  8
0
100
AcDbLine
 62
7
  6
CONTINUOUS
 10
5.8623859565
 20
5.8676874282
 11
5.8623862551
 21
5.8676895002
  0
LINE
  5
22E
100
AcDbEntity
  8
0
100
AcDbLine
 62
7
  6
CONTINUOUS
 10
5.8617740067
 20
5.6355804966
 11
5.8616666392
 21
5.6404901522
  0
LINE
  5
22F
100
AcDbEntity
  8
0
100
AcDbLine
 62
7
  6
CONTINUOUS
 10
5.8616666392
 20
5.6404901522
 11
5.8615554016
 21
5.6465076973
  0
LINE
  5
230
100
AcDbEntity
  8
0
100
AcDbLine
 62
7
  6
CONTINUOUS
 10
5.8615554016
 20
5.6465076973
 11
5.8615112059
 21
5.649201585
  0
LINE
  5
231
100
AcDbEntity
  8
0
100
AcDbLine
 62
7
  6
CONTINUOUS
 10
5.7582768031
 20
5.4571120856
 11
5.7582768031
 21
6.0309176388
  0
LINE
  5
232
100
AcDbEntity
  8
0
100
AcDbLine
 62
7
  6
CONTINUOUS
 10
5.7664341526
 20
6.0091578397
 11
5.7664341526
 21
5.4790650105
  0
LINE
  5
233
100
AcDbEntity
  8
0
100
AcDbLine
 62
7
  6
CONTINUOUS
 10
5.8615112065
 20
5.839021266
 11
5.8616205853
 21
5.8453656387
  0
LINE
  5
234
100
AcDbEntity
  8
0
100
AcDbLine
 62
7
  6
CONTINUOUS
 10
5.8616205853
 20
5.8453656387
 11
5.8617311303
 21
5.8507791434
  0
LINE
  5
235
100
AcDbEntity
  8
0
100
AcDbLine
 62
7
  6
CONTINUOUS
 10
5.8617311303
 20
5.8507791434
 11
5.8618389488
 21
5.8552330379
  0
LINE
  5
236
100
AcDbEntity
  8
0
100
AcDbLine
 62
7
  6
CONTINUOUS
 10
5.8618389488
 20
5.8552330379
 11
5.8619357479
 21
5.8586127795
  0
LINE
  5
237
100
AcDbEntity
  8
0
100
AcDbLine
 62
7
  6
CONTINUOUS
 10
5.8619357479
 20
5.8586127795
 11
5.8620076261
 21
5.8607754207
  0
LINE
  5
238
100
AcDbEntity
  8
0
100
AcDbLine
 62
7
  6
CONTINUOUS
 10
5.8620076261
 20
5.8607754207
 11
5.8620700696
 21
5.8624266481
  0
LINE
  5
239
100
AcDbEntity
  8
0
100
AcDbLine
 62
7
  6
CONTINUOUS
 10
5.8620700696
 20
5.8624266481
 11
5.8621168897
 21
5.8635306823
  0
LINE
  5
23A
100
AcDbEntity
  8
0
100
AcDbLine
 62
7
  6
CONTINUOUS
 10
5.8621168897
 20
5.8635306823
 11
5.8621619258
 21
5.8644868787
  0
LINE
  5
23B
100
AcDbEntity
  8
0
100
AcDbLine
 62
7
  6
CONTINUOUS
 10
5.8621619258
 20
5.8644868787
 11
5.8621988955
 21
5.8651953935
  0
LINE
  5
23C
100
AcDbEntity
  8
0
100
AcDbLine
 62
7
  6
CONTINUOUS
 10
5.8621988955
 20
5.8651953935
 11
5.8622283796
 21
5.8657112744
  0
LINE
  5
23D
100
AcDbEntity
  8
0
100
AcDbLine
 62
7
  6
CONTINUOUS
 10
5.8622283796
 20
5.8657112744
 11
5.8622509842
 21
5.8660771459
  0
LINE
  5
23E
100
AcDbEntity
  8
0
100
AcDbLine
 62
7
  6
CONTINUOUS
 10
5.8622509842
 20
5.8660771459
 11
5.8622673
 21
5.8663251314
  0
LINE
  5
23F
100
AcDbEntity
  8
0
100
AcDbLine
 62
7
  6
CONTINUOUS
 10
5.8623682222
 20
5.6206807527
 11
5.8623625471
 21
5.6207330775
  0
LINE
  5
240
100
AcDbEntity
  8
0
100
AcDbLine
 62
7
  6
CONTINUOUS
 10
5.8623625471
 20
5.6207330775
 11
5.86235636
 21
5.6207927061
  0
LINE
  5
241
100
AcDbEntity
  8
0
100
AcDbLine
 62
7
  6
CONTINUOUS
 10
5.86235636
 20
5.6207927061
 11
5.8623462492
 21
5.6208955349
  0
LINE
  5
242
100
AcDbEntity
  8
0
100
AcDbLine
 62
7
  6
CONTINUOUS
 10
5.8623462492
 20
5.6208955349
 11
5.8623352887
 21
5.6210140836
  0
LINE
  5
243
100
AcDbEntity
  8
0
100
AcDbLine
 62
7
  6
CONTINUOUS
 10
5.8623352887
 20
5.6210140836
 11
5.8623236152
 21
5.6211480157
  0
LINE
  5
244
100
AcDbEntity
  8
0
100
AcDbLine
 62
7
  6
CONTINUOUS
 10
5.8623236152
 20
5.6211480157
 11
5.8623113403
 21
5.6212970466
  0
LINE
  5
245
100
AcDbEntity
  8
0
100
AcDbLine
 62
7
  6
CONTINUOUS
 10
5.8623113403
 20
5.6212970466
 11
5.862294194
 21
5.6215188374
  0
LINE
  5
246
100
AcDbEntity
  8
0
100
AcDbLine
 62
7
  6
CONTINUOUS
 10
5.862294194
 20
5.6215188374
 11
5.8622762989
 21
5.6217668056
  0
LINE
  5
247
100
AcDbEntity
  8
0
100
AcDbLine
 62
7
  6
CONTINUOUS
 10
5.8622762989
 20
5.6217668056
 11
5.8622530465
 21
5.622113649
  0
LINE
  5
248
100
AcDbEntity
  8
0
100
AcDbLine
 62
7
  6
CONTINUOUS
 10
5.8622530465
 20
5.622113649
 11
5.8622289657
 21
5.6225017923
  0
LINE
  5
249
100
AcDbEntity
  8
0
100
AcDbLine
 62
7
  6
CONTINUOUS
 10
5.8622289657
 20
5.6225017923
 11
5.8621991472
 21
5.623022885
  0
LINE
  5
24A
100
AcDbEntity
  8
0
100
AcDbLine
 62
7
  6
CONTINUOUS
 10
5.8621991472
 20
5.623022885
 11
5.8621632847
 21
5.6237087322
  0
LINE
  5
24B
100
AcDbEntity
  8
0
100
AcDbLine
 62
7
  6
CONTINUOUS
 10
5.8621632847
 20
5.6237087322
 11
5.8621211128
 21
5.6245981409
  0
LINE
  5
24C
100
AcDbEntity
  8
0
100
AcDbLine
 62
7
  6
CONTINUOUS
 10
5.8621211128
 20
5.6245981409
 11
5.8620724289
 21
5.6257378114
  0
LINE
  5
24D
100
AcDbEntity
  8
0
100
AcDbLine
 62
7
  6
CONTINUOUS
 10
5.8620724289
 20
5.6257378114
 11
5.8620112105
 21
5.6273468852
  0
LINE
  5
24E
100
AcDbEntity
  8
0
100
AcDbLine
 62
7
  6
CONTINUOUS
 10
5.8620112105
 20
5.6273468852
 11
5.8619359715
 21
5.6296028581
  0
LINE
  5
24F
100
AcDbEntity
  8
0
100
AcDbLine
 62
7
  6
CONTINUOUS
 10
5.8619359715
 20
5.6296028581
 11
5.8618445003
 21
5.6327809156
  0
LINE
  5
250
100
AcDbEntity
  8
0
100
AcDbLine
 62
7
  6
CONTINUOUS
 10
5.8618445003
 20
5.6327809156
 11
5.8617740067
 21
5.6355804966
  0
LINE
  5
251
100
AcDbEntity
  8
0
100
AcDbLine
 62
7
  6
CONTINUOUS
 10
5.8623828871
 20
5.6205579768
 11
5.8623796596
 21
5.6205831741
  0
LINE
  5
252
100
AcDbEntity
  8
0
100
AcDbLine
 62
7
  6
CONTINUOUS
 10
5.8623796596
 20
5.6205831741
 11
5.8623756123
 21
5.6206163704
  0
LWPOLYLINE
  5
253
100
AcDbEntity
  8
0
100
AcDbPolyline
 62
7
  6
CONTINUOUS
 90
3
 70
0
 10
5.8623756123
 20
5.6206163704
 10
5.8623708429
 20
5.6206574087
 10
5.8623682222
 20
5.6206807527
  0
LINE
  5
254
100
AcDbEntity
  8
0
100
AcDbLine
 62
7
  6
CONTINUOUS
 10
6.1570753788
 20
5.6670238921
 11
6.1570753788
 21
5.6842012786
  0
LINE
  5
255
100
AcDbEntity
  8
0
100
AcDbLine
 62
7
  6
CONTINUOUS
 10
6.1570753788
 20
5.8040215715
 11
6.1570753788
 21
5.8211989581
  0
LINE
  5
256
100
AcDbEntity
  8
0
100
AcDbLine
 62
7
  6
CONTINUOUS
 10
6.1591593407
 20
5.6728310168
 11
6.1591593407
 21
5.6899706155
  0
LINE
  5
257
100
AcDbEntity
  8
0
100
AcDbLine
 62
7
  6
CONTINUOUS
 10
6.1591593407
 20
5.7982522347
 11
6.1591593407
 21
5.8153918334
  0
LINE
  5
258
100
AcDbEntity
  8
0
100
AcDbLine
 62
7
  6
CONTINUOUS
 10
5.8623858102
 20
5.6205361939
 11
5.8623861441
 21
5.6205340583
  0
LINE
  5
259
100
AcDbEntity
  8
0
100
AcDbLine
 62
7
  6
CONTINUOUS
 10
5.8623863036
 20
5.6205330438
 11
5.862385882
 21
5.6205359689
  0
LINE
  5
25A
100
AcDbEntity
  8
0
100
AcDbLine
 62
7
  6
CONTINUOUS
 10
5.8623851599
 20
5.6205411116
 11
5.8623828871
 21
5.6205579768
  0
LINE
  5
25B
100
AcDbEntity
  8
0
100
AcDbLine
 62
7
  6
CONTINUOUS
 10
5.5325268031
 20
5.3906114251
 11
5.5158911308
 21
5.3906114251
  0
LWPOLYLINE
  5
25C
100
AcDbEntity
  8
0
100
AcDbPolyline
 62
7
  6
CONTINUOUS
 90
48
 70
0
 10
5.103941569
 20
5.4634260922
 10
5.1066916251
 20
5.4627351218
 10
5.1094663676
 20
5.4620506359
 10
5.1122658969
 20
5.4613732094
 10
5.1150927969
 20
5.4607028504
 10
5.1179470796
 20
5.4600400356
 10
5.1208287301
 20
5.4593849048
 10
5.1237402963
 20
5.4587369857
 10
5.1266817544
 20
5.4580963962
 10
5.1296530887
 20
5.4574632392
 10
5.1326568683
 20
5.4568370708
 10
5.1356934182
 20
5.4562179323
 10
5.1387623725
 20
5.4556059917
 10
5.1418652697
 20
5.4550010276
 10
5.1450024025
 20
5.4544030634
 10
5.1481734333
 20
5.4538122265
 10
5.1513789569
 20
5.4532284522
 10
5.1546189353
 20
5.4526517785
 10
5.1578933561
 20
5.4520822188
 10
5.1612028539
 20
5.4515196577
 10
5.1645474134
 20
5.4509640752
 10
5.1679269937
 20
5.45041544
 10
5.1713421909
 20
5.4498737082
 10
5.1747930025
 20
5.4493390142
 10
5.1782793718
 20
5.4488114929
 10
5.1818018143
 20
5.4482911838
 10
5.1853606694
 20
5.4477781479
 10
5.1889555387
 20
5.4472725413
 10
5.1925858345
 20
5.4467745285
 10
5.1962519204
 20
5.4462841275
 10
5.1999533755
 20
5.4458014497
 10
5.2036884388
 20
5.4453267558
 10
5.2074571144
 20
5.4448600547
 10
5.2112593436
 20
5.4444013495
 10
5.2150932755
 20
5.4439508366
 10
5.2189588995
 20
5.4435084682
 10
5.2228561794
 20
5.4430741647
 10
5.2267832335
 20
5.4426479931
 10
5.2307400609
 20
5.4422297826
 10
5.2347266368
 20
5.4418193483
 10
5.2387410503
 20
5.4414166746
 10
5.2427831953
 20
5.441021535
 10
5.2468531628
 20
5.4406336728
 10
5.2509493411
 20
5.4402530175
 10
5.2550694234
 20
5.4398795533
 10
5.2592157187
 20
5.439512828
 10
5.2633935431
 20
5.4391521385
 10
5.2718393853
 20
5.4384482886
  0
LINE
  5
25D
100
AcDbEntity
  8
0
100
AcDbLine
 62
7
  6
CONTINUOUS
 10
5.0993125753
 20
5.464617928
 11
5.103941569
 21
5.4634260922
  0
LWPOLYLINE
  5
25E
100
AcDbEntity
  8
0
100
AcDbPolyline
 62
7
  6
CONTINUOUS
 90
8
 70
0
 10
5.3379489944
 20
5.433987109
 10
5.3546848992
 20
5.4331312171
 10
5.3719507695
 20
5.4323523931
 10
5.3897391682
 20
5.4316535401
 10
5.4080517179
 20
5.4310372273
 10
5.426892384
 20
5.4305057424
 10
5.4462632353
 20
5.4300602431
 10
5.4625268031
 20
5.4297597948
  0
LINE
  5
25F
100
AcDbEntity
  8
0
100
AcDbLine
 62
7
  6
CONTINUOUS
 10
5.3379489944
 20
5.433987109
 11
5.3212150337
 21
5.4349484333
  0
LWPOLYLINE
  5
260
100
AcDbEntity
  8
0
100
AcDbPolyline
 62
7
  6
CONTINUOUS
 90
5
 70
0
 10
5.2982399073
 20
5.4364500626
 10
5.3028348995
 20
5.4361324687
 10
5.307494979
 20
5.4358192789
 10
5.3122196804
 20
5.4355108098
 10
5.3212150337
 20
5.4349484333
  0
LINE
  5
261
100
AcDbEntity
  8
0
100
AcDbLine
 62
7
  6
CONTINUOUS
 10
5.289235013
 20
5.4370980739
 11
5.2982399073
 21
5.4364500626
  0
LINE
  5
262
100
AcDbEntity
  8
0
100
AcDbLine
 62
7
  6
CONTINUOUS
 10
5.2804460732
 20
5.4377638176
 11
5.289235013
 21
5.4370980739
  0
LINE
  5
263
100
AcDbEntity
  8
0
100
AcDbLine
 62
7
  6
CONTINUOUS
 10
5.2718393853
 20
5.4384482886
 11
5.2804460732
 21
5.4377638176
  0
LINE
  5
264
100
AcDbEntity
  8
0
100
AcDbLine
 62
7
  6
CONTINUOUS
 10
5.8621736116
 20
5.6164586473
 11
5.8621433933
 21
5.6164586473
  0
LINE
  5
265
100
AcDbEntity
  8
0
100
AcDbLine
 62
7
  6
CONTINUOUS
 10
5.8616768812
 20
5.6399864251
 11
5.8682920464
 21
5.6399864251
  0
LINE
  5
266
100
AcDbEntity
  8
0
100
AcDbLine
 62
7
  6
CONTINUOUS
 10
5.4625268031
 20
5.7441114251
 11
5.1869018031
 21
5.7441114251
  0
LINE
  5
267
100
AcDbEntity
  8
0
100
AcDbLine
 62
7
  6
CONTINUOUS
 10
5.8616768751
 20
5.8482364251
 11
5.8682920464
 21
5.8482364251
  0
LINE
  5
268
100
AcDbEntity
  8
0
100
AcDbLine
 62
7
  6
CONTINUOUS
 10
5.8621433933
 20
5.8717642028
 11
5.8621736116
 21
5.8717642028
  0
LWPOLYLINE
  5
269
100
AcDbEntity
  8
0
100
AcDbPolyline
 62
7
  6
CONTINUOUS
 90
65
 70
0
 10
5.311591287
 20
6.0526725468
 10
5.3064539678
 20
6.0523352048
 10
5.3014068657
 20
6.0519932465
 10
5.2964323537
 20
6.0516458745
 10
5.2915309411
 20
6.051293466
 10
5.2867034335
 20
6.050936423
 10
5.281932541
 20
6.0505737585
 10
5.2772186808
 20
6.0502057428
 10
5.2725624987
 20
6.049832667
 10
5.2679469879
 20
6.0494533545
 10
5.2633704702
 20
6.0490676247
 10
5.2588349341
 20
6.0486753646
 10
5.2543287916
 20
6.0482752631
 10
5.2498475097
 20
6.0478665732
 10
5.2453956312
 20
6.0474493822
 10
5.2409751847
 20
6.0470235923
 10
5.2365855469
 20
6.0465888293
 10
5.2322273753
 20
6.0461448281
 10
5.2279046255
 20
6.0456917027
 10
5.2236173397
 20
6.0452292096
 10
5.2193655246
 20
6.0447571257
 10
5.2151530888
 20
6.0442757062
 10
5.2109800912
 20
6.0437848631
 10
5.2068465494
 20
6.0432845555
 10
5.2027563216
 20
6.0427752472
 10
5.1987095894
 20
6.0422569988
 10
5.1947062548
 20
6.0417298558
 10
5.1907497601
 20
6.0411943668
 10
5.1868415244
 20
6.0406508654
 10
5.1829802093
 20
6.0400993264
 10
5.1791651262
 20
6.039539819
 10
5.1753972037
 20
6.0389726657
 10
5.1716755926
 20
6.0383979422
 10
5.1679969421
 20
6.0378153255
 10
5.1643613169
 20
6.0372250123
 10
5.1607687306
 20
6.0366270956
 10
5.1572157587
 20
6.0360209693
 10
5.1537022346
 20
6.0354065673
 10
5.1502284006
 20
6.034783922
 10
5.1467914475
 20
6.034152529
 10
5.1433911956
 20
6.0335123589
 10
5.1400278978
 20
6.0328634867
 10
5.1366994007
 20
6.0322055331
 10
5.1334058409
 20
6.0315385684
 10
5.130147151
 20
6.0308626427
 10
5.1269208769
 20
6.0301773114
 10
5.1237270195
 20
6.029482639
 10
5.1205656442
 20
6.0287787221
 10
5.1174344033
 20
6.0280651189
 10
5.1143333499
 20
6.0273419204
 10
5.1112624855
 20
6.0266093307
 10
5.1082193522
 20
6.0258674334
 10
5.1052038484
 20
6.025116968
 10
5.1022159959
 20
6.0243586831
 10
5.0992535151
 20
6.023592707
 10
5.0963162965
 20
6.022819683
 10
5.0934043597
 20
6.0220402697
 10
5.090515622
 20
6.0212545324
 10
5.0876493059
 20
6.0204628485
 10
5.0848060906
 20
6.0196659794
 10
5.0819860767
 20
6.018864517
 10
5.0791887079
 20
6.0180588501
 10
5.0764144272
 20
6.0172496386
 10
5.0736648279
 20
6.0164378761
 10
5.0682393727
 20
6.014808684
  0
LINE
  5
26A
100
AcDbEntity
  8
0
100
AcDbLine
 62
7
  6
CONTINUOUS
 10
5.3217938645
 20
6.0533108436
 11
5.311591287
 21
6.0526725468
  0
LWPOLYLINE
  5
26B
100
AcDbEntity
  8
0
100
AcDbPolyline
 62
7
  6
CONTINUOUS
 90
9
 70
0
 10
5.4625268031
 20
6.058464345
 10
5.4441034489
 20
6.0581194348
 10
5.4249719831
 20
6.0576694929
 10
5.4063634009
 20
6.0571352439
 10
5.3882757803
 20
6.0565179472
 10
5.3707053272
 20
6.0558199524
 10
5.3536508547
 20
6.0550437869
 10
5.3371194366
 20
6.0541923869
 10
5.3217938645
 20
6.0533108436
  0
LINE
  5
26C
100
AcDbEntity
  8
0
100
AcDbLine
 62
7
  6
CONTINUOUS
 10
5.5325268031
 20
6.0976114251
 11
5.5158911308
 21
6.0976114251
  0
ARC
  5
26D
100
AcDbEntity
  8
0
100
AcDbCircle
 62
7
  6
CONTINUOUS
 10
4.8814602424
 20
2.8353539416
 40
0.2427347189
100
AcDbArc
 50
359.0614732513
 51
14.2432083741
  0
ARC
  5
26E
100
AcDbEntity
  8
0
100
AcDbCircle
 62
7
  6
CONTINUOUS
 10
4.9182522648
 20
2.8353684609
 40
0.2426427418
100
AcDbArc
 50
165.7546164645
 51
179.0749727983
  0
ARC
  5
26F
100
AcDbEntity
  8
0
100
AcDbCircle
 62
7
  6
CONTINUOUS
 10
4.9043552476
 20
2.7142179461
 40
0.2216466778
100
AcDbArc
 50
0.0027727138
 51
16.3739870266
  0
ARC
  5
270
100
AcDbEntity
  8
0
100
AcDbCircle
 62
7
  6
CONTINUOUS
 10
4.8954483485
 20
2.7142179471
 40
0.2216466676
100
AcDbArc
 50
163.6265487349
 51
179.9972275529
  0
ARC
  5
271
100
AcDbEntity
  8
0
100
AcDbCircle
 62
7
  6
CONTINUOUS
 10
4.8958945521
 20
2.8801629889
 40
0.2133441198
100
AcDbArc
 50
156.3365868669
 51
179.0599865633
  0
ARC
  5
272
100
AcDbEntity
  8
0
100
AcDbCircle
 62
7
  6
CONTINUOUS
 10
4.9039424868
 20
2.8801718161
 40
0.2133097694
100
AcDbArc
 50
359.0771376215
 51
23.6642598457
  0
ARC
  5
273
100
AcDbEntity
  8
0
100
AcDbCircle
 62
7
  6
CONTINUOUS
 10
4.8961837758
 20
5.7441114
 40
0.2031287995
100
AcDbArc
 50
0.019740031
 51
0.6776713153
  0
ARC
  5
274
100
AcDbEntity
  8
0
100
AcDbCircle
 62
7
  6
CONTINUOUS
 10
4.9036197639
 20
5.7441114006
 40
0.203128733
100
AcDbArc
 50
179.3223299574
 51
179.9869835304
  0
ARC
  5
275
100
AcDbEntity
  8
0
100
AcDbCircle
 62
7
  6
CONTINUOUS
 10
5.4800268031
 20
5.3976114251
 40
0.0175
100
AcDbArc
 50
180.0
 51
302.6368975036
  0
ARC
  5
276
100
AcDbEntity
  8
0
100
AcDbCircle
 62
7
  6
CONTINUOUS
 10
4.8999018031
 20
5.7441114251
 40
0.4463778222
100
AcDbArc
 50
42.5209842674
 51
243.4652861478
  0
ARC
  5
277
100
AcDbEntity
  8
0
100
AcDbCircle
 62
7
  6
CONTINUOUS
 10
4.8999018031
 20
5.7441114251
 40
0.4463778222
100
AcDbArc
 50
296.5347138521
 51
317.4786140169
  0
ARC
  5
278
100
AcDbEntity
  8
0
100
AcDbCircle
 62
7
  6
CONTINUOUS
 10
4.8999018031
 20
5.7441114251
 40
0.4445773285
100
AcDbArc
 50
296.6514250601
 51
317.3061444674
  0
ARC
  5
279
100
AcDbEntity
  8
0
100
AcDbCircle
 62
7
  6
CONTINUOUS
 10
4.8999018031
 20
5.7441114251
 40
0.4445773285
100
AcDbArc
 50
42.693214362
 51
243.3485749496
  0
ARC
  5
27A
100
AcDbEntity
  8
0
100
AcDbCircle
 62
7
  6
CONTINUOUS
 10
4.8999018031
 20
5.7441114251
 40
0.3890196355
100
AcDbArc
 50
48.6176448946
 51
239.1621766547
  0
ARC
  5
27B
100
AcDbEntity
  8
0
100
AcDbCircle
 62
7
  6
CONTINUOUS
 10
4.8999018031
 20
5.7441114251
 40
0.3890196355
100
AcDbArc
 50
300.8378233484
 51
311.3819972864
  0
ARC
  5
27C
100
AcDbEntity
  8
0
100
AcDbCircle
 62
7
  6
CONTINUOUS
 10
4.8999018031
 20
5.7441114251
 40
0.3880303608
100
AcDbArc
 50
300.9257984152
 51
311.2628359308
  0
ARC
  5
27D
100
AcDbEntity
  8
0
100
AcDbCircle
 62
7
  6
CONTINUOUS
 10
4.8999018031
 20
5.7441114251
 40
0.3880303608
100
AcDbArc
 50
48.7365817254
 51
239.0742015852
  0
ARC
  5
27E
100
AcDbEntity
  8
0
100
AcDbCircle
 62
7
  6
CONTINUOUS
 10
4.8999018031
 20
5.7441114251
 40
0.3747186365
100
AcDbArc
 50
302.153189496
 51
309.6404629129
  0
ARC
  5
27F
100
AcDbEntity
  8
0
100
AcDbCircle
 62
7
  6
CONTINUOUS
 10
4.8999018031
 20
5.7441114251
 40
0.3747186365
100
AcDbArc
 50
50.3589519773
 51
237.8468105143
  0
ARC
  5
280
100
AcDbEntity
  8
0
100
AcDbCircle
 62
7
  6
CONTINUOUS
 10
4.8999018031
 20
5.7441114251
 40
0.3594467237
100
AcDbArc
 50
303.6971492206
 51
307.6839706546
  0
ARC
  5
281
100
AcDbEntity
  8
0
100
AcDbCircle
 62
7
  6
CONTINUOUS
 10
4.8999018031
 20
5.7441114251
 40
0.3594467237
100
AcDbArc
 50
52.3160433036
 51
236.3028507097
  0
ARC
  5
282
100
AcDbEntity
  8
0
100
AcDbCircle
 62
7
  6
CONTINUOUS
 10
4.8999018031
 20
5.7441114251
 40
0.3559865485
100
AcDbArc
 50
304.0675001952
 51
307.2265492049
  0
ARC
  5
283
100
AcDbEntity
  8
0
100
AcDbCircle
 62
7
  6
CONTINUOUS
 10
4.8999018031
 20
5.7441114251
 40
0.3559865485
100
AcDbArc
 50
52.7732869959
 51
235.9325004737
  0
ARC
  5
284
100
AcDbEntity
  8
0
100
AcDbCircle
 62
7
  6
CONTINUOUS
 10
4.8999018031
 20
5.7441114251
 40
0.2884811029
100
AcDbArc
 50
63.4880978873
 51
226.2699066421
  0
ARC
  5
285
100
AcDbEntity
  8
0
100
AcDbCircle
 62
7
  6
CONTINUOUS
 10
4.8999018031
 20
5.7441114251
 40
0.287
100
AcDbArc
 50
314.0130400505
 51
225.9869599495
  0
ARC
  5
286
100
AcDbEntity
  8
0
100
AcDbCircle
 62
7
  6
CONTINUOUS
 10
4.8999018031
 20
5.7441114251
 40
0.2275
100
AcDbArc
 50
331.229629062
 51
208.770370938
  0
ARC
  5
287
100
AcDbEntity
  8
0
100
AcDbCircle
 62
7
  6
CONTINUOUS
 10
4.8999018031
 20
5.7441114251
 40
0.2068764778
100
AcDbArc
 50
344.5642929009
 51
195.4357070991
  0
ARC
  5
288
100
AcDbEntity
  8
0
100
AcDbCircle
 62
7
  6
CONTINUOUS
 10
5.4800268031
 20
6.0906114251
 40
0.0175
100
AcDbArc
 50
57.3631024964
 51
180.0
  0
ARC
  5
289
100
AcDbEntity
  8
0
100
AcDbCircle
 62
7
  6
CONTINUOUS
 10
5.715912367
 20
5.385815479
 40
0.049
100
AcDbArc
 50
75.9331661451
 51
117.1045955712
  0
ARC
  5
28A
100
AcDbEntity
  8
0
100
AcDbCircle
 62
7
  6
CONTINUOUS
 10
5.5158911308
 20
5.3416114251
 40
0.049
100
AcDbArc
 50
90.0
 51
122.6368975036
  0
ARC
  5
28B
100
AcDbEntity
  8
0
100
AcDbCircle
 62
7
  6
CONTINUOUS
 10
6.1274079868
 20
5.6776114251
 40
0.0315
100
AcDbArc
 50
289.3359782739
 51
340.3598180429
  0
ARC
  5
28C
100
AcDbEntity
  8
0
100
AcDbCircle
 62
7
  6
CONTINUOUS
 10
5.782645553
 20
5.460695457
 40
0.0245
100
AcDbArc
 50
131.4288753314
 51
174.0831356513
  0
ARC
  5
28D
100
AcDbEntity
  8
0
100
AcDbCircle
 62
7
  6
CONTINUOUS
 10
5.7337768031
 20
5.4571114251
 40
0.0245
100
AcDbArc
 50
255.9331661451
 51
360.0
  0
ARC
  5
28E
100
AcDbEntity
  8
0
100
AcDbCircle
 62
7
  6
CONTINUOUS
 10
5.855615086
 20
5.6189864265
 40
0.0070006045
100
AcDbArc
 50
338.8334547676
 51
15.8862805683
  0
ARC
  5
28F
100
AcDbEntity
  8
0
100
AcDbCircle
 62
7
  6
CONTINUOUS
 10
5.855645952
 20
5.6189864251
 40
0.007
100
AcDbArc
 50
338.8315511542
 51
17.2137115289
  0
ARC
  5
290
100
AcDbEntity
  8
0
100
AcDbCircle
 62
7
  6
CONTINUOUS
 10
5.5325268031
 20
5.7441114251
 40
0.3535
100
AcDbArc
 50
311.4288753314
 51
338.8315511542
  0
ARC
  5
291
100
AcDbEntity
  8
0
100
AcDbCircle
 62
7
  6
CONTINUOUS
 10
5.5325268031
 20
5.7441114251
 40
0.3535
100
AcDbArc
 50
21.1684488458
 51
48.5711246686
  0
ARC
  5
292
100
AcDbEntity
  8
0
100
AcDbCircle
 62
7
  6
CONTINUOUS
 10
5.5325268031
 20
5.7441114251
 40
0.3535
100
AcDbArc
 50
270.0
 51
297.1045955712
  0
ARC
  5
293
100
AcDbEntity
  8
0
100
AcDbCircle
 62
7
  6
CONTINUOUS
 10
5.5325268031
 20
5.7441114251
 40
0.3535
100
AcDbArc
 50
62.8954044288
 51
90.0
  0
ARC
  5
294
100
AcDbEntity
  8
0
100
AcDbCircle
 62
7
  6
CONTINUOUS
 10
5.9616268031
 20
5.7441114251
 40
0.21
100
AcDbArc
 50
340.1578181461
 51
19.8421818539
  0
CIRCLE
  5
295
100
AcDbEntity
  8
0
100
AcDbCircle
 62
7
  6
CONTINUOUS
 10
6.0001268031
 20
5.7441114251
 40
0.168
  0
CIRCLE
  5
296
100
AcDbEntity
  8
0
100
AcDbCircle
 62
7
  6
CONTINUOUS
 10
6.0001268031
 20
5.7441114251
 40
0.1570277461
  0
CIRCLE
  5
297
100
AcDbEntity
  8
0
100
AcDbCircle
 62
7
  6
CONTINUOUS
 10
6.0001268031
 20
5.7441114251
 40
0.147642917
  0
ARC
  5
298
100
AcDbEntity
  8
0
100
AcDbCircle
 62
7
  6
CONTINUOUS
 10
5.715912367
 20
6.1024073711
 40
0.049
100
AcDbArc
 50
242.8954044288
 51
284.0668338549
  0
ARC
  5
299
100
AcDbEntity
  8
0
100
AcDbCircle
 62
7
  6
CONTINUOUS
 10
5.5158911308
 20
6.1466114251
 40
0.049
100
AcDbArc
 50
237.3631024964
 51
270.0
  0
ARC
  5
29A
100
AcDbEntity
  8
0
100
AcDbCircle
 62
7
  6
CONTINUOUS
 10
6.1274079868
 20
5.8106114251
 40
0.0315
100
AcDbArc
 50
19.6401819571
 51
70.6640217155
  0
ARC
  5
29B
100
AcDbEntity
  8
0
100
AcDbCircle
 62
7
  6
CONTINUOUS
 10
5.782645553
 20
6.0275273931
 40
0.0245
100
AcDbArc
 50
185.9168643487
 51
228.5711246686
  0
ARC
  5
29C
100
AcDbEntity
  8
0
100
AcDbCircle
 62
7
  6
CONTINUOUS
 10
5.7337768031
 20
6.0311114251
 40
0.0245
100
AcDbArc
 50
0.0
 51
104.0668338549
  0
ARC
  5
29D
100
AcDbEntity
  8
0
100
AcDbCircle
 62
7
  6
CONTINUOUS
 10
5.855615086
 20
5.8692364237
 40
0.0070006045
100
AcDbArc
 50
344.113719449
 51
21.1665452323
  0
ARC
  5
29E
100
AcDbEntity
  8
0
100
AcDbCircle
 62
7
  6
CONTINUOUS
 10
5.855645952
 20
5.8692364251
 40
0.007
100
AcDbArc
 50
342.7865685391
 51
21.1684488458
  0
ARC
  5
29F
100
AcDbEntity
  8
0
100
AcDbCircle
 62
7
  6
CONTINUOUS
 10
7.8052651001
 20
5.0788271548
 40
1.7500013598
100
AcDbArc
 50
160.1578182568
 51
160.3598179824
  0
ARC
  5
2A0
100
AcDbEntity
  8
0
100
AcDbCircle
 62
7
  6
CONTINUOUS
 10
7.8052650992
 20
6.4093956961
 40
1.7500013592
100
AcDbArc
 50
199.6401820536
 51
199.8421817754
  0
SPLINE
  5
2A1
100
AcDbEntity
  8
0
100
AcDbSpline
 62
7
  6
CONTINUOUS
 70
0
 71
3
 72
33
 73
29
 74
0
 42
0.0000001
 43
0.0000001
 44
0.0000000001
 40
0.0
 40
0.0
 40
0.0
 40
0.0
 40
0.0628141774
 40
0.1256479333
 40
0.1884854045
 40
0.2512902239
 40
0.2826769398
 40
0.3140418534
 40
0.3453827334
 40
0.3766994598
 40
0.3923506765
 40
0.4079970773
 40
0.4392761192
 40
0.4705441093
 40
0.5018034105
 40
0.5330541544
 40
0.5642947996
 40
0.6267163366
 40
0.6890615463
 40
0.7202091718
 40
0.751333664
 40
0.7824374735
 40
0.7979844095
 40
0.8135284279
 40
0.8446092908
 40
0.8756889683
 40
0.9378379734
 40
1.0
 40
1.0
 40
1.0
 40
1.0
 10
4.8999018031
 20
2.688553912
 30
0.0
 10
4.8933811846
 20
2.688553912
 30
0.0
 10
4.8803291045
 20
2.6892089034
 30
0.0
 10
4.8609475689
 20
2.6920963419
 30
0.0
 10
4.8419327903
 20
2.6968287194
 30
0.0
 10
4.8265362331
 20
2.7022643848
 30
0.0
 10
4.8145858027
 20
2.7074772826
 30
0.0
 10
4.8058282518
 20
2.7118119459
 30
0.0
 10
4.7972988
 20
2.7165643417
 30
0.0
 10
4.790398053
 20
2.7208679479
 30
0.0
 10
4.7850150441
 20
2.7245120211
 30
0.0
 10
4.7797287305
 20
2.7282882904
 30
0.0
 10
4.7733041508
 20
2.7332554192
 30
0.0
 10
4.7659033797
 20
2.7395902627
 30
0.0
 10
4.7588258086
 20
2.7462799786
 30
0.0
 10
4.7520853805
 20
2.7533055046
 30
0.0
 10
4.7435702896
 20
2.7630904753
 30
0.0
 10
4.7338364401
 20
2.7760672175
 30
0.0
 10
4.7254084196
 20
2.7899168559
 30
0.0
 10
4.719511424
 20
2.8014358648
 30
0.0
 10
4.7155248718
 20
2.8102757745
 30
0.0
 10
4.7125770799
 20
2.8177960547
 30
0.0
 10
4.7104512309
 20
2.8238930051
 30
0.0
 10
4.7084829138
 20
2.8300400912
 30
0.0
 10
4.7063174385
 20
2.8378143877
 30
0.0
 10
4.7034832911
 20
2.8504082511
 30
0.0
 10
4.7011205687
 20
2.866392779
 30
0.0
 10
4.700491031
 20
2.8793055224
 30
0.0
 10
4.700491031
 20
2.8857584424
 30
0.0
  0
SPLINE
  5
2A2
100
AcDbEntity
  8
0
100
AcDbSpline
 62
7
  6
CONTINUOUS
 70
0
 71
3
 72
34
 73
30
 74
0
 42
0.0000001
 43
0.0000001
 44
0.0000000001
 40
0.0
 40
0.0
 40
0.0
 40
0.0
 40
0.031233849
 40
0.0624735075
 40
0.1249609138
 40
0.1874788176
 40
0.2500026551
 40
0.2812668373
 40
0.3125227659
 40
0.3437693535
 40
0.3750075368
 40
0.3906256998
 40
0.4062433352
 40
0.4374779623
 40
0.4687192107
 40
0.4999695127
 40
0.5312289357
 40
0.5624957459
 40
0.6250207875
 40
0.687534173
 40
0.7187882813
 40
0.7500330554
 40
0.7812699002
 40
0.7968877558
 40
0.8125054255
 40
0.8437410395
 40
0.8749839714
 40
0.9374785985
 40
1.0
 40
1.0
 40
1.0
 40
1.0
 10
4.8999018031
 20
5.9436114251
 30
0.0
 10
4.8966411608
 20
5.9436114251
 30
0.0
 10
4.8901179429
 20
5.9434458334
 30
0.0
 10
4.8771056411
 20
5.9424625983
 30
0.0
 10
4.8609480899
 20
5.9400279747
 30
0.0
 10
4.8419356007
 20
5.9352410232
 30
0.0
 10
4.8265424756
 20
5.9297436766
 30
0.0
 10
4.8145956498
 20
5.9244723919
 30
0.0
 10
4.8058389605
 20
5.9200883365
 30
0.0
 10
4.7973103099
 20
5.9152817937
 30
0.0
 10
4.7904110642
 20
5.9109297294
 30
0.0
 10
4.7850292191
 20
5.9072447259
 30
0.0
 10
4.7797425822
 20
5.9034250059
 30
0.0
 10
4.7733175961
 20
5.8984006288
 30
0.0
 10
4.7659173224
 20
5.8919936666
 30
0.0
 10
4.7588401413
 20
5.8852277828
 30
0.0
 10
4.7520999891
 20
5.8781222577
 30
0.0
 10
4.7435827663
 20
5.8682231353
 30
0.0
 10
4.7338469191
 20
5.8550949153
 30
0.0
 10
4.7254211479
 20
5.8410910222
 30
0.0
 10
4.7195247492
 20
5.8294434719
 30
0.0
 10
4.7155374148
 20
5.8205027596
 30
0.0
 10
4.7125890974
 20
5.8128974326
 30
0.0
 10
4.7104626277
 20
5.8067314257
 30
0.0
 10
4.7084932731
 20
5.8005136167
 30
0.0
 10
4.7063265306
 20
5.7926499967
 30
0.0
 10
4.7034901138
 20
5.7799109884
 30
0.0
 10
4.7011246798
 20
5.7637434408
 30
0.0
 10
4.7004925182
 20
5.7506844412
 30
0.0
 10
4.7004910362
 20
5.7441575502
 30
0.0
  0
SPLINE
  5
2A3
100
AcDbEntity
  8
0
100
AcDbSpline
 62
7
  6
CONTINUOUS
 70
0
 71
3
 72
69
 73
65
 74
0
 42
0.0000001
 43
0.0000001
 44
0.0000000001
 40
0.0
 40
0.0
 40
0.0
 40
0.0
 40
0.0155548877
 40
0.0311112855
 40
0.0466697275
 40
0.0622307856
 40
0.0777949942
 40
0.0933628636
 40
0.1089348713
 40
0.1245114583
 40
0.1400930254
 40
0.15567993
 40
0.171272482
 40
0.1868709419
 40
0.2024755187
 40
0.2180863666
 40
0.2337035853
 40
0.2493272187
 40
0.2649572533
 40
0.28059362
 40
0.2962361938
 40
0.3118847947
 40
0.3275391902
 40
0.3431990962
 40
0.3588641802
 40
0.3745340643
 40
0.3902083281
 40
0.4058865124
 40
0.4215681239
 40
0.4372526388
 40
0.4529395077
 40
0.4686281605
 40
0.5000000092
 40
0.5313718579
 40
0.5470605107
 40
0.5627473795
 40
0.5784318945
 40
0.5941135059
 40
0.6097916902
 40
0.625465954
 40
0.6411358379
 40
0.6568009219
 40
0.6724608279
 40
0.6881152231
 40
0.7037638242
 40
0.7194063978
 40
0.7350427644
 40
0.7506727991
 40
0.7662964322
 40
0.7819136509
 40
0.7975244989
 40
0.8131290753
 40
0.8287275353
 40
0.8443200874
 40
0.8599069917
 40
0.8754885588
 40
0.8910651458
 40
0.9066371533
 40
0.9222050228
 40
0.9377692313
 40
0.9533302898
 40
0.9688887302
 40
0.9844451339
 40
1.0
 40
1.0
 40
1.0
 40
1.0
 10
4.6830717913
 20
2.7755890302
 30
0.0
 10
4.6833069648
 20
2.7722292962
 30
0.0
 10
4.6839368205
 20
2.7655195702
 30
0.0
 10
4.6853576084
 20
2.7555113539
 30
0.0
 10
4.6872513574
 20
2.7455801673
 30
0.0
 10
4.6896138205
 20
2.7357482599
 30
0.0
 10
4.6924397437
 20
2.7260372684
 30
0.0
 10
4.6957228325
 20
2.716468657
 30
0.0
 10
4.6994557813
 20
2.7070635377
 30
0.0
 10
4.703630287
 20
2.6978426586
 30
0.0
 10
4.7082370701
 20
2.6888263471
 30
0.0
 10
4.7132658965
 20
2.6800344682
 30
0.0
 10
4.7187056023
 20
2.671486379
 30
0.0
 10
4.7245441202
 20
2.6632008869
 30
0.0
 10
4.7307685076
 20
2.6551962086
 30
0.0
 10
4.7373649771
 20
2.6474899298
 30
0.0
 10
4.7443189283
 20
2.6400989684
 30
0.0
 10
4.7516149817
 20
2.6330395374
 30
0.0
 10
4.7592370136
 20
2.6263271111
 30
0.0
 10
4.7671681928
 20
2.6199763919
 30
0.0
 10
4.7753910187
 20
2.6140012801
 30
0.0
 10
4.7838873602
 20
2.6084148442
 30
0.0
 10
4.7926384965
 20
2.6032292947
 30
0.0
 10
4.8016251579
 20
2.5984559581
 30
0.0
 10
4.810827569
 20
2.5941052544
 30
0.0
 10
4.8202254908
 20
2.5901866754
 30
0.0
 10
4.8297982674
 20
2.5867087659
 30
0.0
 10
4.8395248622
 20
2.583679106
 30
0.0
 10
4.8493839341
 20
2.581104296
 30
0.0
 10
4.8593537697
 20
2.5789899435
 30
0.0
 10
4.869412753
 20
2.5773406508
 30
0.0
 10
4.8829114711
 20
2.5757666266
 30
0.0
 10
4.8999013733
 20
2.574976971
 30
0.0
 10
4.9168912787
 20
2.5757665602
 30
0.0
 10
4.9303900029
 20
2.5773405316
 30
0.0
 10
4.9404489926
 20
2.5789897849
 30
0.0
 10
4.9504188365
 20
2.5811040984
 30
0.0
 10
4.9602779184
 20
2.5836788698
 30
0.0
 10
4.9700045251
 20
2.5867084916
 30
0.0
 10
4.9795773153
 20
2.5901863635
 30
0.0
 10
4.9889752525
 20
2.5941049055
 30
0.0
 10
4.9981776806
 20
2.598455573
 30
0.0
 10
5.0071643608
 20
2.6032288742
 30
0.0
 10
5.0159155175
 20
2.6084143893
 30
0.0
 10
5.024411881
 20
2.6140007915
 30
0.0
 10
5.0326347305
 20
2.6199758709
 30
0.0
 10
5.0405659348
 20
2.6263265586
 30
0.0
 10
5.0481879933
 20
2.6330389547
 30
0.0
 10
5.0554840746
 20
2.6400983566
 30
0.0
 10
5.0624380552
 20
2.6474892904
 30
0.0
 10
5.0690345554
 20
2.6551955428
 30
0.0
 10
5.0752589747
 20
2.6632001963
 30
0.0
 10
5.0810975256
 20
2.671485665
 30
0.0
 10
5.0865372657
 20
2.6800337324
 30
0.0
 10
5.0915661273
 20
2.6888255912
 30
0.0
 10
5.0961729465
 20
2.6978418841
 30
0.0
 10
5.1003474892
 20
2.7070627465
 30
0.0
 10
5.1040804758
 20
2.7164678507
 30
0.0
 10
5.1073636031
 20
2.7260364489
 30
0.0
 10
5.1101895654
 20
2.735747429
 30
0.0
 10
5.1125520679
 20
2.7455793266
 30
0.0
 10
5.1144458577
 20
2.7555105065
 30
0.0
 10
5.1158666846
 20
2.7655187136
 30
0.0
 10
5.1164965677
 20
2.7722284335
 30
0.0
 10
5.1167317547
 20
2.7755881619
 30
0.0
  0
SPLINE
  5
2A4
100
AcDbEntity
  8
0
100
AcDbSpline
 62
7
  6
CONTINUOUS
 70
0
 71
3
 72
63
 73
59
 74
0
 42
0.0000001
 43
0.0000001
 44
0.0000000001
 40
0.0
 40
0.0
 40
0.0
 40
0.0
 40
0.0297724172
 40
0.059571963
 40
0.0894327505
 40
0.1193899417
 40
0.1344199743
 40
0.1494882157
 40
0.1645996069
 40
0.1797592777
 40
0.1949725293
 40
0.2102446702
 40
0.2255811851
 40
0.2409875853
 40
0.2564692617
 40
0.2720315708
 40
0.2876795353
 40
0.3034177403
 40
0.319250223
 40
0.3351800237
 40
0.3512091538
 40
0.3673381279
 40
0.3835656403
 40
0.3998884665
 40
0.4163008466
 40
0.4327946531
 40
0.4493591163
 40
0.4659809951
 40
0.4826449174
 40
0.4993337609
 40
0.5160294069
 40
0.5327134353
 40
0.5493678995
 40
0.565976108
 40
0.5825231908
 40
0.5989965344
 40
0.615386089
 40
0.6316842874
 40
0.6478861684
 40
0.663988942
 40
0.6799918498
 40
0.6958958567
 40
0.7117031893
 40
0.7274172769
 40
0.7430422614
 40
0.7585828536
 40
0.774044246
 40
0.7894317283
 40
0.8047507806
 40
0.8200069296
 40
0.8352055562
 40
0.8503520316
 40
0.865451596
 40
0.8805093
 40
0.9105112254
 40
0.9404033517
 40
0.9702214482
 40
1.0
 40
1.0
 40
1.0
 40
1.0
 10
4.6756408961
 20
2.8392857061
 30
0.0
 10
4.6755248143
 20
2.8321469875
 30
0.0
 10
4.6759221741
 20
2.8178448501
 30
0.0
 10
4.6784071542
 20
2.7965157113
 30
0.0
 10
4.6827767964
 20
2.7754451467
 30
0.0
 10
4.6879791878
 20
2.7582391847
 30
0.0
 10
4.6930676922
 20
2.7447620108
 30
0.0
 10
4.6973535448
 20
2.7347992271
 30
0.0
 10
4.7021020886
 20
2.7250140944
 30
0.0
 10
4.7073110381
 20
2.7154263521
 30
0.0
 10
4.7129776031
 20
2.7060566081
 30
0.0
 10
4.7190985322
 20
2.6969259551
 30
0.0
 10
4.725669977
 20
2.6880561616
 30
0.0
 10
4.7326873852
 20
2.6794697009
 30
0.0
 10
4.7401453487
 20
2.6711898189
 30
0.0
 10
4.7480374083
 20
2.6632405929
 30
0.0
 10
4.7563558418
 20
2.6556469536
 30
0.0
 10
4.765091394
 20
2.6484346985
 30
0.0
 10
4.7742329514
 20
2.641630467
 30
0.0
 10
4.7837672117
 20
2.6352616402
 30
0.0
 10
4.7936782696
 20
2.6293562083
 30
0.0
 10
4.8039472122
 20
2.6239425089
 30
0.0
 10
4.8145517226
 20
2.6190488853
 30
0.0
 10
4.8254656707
 20
2.614703233
 30
0.0
 10
4.8366588611
 20
2.6109323772
 30
0.0
 10
4.8480968318
 20
2.6077613997
 30
0.0
 10
4.8597409314
 20
2.6052128336
 30
0.0
 10
4.871548566
 20
2.6033058668
 30
0.0
 10
4.8834737254
 20
2.6020554942
 30
0.0
 10
4.8954678001
 20
2.6014718883
 30
0.0
 10
4.9074805756
 20
2.6015599118
 30
0.0
 10
4.9194613976
 20
2.6023188109
 30
0.0
 10
4.9313603676
 20
2.6037423076
 30
0.0
 10
4.943129462
 20
2.6058189247
 30
0.0
 10
4.9547235069
 20
2.6085324689
 30
0.0
 10
4.9661009031
 20
2.6118628089
 30
0.0
 10
4.9772240694
 20
2.6157866689
 30
0.0
 10
4.9880596852
 20
2.6202784368
 30
0.0
 10
4.9985786329
 20
2.6253109321
 30
0.0
 10
5.008755825
 20
2.6308561
 30
0.0
 10
5.0185698667
 20
2.6368855594
 30
0.0
 10
5.0280026716
 20
2.6433710305
 30
0.0
 10
5.0370390649
 20
2.6502846704
 30
0.0
 10
5.0456663471
 20
2.6575992743
 30
0.0
 10
5.0538739317
 20
2.6652884225
 30
0.0
 10
5.0616529916
 20
2.6733265462
 30
0.0
 10
5.0689961551
 20
2.6816889362
 30
0.0
 10
5.0758972644
 20
2.6903517416
 30
0.0
 10
5.0823511467
 20
2.6992919241
 30
0.0
 10
5.0883534472
 20
2.7084871961
 30
0.0
 10
5.0939004924
 20
2.7179159949
 30
0.0
 10
5.0989891356
 20
2.7275572899
 30
0.0
 10
5.103616803
 20
2.7373909661
 30
0.0
 10
5.1091617764
 20
2.7507138401
 30
0.0
 10
5.1149387329
 20
2.767762016
 30
0.0
 10
5.1200026194
 20
2.7887001184
 30
0.0
 10
5.1231839592
 20
2.8099502515
 30
0.0
 10
5.1240466044
 20
2.8242378373
 30
0.0
 10
5.1241627101
 20
2.8313780268
 30
0.0
  0
SPLINE
  5
2A5
100
AcDbEntity
  8
0
100
AcDbSpline
 62
7
  6
CONTINUOUS
 70
0
 71
3
 72
71
 73
67
 74
0
 42
0.0000001
 43
0.0000001
 44
0.0000000001
 40
0.0
 40
0.0
 40
0.0
 40
0.0
 40
0.0155566335
 40
0.0311136701
 40
0.0466718372
 40
0.0622317298
 40
0.0777939938
 40
0.0933592267
 40
0.108928006
 40
0.1245008723
 40
0.140078328
 40
0.1556608307
 40
0.1712487899
 40
0.1868425627
 40
0.2024424496
 40
0.2180486932
 40
0.2336614742
 40
0.2492809105
 40
0.2649070564
 40
0.2805399007
 40
0.2961793685
 40
0.3118253208
 40
0.3274775557
 40
0.3431358115
 40
0.358799768
 40
0.3744690498
 40
0.390143231
 40
0.4058218375
 40
0.4215043531
 40
0.4371902239
 40
0.4528788632
 40
0.4685696581
 40
0.4842619746
 40
0.4999551642
 40
0.5156485698
 40
0.5313415323
 40
0.547033397
 40
0.5627235195
 40
0.5784112727
 40
0.5940960516
 40
0.6097772805
 40
0.625454418
 40
0.6411269615
 40
0.6567944535
 40
0.6724564846
 40
0.6881126983
 40
0.7037627944
 40
0.719406531
 40
0.7350437282
 40
0.750674269
 40
0.7662980999
 40
0.7819152329
 40
0.797525744
 40
0.8131297727
 40
0.8287275219
 40
0.8443192539
 40
0.8599052892
 40
0.8754860035
 40
0.8910618231
 40
0.906633222
 40
0.9222007156
 40
0.9377648596
 40
0.9533262336
 40
0.968885469
 40
0.9844431507
 40
1.0
 40
1.0
 40
1.0
 40
1.0
 10
4.6825799603
 20
2.8836630124
 30
0.0
 10
4.682522685
 20
2.8801407322
 30
0.0
 10
4.6825829334
 20
2.8730919863
 30
0.0
 10
4.6831975821
 20
2.8625370666
 30
0.0
 10
4.6843349768
 20
2.8520246114
 30
0.0
 10
4.6859923584
 20
2.841580381
 30
0.0
 10
4.688165677
 20
2.8312295482
 30
0.0
 10
4.6908496383
 20
2.8209971584
 30
0.0
 10
4.6940376999
 20
2.8109079336
 30
0.0
 10
4.6977220974
 20
2.8009862458
 30
0.0
 10
4.7018938609
 20
2.7912560481
 30
0.0
 10
4.7065428407
 20
2.7817408179
 30
0.0
 10
4.7116577333
 20
2.7724634992
 30
0.0
 10
4.717226111
 20
2.7634464471
 30
0.0
 10
4.7232344543
 20
2.7547113738
 30
0.0
 10
4.7296681868
 20
2.7462792969
 30
0.0
 10
4.7365117126
 20
2.7381704889
 30
0.0
 10
4.7437484557
 20
2.73040443
 30
0.0
 10
4.7513609019
 20
2.722999762
 30
0.0
 10
4.7593306429
 20
2.7159742452
 30
0.0
 10
4.7676384217
 20
2.7093447173
 30
0.0
 10
4.7762641805
 20
2.7031270547
 30
0.0
 10
4.7851871096
 20
2.6973361366
 30
0.0
 10
4.7943856979
 20
2.6919858108
 30
0.0
 10
4.8038377855
 20
2.687088863
 30
0.0
 10
4.8135206164
 20
2.682656988
 30
0.0
 10
4.8234108933
 20
2.6787007637
 30
0.0
 10
4.8334848326
 20
2.6752296276
 30
0.0
 10
4.8437182215
 20
2.6722518561
 30
0.0
 10
4.8540864742
 20
2.6697745462
 30
0.0
 10
4.8645646903
 20
2.6678036002
 30
0.0
 10
4.8751277129
 20
2.6663437123
 30
0.0
 10
4.8857501877
 20
2.6653983588
 30
0.0
 10
4.8964066215
 20
2.6649697906
 30
0.0
 10
4.9070714425
 20
2.6650590279
 30
0.0
 10
4.9177190589
 20
2.6656658582
 30
0.0
 10
4.9283239194
 20
2.6667888369
 30
0.0
 10
4.9388605719
 20
2.6684252901
 30
0.0
 10
4.9493037235
 20
2.670571321
 30
0.0
 10
4.959628299
 20
2.6732218175
 30
0.0
 10
4.9698094999
 20
2.6763704642
 30
0.0
 10
4.9798228625
 20
2.6800097557
 30
0.0
 10
4.9896443154
 20
2.6841310134
 30
0.0
 10
4.9992502363
 20
2.6887244042
 30
0.0
 10
5.0086175083
 20
2.6937789627
 30
0.0
 10
5.0177235746
 20
2.699282615
 30
0.0
 10
5.026546493
 20
2.705222206
 30
0.0
 10
5.0350649883
 20
2.7115835288
 30
0.0
 10
5.0432585043
 20
2.7183513567
 30
0.0
 10
5.0511072537
 20
2.7255094777
 30
0.0
 10
5.0585922666
 20
2.733040732
 30
0.0
 10
5.0656954378
 20
2.7409270505
 30
0.0
 10
5.0723995716
 20
2.7491494976
 30
0.0
 10
5.0786884252
 20
2.7576883148
 30
0.0
 10
5.0845467494
 20
2.7665229673
 30
0.0
 10
5.089960328
 20
2.7756321925
 30
0.0
 10
5.094916014
 20
2.7849940506
 30
0.0
 10
5.0994017636
 20
2.7945859775
 30
0.0
 10
5.1034066677
 20
2.8043848388
 30
0.0
 10
5.10692098
 20
2.8143669872
 30
0.0
 10
5.1099361443
 20
2.824508317
 30
0.0
 10
5.1124448134
 20
2.8347843338
 30
0.0
 10
5.1144408764
 20
2.8451701788
 30
0.0
 10
5.1159194611
 20
2.8556408256
 30
0.0
 10
5.1168769659
 20
2.866170618
 30
0.0
 10
5.1171663698
 20
2.873213873
 30
0.0
 10
5.117223646
 20
2.8767362021
 30
0.0
  0
SPLINE
  5
2A6
100
AcDbEntity
  8
0
100
AcDbSpline
 62
7
  6
CONTINUOUS
 70
0
 71
3
 72
23
 73
19
 74
0
 42
0.0000001
 43
0.0000001
 44
0.0000000001
 40
0.0
 40
0.0
 40
0.0
 40
0.0
 40
0.0623538491
 40
0.1247113496
 40
0.18707704
 40
0.2494544985
 40
0.311847491
 40
0.3742595494
 40
0.4366939791
 40
0.499153822
 40
0.5616418178
 40
0.6241603724
 40
0.6867115303
 40
0.7492969503
 40
0.8119178866
 40
0.8745751742
 40
0.9372692204
 40
1.0
 40
1.0
 40
1.0
 40
1.0
 10
4.5752768031
 20
2.6913267031
 30
0.0
 10
4.5752768031
 20
2.6971307559
 30
0.0
 10
4.5755953395
 20
2.7087417218
 30
0.0
 10
4.5770273475
 20
2.7261046774
 30
0.0
 10
4.5794093017
 20
2.743365745
 30
0.0
 10
4.5827342002
 20
2.760473438
 30
0.0
 10
4.5869922176
 20
2.7773775481
 30
0.0
 10
4.5921707798
 20
2.7940282658
 30
0.0
 10
4.5982546033
 20
2.8103765929
 30
0.0
 10
4.6052257438
 20
2.8263744095
 30
0.0
 10
4.6130636295
 20
2.8419746466
 30
0.0
 10
4.6217451393
 20
2.8571314155
 30
0.0
 10
4.6312446749
 20
2.8718001362
 30
0.0
 10
4.6415342459
 20
2.8859376842
 30
0.0
 10
4.6525834834
 20
2.8995024768
 30
0.0
 10
4.6643599703
 20
2.9124547689
 30
0.0
 10
4.6768285097
 20
2.9247560705
 30
0.0
 10
4.6855765025
 20
2.932497689
 30
0.0
 10
4.690052337
 20
2.9362476814
 30
0.0
  0
SPLINE
  5
2A7
100
AcDbEntity
  8
0
100
AcDbSpline
 62
7
  6
CONTINUOUS
 70
0
 71
3
 72
23
 73
19
 74
0
 42
0.0000001
 43
0.0000001
 44
0.0000000001
 40
0.0
 40
0.0
 40
0.0
 40
0.0
 40
0.0627307771
 40
0.1254248211
 40
0.1880821067
 40
0.2507030413
 40
0.31328846
 40
0.3758396171
 40
0.4383581712
 40
0.5008461669
 40
0.5633060101
 40
0.6257404405
 40
0.6881525
 40
0.7505454939
 40
0.812922954
 40
0.8752886462
 40
0.9376461488
 40
1.0
 40
1.0
 40
1.0
 40
1.0
 10
5.1097528702
 20
2.9362463401
 30
0.0
 10
5.1142286469
 20
2.932496347
 30
0.0
 10
5.1229765255
 20
2.924754732
 30
0.0
 10
5.135444899
 20
2.9124534499
 30
0.0
 10
5.1472212268
 20
2.8995011908
 30
0.0
 10
5.1582703125
 20
2.8859364442
 30
0.0
 10
5.1685597405
 20
2.8717989543
 30
0.0
 10
5.1780591423
 20
2.8571303031
 30
0.0
 10
5.1867405286
 20
2.8419736142
 30
0.0
 10
5.1945783016
 20
2.8263734668
 30
0.0
 10
5.2015493412
 20
2.8103757486
 30
0.0
 10
5.207633076
 20
2.7940275275
 30
0.0
 10
5.2128115621
 20
2.7773769225
 30
0.0
 10
5.2170695167
 20
2.7604729308
 30
0.0
 10
5.220394366
 20
2.7433653605
 30
0.0
 10
5.2227762848
 20
2.7261044193
 30
0.0
 10
5.2242082715
 20
2.7087415921
 30
0.0
 10
5.2245268031
 20
2.6971307127
 30
0.0
 10
5.2245268031
 20
2.6913267031
 30
0.0
  0
SPLINE
  5
2A8
100
AcDbEntity
  8
0
100
AcDbSpline
 62
7
  6
CONTINUOUS
 70
0
 71
3
 72
71
 73
67
 74
0
 42
0.0000001
 43
0.0000001
 44
0.0000000001
 40
0.0
 40
0.0
 40
0.0
 40
0.0
 40
0.0155375496
 40
0.03107587
 40
0.0466159319
 40
0.062158479
 40
0.0777043311
 40
0.0932542472
 40
0.1088089527
 40
0.1243691255
 40
0.1399353902
 40
0.1555083121
 40
0.1710883917
 40
0.1866760603
 40
0.2022716752
 40
0.2178755172
 40
0.2334877869
 40
0.2491086041
 40
0.2647380058
 40
0.2803759466
 40
0.2960222988
 40
0.3116768539
 40
0.327339325
 40
0.343009349
 40
0.358686491
 40
0.3743702479
 40
0.3900600536
 40
0.4057552843
 40
0.4214552645
 40
0.4371592736
 40
0.4528665526
 40
0.4685763118
 40
0.4842877376
 40
0.5000000006
 40
0.5157122636
 40
0.5314236894
 40
0.5471334485
 40
0.5628407276
 40
0.5785447366
 40
0.5942447168
 40
0.6099399474
 40
0.6256297531
 40
0.6413135099
 40
0.6569906519
 40
0.6726606759
 40
0.6883231469
 40
0.703977702
 40
0.7196240541
 40
0.7352619948
 40
0.7508913965
 40
0.7665122136
 40
0.7821244833
 40
0.7977283252
 40
0.8133239401
 40
0.8289116086
 40
0.8444916882
 40
0.86006461
 40
0.8756308746
 40
0.8911910474
 40
0.9067457529
 40
0.922295669
 40
0.9378415211
 40
0.9533840682
 40
0.96892413
 40
0.9844624504
 40
1.0
 40
1.0
 40
1.0
 40
1.0
 10
5.2245268031
 20
2.6906733279
 30
0.0
 10
5.2245268031
 20
2.6854217722
 30
0.0
 10
5.2242659517
 20
2.6749165316
 30
0.0
 10
5.2230930556
 20
2.6591982969
 30
0.0
 10
5.2211413958
 20
2.6435555531
 30
0.0
 10
5.2184156618
 20
2.6280264971
 30
0.0
 10
5.2149224476
 20
2.6126484461
 30
0.0
 10
5.2106701802
 20
2.5974585004
 30
0.0
 10
5.2056691243
 20
2.5824932654
 30
0.0
 10
5.1999313514
 20
2.5677888122
 30
0.0
 10
5.1934707113
 20
2.5533805759
 30
0.0
 10
5.1863027955
 20
2.5393032755
 30
0.0
 10
5.1784449
 20
2.5255908283
 30
0.0
 10
5.1699159826
 20
2.512276269
 30
0.0
 10
5.1607366164
 20
2.4993916701
 30
0.0
 10
5.1509289413
 20
2.4869680641
 30
0.0
 10
5.1405166113
 20
2.4750353676
 30
0.0
 10
5.1295247341
 20
2.4636223111
 30
0.0
 10
5.1179798106
 20
2.4527563706
 30
0.0
 10
5.1059096705
 20
2.4424637017
 30
0.0
 10
5.093343405
 20
2.4327690772
 30
0.0
 10
5.0803112968
 20
2.4236958284
 30
0.0
 10
5.0668447486
 20
2.4152657858
 30
0.0
 10
5.0529762058
 20
2.4074992298
 30
0.0
 10
5.0387390777
 20
2.400414843
 30
0.0
 10
5.0241676574
 20
2.3940296655
 30
0.0
 10
5.0092970394
 20
2.3883590546
 30
0.0
 10
4.9941630351
 20
2.3834166489
 30
0.0
 10
4.9788020879
 20
2.3792143336
 30
0.0
 10
4.9632511854
 20
2.3757622115
 30
0.0
 10
4.94754777
 20
2.3730685819
 30
0.0
 10
4.9317296491
 20
2.3711399208
 30
0.0
 10
4.9158349047
 20
2.3699808653
 30
0.0
 10
4.8999018025
 20
2.3695942031
 30
0.0
 10
4.8839687004
 20
2.3699808654
 30
0.0
 10
4.8680739561
 20
2.3711399209
 30
0.0
 10
4.8522558351
 20
2.373068582
 30
0.0
 10
4.8365524197
 20
2.3757622117
 30
0.0
 10
4.8210015173
 20
2.3792143339
 30
0.0
 10
4.8056405702
 20
2.3834166492
 30
0.0
 10
4.7905065659
 20
2.3883590549
 30
0.0
 10
4.7756359479
 20
2.3940296659
 30
0.0
 10
4.7610645277
 20
2.4004148434
 30
0.0
 10
4.7468273996
 20
2.4074992303
 30
0.0
 10
4.7329588569
 20
2.4152657862
 30
0.0
 10
4.7194923088
 20
2.4236958288
 30
0.0
 10
4.7064602006
 20
2.4327690777
 30
0.0
 10
4.6938939353
 20
2.4424637022
 30
0.0
 10
4.6818237952
 20
2.452756371
 30
0.0
 10
4.6702788717
 20
2.4636223115
 30
0.0
 10
4.6592869946
 20
2.475035368
 30
0.0
 10
4.6488746647
 20
2.4869680645
 30
0.0
 10
4.6390669896
 20
2.4993916704
 30
0.0
 10
4.6298876235
 20
2.5122762693
 30
0.0
 10
4.6213587061
 20
2.5255908286
 30
0.0
 10
4.6135008106
 20
2.5393032757
 30
0.0
 10
4.6063328949
 20
2.5533805761
 30
0.0
 10
4.5998722548
 20
2.5677888123
 30
0.0
 10
4.5941344819
 20
2.5824932656
 30
0.0
 10
4.5891334261
 20
2.5974585005
 30
0.0
 10
4.5848811586
 20
2.6126484461
 30
0.0
 10
4.5813879445
 20
2.6280264972
 30
0.0
 10
4.5786622105
 20
2.6435555532
 30
0.0
 10
4.5767105507
 20
2.6591982969
 30
0.0
 10
4.5755376546
 20
2.6749165316
 30
0.0
 10
4.5752768031
 20
2.6854217722
 30
0.0
 10
4.5752768031
 20
2.6906733279
 30
0.0
  0
SPLINE
  5
2A9
100
AcDbEntity
  8
0
100
AcDbSpline
 62
7
  6
CONTINUOUS
 70
0
 71
3
 72
71
 73
67
 74
0
 42
0.0000001
 43
0.0000001
 44
0.0000000001
 40
0.0
 40
0.0
 40
0.0
 40
0.0
 40
0.0155534059
 40
0.0311074535
 40
0.0466629154
 40
0.0622204037
 40
0.0777805908
 40
0.093344094
 40
0.1089115077
 40
0.124483386
 40
0.1400602407
 40
0.1556425353
 40
0.1712306813
 40
0.1868250334
 40
0.2024258865
 40
0.2180334732
 40
0.2336479611
 40
0.2492694508
 40
0.2648979764
 40
0.2805335034
 40
0.2961759302
 40
0.3118250891
 40
0.3274807468
 40
0.3431426082
 40
0.3588103181
 40
0.3744834651
 40
0.3901615855
 40
0.4058441678
 40
0.4215306574
 40
0.4372204624
 40
0.4529129586
 40
0.4686074963
 40
0.4843034061
 40
0.5000000051
 40
0.515696604
 40
0.5313925137
 40
0.5470870513
 40
0.5627795474
 40
0.5784693521
 40
0.5941558415
 40
0.6098384235
 40
0.6255165436
 40
0.6411896902
 40
0.6568573997
 40
0.6725192607
 40
0.6881749179
 40
0.7038240763
 40
0.7194665027
 40
0.7351020292
 40
0.7507305543
 40
0.7663520435
 40
0.7819665309
 40
0.7975741172
 40
0.8131749698
 40
0.8287693214
 40
0.8443574669
 40
0.8599397612
 40
0.8755166155
 40
0.8910884935
 40
0.9066559069
 40
0.9222194098
 40
0.9377795967
 40
0.9533370849
 40
0.9688925466
 40
0.9844465941
 40
1.0
 40
1.0
 40
1.0
 40
1.0
 10
5.1260018031
 20
2.7142286723
 30
0.0
 10
5.1260018031
 20
2.7105653021
 30
0.0
 10
5.1258199492
 20
2.7032371089
 30
0.0
 10
5.1250022667
 20
2.6922725196
 30
0.0
 10
5.1236416849
 20
2.6813607419
 30
0.0
 10
5.1217415046
 20
2.6705284978
 30
0.0
 10
5.1193063603
 20
2.6598018814
 30
0.0
 10
5.1163421742
 20
2.6492068321
 30
0.0
 10
5.11285616
 20
2.6387689344
 30
0.0
 10
5.1088567943
 20
2.6285133902
 30
0.0
 10
5.1043537987
 20
2.6184649474
 30
0.0
 10
5.0993581124
 20
2.6086478421
 30
0.0
 10
5.0938818649
 20
2.5990857388
 30
0.0
 10
5.0879383439
 20
2.5898016734
 30
0.0
 10
5.0815419617
 20
2.5808179978
 30
0.0
 10
5.0747082182
 20
2.5721563264
 30
0.0
 10
5.0674536615
 20
2.563837485
 30
0.0
 10
5.0597958465
 20
2.5558814611
 30
0.0
 10
5.0517532907
 20
2.5483073575
 30
0.0
 10
5.0433454285
 20
2.5411333474
 30
0.0
 10
5.0345925627
 20
2.5343766322
 30
0.0
 10
5.0255158153
 20
2.5280534023
 30
0.0
 10
5.016137075
 20
2.5221787997
 30
0.0
 10
5.0064789452
 20
2.5167668836
 30
0.0
 10
4.9965646884
 20
2.5118305982
 30
0.0
 10
4.9864181711
 20
2.5073817443
 30
0.0
 10
4.9760638064
 20
2.5034309517
 30
0.0
 10
4.965526496
 20
2.4999876561
 30
0.0
 10
4.9548315712
 20
2.497060078
 30
0.0
 10
4.944004733
 20
2.4946552043
 30
0.0
 10
4.9330719915
 20
2.4927787724
 30
0.0
 10
4.922059605
 20
2.4914352584
 30
0.0
 10
4.910994018
 20
2.4906278664
 30
0.0
 10
4.8999017996
 20
2.4903585217
 30
0.0
 10
4.8888095812
 20
2.4906278667
 30
0.0
 10
4.8777439942
 20
2.4914352591
 30
0.0
 10
4.8667316078
 20
2.4927787734
 30
0.0
 10
4.8557988665
 20
2.4946552056
 30
0.0
 10
4.8449720286
 20
2.4970600796
 30
0.0
 10
4.834277104
 20
2.499987658
 30
0.0
 10
4.8237397939
 20
2.5034309538
 30
0.0
 10
4.8133854295
 20
2.5073817466
 30
0.0
 10
4.8032389126
 20
2.5118306007
 30
0.0
 10
4.7933246561
 20
2.5167668862
 30
0.0
 10
4.7836665267
 20
2.5221788024
 30
0.0
 10
4.7742877869
 20
2.5280534051
 30
0.0
 10
4.7652110398
 20
2.534376635
 30
0.0
 10
4.7564581745
 20
2.5411333501
 30
0.0
 10
4.7480503126
 20
2.5483073602
 30
0.0
 10
4.7400077572
 20
2.5558814637
 30
0.0
 10
4.7323499425
 20
2.5638374874
 30
0.0
 10
4.7250953862
 20
2.5721563287
 30
0.0
 10
4.718261643
 20
2.5808179998
 30
0.0
 10
4.7118652611
 20
2.5898016752
 30
0.0
 10
4.7059217404
 20
2.5990857404
 30
0.0
 10
4.7004454931
 20
2.6086478435
 30
0.0
 10
4.695449807
 20
2.6184649486
 30
0.0
 10
4.6909468115
 20
2.6285133911
 30
0.0
 10
4.686947446
 20
2.6387689351
 30
0.0
 10
4.6834614318
 20
2.6492068327
 30
0.0
 10
4.6804972459
 20
2.6598018818
 30
0.0
 10
4.6780621016
 20
2.6705284981
 30
0.0
 10
4.6761619213
 20
2.681360742
 30
0.0
 10
4.6748013395
 20
2.6922725197
 30
0.0
 10
4.6739836571
 20
2.7032371089
 30
0.0
 10
4.6738018031
 20
2.7105653021
 30
0.0
 10
4.6738018031
 20
2.7142286723
 30
0.0
  0
SPLINE
  5
2AA
100
AcDbEntity
  8
0
100
AcDbSpline
 62
7
  6
CONTINUOUS
 70
0
 71
3
 72
27
 73
23
 74
0
 42
0.0000001
 43
0.0000001
 44
0.0000000001
 40
0.0
 40
0.0
 40
0.0
 40
0.0
 40
0.0623478497
 40
0.0935265445
 40
0.1247070218
 40
0.1870674783
 40
0.249440486
 40
0.2806365813
 40
0.3118372561
 40
0.3742468069
 40
0.4366798125
 40
0.4991392837
 40
0.5616278401
 40
0.6241476739
 40
0.6867005155
 40
0.7179933416
 40
0.7492948432
 40
0.8119169302
 40
0.8745742354
 40
0.9059196192
 40
0.9372736532
 40
1.0
 40
1.0
 40
1.0
 40
1.0
 10
5.2534018031
 20
2.6842109625
 30
0.0
 10
5.2534018031
 20
2.6912924883
 30
0.0
 10
5.2530756377
 20
2.7019190986
 30
0.0
 10
5.2519900607
 20
2.716043355
 30
0.0
 10
5.2504716977
 20
2.7301295627
 30
0.0
 10
5.2477642449
 20
2.7476421195
 30
0.0
 10
5.2439880976
 20
2.7649575715
 30
0.0
 10
5.2403350911
 20
2.7786521375
 30
0.0
 10
5.2362632649
 20
2.7922323569
 30
0.0
 10
5.2303947974
 20
2.8089688941
 30
0.0
 10
5.2221358268
 20
2.8285883129
 30
0.0
 10
5.2126894799
 20
2.8476748385
 30
0.0
 10
5.2020908929
 20
2.8661577491
 30
0.0
 10
5.1903796392
 20
2.8839687078
 30
0.0
 10
5.1797294486
 20
2.8981961401
 30
0.0
 10
5.1706998802
 20
2.9091764654
 30
0.0
 10
5.1613355351
 20
2.9198832223
 30
0.0
 10
5.1490212995
 20
2.9327310055
 30
0.0
 10
5.1359467552
 20
2.9448114249
 30
0.0
 10
5.1250594344
 20
2.9539900604
 30
0.0
 10
5.1138934348
 20
2.9628394827
 30
0.0
 10
5.1052192534
 20
2.9690946519
 30
0.0
 10
5.0993172686
 20
2.9730853038
 30
0.0
  0
SPLINE
  5
2AB
100
AcDbEntity
  8
0
100
AcDbSpline
 62
7
  6
CONTINUOUS
 70
0
 71
3
 72
27
 73
23
 74
0
 42
0.0000001
 43
0.0000001
 44
0.0000000001
 40
0.0
 40
0.0
 40
0.0
 40
0.0
 40
0.0627263464
 40
0.0940803803
 40
0.1254257639
 40
0.1880830687
 40
0.2507051552
 40
0.2820066566
 40
0.3132994825
 40
0.3758523237
 40
0.4383721572
 40
0.5008607134
 40
0.5633201844
 40
0.62575319
 40
0.6881627408
 40
0.7193634158
 40
0.7505595112
 40
0.8129325193
 40
0.8752929765
 40
0.9064734541
 40
0.9376521493
 40
1.0
 40
1.0
 40
1.0
 40
1.0
 10
4.7004863703
 20
2.9730853258
 30
0.0
 10
4.6945843844
 20
2.9690946741
 30
0.0
 10
4.6859102013
 20
2.9628395052
 30
0.0
 10
4.6747441995
 20
2.953990083
 30
0.0
 10
4.6638568767
 20
2.9448114477
 30
0.0
 10
4.6507823297
 20
2.9327310282
 30
0.0
 10
4.6384680917
 20
2.9198832447
 30
0.0
 10
4.6291037447
 20
2.9091764874
 30
0.0
 10
4.6200741744
 20
2.8981961616
 30
0.0
 10
4.6094239816
 20
2.8839687286
 30
0.0
 10
4.5977127254
 20
2.8661577687
 30
0.0
 10
4.587114136
 20
2.8476748567
 30
0.0
 10
4.577667787
 20
2.8285883294
 30
0.0
 10
4.5694088145
 20
2.8089689089
 30
0.0
 10
4.5635403456
 20
2.79223237
 30
0.0
 10
4.5594685184
 20
2.778652149
 30
0.0
 10
4.555815511
 20
2.7649575815
 30
0.0
 10
4.5520393628
 20
2.7476421275
 30
0.0
 10
4.5493319093
 20
2.7301295686
 30
0.0
 10
4.547813546
 20
2.7160433591
 30
0.0
 10
4.5467279687
 20
2.7019191009
 30
0.0
 10
4.5464018031
 20
2.6912924893
 30
0.0
 10
4.5464018031
 20
2.6842109625
 30
0.0
  0
SPLINE
  5
2AC
100
AcDbEntity
  8
0
100
AcDbSpline
 62
7
  6
CONTINUOUS
 70
0
 71
3
 72
71
 73
67
 74
0
 42
0.0000001
 43
0.0000001
 44
0.0000000001
 40
0.0
 40
0.0
 40
0.0
 40
0.0
 40
0.0155526976
 40
0.0311060168
 40
0.0466607809
 40
0.0622175914
 40
0.0777771266
 40
0.093340013
 40
0.1089068493
 40
0.1244781957
 40
0.1400545692
 40
0.1556364378
 40
0.171224217
 40
0.1868182651
 40
0.2024188799
 40
0.218026296
 40
0.2336406825
 40
0.2492621412
 40
0.2648907061
 40
0.2805263424
 40
0.2961689472
 40
0.3118183509
 40
0.3274743179
 40
0.3431365501
 40
0.3588046885
 40
0.3744783176
 40
0.3901569692
 40
0.4058401263
 40
0.4215272291
 40
0.4372176798
 40
0.4529108481
 40
0.4686060778
 40
0.4843026929
 40
0.500000004
 40
0.5156973151
 40
0.5313939301
 40
0.5470891597
 40
0.5627823279
 40
0.5784727784
 40
0.594159881
 40
0.6098430379
 40
0.6255216892
 40
0.641195318
 40
0.6568634561
 40
0.672525688
 40
0.6881816546
 40
0.703831058
 40
0.7194736624
 40
0.7351092982
 40
0.7507378628
 40
0.7663593211
 40
0.7819737072
 40
0.797581123
 40
0.8131817373
 40
0.8287757851
 40
0.844363564
 40
0.8599454323
 40
0.8755218055
 40
0.8910931517
 40
0.9066599877
 40
0.9222228738
 40
0.9377824089
 40
0.9533392193
 40
0.9688939832
 40
0.9844473024
 40
1.0
 40
1.0
 40
1.0
 40
1.0
 10
4.5464018031
 20
2.6842109625
 30
0.0
 10
4.5464018031
 20
2.6784838086
 30
0.0
 10
4.546686114
 20
2.6670272367
 30
0.0
 10
4.5479644859
 20
2.6498856802
 30
0.0
 10
4.5500916255
 20
2.6328266804
 30
0.0
 10
4.5530623789
 20
2.6158919997
 30
0.0
 10
4.556869503
 20
2.5991224335
 30
0.0
 10
4.5615037425
 20
2.5825585305
 30
0.0
 10
4.5669538264
 20
2.5662402854
 30
0.0
 10
4.5732065027
 20
2.5502070944
 30
0.0
 10
4.5802465769
 20
2.5344976451
 30
0.0
 10
4.5880569507
 20
2.5191498256
 30
0.0
 10
4.5966186665
 20
2.504200632
 30
0.0
 10
4.6059109567
 20
2.4896860791
 30
0.0
 10
4.6159112938
 20
2.4756411128
 30
0.0
 10
4.6265954474
 20
2.4620995249
 30
0.0
 10
4.6379375493
 20
2.4490938753
 30
0.0
 10
4.6499101577
 20
2.4366554155
 30
0.0
 10
4.6624843258
 20
2.4248140145
 30
0.0
 10
4.6756296737
 20
2.41359809
 30
0.0
 10
4.6893144607
 20
2.4030345393
 30
0.0
 10
4.7035056643
 20
2.3931486777
 30
0.0
 10
4.7181690629
 20
2.3839641827
 30
0.0
 10
4.7332693179
 20
2.37550304
 30
0.0
 10
4.7487700589
 20
2.3677854931
 30
0.0
 10
4.7646339713
 20
2.3608299985
 30
0.0
 10
4.7808228831
 20
2.354653179
 30
0.0
 10
4.797297858
 20
2.3492697894
 30
0.0
 10
4.8140192877
 20
2.3446926855
 30
0.0
 10
4.8309469857
 20
2.3409327944
 30
0.0
 10
4.8480402817
 20
2.3379990906
 30
0.0
 10
4.8652581172
 20
2.3358985767
 30
0.0
 10
4.8825591409
 20
2.3346362619
 30
0.0
 10
4.8999018075
 20
2.3342151558
 30
0.0
 10
4.9172444741
 20
2.3346362623
 30
0.0
 10
4.9345454978
 20
2.3358985776
 30
0.0
 10
4.9517633331
 20
2.3379990919
 30
0.0
 10
4.9688566289
 20
2.340932796
 30
0.0
 10
4.9857843266
 20
2.3446926875
 30
0.0
 10
5.002505756
 20
2.3492697918
 30
0.0
 10
5.0189807305
 20
2.3546531816
 30
0.0
 10
5.0351696419
 20
2.3608300014
 30
0.0
 10
5.0510335539
 20
2.3677854962
 30
0.0
 10
5.0665342945
 20
2.3755030432
 30
0.0
 10
5.0816345489
 20
2.383964186
 30
0.0
 10
5.096297947
 20
2.393148681
 30
0.0
 10
5.1104891502
 20
2.4030345427
 30
0.0
 10
5.1241739367
 20
2.4135980933
 30
0.0
 10
5.1373192841
 20
2.4248140177
 30
0.0
 10
5.1498934517
 20
2.4366554186
 30
0.0
 10
5.1618660597
 20
2.4490938783
 30
0.0
 10
5.1732081612
 20
2.4620995276
 30
0.0
 10
5.1838923144
 20
2.4756411154
 30
0.0
 10
5.1938926511
 20
2.4896860814
 30
0.0
 10
5.203184941
 20
2.504200634
 30
0.0
 10
5.2117466565
 20
2.5191498274
 30
0.0
 10
5.2195570301
 20
2.5344976466
 30
0.0
 10
5.2265971041
 20
2.5502070956
 30
0.0
 10
5.2328497803
 20
2.5662402863
 30
0.0
 10
5.238299864
 20
2.5825585313
 30
0.0
 10
5.2429341035
 20
2.5991224341
 30
0.0
 10
5.2467412275
 20
2.6158920001
 30
0.0
 10
5.2497119808
 20
2.6328266806
 30
0.0
 10
5.2518391204
 20
2.6498856803
 30
0.0
 10
5.2531174923
 20
2.6670272367
 30
0.0
 10
5.2534018031
 20
2.6784838086
 30
0.0
 10
5.2534018031
 20
2.6842109625
 30
0.0
  0
SPLINE
  5
2AD
100
AcDbEntity
  8
0
100
AcDbSpline
 62
7
  6
CONTINUOUS
 70
0
 71
3
 72
33
 73
29
 74
0
 42
0.0000001
 43
0.0000001
 44
0.0000000001
 40
0.0
 40
0.0
 40
0.0
 40
0.0
 40
0.0621620266
 40
0.1243110317
 40
0.1553907092
 40
0.1864715721
 40
0.2020155905
 40
0.2175625265
 40
0.248666336
 40
0.2797908282
 40
0.3109384537
 40
0.3732836634
 40
0.4357052004
 40
0.4669458456
 40
0.4981965895
 40
0.5294558907
 40
0.5607238808
 40
0.5920029227
 40
0.6076493235
 40
0.6233005402
 40
0.6546172666
 40
0.6859581466
 40
0.7173230602
 40
0.7487097761
 40
0.8115145955
 40
0.8743520667
 40
0.9371858226
 40
1.0
 40
1.0
 40
1.0
 40
1.0
 10
5.0993125753
 20
2.8857584424
 30
0.0
 10
5.0993125753
 20
2.8793055224
 30
0.0
 10
5.0986830375
 20
2.866392779
 30
0.0
 10
5.0963203151
 20
2.8504082511
 30
0.0
 10
5.0934861677
 20
2.8378143877
 30
0.0
 10
5.0913206925
 20
2.8300400912
 30
0.0
 10
5.0893523753
 20
2.8238930051
 30
0.0
 10
5.0872265264
 20
2.8177960547
 30
0.0
 10
5.0842787345
 20
2.8102757745
 30
0.0
 10
5.0802921822
 20
2.8014358648
 30
0.0
 10
5.0743951867
 20
2.7899168559
 30
0.0
 10
5.0659671662
 20
2.7760672175
 30
0.0
 10
5.0562333166
 20
2.7630904753
 30
0.0
 10
5.0477182258
 20
2.7533055046
 30
0.0
 10
5.0409777977
 20
2.7462799786
 30
0.0
 10
5.0339002266
 20
2.7395902627
 30
0.0
 10
5.0264994555
 20
2.7332554192
 30
0.0
 10
5.0200748757
 20
2.7282882904
 30
0.0
 10
5.0147885622
 20
2.7245120211
 30
0.0
 10
5.0094055533
 20
2.7208679479
 30
0.0
 10
5.0025048063
 20
2.7165643417
 30
0.0
 10
4.9939753545
 20
2.7118119459
 30
0.0
 10
4.9852178036
 20
2.7074772826
 30
0.0
 10
4.9732673732
 20
2.7022643848
 30
0.0
 10
4.957870816
 20
2.6968287194
 30
0.0
 10
4.9388560374
 20
2.6920963419
 30
0.0
 10
4.9194745018
 20
2.6892089034
 30
0.0
 10
4.9064224216
 20
2.688553912
 30
0.0
 10
4.8999018031
 20
2.688553912
 30
0.0
  0
SPLINE
  5
2AE
100
AcDbEntity
  8
0
100
AcDbSpline
 62
7
  6
CONTINUOUS
 70
0
 71
3
 72
34
 73
30
 74
0
 42
0.0000001
 43
0.0000001
 44
0.0000000001
 40
0.0
 40
0.0
 40
0.0
 40
0.0
 40
0.0625213885
 40
0.1250159808
 40
0.1562588954
 40
0.1874944992
 40
0.2031121681
 40
0.2187300264
 40
0.2499668838
 40
0.2812116749
 40
0.3124657999
 40
0.3749792102
 40
0.4375042542
 40
0.4687710572
 40
0.5000304703
 40
0.5312807621
 40
0.5625220021
 40
0.5937566255
 40
0.6093742613
 40
0.6249924262
 40
0.6562306166
 40
0.6874772124
 40
0.7187331485
 40
0.7499973361
 40
0.8125211807
 40
0.8750390853
 40
0.9375264919
 40
0.9687661503
 40
1.0
 40
1.0
 40
1.0
 40
1.0
 10
5.0993125632
 20
5.7441814041
 30
0.0
 10
5.0993103151
 20
5.7507077967
 30
0.0
 10
5.0986767165
 20
5.7637657221
 30
0.0
 10
5.0963097248
 20
5.7799317747
 30
0.0
 10
5.0934722056
 20
5.7926695127
 30
0.0
 10
5.0913048348
 20
5.800532312
 30
0.0
 10
5.089335012
 20
5.806749451
 30
0.0
 10
5.0872081052
 20
5.8129147834
 30
0.0
 10
5.084259303
 20
5.8205192593
 30
0.0
 10
5.080271481
 20
5.8294589428
 30
0.0
 10
5.0743745535
 20
5.8411051175
 30
0.0
 10
5.0659483418
 20
5.8551072936
 30
0.0
 10
5.056212323
 20
5.8682338351
 30
0.0
 10
5.0476951119
 20
5.8781316535
 30
0.0
 10
5.0409550408
 20
5.8852362233
 30
0.0
 10
5.0338780091
 20
5.89200118
 30
0.0
 10
5.0264779501
 20
5.8984072474
 30
0.0
 10
5.0200531949
 20
5.9034309093
 30
0.0
 10
5.0147667723
 20
5.9072500779
 30
0.0
 10
5.0093851633
 20
5.9109345489
 30
0.0
 10
5.002486252
 20
5.9152859816
 30
0.0
 10
4.9939580599
 20
5.9200918237
 30
0.0
 10
4.985201881
 20
5.9244752371
 30
0.0
 10
4.973255798
 20
5.9297457465
 30
0.0
 10
4.9578637062
 20
5.9352422788
 30
0.0
 10
4.9388525796
 20
5.9400285157
 30
0.0
 10
4.9226962351
 20
5.9424627724
 30
0.0
 10
4.9096849186
 20
5.9434458586
 30
0.0
 10
4.9031621974
 20
5.9436114251
 30
0.0
 10
4.8999018031
 20
5.9436114251
 30
0.0
  0
SPLINE
  5
2AF
100
AcDbEntity
  8
0
100
AcDbSpline
 62
7
  6
CONTINUOUS
 70
0
 71
3
 72
33
 73
29
 74
0
 42
0.0000001
 43
0.0000001
 44
0.0000000001
 40
0.0
 40
0.0
 40
0.0
 40
0.0
 40
0.0314229286
 40
0.06284436
 40
0.0942626745
 40
0.1256764296
 40
0.1884678368
 40
0.2512240453
 40
0.2825941092
 40
0.3139517972
 40
0.3452961188
 40
0.3766261972
 40
0.407941277
 40
0.4392407305
 40
0.5017741752
 40
0.5642409453
 40
0.5954576588
 40
0.6266578985
 40
0.6578420229
 40
0.6890105296
 40
0.7201640512
 40
0.7513033503
 40
0.813525943
 40
0.8757036948
 40
0.9067873544
 40
0.9378636602
 40
0.9689340466
 40
1.0
 40
1.0
 40
1.0
 40
1.0
 10
4.8999018031
 20
2.5237193602
 30
0.0
 10
4.9029910983
 20
2.5237193602
 30
0.0
 10
4.909170487
 20
2.5238610229
 30
0.0
 10
4.9184189099
 20
2.5244980283
 30
0.0
 10
4.927627898
 20
2.5255582428
 30
0.0
 10
4.9398232278
 20
2.5275323187
 30
0.0
 10
4.954873312
 20
2.5310447156
 30
0.0
 10
4.9695336176
 20
2.535921839
 30
0.0
 10
4.9809467496
 20
2.5406149891
 30
0.0
 10
4.9893326285
 20
2.5445234015
 30
0.0
 10
4.9975260317
 20
2.5488118788
 30
0.0
 10
5.0055095155
 20
2.5534712222
 30
0.0
 10
5.0132660276
 20
2.5584915566
 30
0.0
 10
5.0232783805
 20
2.5656486657
 30
0.0
 10
5.0351483977
 20
2.5754438916
 30
0.0
 10
5.0460550705
 20
2.5862901674
 30
0.0
 10
5.0541396455
 20
2.5955353446
 30
0.0
 10
5.0598710931
 20
2.6027391926
 30
0.0
 10
5.0652583861
 20
2.61019786
 30
0.0
 10
5.0702900875
 20
2.617895405
 30
0.0
 10
5.0749554131
 20
2.6258154568
 30
0.0
 10
5.0806715775
 20
2.6366446488
 30
0.0
 10
5.0868556278
 20
2.6506560022
 30
0.0
 10
5.0917012658
 20
2.6651789366
 30
0.0
 10
5.0947475652
 20
2.6770211826
 30
0.0
 10
5.0966134781
 20
2.6859986656
 30
0.0
 10
5.0980562358
 20
2.695051629
 30
0.0
 10
5.0987340613
 20
2.7011254184
 30
0.0
 10
5.0990015158
 20
2.7041678852
 30
0.0
  0
SPLINE
  5
2B0
100
AcDbEntity
  8
0
100
AcDbSpline
 62
7
  6
CONTINUOUS
 70
0
 71
3
 72
65
 73
61
 74
0
 42
0.0000001
 43
0.0000001
 44
0.0000000001
 40
0.0
 40
0.0
 40
0.0
 40
0.0
 40
0.0155329438
 40
0.0310677272
 40
0.0466051309
 40
0.0621459119
 40
0.0932316546
 40
0.1243391236
 40
0.139906856
 40
0.1554816508
 40
0.1710639281
 40
0.1866540407
 40
0.2022522713
 40
0.2178588299
 40
0.2334738523
 40
0.2490973986
 40
0.2647294532
 40
0.2803699247
 40
0.296018647
 40
0.3116753812
 40
0.3273398172
 40
0.3430115769
 40
0.3586902178
 40
0.3743752367
 40
0.3900660742
 40
0.4057621198
 40
0.4214627174
 40
0.4371671708
 40
0.4528747502
 40
0.4685846983
 40
0.5000000291
 40
0.5314153595
 40
0.5471253069
 40
0.5628328854
 40
0.5785373377
 40
0.5942379339
 40
0.6099339779
 40
0.6256248136
 40
0.6413098305
 40
0.6569884693
 40
0.6726602268
 40
0.6883246603
 40
0.7039813919
 40
0.7196301117
 40
0.7352705804
 40
0.7509026322
 40
0.7665261758
 40
0.7821411954
 40
0.7977477514
 40
0.8133459793
 40
0.8289360893
 40
0.8445183641
 40
0.8600931566
 40
0.8756608868
 40
0.9067683519
 40
0.9378540914
 40
0.9533948713
 40
0.968932274
 40
0.9844670567
 40
1.0
 40
1.0
 40
1.0
 40
1.0
 10
4.6986757528
 20
2.7091377083
 30
0.0
 10
4.6988687762
 20
2.7060094086
 30
0.0
 10
4.6994042895
 20
2.6997606188
 30
0.0
 10
4.7006537614
 20
2.6904365941
 30
0.0
 10
4.7023468474
 20
2.6811808011
 30
0.0
 10
4.7051902829
 20
2.6689597925
 30
0.0
 10
4.7098345182
 20
2.6539513838
 30
0.0
 10
4.7158873526
 20
2.6394478551
 30
0.0
 10
4.7215400199
 20
2.6282263895
 30
0.0
 10
4.7261782659
 20
2.6200137924
 30
0.0
 10
4.7312031357
 20
2.612026796
 30
0.0
 10
4.736603528
 20
2.6042829368
 30
0.0
 10
4.7423673956
 20
2.5967995157
 30
0.0
 10
4.7484819118
 20
2.5895931717
 30
0.0
 10
4.7549334619
 20
2.5826799482
 30
0.0
 10
4.7617076831
 20
2.5760752302
 30
0.0
 10
4.7687894945
 20
2.5697937171
 30
0.0
 10
4.7761631306
 20
2.5638493884
 30
0.0
 10
4.783812177
 20
2.5582554725
 30
0.0
 10
4.7917196066
 20
2.5530244182
 30
0.0
 10
4.7998678176
 20
2.5481678659
 30
0.0
 10
4.8082386728
 20
2.5436966229
 30
0.0
 10
4.8168135396
 20
2.5396206384
 30
0.0
 10
4.8255733318
 20
2.5359489823
 30
0.0
 10
4.8344985532
 20
2.5326898243
 30
0.0
 10
4.843569334
 20
2.5298504163
 30
0.0
 10
4.852765503
 20
2.5274370761
 30
0.0
 10
4.8620665265
 20
2.5254551735
 30
0.0
 10
4.8714519512
 20
2.5239091174
 30
0.0
 10
4.8840481206
 20
2.5224335676
 30
0.0
 10
4.8999033418
 20
2.5216933827
 30
0.0
 10
4.9157585518
 20
2.5224338065
 30
0.0
 10
4.9283546986
 20
2.5239095461
 30
0.0
 10
4.9377400994
 20
2.5254557436
 30
0.0
 10
4.9470410923
 20
2.5274377863
 30
0.0
 10
4.9562372241
 20
2.5298512652
 30
0.0
 10
4.9653079611
 20
2.5326908098
 30
0.0
 10
4.9742331322
 20
2.5359501023
 30
0.0
 10
4.9829928678
 20
2.5396218904
 30
0.0
 10
4.9915676718
 20
2.5436980041
 30
0.0
 10
4.999938458
 20
2.5481693732
 30
0.0
 10
5.0080865942
 20
2.5530260483
 30
0.0
 10
5.0159939431
 20
2.5582572218
 30
0.0
 10
5.0236429033
 20
2.5638512529
 30
0.0
 10
5.0310164477
 20
2.5697956928
 30
0.0
 10
5.0380981622
 20
2.5760773125
 30
0.0
 10
5.0448722816
 20
2.5826821326
 30
0.0
 10
5.051323725
 20
2.5895954533
 30
0.0
 10
5.0574381301
 20
2.5968018895
 30
0.0
 10
5.0632018823
 20
2.6042853974
 30
0.0
 10
5.0686021552
 20
2.612029338
 30
0.0
 10
5.0736269018
 20
2.6200164101
 30
0.0
 10
5.0782650212
 20
2.6282290772
 30
0.0
 10
5.0839175155
 20
2.639450628
 30
0.0
 10
5.0899701262
 20
2.653954248
 30
0.0
 10
5.09461413
 20
2.6689627266
 30
0.0
 10
5.0974573771
 20
2.681183778
 30
0.0
 10
5.0991503204
 20
2.6904395964
 30
0.0
 10
5.1003996485
 20
2.69976364
 30
0.0
 10
5.1009350653
 20
2.7060124378
 30
0.0
 10
5.1011280405
 20
2.7091407404
 30
0.0
  0
SPLINE
  5
2B1
100
AcDbEntity
  8
0
100
AcDbSpline
 62
7
  6
CONTINUOUS
 70
0
 71
3
 72
69
 73
65
 74
0
 42
0.0000001
 43
0.0000001
 44
0.0000000001
 40
0.0
 40
0.0
 40
0.0
 40
0.0
 40
0.0155331275
 40
0.0310677121
 40
0.0466046724
 40
0.0621447705
 40
0.0776887688
 40
0.0932373832
 40
0.1087912972
 40
0.1243511391
 40
0.1399174799
 40
0.1554908368
 40
0.1710716611
 40
0.1866603307
 40
0.2022571541
 40
0.2178623696
 40
0.2334761316
 40
0.2490985166
 40
0.2647295299
 40
0.2803690914
 40
0.2960170415
 40
0.3116731515
 40
0.3273371153
 40
0.3430085519
 40
0.3586870168
 40
0.3743720046
 40
0.3900629443
 40
0.4057592132
 40
0.4214601468
 40
0.4371650316
 40
0.4528731178
 40
0.4685836344
 40
0.4999999858
 40
0.5314163374
 40
0.5471268544
 40
0.562834941
 40
0.5785398263
 40
0.5942407606
 40
0.6099370303
 40
0.625627971
 40
0.6413129597
 40
0.6569914257
 40
0.6726628634
 40
0.6883268284
 40
0.7039829397
 40
0.7196308911
 40
0.735270454
 40
0.7509014686
 40
0.766523855
 40
0.7821376183
 40
0.7977428351
 40
0.8133396599
 40
0.8289283307
 40
0.8445091562
 40
0.8600825143
 40
0.8756488562
 40
0.8912086991
 40
0.9067626139
 40
0.9223112292
 40
0.9378552281
 40
0.9533953267
 40
0.9689322875
 40
0.9844668724
 40
1.0
 40
1.0
 40
1.0
 40
1.0
 10
5.1013261827
 20
2.7096183659
 30
0.0
 10
5.1011921982
 20
2.7064472657
 30
0.0
 10
5.1007708127
 20
2.7001101787
 30
0.0
 10
5.0996802385
 20
2.6906464133
 30
0.0
 10
5.0981335886
 20
2.6812447342
 30
0.0
 10
5.0961344029
 20
2.6719268803
 30
0.0
 10
5.0936872468
 20
2.6627140512
 30
0.0
 10
5.0907977087
 20
2.6536273
 30
0.0
 10
5.0874723877
 20
2.6446873663
 30
0.0
 10
5.0837188778
 20
2.6359146608
 30
0.0
 10
5.0795457508
 20
2.6273292106
 30
0.0
 10
5.0749625363
 20
2.6189506149
 30
0.0
 10
5.0699797001
 20
2.610798
 30
0.0
 10
5.0646086205
 20
2.6028899764
 30
0.0
 10
5.0588615618
 20
2.5952445954
 30
0.0
 10
5.0527516462
 20
2.587879308
 30
0.0
 10
5.0462928243
 20
2.5808109259
 30
0.0
 10
5.0394998429
 20
2.5740555824
 30
0.0
 10
5.032388211
 20
2.5676286957
 30
0.0
 10
5.0249741647
 20
2.561544934
 30
0.0
 10
5.0172746303
 20
2.5558181823
 30
0.0
 10
5.0093071851
 20
2.5504615099
 30
0.0
 10
5.0010900172
 20
2.5454871414
 30
0.0
 10
4.992641885
 20
2.5409064289
 30
0.0
 10
4.9839820731
 20
2.5367298256
 30
0.0
 10
4.975130349
 20
2.5329668622
 30
0.0
 10
4.966106917
 20
2.5296261258
 30
0.0
 10
4.9569323785
 20
2.5267152393
 30
0.0
 10
4.9476276561
 20
2.5242408448
 30
0.0
 10
4.9382140568
 20
2.5222085888
 30
0.0
 10
4.92871281
 20
2.5206231074
 30
0.0
 10
4.9159590393
 20
2.5191098061
 30
0.0
 10
4.8999025644
 20
2.5183505089
 30
0.0
 10
4.8838460837
 20
2.5191096864
 30
0.0
 10
4.8710923015
 20
2.5206228927
 30
0.0
 10
4.8615910426
 20
2.5222083032
 30
0.0
 10
4.8521774278
 20
2.5242404891
 30
0.0
 10
4.8428726866
 20
2.5267148142
 30
0.0
 10
4.8336981258
 20
2.5296256323
 30
0.0
 10
4.8246746683
 20
2.5329663015
 30
0.0
 10
4.8158229156
 20
2.5367291989
 30
0.0
 10
4.8071630718
 20
2.5409057376
 30
0.0
 10
4.7987149047
 20
2.5454863871
 30
0.0
 10
4.7904976988
 20
2.5504606944
 30
0.0
 10
4.7825302127
 20
2.5558173074
 30
0.0
 10
4.7748306346
 20
2.5615440017
 30
0.0
 10
4.7674165419
 20
2.5676277081
 30
0.0
 10
4.760304861
 20
2.5740545418
 30
0.0
 10
4.7535118281
 20
2.5808098346
 30
0.0
 10
4.7470529523
 20
2.5878781686
 30
0.0
 10
4.7409429805
 20
2.5952434104
 30
0.0
 10
4.7351958634
 20
2.6028887487
 30
0.0
 10
4.7298247235
 20
2.6107967322
 30
0.0
 10
4.7248418251
 20
2.6189493099
 30
0.0
 10
4.7202585467
 20
2.6273278715
 30
0.0
 10
4.7160853542
 20
2.6359132906
 30
0.0
 10
4.7123317773
 20
2.6446859681
 30
0.0
 10
4.7090063882
 20
2.653625877
 30
0.0
 10
4.7061167808
 20
2.6627126066
 30
0.0
 10
4.7036695543
 20
2.6719254175
 30
0.0
 10
4.7016702976
 20
2.6812432564
 30
0.0
 10
4.7001235759
 20
2.6906449241
 30
0.0
 10
4.6990329296
 20
2.7001086813
 30
0.0
 10
4.6986114957
 20
2.7064457652
 30
0.0
 10
4.698477487
 20
2.7096168644
 30
0.0
  0
SPLINE
  5
2B2
100
AcDbEntity
  8
0
100
AcDbSpline
 62
7
  6
CONTINUOUS
 70
0
 71
3
 72
33
 73
29
 74
0
 42
0.0000001
 43
0.0000001
 44
0.0000000001
 40
0.0
 40
0.0
 40
0.0
 40
0.0
 40
0.0310659536
 40
0.0621363401
 40
0.0932126459
 40
0.1242963054
 40
0.1864740567
 40
0.2486966487
 40
0.2798359475
 40
0.3109894688
 40
0.342157975
 40
0.3733420991
 40
0.4045423385
 40
0.4357590517
 40
0.4982258213
 40
0.5607592656
 40
0.5920587191
 40
0.6233737988
 40
0.6547038773
 40
0.686048199
 40
0.7174058873
 40
0.7487759514
 40
0.8115321605
 40
0.8743235684
 40
0.905737324
 40
0.937155639
 40
0.9685770709
 40
1.0
 40
1.0
 40
1.0
 40
1.0
 10
4.700802023
 20
2.7041686535
 30
0.0
 10
4.7010694661
 20
2.7011261776
 30
0.0
 10
4.7017472697
 20
2.6950523698
 30
0.0
 10
4.7031899972
 20
2.6859993772
 30
0.0
 10
4.7050558823
 20
2.6770218639
 30
0.0
 10
4.708102148
 20
2.6651795763
 30
0.0
 10
4.7129477504
 20
2.6506565878
 30
0.0
 10
4.7191317739
 20
2.6366451789
 30
0.0
 10
4.7248479219
 20
2.6258159422
 30
0.0
 10
4.7295132378
 20
2.6178958568
 30
0.0
 10
4.734544932
 20
2.6101982785
 30
0.0
 10
4.7399322203
 20
2.6027395782
 30
0.0
 10
4.7456636657
 20
2.5955356977
 30
0.0
 10
4.7537482409
 20
2.5862904781
 30
0.0
 10
4.7646549196
 20
2.5754441514
 30
0.0
 10
4.77652495
 20
2.5656488782
 30
0.0
 10
4.7865373173
 20
2.558491734
 30
0.0
 10
4.7942938421
 20
2.5534713747
 30
0.0
 10
4.8022773403
 20
2.548812008
 30
0.0
 10
4.8104707595
 20
2.544523509
 30
0.0
 10
4.8188566558
 20
2.5406150767
 30
0.0
 10
4.830269813
 20
2.5359219025
 30
0.0
 10
4.844930153
 20
2.5310447539
 30
0.0
 10
4.8599802747
 20
2.5275323387
 30
0.0
 10
4.8721756358
 20
2.5255582525
 30
0.0
 10
4.8813846478
 20
2.5244980324
 30
0.0
 10
4.8906330949
 20
2.5238610236
 30
0.0
 10
4.8968124998
 20
2.5237193602
 30
0.0
 10
4.8999018031
 20
2.5237193602
 30
0.0
  0
SPLINE
  5
2B3
100
AcDbEntity
  8
0
100
AcDbSpline
 62
7
  6
CONTINUOUS
 70
0
 71
3
 72
71
 73
67
 74
0
 42
0.0000001
 43
0.0000001
 44
0.0000000001
 40
0.0
 40
0.0
 40
0.0
 40
0.0
 40
0.0155345994
 40
0.0310699985
 40
0.0466071969
 40
0.0621469663
 40
0.0776901539
 40
0.0932375444
 40
0.1087898882
 40
0.1243478859
 40
0.139912183
 40
0.1554833638
 40
0.1710619455
 40
0.1866483734
 40
0.2022430164
 40
0.2178461641
 40
0.2334580235
 40
0.2490787174
 40
0.2647082837
 40
0.2803466747
 40
0.2959937577
 40
0.3116493169
 40
0.327313055
 40
0.3429845966
 40
0.3586634916
 40
0.3743492201
 40
0.3900411969
 40
0.4057387772
 40
0.4214412632
 40
0.4371479105
 40
0.4528579351
 40
0.468570521
 40
0.4842848281
 40
0.5
 40
0.5157151719
 40
0.531429479
 40
0.5471420649
 40
0.5628520895
 40
0.5785587368
 40
0.5942612228
 40
0.6099588031
 40
0.6256507799
 40
0.6413365084
 40
0.6570154034
 40
0.672686945
 40
0.6883506831
 40
0.7040062423
 40
0.7196533253
 40
0.7352917163
 40
0.7509212826
 40
0.7665419765
 40
0.7821538359
 40
0.7977569836
 40
0.8133516266
 40
0.8289380545
 40
0.8445166362
 40
0.860087817
 40
0.8756521141
 40
0.8912101118
 40
0.9067624556
 40
0.9223098461
 40
0.9378530337
 40
0.9533928031
 40
0.9689300015
 40
0.9844654006
 40
1.0
 40
1.0
 40
1.0
 40
1.0
 10
4.5752768031
 20
2.6906733279
 30
0.0
 10
4.5752768031
 20
2.6854232599
 30
0.0
 10
4.5755376059
 20
2.6749209852
 30
0.0
 10
4.5767102841
 20
2.6592071713
 30
0.0
 10
4.5786615869
 20
2.6435687835
 30
0.0
 10
4.5813868336
 20
2.6280439875
 30
0.0
 10
4.5848794422
 20
2.6126700713
 30
0.0
 10
4.5891310008
 20
2.597484108
 30
0.0
 10
4.5941312624
 20
2.5825226786
 30
0.0
 10
4.5998681754
 20
2.5678218326
 30
0.0
 10
4.6063279115
 20
2.5534169871
 30
0.0
 10
4.613494902
 20
2.5393428464
 30
0.0
 10
4.6213518746
 20
2.5256333173
 30
0.0
 10
4.6298798951
 20
2.5123214272
 30
0.0
 10
4.6390584136
 20
2.4994392455
 30
0.0
 10
4.6488653128
 20
2.4870178055
 30
0.0
 10
4.6592769598
 20
2.4750870275
 30
0.0
 10
4.670268266
 20
2.4636756498
 30
0.0
 10
4.6818127475
 20
2.4528111587
 30
0.0
 10
4.693882589
 20
2.442519723
 30
0.0
 10
4.7064487104
 20
2.4328261307
 30
0.0
 10
4.7194808377
 20
2.4237537303
 30
0.0
 10
4.7329475729
 20
2.4153243711
 30
0.0
 10
4.7468164721
 20
2.4075583526
 30
0.0
 10
4.7610541241
 20
2.4004743772
 30
0.0
 10
4.7756262305
 20
2.3940895046
 30
0.0
 10
4.7904976882
 20
2.3884191111
 30
0.0
 10
4.805632674
 20
2.3834768533
 30
0.0
 10
4.8209947301
 20
2.3792746328
 30
0.0
 10
4.8365468517
 20
2.3758225671
 30
0.0
 10
4.8522515772
 20
2.3731289679
 30
0.0
 10
4.8680710781
 20
2.3712003212
 30
0.0
 10
4.8839672498
 20
2.3700412715
 30
0.0
 10
4.8999018031
 20
2.3696546106
 30
0.0
 10
4.9158363565
 20
2.3700412715
 30
0.0
 10
4.9317325282
 20
2.3712003212
 30
0.0
 10
4.9475520291
 20
2.3731289679
 30
0.0
 10
4.9632567546
 20
2.3758225671
 30
0.0
 10
4.9788088761
 20
2.3792746328
 30
0.0
 10
4.9941709322
 20
2.3834768533
 30
0.0
 10
5.0093059181
 20
2.3884191111
 30
0.0
 10
5.0241773758
 20
2.3940895046
 30
0.0
 10
5.0387494822
 20
2.4004743772
 30
0.0
 10
5.0529871342
 20
2.4075583526
 30
0.0
 10
5.0668560334
 20
2.4153243711
 30
0.0
 10
5.0803227686
 20
2.4237537303
 30
0.0
 10
5.0933548958
 20
2.4328261307
 30
0.0
 10
5.1059210173
 20
2.442519723
 30
0.0
 10
5.1179908588
 20
2.4528111587
 30
0.0
 10
5.1295353403
 20
2.4636756498
 30
0.0
 10
5.1405266465
 20
2.4750870275
 30
0.0
 10
5.1509382934
 20
2.4870178055
 30
0.0
 10
5.1607451927
 20
2.4994392455
 30
0.0
 10
5.1699237112
 20
2.5123214272
 30
0.0
 10
5.1784517317
 20
2.5256333173
 30
0.0
 10
5.1863087042
 20
2.5393428464
 30
0.0
 10
5.1934756948
 20
2.5534169871
 30
0.0
 10
5.1999354309
 20
2.5678218326
 30
0.0
 10
5.2056723439
 20
2.5825226786
 30
0.0
 10
5.2106726054
 20
2.597484108
 30
0.0
 10
5.2149241641
 20
2.6126700713
 30
0.0
 10
5.2184167726
 20
2.6280439875
 30
0.0
 10
5.2211420193
 20
2.6435687835
 30
0.0
 10
5.2230933221
 20
2.6592071713
 30
0.0
 10
5.2242660004
 20
2.6749209852
 30
0.0
 10
5.2245268031
 20
2.6854232599
 30
0.0
 10
5.2245268031
 20
2.6906733279
 30
0.0
  0
SPLINE
  5
2B4
100
AcDbEntity
  8
0
100
AcDbSpline
 62
7
  6
CONTINUOUS
 70
0
 71
3
 72
33
 73
29
 74
0
 42
0.0000001
 43
0.0000001
 44
0.0000000001
 40
0.0
 40
0.0
 40
0.0
 40
0.0
 40
0.0628141774
 40
0.1256479333
 40
0.1884854045
 40
0.2512902239
 40
0.2826769398
 40
0.3140418534
 40
0.3453827334
 40
0.3766994598
 40
0.3923506765
 40
0.4079970773
 40
0.4392761192
 40
0.4705441093
 40
0.5018034105
 40
0.5330541544
 40
0.5642947996
 40
0.6267163366
 40
0.6890615463
 40
0.7202091718
 40
0.751333664
 40
0.7824374735
 40
0.7979844095
 40
0.8135284279
 40
0.8446092908
 40
0.8756889683
 40
0.9378379734
 40
1.0
 40
1.0
 40
1.0
 40
1.0
 10
4.8999018031
 20
2.7084068947
 30
0.0
 10
4.8933811846
 20
2.7084068947
 30
0.0
 10
4.8803291045
 20
2.7090618861
 30
0.0
 10
4.8609475689
 20
2.7119493245
 30
0.0
 10
4.8419327903
 20
2.716681702
 30
0.0
 10
4.8265362331
 20
2.7221173674
 30
0.0
 10
4.8145858027
 20
2.7273302653
 30
0.0
 10
4.8058282518
 20
2.7316649285
 30
0.0
 10
4.7972988
 20
2.7364173244
 30
0.0
 10
4.790398053
 20
2.7407209305
 30
0.0
 10
4.7850150441
 20
2.7443650038
 30
0.0
 10
4.7797287305
 20
2.748141273
 30
0.0
 10
4.7733041508
 20
2.7531084019
 30
0.0
 10
4.7659033797
 20
2.7594432453
 30
0.0
 10
4.7588258086
 20
2.7661329612
 30
0.0
 10
4.7520853805
 20
2.7731584873
 30
0.0
 10
4.7435702896
 20
2.782943458
 30
0.0
 10
4.7338364401
 20
2.7959202001
 30
0.0
 10
4.7254084196
 20
2.8097698386
 30
0.0
 10
4.719511424
 20
2.8212888474
 30
0.0
 10
4.7155248718
 20
2.8301287572
 30
0.0
 10
4.7125770799
 20
2.8376490373
 30
0.0
 10
4.7104512309
 20
2.8437459877
 30
0.0
 10
4.7084829138
 20
2.8498930739
 30
0.0
 10
4.7063174385
 20
2.8576673704
 30
0.0
 10
4.7034832911
 20
2.8702612338
 30
0.0
 10
4.7011205687
 20
2.8862457617
 30
0.0
 10
4.700491031
 20
2.8991585051
 30
0.0
 10
4.700491031
 20
2.9056114251
 30
0.0
  0
SPLINE
  5
2B5
100
AcDbEntity
  8
0
100
AcDbSpline
 62
7
  6
CONTINUOUS
 70
0
 71
3
 72
33
 73
29
 74
0
 42
0.0000001
 43
0.0000001
 44
0.0000000001
 40
0.0
 40
0.0
 40
0.0
 40
0.0
 40
0.0621620266
 40
0.1243110317
 40
0.1553907092
 40
0.1864715721
 40
0.2020155905
 40
0.2175625265
 40
0.248666336
 40
0.2797908282
 40
0.3109384537
 40
0.3732836634
 40
0.4357052004
 40
0.4669458456
 40
0.4981965895
 40
0.5294558907
 40
0.5607238808
 40
0.5920029227
 40
0.6076493235
 40
0.6233005402
 40
0.6546172666
 40
0.6859581466
 40
0.7173230602
 40
0.7487097761
 40
0.8115145955
 40
0.8743520667
 40
0.9371858226
 40
1.0
 40
1.0
 40
1.0
 40
1.0
 10
5.0993125753
 20
2.9056114251
 30
0.0
 10
5.0993125753
 20
2.8991585051
 30
0.0
 10
5.0986830375
 20
2.8862457617
 30
0.0
 10
5.0963203151
 20
2.8702612338
 30
0.0
 10
5.0934861677
 20
2.8576673704
 30
0.0
 10
5.0913206925
 20
2.8498930739
 30
0.0
 10
5.0893523753
 20
2.8437459877
 30
0.0
 10
5.0872265264
 20
2.8376490373
 30
0.0
 10
5.0842787345
 20
2.8301287572
 30
0.0
 10
5.0802921822
 20
2.8212888474
 30
0.0
 10
5.0743951867
 20
2.8097698386
 30
0.0
 10
5.0659671662
 20
2.7959202001
 30
0.0
 10
5.0562333166
 20
2.782943458
 30
0.0
 10
5.0477182258
 20
2.7731584873
 30
0.0
 10
5.0409777977
 20
2.7661329612
 30
0.0
 10
5.0339002266
 20
2.7594432453
 30
0.0
 10
5.0264994555
 20
2.7531084019
 30
0.0
 10
5.0200748757
 20
2.748141273
 30
0.0
 10
5.0147885622
 20
2.7443650038
 30
0.0
 10
5.0094055533
 20
2.7407209305
 30
0.0
 10
5.0025048063
 20
2.7364173244
 30
0.0
 10
4.9939753545
 20
2.7316649285
 30
0.0
 10
4.9852178036
 20
2.7273302653
 30
0.0
 10
4.9732673732
 20
2.7221173674
 30
0.0
 10
4.957870816
 20
2.716681702
 30
0.0
 10
4.9388560374
 20
2.7119493245
 30
0.0
 10
4.9194745018
 20
2.7090618861
 30
0.0
 10
4.9064224216
 20
2.7084068947
 30
0.0
 10
4.8999018031
 20
2.7084068947
 30
0.0
  0
SPLINE
  5
2B6
100
AcDbEntity
  8
0
100
AcDbSpline
 62
7
  6
CONTINUOUS
 70
0
 71
3
 72
13
 73
9
 74
0
 42
0.0000001
 43
0.0000001
 44
0.0000000001
 40
0.0
 40
0.0
 40
0.0
 40
0.0
 40
0.2469979382
 40
0.3711087431
 40
0.4957148087
 40
0.6208862036
 40
0.7466675428
 40
1.0
 40
1.0
 40
1.0
 40
1.0
 10
5.4625268031
 20
6.0584641913
 30
0.0
 10
5.4509328053
 20
6.0582730375
 30
0.0
 10
5.4335141191
 20
6.0579140366
 30
0.0
 10
5.4102511316
 20
6.0572694216
 30
0.0
 10
5.3927079202
 20
6.0566937724
 30
0.0
 10
5.3750897022
 20
6.0560199295
 30
0.0
 10
5.3514383483
 20
6.0549786242
 30
0.0
 10
5.3336650993
 20
6.054029274
 30
0.0
 10
5.3217938645
 20
6.0533108436
 30
0.0
  0
SPLINE
  5
2B7
100
AcDbEntity
  8
0
100
AcDbSpline
 62
7
  6
CONTINUOUS
 70
0
 71
3
 72
13
 73
9
 74
0
 42
0.0000001
 43
0.0000001
 44
0.0000000001
 40
0.0
 40
0.0
 40
0.0
 40
0.0
 40
0.2470042064
 40
0.3711185636
 40
0.4957274771
 40
0.6209002774
 40
0.7466807587
 40
1.0
 40
1.0
 40
1.0
 40
1.0
 10
5.4625268031
 20
5.4297599414
 30
0.0
 10
5.4509350526
 20
5.4299513033
 30
0.0
 10
5.4335197254
 20
5.430310571
 30
0.0
 10
5.410261242
 20
5.4309553124
 30
0.0
 10
5.3927215063
 20
5.4315309111
 30
0.0
 10
5.3751069819
 20
5.4322045242
 30
0.0
 10
5.3514613831
 20
5.4332452207
 30
0.0
 10
5.3336926561
 20
5.4341937686
 30
0.0
 10
5.3218246078
 20
5.434911495
 30
0.0
  0
SPLINE
  5
2B8
100
AcDbEntity
  8
0
100
AcDbSpline
 62
7
  6
CONTINUOUS
 70
0
 71
3
 72
28
 73
24
 74
0
 42
0.0000001
 43
0.0000001
 44
0.0000000001
 40
0.0
 40
0.0
 40
0.0
 40
0.0
 40
0.0589535709
 40
0.1199781942
 40
0.182919665
 40
0.2475818051
 40
0.3137611219
 40
0.3812121167
 40
0.449674465
 40
0.5188305379
 40
0.5879014308
 40
0.65588705
 40
0.6891631776
 40
0.7218088753
 40
0.7537149641
 40
0.7847980087
 40
0.8150218911
 40
0.8443556107
 40
0.9002317872
 40
0.9267154856
 40
0.9521902034
 40
0.9766265789
 40
1.0
 40
1.0
 40
1.0
 40
1.0
 10
5.4625268031
 20
5.6374911269
 30
0.0
 10
5.4565564147
 20
5.637613275
 30
0.0
 10
5.4444045714
 20
5.6378006145
 30
0.0
 10
5.4258759994
 20
5.6379105986
 30
0.0
 10
5.4067689443
 20
5.6378507246
 30
0.0
 10
5.3871410631
 20
5.6376166572
 30
0.0
 10
5.3670592345
 20
5.6372042466
 30
0.0
 10
5.3465968628
 20
5.6366098647
 30
0.0
 10
5.32583897
 20
5.6358300509
 30
0.0
 10
5.3049246193
 20
5.6348643382
 30
0.0
 10
5.2840677828
 20
5.6337173473
 30
0.0
 10
5.2668494958
 20
5.6326081754
 30
0.0
 10
5.2533208125
 20
5.6316290901
 30
0.0
 10
5.2434412815
 20
5.6308599562
 30
0.0
 10
5.2337876782
 20
5.6300528765
 30
0.0
 10
5.2243834282
 20
5.6292097692
 30
0.0
 10
5.2152438812
 20
5.6283339932
 30
0.0
 10
5.2036116616
 20
5.6271453878
 30
0.0
 10
5.1923674974
 20
5.6258875338
 30
0.0
 10
5.1815259439
 20
5.6245555658
 30
0.0
 10
5.1738526005
 20
5.6235541817
 30
0.0
 10
5.1664995658
 20
5.6225348315
 30
0.0
 10
5.1617083946
 20
5.6218287858
 30
0.0
 10
5.159367688
 20
5.6214730433
 30
0.0
  0
SPLINE
  5
2B9
100
AcDbEntity
  8
0
100
AcDbSpline
 62
7
  6
CONTINUOUS
 70
0
 71
3
 72
39
 73
35
 74
0
 42
0.0000001
 43
0.0000001
 44
0.0000000001
 40
0.0
 40
0.0
 40
0.0
 40
0.0
 40
0.0311402796
 40
0.062298656
 40
0.0934749172
 40
0.1246686706
 40
0.1558793472
 40
0.1871062074
 40
0.2183483489
 40
0.2496047162
 40
0.2808741111
 40
0.3121552048
 40
0.3434465517
 40
0.3747466036
 40
0.4060537256
 40
0.4373662122
 40
0.4686823046
 40
0.5000002077
 40
0.5313181088
 40
0.5626341949
 40
0.5939466714
 40
0.6252537793
 40
0.6565538134
 40
0.6878451389
 40
0.719126208
 40
0.7503955753
 40
0.7816519123
 40
0.8128940211
 40
0.8441208465
 40
0.8753314865
 40
0.9065252019
 40
0.937701424
 40
0.9688597606
 40
1.0
 40
1.0
 40
1.0
 40
1.0
 10
4.7551061749
 20
2.6568620375
 30
0.0
 10
4.7574407278
 20
2.6544593329
 30
0.0
 10
4.7622331759
 20
2.6497693485
 30
0.0
 10
4.7697680028
 20
2.6431035714
 30
0.0
 10
4.7776328416
 20
2.6368209411
 30
0.0
 10
4.7858075225
 20
2.6309376194
 30
0.0
 10
4.7942713859
 20
2.6254684499
 30
0.0
 10
4.8030029609
 20
2.6204273087
 30
0.0
 10
4.8119801201
 20
2.6158269645
 30
0.0
 10
4.8211801081
 20
2.611679075
 30
0.0
 10
4.8305796071
 20
2.6079941495
 30
0.0
 10
4.840154794
 20
2.6047815245
 30
0.0
 10
4.8498814006
 20
2.6020493395
 30
0.0
 10
4.8597347756
 20
2.5998045169
 30
0.0
 10
4.8696899467
 20
2.5980527437
 30
0.0
 10
4.879721684
 20
2.596798458
 30
0.0
 10
4.8898045639
 20
2.5960448375
 30
0.0
 10
4.8999130331
 20
2.5957937914
 30
0.0
 10
4.9100214739
 20
2.5960459556
 30
0.0
 10
4.9201042684
 20
2.5968006913
 30
0.0
 10
4.9301358636
 20
2.5980560864
 30
0.0
 10
4.9400908364
 20
2.5998089603
 30
0.0
 10
4.9499439573
 20
2.6020548722
 30
0.0
 10
4.9596702548
 20
2.604788132
 30
0.0
 10
4.9692450783
 20
2.6080018149
 30
0.0
 10
4.9786441607
 20
2.6116877786
 30
0.0
 10
4.9878436799
 20
2.6158366843
 30
0.0
 10
4.996820319
 20
2.62043802
 30
0.0
 10
5.0055513241
 20
2.6254801259
 30
0.0
 10
5.0140145691
 20
2.6309502306
 30
0.0
 10
5.0221885843
 20
2.6368344562
 30
0.0
 10
5.0300527127
 20
2.6431179557
 30
0.0
 10
5.0375867836
 20
2.6497845676
 30
0.0
 10
5.0423787049
 20
2.6544750783
 30
0.0
 10
5.0447129831
 20
2.6568780438
 30
0.0
  0
SPLINE
  5
2BA
100
AcDbEntity
  8
0
100
AcDbSpline
 62
7
  6
CONTINUOUS
 70
0
 71
3
 72
71
 73
67
 74
0
 42
0.0000001
 43
0.0000001
 44
0.0000000001
 40
0.0
 40
0.0
 40
0.0
 40
0.0
 40
0.0155345499
 40
0.0310698773
 40
0.0466070411
 40
0.062146804
 40
0.0776900096
 40
0.0932374399
 40
0.1087898412
 40
0.1243479109
 40
0.1399122909
 40
0.155483562
 40
0.1710622381
 40
0.1866487612
 40
0.2022434973
 40
0.217846733
 40
0.2334586728
 40
0.2490794375
 40
0.2647090629
 40
0.2803474997
 40
0.295994614
 40
0.3116501891
 40
0.3273139273
 40
0.3429854528
 40
0.3586643159
 40
0.3743499972
 40
0.3900419121
 40
0.4057394172
 40
0.4214418161
 40
0.4371483658
 40
0.4528582842
 40
0.4685707575
 40
0.4842849475
 40
0.5
 40
0.5157150525
 40
0.5314292425
 40
0.5471417158
 40
0.5628516342
 40
0.5785581839
 40
0.5942605828
 40
0.6099580879
 40
0.6256500028
 40
0.6413356841
 40
0.6570145472
 40
0.6726860727
 40
0.6883498109
 40
0.704005386
 40
0.7196525003
 40
0.7352909371
 40
0.7509205625
 40
0.7665413272
 40
0.782153267
 40
0.7977565027
 40
0.8133512388
 40
0.8289377619
 40
0.844516438
 40
0.8600877091
 40
0.8756520891
 40
0.8912101588
 40
0.9067625601
 40
0.9223099904
 40
0.937853196
 40
0.9533929589
 40
0.9689301227
 40
0.9844654501
 40
1.0
 40
1.0
 40
1.0
 40
1.0
 10
4.5752774762
 20
2.6906733534
 30
0.0
 10
4.5752882789
 20
2.6854300774
 30
0.0
 10
4.5755700069
 20
2.6749419379
 30
0.0
 10
4.5767719779
 20
2.6592507679
 30
0.0
 10
4.5787504038
 20
2.6436363113
 30
0.0
 10
4.5815005561
 20
2.6281365579
 30
0.0
 10
4.5850158091
 20
2.6127886412
 30
0.0
 10
4.5892877187
 20
2.597629476
 30
0.0
 10
4.5943060152
 20
2.5826954838
 30
0.0
 10
4.6000586343
 20
2.5680225544
 30
0.0
 10
4.6065317461
 20
2.5536459465
 30
0.0
 10
4.6137097903
 20
2.5396002065
 30
0.0
 10
4.6215755127
 20
2.5259190849
 30
0.0
 10
4.6301100074
 20
2.5126354557
 30
0.0
 10
4.6392927623
 20
2.4997812372
 30
0.0
 10
4.6491017068
 20
2.4873873148
 30
0.0
 10
4.6595132642
 20
2.4754834653
 30
0.0
 10
4.6705024114
 20
2.4640982877
 30
0.0
 10
4.6820427385
 20
2.4532591343
 30
0.0
 10
4.694106512
 20
2.4429920453
 30
0.0
 10
4.7066647422
 20
2.4333216862
 30
0.0
 10
4.719687252
 20
2.424271289
 30
0.0
 10
4.7331427479
 20
2.4158625933
 30
0.0
 10
4.7469988972
 20
2.4081157966
 30
0.0
 10
4.7612224058
 20
2.4010495066
 30
0.0
 10
4.7757790983
 20
2.3946806965
 30
0.0
 10
4.7906339995
 20
2.3890246642
 30
0.0
 10
4.8057514188
 20
2.3840949965
 30
0.0
 10
4.8210950349
 20
2.3799035338
 30
0.0
 10
4.8366279833
 20
2.3764603414
 30
0.0
 10
4.8523129454
 20
2.3737736885
 30
0.0
 10
4.8681122382
 20
2.3718500274
 30
0.0
 10
4.8839879044
 20
2.3706939786
 30
0.0
 10
4.8999018031
 20
2.3703083197
 30
0.0
 10
4.9158157019
 20
2.3706939786
 30
0.0
 10
4.9316913681
 20
2.3718500274
 30
0.0
 10
4.9474906609
 20
2.3737736885
 30
0.0
 10
4.963175623
 20
2.3764603414
 30
0.0
 10
4.9787085713
 20
2.3799035338
 30
0.0
 10
4.9940521875
 20
2.3840949965
 30
0.0
 10
5.0091696068
 20
2.3890246642
 30
0.0
 10
5.024024508
 20
2.3946806965
 30
0.0
 10
5.0385812005
 20
2.4010495066
 30
0.0
 10
5.0528047091
 20
2.4081157966
 30
0.0
 10
5.0666608584
 20
2.4158625933
 30
0.0
 10
5.0801163543
 20
2.424271289
 30
0.0
 10
5.0931388641
 20
2.4333216862
 30
0.0
 10
5.1056970942
 20
2.4429920453
 30
0.0
 10
5.1177608678
 20
2.4532591343
 30
0.0
 10
5.1293011948
 20
2.4640982877
 30
0.0
 10
5.140290342
 20
2.4754834653
 30
0.0
 10
5.1507018995
 20
2.4873873148
 30
0.0
 10
5.1605108439
 20
2.4997812372
 30
0.0
 10
5.1696935989
 20
2.5126354557
 30
0.0
 10
5.1782280936
 20
2.5259190849
 30
0.0
 10
5.186093816
 20
2.5396002065
 30
0.0
 10
5.1932718602
 20
2.5536459465
 30
0.0
 10
5.199744972
 20
2.5680225544
 30
0.0
 10
5.2054975911
 20
2.5826954838
 30
0.0
 10
5.2105158876
 20
2.597629476
 30
0.0
 10
5.2147877972
 20
2.6127886412
 30
0.0
 10
5.2183030502
 20
2.6281365579
 30
0.0
 10
5.2210532025
 20
2.6436363113
 30
0.0
 10
5.2230316284
 20
2.6592507679
 30
0.0
 10
5.2242335993
 20
2.6749419379
 30
0.0
 10
5.2245153274
 20
2.6854300774
 30
0.0
 10
5.2245261301
 20
2.6906733534
 30
0.0
  0
SPLINE
  5
2BB
100
AcDbEntity
  8
0
100
AcDbSpline
 62
7
  6
CONTINUOUS
 70
0
 71
3
 72
71
 73
67
 74
0
 42
0.0000001
 43
0.0000001
 44
0.0000000001
 40
0.0
 40
0.0
 40
0.0
 40
0.0
 40
0.0155345984
 40
0.0310699984
 40
0.0466071972
 40
0.0621469662
 40
0.0776901539
 40
0.0932375444
 40
0.1087898882
 40
0.1243478859
 40
0.139912183
 40
0.1554833639
 40
0.1710619456
 40
0.1866483734
 40
0.2022430164
 40
0.2178461641
 40
0.2334580234
 40
0.2490787174
 40
0.2647082838
 40
0.2803466747
 40
0.2959937577
 40
0.3116493169
 40
0.327313055
 40
0.3429845966
 40
0.3586634917
 40
0.3743492202
 40
0.3900411969
 40
0.4057387772
 40
0.4214412632
 40
0.4371479105
 40
0.4528579351
 40
0.4685705211
 40
0.4842848282
 40
0.5
 40
0.5157151718
 40
0.5314294789
 40
0.5471420649
 40
0.5628520895
 40
0.5785587368
 40
0.5942612228
 40
0.6099588031
 40
0.6256507798
 40
0.6413365083
 40
0.6570154034
 40
0.672686945
 40
0.6883506831
 40
0.7040062423
 40
0.7196533253
 40
0.7352917162
 40
0.7509212826
 40
0.7665419766
 40
0.7821538359
 40
0.7977569836
 40
0.8133516266
 40
0.8289380544
 40
0.8445166361
 40
0.860087817
 40
0.8756521141
 40
0.8912101118
 40
0.9067624556
 40
0.9223098461
 40
0.9378530338
 40
0.9533928028
 40
0.9689300016
 40
0.9844654016
 40
1.0
 40
1.0
 40
1.0
 40
1.0
 10
4.5826586684
 20
2.6928432935
 30
0.0
 10
4.5826586684
 20
2.6877126106
 30
0.0
 10
4.5829135405
 20
2.6774491542
 30
0.0
 10
4.5840595523
 20
2.6620926672
 30
0.0
 10
4.5859664832
 20
2.6468098909
 30
0.0
 10
4.5886297592
 20
2.6316381237
 30
0.0
 10
4.5920429473
 20
2.6166138053
 30
0.0
 10
4.596197827
 20
2.6017731659
 30
0.0
 10
4.6010843831
 20
2.5871519541
 30
0.0
 10
4.6066908399
 20
2.5727854001
 30
0.0
 10
4.613003684
 20
2.5587081161
 30
0.0
 10
4.6200077003
 20
2.5449540172
 30
0.0
 10
4.6276860089
 20
2.5315562387
 30
0.0
 10
4.6360201056
 20
2.5185470571
 30
0.0
 10
4.644989907
 20
2.5059578116
 30
0.0
 10
4.6545737988
 20
2.4938188295
 30
0.0
 10
4.6647486877
 20
2.482159353
 30
0.0
 10
4.6754900559
 20
2.4710074668
 30
0.0
 10
4.6867720208
 20
2.4603900318
 30
0.0
 10
4.6985673991
 20
2.4503326211
 30
0.0
 10
4.7108477714
 20
2.4408594584
 30
0.0
 10
4.7235835513
 20
2.4319933599
 30
0.0
 10
4.7367440559
 20
2.4237556792
 30
0.0
 10
4.7502975807
 20
2.4161662569
 30
0.0
 10
4.7642114739
 20
2.40924337
 30
0.0
 10
4.7784522163
 20
2.4030036893
 30
0.0
 10
4.7929855026
 20
2.3974622404
 30
0.0
 10
4.8077763236
 20
2.3926323676
 30
0.0
 10
4.8227890509
 20
2.3885257018
 30
0.0
 10
4.8379875219
 20
2.3851521324
 30
0.0
 10
4.8533351272
 20
2.3825197846
 30
0.0
 10
4.8687948981
 20
2.3806349967
 30
0.0
 10
4.8843295963
 20
2.3795023059
 30
0.0
 10
4.8999018031
 20
2.3791244391
 30
0.0
 10
4.91547401
 20
2.3795023059
 30
0.0
 10
4.9310087081
 20
2.3806349967
 30
0.0
 10
4.9464684791
 20
2.3825197846
 30
0.0
 10
4.9618160844
 20
2.3851521324
 30
0.0
 10
4.9770145553
 20
2.3885257018
 30
0.0
 10
4.9920272826
 20
2.3926323676
 30
0.0
 10
5.0068181037
 20
2.3974622404
 30
0.0
 10
5.02135139
 20
2.4030036893
 30
0.0
 10
5.0355921324
 20
2.40924337
 30
0.0
 10
5.0495060256
 20
2.4161662569
 30
0.0
 10
5.0630595503
 20
2.4237556792
 30
0.0
 10
5.076220055
 20
2.4319933599
 30
0.0
 10
5.0889558349
 20
2.4408594584
 30
0.0
 10
5.1012362072
 20
2.4503326211
 30
0.0
 10
5.1130315855
 20
2.4603900318
 30
0.0
 10
5.1243135504
 20
2.4710074668
 30
0.0
 10
5.1350549185
 20
2.482159353
 30
0.0
 10
5.1452298075
 20
2.4938188295
 30
0.0
 10
5.1548136992
 20
2.5059578116
 30
0.0
 10
5.1637835007
 20
2.5185470571
 30
0.0
 10
5.1721175974
 20
2.5315562387
 30
0.0
 10
5.179795906
 20
2.5449540172
 30
0.0
 10
5.1867999223
 20
2.5587081161
 30
0.0
 10
5.1931127664
 20
2.5727854001
 30
0.0
 10
5.1987192232
 20
2.5871519541
 30
0.0
 10
5.2036057792
 20
2.6017731659
 30
0.0
 10
5.207760659
 20
2.6166138053
 30
0.0
 10
5.211173847
 20
2.6316381237
 30
0.0
 10
5.213837123
 20
2.6468098909
 30
0.0
 10
5.215744054
 20
2.6620926672
 30
0.0
 10
5.2168900658
 20
2.6774491542
 30
0.0
 10
5.2171449379
 20
2.6877126106
 30
0.0
 10
5.2171449379
 20
2.6928432935
 30
0.0
  0
SPLINE
  5
2BC
100
AcDbEntity
  8
0
100
AcDbSpline
 62
7
  6
CONTINUOUS
 70
0
 71
3
 72
23
 73
19
 74
0
 42
0.0000001
 43
0.0000001
 44
0.0000000001
 40
0.0
 40
0.0
 40
0.0
 40
0.0
 40
0.0623528841
 40
0.1247094066
 40
0.1870741142
 40
0.2494505413
 40
0.3118424885
 40
0.374253496
 40
0.436686904
 40
0.499145804
 40
0.5616330048
 40
0.624151002
 40
0.6867019509
 40
0.749287643
 40
0.8119094871
 40
0.8745684948
 40
0.9372652693
 40
1.0
 40
1.0
 40
1.0
 40
1.0
 10
5.2171449379
 20
2.6928432935
 30
0.0
 10
5.2171449379
 20
2.6983119221
 30
0.0
 10
5.2168553666
 20
2.7092517093
 30
0.0
 10
5.2155534767
 20
2.7256145279
 30
0.0
 10
5.2133876471
 20
2.7418881012
 30
0.0
 10
5.2103637827
 20
2.7580273079
 30
0.0
 10
5.2064901742
 20
2.7739881095
 30
0.0
 10
5.2017774232
 20
2.7897267774
 30
0.0
 10
5.1962384403
 20
2.8052002431
 30
0.0
 10
5.1898883929
 20
2.8203661504
 30
0.0
 10
5.182744668
 20
2.8351829891
 30
0.0
 10
5.1748268207
 20
2.8496102034
 30
0.0
 10
5.1661565346
 20
2.863608306
 30
0.0
 10
5.1567575423
 20
2.8771389956
 30
0.0
 10
5.1466556075
 20
2.8901652146
 30
0.0
 10
5.1358782661
 20
2.9026514192
 30
0.0
 10
5.1244554601
 20
2.9145630442
 30
0.0
 10
5.1164321154
 20
2.9220980561
 30
0.0
 10
5.1123243945
 20
2.9257586482
 30
0.0
  0
SPLINE
  5
2BD
100
AcDbEntity
  8
0
100
AcDbSpline
 62
7
  6
CONTINUOUS
 70
0
 71
3
 72
23
 73
19
 74
0
 42
0.0000001
 43
0.0000001
 44
0.0000000001
 40
0.0
 40
0.0
 40
0.0
 40
0.0
 40
0.0627347318
 40
0.1254315073
 40
0.1880905158
 40
0.2507123606
 40
0.3132980532
 40
0.3758490024
 40
0.4383669998
 40
0.5008542006
 40
0.5633131004
 40
0.6257465081
 40
0.6881575152
 40
0.7505494618
 40
0.8129258882
 40
0.875290595
 40
0.9376471167
 40
1.0
 40
1.0
 40
1.0
 40
1.0
 10
4.6874798599
 20
2.9257592259
 30
0.0
 10
4.6833721154
 20
2.9220986329
 30
0.0
 10
4.675348724
 20
2.9145636173
 30
0.0
 10
4.6639258504
 20
2.9026519813
 30
0.0
 10
4.6531484443
 20
2.8901657604
 30
0.0
 10
4.6430464479
 20
2.87713952
 30
0.0
 10
4.6336473976
 20
2.8636088043
 30
0.0
 10
4.6249770574
 20
2.8496106712
 30
0.0
 10
4.6170591603
 20
2.8351834222
 30
0.0
 10
4.6099153899
 20
2.8203665451
 30
0.0
 10
4.6035653019
 20
2.805200596
 30
0.0
 10
4.5980262833
 20
2.7897270855
 30
0.0
 10
4.5933135017
 20
2.7739883703
 30
0.0
 10
4.589439868
 20
2.7580275192
 30
0.0
 10
4.5864159838
 20
2.7418882612
 30
0.0
 10
4.58425014
 20
2.7256146353
 30
0.0
 10
4.5829482415
 20
2.7092517632
 30
0.0
 10
4.5826586684
 20
2.6983119401
 30
0.0
 10
4.5826586684
 20
2.6928432935
 30
0.0
  0
SPLINE
  5
2BE
100
AcDbEntity
  8
0
100
AcDbSpline
 62
7
  6
CONTINUOUS
 70
0
 71
3
 72
35
 73
31
 74
0
 42
0.0000001
 43
0.0000001
 44
0.0000000001
 40
0.0
 40
0.0
 40
0.0
 40
0.0
 40
0.0003049062
 40
0.0006593732
 40
0.0010963344
 40
0.0016337227
 40
0.0030429884
 40
0.0049266178
 40
0.0072989084
 40
0.0101666544
 40
0.0135335528
 40
0.0174017588
 40
0.0217725844
 40
0.0266468228
 40
0.0379058924
 40
0.0511775152
 40
0.0664575477
 40
0.0837385892
 40
0.1030120761
 40
0.1474992472
 40
0.199831003
 40
0.2598882908
 40
0.3275474478
 40
0.4026722354
 40
0.4850963734
 40
0.5746396241
 40
0.6711171813
 40
0.7743229192
 40
0.8840272792
 40
1.0
 40
1.0
 40
1.0
 40
1.0
 10
5.8621433933
 20
5.6164586473
 30
0.0
 10
5.8621399796
 20
5.6164586504
 30
0.0
 10
5.8621325522
 20
5.6164603973
 30
0.0
 10
5.86212231
 20
5.6164674742
 30
0.0
 10
5.8621123327
 20
5.616478624
 30
0.0
 10
5.8620978092
 20
5.6165010961
 30
0.0
 10
5.8620805771
 20
5.6165405856
 30
0.0
 10
5.8620610936
 20
5.616600968
 30
0.0
 10
5.8620414873
 20
5.6166783292
 30
0.0
 10
5.8620217636
 20
5.6167726665
 30
0.0
 10
5.8620019838
 20
5.6168840505
 30
0.0
 10
5.8619821687
 20
5.6170124791
 30
0.0
 10
5.8619623375
 20
5.6171579566
 30
0.0
 10
5.8619345429
 20
5.6173858387
 30
0.0
 10
5.8619004736
 20
5.6177133137
 30
0.0
 10
5.8618612688
 20
5.6181573197
 30
0.0
 10
5.8618221309
 20
5.6186689794
 30
0.0
 10
5.8617830793
 20
5.6192480118
 30
0.0
 10
5.8617285351
 20
5.6201537234
 30
0.0
 10
5.8616621501
 20
5.621451827
 30
0.0
 10
5.861586568
 20
5.6232066042
 30
0.0
 10
5.8615117992
 20
5.625221054
 30
0.0
 10
5.8614381657
 20
5.6274908855
 30
0.0
 10
5.8613660642
 20
5.6300112986
 30
0.0
 10
5.861295503
 20
5.6327768566
 30
0.0
 10
5.8612265725
 20
5.6357815899
 30
0.0
 10
5.8611596197
 20
5.6390190927
 30
0.0
 10
5.8610948266
 20
5.6424824059
 30
0.0
 10
5.861032077
 20
5.6461640586
 30
0.0
 10
5.8609928895
 20
5.6486904459
 30
0.0
 10
5.8609736309
 20
5.6499887385
 30
0.0
  0
SPLINE
  5
2BF
100
AcDbEntity
  8
0
100
AcDbSpline
 62
7
  6
CONTINUOUS
 70
0
 71
3
 72
35
 73
31
 74
0
 42
0.0000001
 43
0.0000001
 44
0.0000000001
 40
0.0
 40
0.0
 40
0.0
 40
0.0
 40
0.1159723071
 40
0.2256762485
 40
0.3288820523
 40
0.4253603974
 40
0.5149031598
 40
0.5973263295
 40
0.6724520643
 40
0.7401128562
 40
0.800169251
 40
0.8525000076
 40
0.896986679
 40
0.9162597388
 40
0.933540306
 40
0.9488205266
 40
0.9620934289
 40
0.9733540622
 40
0.9782288492
 40
0.9825999603
 40
0.9864682214
 40
0.9898349842
 40
0.9927024451
 40
0.9950743466
 40
0.9969575591
 40
0.9983664764
 40
0.998903746
 40
0.9993406383
 40
0.9996950865
 40
1.0
 40
1.0
 40
1.0
 40
1.0
 10
5.8609736278
 20
5.8382337951
 30
0.0
 10
5.860992885
 20
5.8395320959
 30
0.0
 10
5.8610320803
 20
5.8420584986
 30
0.0
 10
5.8610948352
 20
5.8457401789
 30
0.0
 10
5.8611596303
 20
5.849203531
 30
0.0
 10
5.8612265594
 20
5.8524410703
 30
0.0
 10
5.8612954988
 20
5.8554458255
 30
0.0
 10
5.8613660851
 20
5.8582114044
 30
0.0
 10
5.8614381715
 20
5.8607318608
 30
0.0
 10
5.861511763
 20
5.863001735
 30
0.0
 10
5.8615865563
 20
5.865016201
 30
0.0
 10
5.8616621545
 20
5.8667709679
 30
0.0
 10
5.8617285417
 20
5.8680690627
 30
0.0
 10
5.8617830941
 20
5.868974767
 30
0.0
 10
5.8618221552
 20
5.8695537965
 30
0.0
 10
5.8618612944
 20
5.8700654723
 30
0.0
 10
5.8619004798
 20
5.8705095184
 30
0.0
 10
5.8619345268
 20
5.870837037
 30
0.0
 10
5.8619623102
 20
5.87106495
 30
0.0
 10
5.8619821375
 20
5.8712104395
 30
0.0
 10
5.8620019517
 20
5.8713388718
 30
0.0
 10
5.8620217334
 20
5.8714502525
 30
0.0
 10
5.8620414611
 20
5.8715445807
 30
0.0
 10
5.8620610732
 20
5.8716219288
 30
0.0
 10
5.8620805634
 20
5.8716822961
 30
0.0
 10
5.8620978016
 20
5.8717217729
 30
0.0
 10
5.8621123289
 20
5.8717442356
 30
0.0
 10
5.8621223085
 20
5.8717553804
 30
0.0
 10
5.8621325522
 20
5.8717624536
 30
0.0
 10
5.8621399795
 20
5.8717641996
 30
0.0
 10
5.8621433933
 20
5.8717642028
 30
0.0
  0
ENDSEC
  0
SECTION
  2
OBJECTS
  0
DICTIONARY
  5
C
100
AcDbDictionary
280
0
281
1
  3
ACAD_GROUP
350
D
  3
ACAD_MLINESTYLE
350
17
  3
ACAD_LAYOUT
350
1A
  3
ACAD_PLOTSETTINGS
350
19
  3
ACAD_PLOTSTYLENAME
350
E
  0
DICTIONARY
  5
D
102
{ACAD_REACTORS
330
C
102
}
100
AcDbDictionary
280
0
281
1
  0
ACDBDICTIONARYWDFLT
  5
E
102
{ACAD_REACTORS
330
C
102
}
100
AcDbDictionary
281
1
  3
Normal
350
F
100
AcDbDictionaryWithDefault
340
F
  0
DICTIONARY
  5
17
102
{ACAD_REACTORS
330
C
102
}
100
AcDbDictionary
280
0
281
1
  3
Standard
350
18
  0
DICTIONARY
  5
19
102
{ACAD_REACTORS
330
C
102
}
100
AcDbDictionary
281
1
  0
DICTIONARY
  5
1A
102
{ACAD_REACTORS
330
C
102
}
100
AcDbDictionary
281
1
  3
Model
350
2C0
  3
Layout1
350
2C1
  0
ACDBPLACEHOLDER
  5
F
102
{ACAD_REACTORS
330
E
102
}
  0
MLINESTYLE
  5
18
102
{ACAD_REACTORS
330
17
102
}
100
AcDbMlineStyle
  2
STANDARD
 70
0
  3

 62
256
 51
90.0
 52
90.0
 71
2
 49
0.5
 62
256
  6
BYLAYER
 49
-0.5
 62
256
  6
BYLAYER
  0
LAYOUT
  5
2C0
102
{ACAD_REACTORS
330
1A
102
}
100
AcDbPlotSettings
  1

  2
none_device
  4
ANSI_A_(11.00_x_8.50_Inches)
  6

 40
0.0
 41
0.0
 42
0.0
 43
0.0
 44
279.4
 45
215.9
 46
0.0
 47
0.0
 48
0.0
 49
0.0
140
0.0
141
0.0
142
1.0
143
1.0
 70
1024
 72
0
 73
0
 74
0
  7

 75
0
147
1.0
148
0.0
149
0.0
100
AcDbLayout
  1
Model
 70
0
 71
0
 10
0.0
 20
0.0
 11
11.0
 21
8.5
 12
0.0
 22
0.0
 32
0.0
 14
0.0
 24
0.0
 34
0.0
 15
0.0
 25
0.0
 35
0.0
146
0.0
 13
0.0
 23
0.0
 33
0.0
 16
1.0
 26
0.0
 36
0.0
 17
0.0
 27
1.0
 37
0.0
 76
0
330
202
345
0
346
0
  0
LAYOUT
  5
2C1
102
{ACAD_REACTORS
330
1A
102
}
100
AcDbPlotSettings
  1

  2
none_device
  4
ANSI_A_(11.00_x_8.50_Inches)
  6

 40
0.0
 41
0.0
 42
0.0
 43
0.0
 44
279.4
 45
215.9
 46
0.0
 47
0.0
 48
0.0
 49
0.0
140
0.0
141
0.0
142
1.0
143
1.0
 70
0
 72
0
 73
0
 74
0
  7

 75
0
147
1.0
148
0.0
149
0.0
100
AcDbLayout
  1
Layout1
 70
0
 71
1
 10
0.0
 20
0.0
 11
11.0
 21
8.5
 12
0.0
 22
0.0
 32
0.0
 14
0.0
 24
0.0
 34
0.0
 15
0.0
 25
0.0
 35
0.0
146
0.0
 13
0.0
 23
0.0
 33
0.0
 16
1.0
 26
0.0
 36
0.0
 17
0.0
 27
1.0
 37
0.0
 76
0
330
203
345
0
346
0
  0
ENDSEC
  0
EOF
