999
DXF file: 2470-5462_top.dxf
999
Pro/ENGINEER 2018400 by Parametric Technology Corporation
  0
SECTION
  2
HEADER
  9
$ACADVER
  1
AC1027
  9
$DWGCODEPAGE
  3
ANSI_1252
  9
$EXTMAX
 10
11.0
 20
8.5
 30
0.0
  9
$EXTMIN
 10
0.0
 20
0.0
 30
0.0
  9
$LIMMIN
 10
0.0
 20
0.0
  9
$LIMMAX
 10
11.0
 20
8.5
  9
$VIEWCTR
 10
5.5
 20
4.25
  9
$VIEWSIZE
 40
8.5
  9
$CLAYER
  8
0
  9
$LTSCALE
 40
0.605
  9
$CELTYPE
  6
BYLAYER
  9
$DIMSCALE
 40
1.0
  9
$DIMASZ
 40
0.1
  9
$DIMEXO
 40
0.0625
  9
$DIMDLI
 40
0.418
  9
$DIMEXE
 40
0.125
  9
$DIMCEN
 40
0.099
  9
$DIMLFAC
 40
1.0
  9
$DIMBLK
  1
_FILLED
  9
$DIMALT
 70
1
  9
$DIMALTD
 70
2
  9
$DIMALTTD
 70
2
  9
$DIMALTF
 40
25.4
  9
$DIMTXT
 40
0.08
  9
$DIMTOL
 70
1
  9
$DIMLIM
 70
0
  9
$DIMTFAC
 40
1.0
  9
$DIMTP
 40
0.001
  9
$DIMTM
 40
0.001
  9
$DIMGAP
 40
0.09
  9
$DIMDSEP
 70
46
  9
$AUNITS
 70
0
  9
$PDMODE
 70
3
  9
$PDSIZE
 40
0.06
  9
$HANDSEED
  5
407
  9
$TILEMODE
 70
1
  9
$MEASUREMENT
 70
0
  9
$INSUNITS
 70
1
  0
ENDSEC
  0
SECTION
  2
CLASSES
  0
CLASS
  1
ACDBDICTIONARYWDFLT
  2
AcDbDictionaryWithDefault
  3
AutoCAD 2000
 90
0
 91
1
280
0
281
0
  0
CLASS
  1
ACDBPLACEHOLDER
  2
AcDbPlaceHolder
  3
AutoCAD 2000
 90
0
 91
1
280
0
281
0
  0
CLASS
  1
LAYOUT
  2
AcDbLayout
  3
AutoCAD 2000
 90
0
 91
0
280
0
281
0
  0
ENDSEC
  0
SECTION
  2
TABLES
  0
TABLE
  2
VPORT
  5
8
100
AcDbSymbolTable
 70
2
  0
VPORT
  5
1F4
100
AcDbSymbolTableRecord
100
AcDbViewportTableRecord
  2
*ACTIVE
 70
0
 10
0.0
 20
0.0
 11
1.0
 21
1.0
 12
5.5
 22
4.25
 13
0.0
 23
0.0
 14
1.0
 24
1.0
 15
0.0
 25
0.0
 16
0.0
 26
0.0
 36
1.0
 17
0.0
 27
0.0
 37
0.0
 40
8.5
 41
1.2941176471
 42
50.0
 43
0.0
 44
0.0
 50
0.0
 51
0.0
 71
0
 72
100
 73
1
 74
1
 75
0
 76
0
 77
0
 78
0
  0
ENDTAB
  0
TABLE
  2
LTYPE
  5
5
100
AcDbSymbolTable
 70
6
  0
LTYPE
  5
14
100
AcDbSymbolTableRecord
100
AcDbLinetypeTableRecord
  2
BYBLOCK
 70
0
  3

 72
65
 73
0
 40
0.0
  0
LTYPE
  5
15
100
AcDbSymbolTableRecord
100
AcDbLinetypeTableRecord
  2
BYLAYER
 70
0
  3

 72
65
 73
0
 40
0.0
  0
LTYPE
  5
16
100
AcDbSymbolTableRecord
100
AcDbLinetypeTableRecord
  2
CONTINUOUS
 70
64
  3
Solid line
 72
65
 73
0
 40
0.0
  0
LTYPE
  5
1F5
100
AcDbSymbolTableRecord
100
AcDbLinetypeTableRecord
  2
CENTER
 70
64
  3
____ _ ____ _ ____ _ ____ _ ____ _ ____ _ ____
 72
65
 73
4
 40
0.6
 49
0.375
 74
0
 49
-0.075
 74
0
 49
0.075
 74
0
 49
-0.075
 74
0
  0
LTYPE
  5
1F6
100
AcDbSymbolTableRecord
100
AcDbLinetypeTableRecord
  2
HIDDEN
 70
64
  3
- - - - - - - - - - - - - - - - - - - -
 72
65
 73
2
 40
0.2
 49
0.1
 74
0
 49
-0.1
 74
0
  0
LTYPE
  5
1F7
100
AcDbSymbolTableRecord
100
AcDbLinetypeTableRecord
  2
PHANTOM
 70
64
  3
_____ _ _ _____ _ _ _____ _ _ _____
 72
65
 73
6
 40
0.8
 49
0.45
 74
0
 49
-0.05
 74
0
 49
0.1
 74
0
 49
-0.05
 74
0
 49
0.1
 74
0
 49
-0.05
 74
0
  0
LTYPE
  5
1F8
100
AcDbSymbolTableRecord
100
AcDbLinetypeTableRecord
  2
DOT
 70
64
  3
. . . . . . . . . . . . . . . . . . . .
 72
65
 73
2
 40
0.2
 49
0.1
 74
0
 49
-0.1
 74
0
  0
LTYPE
  5
1F9
100
AcDbSymbolTableRecord
100
AcDbLinetypeTableRecord
  2
DASHED
 70
64
  3
- - - - - - - - - - - - - - - - - - - -
 72
65
 73
2
 40
0.2
 49
0.1
 74
0
 49
-0.1
 74
0
  0
ENDTAB
  0
TABLE
  2
LAYER
  5
2
100
AcDbSymbolTable
 70
36
  0
LAYER
  5
10
100
AcDbSymbolTableRecord
100
AcDbLayerTableRecord
  2
0
 70
0
 62
7
  6
CONTINUOUS
370
-3
390
F
  0
LAYER
  5
1FA
100
AcDbSymbolTableRecord
100
AcDbLayerTableRecord
  2
DEFAULT_1
 70
0
 62
7
  6
CENTER
370
-3
390
F
  0
LAYER
  5
1FB
100
AcDbSymbolTableRecord
100
AcDbLayerTableRecord
  2
DEFAULT_2
 70
0
 62
8
  6
HIDDEN
370
-3
390
F
  0
LAYER
  5
1FC
100
AcDbSymbolTableRecord
100
AcDbLayerTableRecord
  2
DEFAULT_3
 70
0
 62
7
  6
PHANTOM
370
-3
390
F
  0
LAYER
  5
1FD
100
AcDbSymbolTableRecord
100
AcDbLayerTableRecord
  2
DEFAULT_COORDINATE_SYSTEM
 70
0
 62
7
  6
CONTINUOUS
370
-3
390
F
  0
LAYER
  5
1FE
100
AcDbSymbolTableRecord
100
AcDbLayerTableRecord
  2
DEFAULT_DATUM_AXES
 70
0
 62
7
  6
CONTINUOUS
370
-3
390
F
  0
LAYER
  5
1FF
100
AcDbSymbolTableRecord
100
AcDbLayerTableRecord
  2
DEFAULT_DATUM_PLANES
 70
0
 62
7
  6
CONTINUOUS
370
-3
390
F
  0
ENDTAB
  0
TABLE
  2
STYLE
  5
3
100
AcDbSymbolTable
 70
1
  0
STYLE
  5
11
100
AcDbSymbolTableRecord
100
AcDbTextStyleTableRecord
  2
STANDARD
 70
0
 40
0.0
 41
0.8
 50
0.0
 71
0
 42
0.2
  3
txt
  4

  0
STYLE
  5
200
100
AcDbSymbolTableRecord
100
AcDbTextStyleTableRecord
  2
TEXTSTYLE_1
 70
0
 40
0.0
 41
0.8
 50
0.0
 71
0
 42
0.2
  3
gdt
  4

  0
ENDTAB
  0
TABLE
  2
VIEW
  5
6
100
AcDbSymbolTable
 70
0
  0
ENDTAB
  0
TABLE
  2
UCS
  5
7
100
AcDbSymbolTable
 70
0
  0
ENDTAB
  0
TABLE
  2
APPID
  5
9
100
AcDbSymbolTable
 70
1
  0
APPID
  5
201
100
AcDbSymbolTableRecord
100
AcDbRegAppTableRecord
  2
ACAD
 70
0
  0
ENDTAB
  0
TABLE
  2
BLOCK_RECORD
  5
1
100
AcDbSymbolTable
 70
0
  0
BLOCK_RECORD
  5
202
100
AcDbSymbolTableRecord
100
AcDbBlockTableRecord
  2
*Model_Space
  0
BLOCK_RECORD
  5
203
100
AcDbSymbolTableRecord
100
AcDbBlockTableRecord
  2
*Paper_Space
  0
BLOCK_RECORD
  5
204
100
AcDbSymbolTableRecord
100
AcDbBlockTableRecord
  2
_FILLED
  0
ENDTAB
  0
TABLE
  2
DIMSTYLE
  5
A
100
AcDbSymbolTable
 70
1
100
AcDbDimStyleTable
 71
0
  0
DIMSTYLE
105
205
100
AcDbSymbolTableRecord
100
AcDbDimStyleTableRecord
  2
STANDARD
 70
0
  3

  4

 40
1.0
 41
0.1
 42
0.0625
 43
0.38
 44
0.125
 45
0.0
 46
0.0
 47
0.001
 48
0.001
140
0.08
141
0.09
142
0.0
143
25.4
144
1.0
145
0.0
146
1.0
147
0.09
 71
1.0
 72
0.0
 73
1
 74
1
 75
0
 76
0
 77
0
 78
4
 79
1
170
1
171
2
172
0
173
0
174
0
175
0
176
0
177
0
178
0
270
2
179
3
271
3
272
3
273
2
274
2
275
0
280
0
281
0
282
0
283
1
284
4
285
0
286
0
287
3
288
0
340
11
278
46
341
204
342
204
343
204
344
204
  0
ENDTAB
  0
ENDSEC
  0
SECTION
  2
BLOCKS
  0
BLOCK
  5
20
100
AcDbEntity
  8
0
100
AcDbBlockBegin
  2
*Model_Space
 70
0
 10
0.0
 20
0.0
 30
0.0
  3
*Model_Space
  1

  0
ENDBLK
  5
21
100
AcDbEntity
  8
0
100
AcDbBlockEnd
  0
BLOCK
  5
1C
100
AcDbEntity
  8
0
100
AcDbBlockBegin
  2
*Paper_Space
 70
0
 10
0.0
 20
0.0
 30
0.0
  3
*Paper_Space
  1

  0
ENDBLK
  5
1D
100
AcDbEntity
  8
0
100
AcDbBlockEnd
  0
BLOCK
  5
206
100
AcDbEntity
  8
0
100
AcDbBlockBegin
  2
_FILLED
 70
64
 10
0.0
 20
0.0
  3
_FILLED
  1

  0
SOLID
  5
207
100
AcDbEntity
  8
0
  6
BYBLOCK
 62
0
100
AcDbTrace
 10
0.0
 20
0.0
 11
-1.0
 21
0.2
 12
-1.0
 22
-0.2
 13
-1.0
 23
-0.2
  0
ENDBLK
  5
208
100
AcDbEntity
  8
0
  6
BYBLOCK
 62
0
100
AcDbBlockEnd
  0
ENDSEC
  0
SECTION
  2
ENTITIES
  0
MTEXT
  5
209
100
AcDbEntity
  8
0
100
AcDbMText
 62
2
  6
CONTINUOUS
  7
STANDARD
 71
3
 72
1
 10
5.518915591
 20
1.0757023561
 30
0.0
 11
1.0
 21
0.0
 31
0.0
 73
2
 44
0.9
  1
SCALE  .500
 40
0.08
 41
0.704
  0
LINE
  5
20A
100
AcDbEntity
  8
0
100
AcDbLine
 62
7
  6
CONTINUOUS
 10
0.0
 20
0.0
 11
0.0
 21
8.5
  0
LINE
  5
20B
100
AcDbEntity
  8
0
100
AcDbLine
 62
7
  6
CONTINUOUS
 10
0.0
 20
0.0
 11
11.0
 21
0.0
  0
LINE
  5
20C
100
AcDbEntity
  8
0
100
AcDbLine
 62
7
  6
CONTINUOUS
 10
0.0
 20
8.5
 11
11.0
 21
8.5
  0
LINE
  5
20D
100
AcDbEntity
  8
0
100
AcDbLine
 62
7
  6
CONTINUOUS
 10
11.0
 20
0.0
 11
11.0
 21
8.5
  0
LINE
  5
20E
100
AcDbEntity
  8
0
100
AcDbLine
 62
9
  6
CONTINUOUS
 10
2.8697519528
 20
5.9805402627
 11
2.8697519528
 21
5.7602928891
  0
LINE
  5
20F
100
AcDbEntity
  8
0
100
AcDbLine
 62
9
  6
CONTINUOUS
 10
2.8814671828
 20
5.7140207449
 11
2.8814671828
 21
6.0268124069
  0
LINE
  5
210
100
AcDbEntity
  8
0
100
AcDbLine
 62
9
  6
CONTINUOUS
 10
2.9064281855
 20
5.6904165759
 11
2.9064281855
 21
6.0504165759
  0
LINE
  5
211
100
AcDbEntity
  8
0
100
AcDbLine
 62
9
  6
CONTINUOUS
 10
2.9139126737
 20
5.6904165759
 11
2.9139126737
 21
6.0504165759
  0
LINE
  5
212
100
AcDbEntity
  8
0
100
AcDbLine
 62
9
  6
CONTINUOUS
 10
2.9368065356
 20
5.7053731159
 11
2.9368065356
 21
6.0354600359
  0
LINE
  5
213
100
AcDbEntity
  8
0
100
AcDbLine
 62
9
  6
CONTINUOUS
 10
2.9530123425
 20
6.0236063418
 11
2.9530123425
 21
5.71722681
  0
LINE
  5
214
100
AcDbEntity
  8
0
100
AcDbLine
 62
7
  6
CONTINUOUS
 10
4.0274942073
 20
6.0989195357
 11
4.0264871625
 21
6.0979280861
  0
LINE
  5
215
100
AcDbEntity
  8
0
100
AcDbLine
 62
9
  6
CONTINUOUS
 10
3.2049410536
 20
5.7615867747
 11
3.2049410536
 21
5.9792463771
  0
LINE
  5
216
100
AcDbEntity
  8
0
100
AcDbLine
 62
7
  6
CONTINUOUS
 10
3.2201216251
 20
5.7804165759
 11
3.2201216251
 21
5.9604165759
  0
LINE
  5
217
100
AcDbEntity
  8
0
100
AcDbLine
 62
9
  6
CONTINUOUS
 10
3.2651216251
 20
5.7804165759
 11
3.2651216251
 21
5.9604165759
  0
LINE
  5
218
100
AcDbEntity
  8
0
100
AcDbLine
 62
7
  6
CONTINUOUS
 10
3.2701216251
 20
5.9616662475
 11
3.2701216251
 21
5.7791669043
  0
LINE
  5
219
100
AcDbEntity
  8
0
100
AcDbLine
 62
7
  6
CONTINUOUS
 10
3.338915591
 20
6.4829039814
 11
3.338915591
 21
6.4754194932
  0
LINE
  5
21A
100
AcDbEntity
  8
0
100
AcDbLine
 62
7
  6
CONTINUOUS
 10
3.338915591
 20
5.2579291704
 11
3.338915591
 21
5.2654136586
  0
LINE
  5
21B
100
AcDbEntity
  8
0
100
AcDbLine
 62
7
  6
CONTINUOUS
 10
3.428915591
 20
6.1692105418
 11
3.428915591
 21
6.1242105419
  0
LINE
  5
21C
100
AcDbEntity
  8
0
100
AcDbLine
 62
7
  6
CONTINUOUS
 10
3.428915591
 20
5.5716226099
 11
3.428915591
 21
5.6166226099
  0
LINE
  5
21D
100
AcDbEntity
  8
0
100
AcDbLine
 62
7
  6
CONTINUOUS
 10
3.608915591
 20
6.1692105418
 11
3.608915591
 21
6.1242105419
  0
LINE
  5
21E
100
AcDbEntity
  8
0
100
AcDbLine
 62
7
  6
CONTINUOUS
 10
3.608915591
 20
5.5716226099
 11
3.608915591
 21
5.6166226099
  0
LINE
  5
21F
100
AcDbEntity
  8
0
100
AcDbLine
 62
7
  6
CONTINUOUS
 10
3.698915591
 20
6.4829039814
 11
3.698915591
 21
6.4754194932
  0
LINE
  5
220
100
AcDbEntity
  8
0
100
AcDbLine
 62
7
  6
CONTINUOUS
 10
3.698915591
 20
5.2579291704
 11
3.698915591
 21
5.2654136586
  0
LINE
  5
221
100
AcDbEntity
  8
0
100
AcDbLine
 62
7
  6
CONTINUOUS
 10
3.767709557
 20
5.7791669043
 11
3.767709557
 21
5.9616662475
  0
LINE
  5
222
100
AcDbEntity
  8
0
100
AcDbLine
 62
9
  6
CONTINUOUS
 10
3.772709557
 20
5.9604165759
 11
3.772709557
 21
5.7804165759
  0
LINE
  5
223
100
AcDbEntity
  8
0
100
AcDbLine
 62
7
  6
CONTINUOUS
 10
3.817709557
 20
5.9604165759
 11
3.817709557
 21
5.7804165759
  0
LINE
  5
224
100
AcDbEntity
  8
0
100
AcDbLine
 62
9
  6
CONTINUOUS
 10
3.8328901284
 20
5.9792463771
 11
3.8328901284
 21
5.7615867747
  0
LINE
  5
225
100
AcDbEntity
  8
0
100
AcDbLine
 62
9
  6
CONTINUOUS
 10
3.9252225889
 20
5.9996281676
 11
3.9252226962
 21
6.0913708389
  0
LINE
  5
226
100
AcDbEntity
  8
0
100
AcDbLine
 62
9
  6
CONTINUOUS
 10
3.9252226962
 20
5.6494623129
 11
3.9252225956
 21
5.7412049829
  0
LINE
  5
227
100
AcDbEntity
  8
0
100
AcDbLine
 62
9
  6
CONTINUOUS
 10
3.9622046743
 20
5.670310512
 11
3.9622046743
 21
5.7343826053
  0
LINE
  5
228
100
AcDbEntity
  8
0
100
AcDbLine
 62
9
  6
CONTINUOUS
 10
3.9622046743
 20
6.0064505465
 11
3.9622046743
 21
6.0705226398
  0
LINE
  5
229
100
AcDbEntity
  8
0
100
AcDbLine
 62
9
  6
CONTINUOUS
 10
4.0264871625
 20
6.0979280861
 11
4.0264871625
 21
6.0164661489
  0
LINE
  5
22A
100
AcDbEntity
  8
0
100
AcDbLine
 62
9
  6
CONTINUOUS
 10
4.0264871625
 20
5.7243670029
 11
4.0264871625
 21
5.6429050657
  0
LINE
  5
22B
100
AcDbEntity
  8
0
100
AcDbLine
 62
9
  6
CONTINUOUS
 10
4.0274942073
 20
6.0989195357
 11
4.0274942073
 21
6.0166021711
  0
LINE
  5
22C
100
AcDbEntity
  8
0
100
AcDbLine
 62
9
  6
CONTINUOUS
 10
4.0274942073
 20
5.7242309806
 11
4.0274942073
 21
5.6419136161
  0
LINE
  5
22D
100
AcDbEntity
  8
0
100
AcDbLine
 62
9
  6
CONTINUOUS
 10
4.0723413332
 20
6.09665783
 11
4.0723413332
 21
6.0222108199
  0
LINE
  5
22E
100
AcDbEntity
  8
0
100
AcDbLine
 62
9
  6
CONTINUOUS
 10
4.0723413332
 20
5.7186223318
 11
4.0723413332
 21
5.6441753218
  0
LINE
  5
22F
100
AcDbEntity
  8
0
100
AcDbLine
 62
9
  6
CONTINUOUS
 10
4.0768032758
 20
6.0934815388
 11
4.0768032758
 21
6.022709857
  0
LINE
  5
230
100
AcDbEntity
  8
0
100
AcDbLine
 62
9
  6
CONTINUOUS
 10
4.0768032758
 20
5.7181232948
 11
4.0768032758
 21
5.647351613
  0
LINE
  5
231
100
AcDbEntity
  8
0
100
AcDbLine
 62
9
  6
CONTINUOUS
 10
4.0848188396
 20
5.71722681
 11
4.0848188396
 21
6.0236063418
  0
LINE
  5
232
100
AcDbEntity
  8
0
100
AcDbLine
 62
9
  6
CONTINUOUS
 10
4.1010246465
 20
6.0354600359
 11
4.1010246465
 21
5.7053731159
  0
LINE
  5
233
100
AcDbEntity
  8
0
100
AcDbLine
 62
9
  6
CONTINUOUS
 10
4.1239185083
 20
6.0504165759
 11
4.1239185083
 21
5.6904165759
  0
LINE
  5
234
100
AcDbEntity
  8
0
100
AcDbLine
 62
9
  6
CONTINUOUS
 10
4.1314029966
 20
6.0504165759
 11
4.1314029966
 21
5.6904165759
  0
LINE
  5
235
100
AcDbEntity
  8
0
100
AcDbLine
 62
9
  6
CONTINUOUS
 10
4.1563639993
 20
6.0268124069
 11
4.1563639993
 21
5.7140207449
  0
LINE
  5
236
100
AcDbEntity
  8
0
100
AcDbLine
 62
9
  6
CONTINUOUS
 10
4.1680792293
 20
5.7602928891
 11
4.1680792293
 21
5.9805402627
  0
LINE
  5
237
100
AcDbEntity
  8
0
100
AcDbLine
 62
9
  6
CONTINUOUS
 10
4.3657035765
 20
6.1016833156
 11
4.3657035765
 21
5.6391498361
  0
LINE
  5
238
100
AcDbEntity
  8
0
100
AcDbLine
 62
9
  6
CONTINUOUS
 10
4.370069459
 20
6.105238298
 11
4.370069459
 21
5.6355948538
  0
LINE
  5
239
100
AcDbEntity
  8
0
100
AcDbLine
 62
9
  6
CONTINUOUS
 10
4.4308603407
 20
6.0997180781
 11
4.4308603407
 21
5.6411150737
  0
LINE
  5
23A
100
AcDbEntity
  8
0
100
AcDbLine
 62
9
  6
CONTINUOUS
 10
4.4381935368
 20
6.0939664367
 11
4.4381935368
 21
5.6468667151
  0
LINE
  5
23B
100
AcDbEntity
  8
0
100
AcDbLine
 62
9
  6
CONTINUOUS
 10
5.0696376453
 20
6.0939664367
 11
5.0696376453
 21
5.6468667151
  0
LINE
  5
23C
100
AcDbEntity
  8
0
100
AcDbLine
 62
9
  6
CONTINUOUS
 10
5.0769708413
 20
6.0997180781
 11
5.0769708413
 21
5.6411150737
  0
LINE
  5
23D
100
AcDbEntity
  8
0
100
AcDbLine
 62
9
  6
CONTINUOUS
 10
5.1198072955
 20
6.1186787281
 11
5.1198072955
 21
5.6221544236
  0
LINE
  5
23E
100
AcDbEntity
  8
0
100
AcDbLine
 62
9
  6
CONTINUOUS
 10
5.1313000869
 20
6.1227268431
 11
5.1313000869
 21
5.6181063087
  0
LINE
  5
23F
100
AcDbEntity
  8
0
100
AcDbLine
 62
7
  6
CONTINUOUS
 10
5.2340430669
 20
5.8704824869
 11
5.2340430594
 21
1.7870551721
  0
LINE
  5
240
100
AcDbEntity
  8
0
100
AcDbLine
 62
7
  6
CONTINUOUS
 10
7.0113440195
 20
5.6429050657
 11
7.0103369748
 21
5.6419136161
  0
LINE
  5
241
100
AcDbEntity
  8
0
100
AcDbLine
 62
7
  6
CONTINUOUS
 10
5.8037881227
 20
1.7870551721
 11
5.8037881055
 21
5.8705164184
  0
LINE
  5
242
100
AcDbEntity
  8
0
100
AcDbLine
 62
7
  6
CONTINUOUS
 10
4.0274942073
 20
5.6419136161
 11
4.0264871625
 21
5.6429050657
  0
LINE
  5
243
100
AcDbEntity
  8
0
100
AcDbLine
 62
7
  6
CONTINUOUS
 10
5.8037870719
 20
5.8705164076
 11
5.8037881227
 21
5.8704160699
  0
LINE
  5
244
100
AcDbEntity
  8
0
100
AcDbLine
 62
9
  6
CONTINUOUS
 10
5.9066032689
 20
5.6182172214
 11
5.9066032689
 21
6.1226159304
  0
LINE
  5
245
100
AcDbEntity
  8
0
100
AcDbLine
 62
9
  6
CONTINUOUS
 10
5.9182633254
 20
5.6222118656
 11
5.9182633254
 21
6.1186212862
  0
LINE
  5
246
100
AcDbEntity
  8
0
100
AcDbLine
 62
9
  6
CONTINUOUS
 10
5.958945283
 20
5.6404880764
 11
5.958945283
 21
6.1003450754
  0
LINE
  5
247
100
AcDbEntity
  8
0
100
AcDbLine
 62
9
  6
CONTINUOUS
 10
5.9663788267
 20
5.6464994226
 11
5.9663788267
 21
6.0943337292
  0
LINE
  5
248
100
AcDbEntity
  8
0
100
AcDbLine
 62
9
  6
CONTINUOUS
 10
6.6014523553
 20
5.6464994226
 11
6.6014523553
 21
6.0943337292
  0
LINE
  5
249
100
AcDbEntity
  8
0
100
AcDbLine
 62
9
  6
CONTINUOUS
 10
6.6088858991
 20
5.6404880764
 11
6.6088858991
 21
6.1003450754
  0
LINE
  5
24A
100
AcDbEntity
  8
0
100
AcDbLine
 62
9
  6
CONTINUOUS
 10
6.6662929727
 20
5.6354028963
 11
6.6662929727
 21
6.1054302555
  0
LINE
  5
24B
100
AcDbEntity
  8
0
100
AcDbLine
 62
9
  6
CONTINUOUS
 10
6.6708418906
 20
5.6392328143
 11
6.6708418906
 21
6.1016003374
  0
LINE
  5
24C
100
AcDbEntity
  8
0
100
AcDbLine
 62
9
  6
CONTINUOUS
 10
6.8697519528
 20
5.9805402627
 11
6.8697519528
 21
5.7602928891
  0
LINE
  5
24D
100
AcDbEntity
  8
0
100
AcDbLine
 62
9
  6
CONTINUOUS
 10
6.8814671828
 20
5.7140207449
 11
6.8814671828
 21
6.0268124069
  0
LINE
  5
24E
100
AcDbEntity
  8
0
100
AcDbLine
 62
9
  6
CONTINUOUS
 10
6.9064281855
 20
5.6904165759
 11
6.9064281855
 21
6.0504165759
  0
LINE
  5
24F
100
AcDbEntity
  8
0
100
AcDbLine
 62
9
  6
CONTINUOUS
 10
6.9139126737
 20
5.6904165759
 11
6.9139126737
 21
6.0504165759
  0
LINE
  5
250
100
AcDbEntity
  8
0
100
AcDbLine
 62
9
  6
CONTINUOUS
 10
6.9368065356
 20
5.7053731159
 11
6.9368065356
 21
6.0354600359
  0
LINE
  5
251
100
AcDbEntity
  8
0
100
AcDbLine
 62
9
  6
CONTINUOUS
 10
6.9530123425
 20
6.0236063418
 11
6.9530123425
 21
5.71722681
  0
LINE
  5
252
100
AcDbEntity
  8
0
100
AcDbLine
 62
9
  6
CONTINUOUS
 10
6.9618566879
 20
5.6464059546
 11
6.9618566879
 21
5.7182159882
  0
LINE
  5
253
100
AcDbEntity
  8
0
100
AcDbLine
 62
9
  6
CONTINUOUS
 10
6.9618566879
 20
6.0226171636
 11
6.9618566879
 21
6.0944271972
  0
LINE
  5
254
100
AcDbEntity
  8
0
100
AcDbLine
 62
9
  6
CONTINUOUS
 10
6.9660594123
 20
5.6434847697
 11
6.9660594123
 21
5.7186860335
  0
LINE
  5
255
100
AcDbEntity
  8
0
100
AcDbLine
 62
9
  6
CONTINUOUS
 10
6.9660594123
 20
6.0221471183
 11
6.9660594123
 21
6.0973483821
  0
LINE
  5
256
100
AcDbEntity
  8
0
100
AcDbLine
 62
9
  6
CONTINUOUS
 10
7.0103369748
 20
5.6419136161
 11
7.0103369748
 21
5.7242309806
  0
LINE
  5
257
100
AcDbEntity
  8
0
100
AcDbLine
 62
9
  6
CONTINUOUS
 10
7.0103369748
 20
6.0166021711
 11
7.0103369748
 21
6.0989195357
  0
LINE
  5
258
100
AcDbEntity
  8
0
100
AcDbLine
 62
9
  6
CONTINUOUS
 10
7.0113440195
 20
5.6429050657
 11
7.0113440195
 21
5.7243670029
  0
LINE
  5
259
100
AcDbEntity
  8
0
100
AcDbLine
 62
9
  6
CONTINUOUS
 10
7.0113440195
 20
6.0164661489
 11
7.0113440195
 21
6.0979280861
  0
LINE
  5
25A
100
AcDbEntity
  8
0
100
AcDbLine
 62
9
  6
CONTINUOUS
 10
3.4087919042
 20
5.2212529377
 11
3.6290392778
 21
5.2212529377
  0
LINE
  5
25B
100
AcDbEntity
  8
0
100
AcDbLine
 62
9
  6
CONTINUOUS
 10
7.4087919042
 20
5.2212529377
 11
7.6290392778
 21
5.2212529377
  0
LINE
  5
25C
100
AcDbEntity
  8
0
100
AcDbLine
 62
9
  6
CONTINUOUS
 10
7.675311422
 20
5.2329681677
 11
7.36251976
 21
5.2329681677
  0
LINE
  5
25D
100
AcDbEntity
  8
0
100
AcDbLine
 62
9
  6
CONTINUOUS
 10
3.675311422
 20
5.2329681677
 11
3.36251976
 21
5.2329681677
  0
LINE
  5
25E
100
AcDbEntity
  8
0
100
AcDbLine
 62
9
  6
CONTINUOUS
 10
7.698915591
 20
5.2579291704
 11
7.338915591
 21
5.2579291704
  0
LINE
  5
25F
100
AcDbEntity
  8
0
100
AcDbLine
 62
9
  6
CONTINUOUS
 10
3.698915591
 20
5.2579291704
 11
3.338915591
 21
5.2579291704
  0
LINE
  5
260
100
AcDbEntity
  8
0
100
AcDbLine
 62
9
  6
CONTINUOUS
 10
7.698915591
 20
5.2654136586
 11
7.338915591
 21
5.2654136586
  0
LINE
  5
261
100
AcDbEntity
  8
0
100
AcDbLine
 62
9
  6
CONTINUOUS
 10
3.698915591
 20
5.2654136586
 11
3.338915591
 21
5.2654136586
  0
LINE
  5
262
100
AcDbEntity
  8
0
100
AcDbLine
 62
9
  6
CONTINUOUS
 10
7.683959051
 20
5.2883075204
 11
7.353872131
 21
5.2883075204
  0
LINE
  5
263
100
AcDbEntity
  8
0
100
AcDbLine
 62
9
  6
CONTINUOUS
 10
3.683959051
 20
5.2883075204
 11
3.353872131
 21
5.2883075204
  0
LINE
  5
264
100
AcDbEntity
  8
0
100
AcDbLine
 62
9
  6
CONTINUOUS
 10
3.3657258252
 20
5.3045133274
 11
3.6721053569
 21
5.3045133274
  0
LINE
  5
265
100
AcDbEntity
  8
0
100
AcDbLine
 62
9
  6
CONTINUOUS
 10
7.3657258252
 20
5.3045133274
 11
7.6721053569
 21
5.3045133274
  0
LINE
  5
266
100
AcDbEntity
  8
0
100
AcDbLine
 62
9
  6
CONTINUOUS
 10
7.0756265078
 20
6.0705226398
 11
7.0756265078
 21
6.0064505465
  0
LINE
  5
267
100
AcDbEntity
  8
0
100
AcDbLine
 62
9
  6
CONTINUOUS
 10
7.0756265078
 20
5.7343826053
 11
7.0756265078
 21
5.670310512
  0
LINE
  5
268
100
AcDbEntity
  8
0
100
AcDbLine
 62
9
  6
CONTINUOUS
 10
7.1126085932
 20
5.7412049842
 11
7.1126084859
 21
5.6494623129
  0
LINE
  5
269
100
AcDbEntity
  8
0
100
AcDbLine
 62
9
  6
CONTINUOUS
 10
7.1126084859
 20
6.0913708389
 11
7.1126085862
 21
5.9996281689
  0
LINE
  5
26A
100
AcDbEntity
  8
0
100
AcDbLine
 62
9
  6
CONTINUOUS
 10
7.2049410536
 20
5.7615867747
 11
7.2049410536
 21
5.9792463771
  0
LINE
  5
26B
100
AcDbEntity
  8
0
100
AcDbLine
 62
7
  6
CONTINUOUS
 10
7.2201216251
 20
5.7804165759
 11
7.2201216251
 21
5.9604165759
  0
LINE
  5
26C
100
AcDbEntity
  8
0
100
AcDbLine
 62
9
  6
CONTINUOUS
 10
7.2651216251
 20
5.7804165759
 11
7.2651216251
 21
5.9604165759
  0
LINE
  5
26D
100
AcDbEntity
  8
0
100
AcDbLine
 62
7
  6
CONTINUOUS
 10
7.2701216251
 20
5.9616662475
 11
7.2701216251
 21
5.7791669043
  0
LINE
  5
26E
100
AcDbEntity
  8
0
100
AcDbLine
 62
9
  6
CONTINUOUS
 10
7.6277453923
 20
5.5564420385
 11
7.4100857898
 21
5.5564420385
  0
LINE
  5
26F
100
AcDbEntity
  8
0
100
AcDbLine
 62
9
  6
CONTINUOUS
 10
3.6277453923
 20
5.5564420385
 11
3.4100857898
 21
5.5564420385
  0
LINE
  5
270
100
AcDbEntity
  8
0
100
AcDbLine
 62
7
  6
CONTINUOUS
 10
7.608915591
 20
5.5716226099
 11
7.428915591
 21
5.5716226099
  0
LINE
  5
271
100
AcDbEntity
  8
0
100
AcDbLine
 62
7
  6
CONTINUOUS
 10
3.608915591
 20
5.5716226099
 11
3.428915591
 21
5.5716226099
  0
LINE
  5
272
100
AcDbEntity
  8
0
100
AcDbLine
 62
9
  6
CONTINUOUS
 10
7.608915591
 20
5.6166226099
 11
7.428915591
 21
5.6166226099
  0
LINE
  5
273
100
AcDbEntity
  8
0
100
AcDbLine
 62
9
  6
CONTINUOUS
 10
3.608915591
 20
5.6166226099
 11
3.428915591
 21
5.6166226099
  0
LINE
  5
274
100
AcDbEntity
  8
0
100
AcDbLine
 62
7
  6
CONTINUOUS
 10
3.4307671825
 20
5.6205068761
 11
3.6070639996
 21
5.6205068761
  0
LINE
  5
275
100
AcDbEntity
  8
0
100
AcDbLine
 62
7
  6
CONTINUOUS
 10
7.4307671825
 20
5.6205068761
 11
7.6070639996
 21
5.6205068761
  0
LINE
  5
276
100
AcDbEntity
  8
0
100
AcDbLine
 62
7
  6
CONTINUOUS
 10
7.338915591
 20
6.4829039814
 11
7.338915591
 21
6.4754194932
  0
LINE
  5
277
100
AcDbEntity
  8
0
100
AcDbLine
 62
7
  6
CONTINUOUS
 10
7.338915591
 20
5.2579291704
 11
7.338915591
 21
5.2654136586
  0
LINE
  5
278
100
AcDbEntity
  8
0
100
AcDbLine
 62
7
  6
CONTINUOUS
 10
7.428915591
 20
6.1692105418
 11
7.428915591
 21
6.1242105419
  0
LINE
  5
279
100
AcDbEntity
  8
0
100
AcDbLine
 62
7
  6
CONTINUOUS
 10
7.428915591
 20
5.5716226099
 11
7.428915591
 21
5.6166226099
  0
LINE
  5
27A
100
AcDbEntity
  8
0
100
AcDbLine
 62
7
  6
CONTINUOUS
 10
8.1314029966
 20
5.6904165759
 11
8.1239185083
 21
5.6904165759
  0
LINE
  5
27B
100
AcDbEntity
  8
0
100
AcDbLine
 62
7
  6
CONTINUOUS
 10
4.1314029966
 20
5.6904165759
 11
4.1239185083
 21
5.6904165759
  0
LINE
  5
27C
100
AcDbEntity
  8
0
100
AcDbLine
 62
7
  6
CONTINUOUS
 10
2.9064281855
 20
5.6904165759
 11
2.9139126737
 21
5.6904165759
  0
LINE
  5
27D
100
AcDbEntity
  8
0
100
AcDbLine
 62
7
  6
CONTINUOUS
 10
6.9064281855
 20
5.6904165759
 11
6.9139126737
 21
5.6904165759
  0
LINE
  5
27E
100
AcDbEntity
  8
0
100
AcDbLine
 62
7
  6
CONTINUOUS
 10
7.817709557
 20
5.7804165759
 11
7.772709557
 21
5.7804165759
  0
LINE
  5
27F
100
AcDbEntity
  8
0
100
AcDbLine
 62
7
  6
CONTINUOUS
 10
3.817709557
 20
5.7804165759
 11
3.772709557
 21
5.7804165759
  0
LINE
  5
280
100
AcDbEntity
  8
0
100
AcDbLine
 62
7
  6
CONTINUOUS
 10
3.2201216251
 20
5.7804165759
 11
3.2651216251
 21
5.7804165759
  0
LINE
  5
281
100
AcDbEntity
  8
0
100
AcDbLine
 62
7
  6
CONTINUOUS
 10
7.2201216251
 20
5.7804165759
 11
7.2651216251
 21
5.7804165759
  0
LINE
  5
282
100
AcDbEntity
  8
0
100
AcDbLine
 62
7
  6
CONTINUOUS
 10
7.608915591
 20
6.1692105418
 11
7.608915591
 21
6.1242105419
  0
LINE
  5
283
100
AcDbEntity
  8
0
100
AcDbLine
 62
7
  6
CONTINUOUS
 10
7.608915591
 20
5.5716226099
 11
7.608915591
 21
5.6166226099
  0
LINE
  5
284
100
AcDbEntity
  8
0
100
AcDbLine
 62
7
  6
CONTINUOUS
 10
7.698915591
 20
6.4829039814
 11
7.698915591
 21
6.4754194932
  0
LINE
  5
285
100
AcDbEntity
  8
0
100
AcDbLine
 62
7
  6
CONTINUOUS
 10
7.698915591
 20
5.2579291704
 11
7.698915591
 21
5.2654136586
  0
LINE
  5
286
100
AcDbEntity
  8
0
100
AcDbLine
 62
7
  6
CONTINUOUS
 10
7.767709557
 20
5.7791669043
 11
7.767709557
 21
5.9616662475
  0
LINE
  5
287
100
AcDbEntity
  8
0
100
AcDbLine
 62
9
  6
CONTINUOUS
 10
7.772709557
 20
5.9604165759
 11
7.772709557
 21
5.7804165759
  0
LINE
  5
288
100
AcDbEntity
  8
0
100
AcDbLine
 62
7
  6
CONTINUOUS
 10
7.817709557
 20
5.9604165759
 11
7.817709557
 21
5.7804165759
  0
LINE
  5
289
100
AcDbEntity
  8
0
100
AcDbLine
 62
7
  6
CONTINUOUS
 10
7.817709557
 20
5.9604165759
 11
7.772709557
 21
5.9604165759
  0
LINE
  5
28A
100
AcDbEntity
  8
0
100
AcDbLine
 62
7
  6
CONTINUOUS
 10
3.817709557
 20
5.9604165759
 11
3.772709557
 21
5.9604165759
  0
LINE
  5
28B
100
AcDbEntity
  8
0
100
AcDbLine
 62
7
  6
CONTINUOUS
 10
3.2201216251
 20
5.9604165759
 11
3.2651216251
 21
5.9604165759
  0
LINE
  5
28C
100
AcDbEntity
  8
0
100
AcDbLine
 62
7
  6
CONTINUOUS
 10
7.2201216251
 20
5.9604165759
 11
7.2651216251
 21
5.9604165759
  0
LINE
  5
28D
100
AcDbEntity
  8
0
100
AcDbLine
 62
7
  6
CONTINUOUS
 10
8.1314029966
 20
6.0504165759
 11
8.1239185083
 21
6.0504165759
  0
LINE
  5
28E
100
AcDbEntity
  8
0
100
AcDbLine
 62
7
  6
CONTINUOUS
 10
4.1314029966
 20
6.0504165759
 11
4.1239185083
 21
6.0504165759
  0
LINE
  5
28F
100
AcDbEntity
  8
0
100
AcDbLine
 62
7
  6
CONTINUOUS
 10
2.9064281855
 20
6.0504165759
 11
2.9139126737
 21
6.0504165759
  0
LINE
  5
290
100
AcDbEntity
  8
0
100
AcDbLine
 62
7
  6
CONTINUOUS
 10
6.9064281855
 20
6.0504165759
 11
6.9139126737
 21
6.0504165759
  0
LINE
  5
291
100
AcDbEntity
  8
0
100
AcDbLine
 62
7
  6
CONTINUOUS
 10
7.6070639996
 20
6.1203262757
 11
7.4307671825
 21
6.1203262757
  0
LINE
  5
292
100
AcDbEntity
  8
0
100
AcDbLine
 62
7
  6
CONTINUOUS
 10
3.6070639996
 20
6.1203262757
 11
3.4307671825
 21
6.1203262757
  0
LINE
  5
293
100
AcDbEntity
  8
0
100
AcDbLine
 62
9
  6
CONTINUOUS
 10
3.428915591
 20
6.1242105419
 11
3.608915591
 21
6.1242105419
  0
LINE
  5
294
100
AcDbEntity
  8
0
100
AcDbLine
 62
9
  6
CONTINUOUS
 10
7.428915591
 20
6.1242105419
 11
7.608915591
 21
6.1242105419
  0
LINE
  5
295
100
AcDbEntity
  8
0
100
AcDbLine
 62
9
  6
CONTINUOUS
 10
7.8328901284
 20
5.9792463771
 11
7.8328901284
 21
5.7615867747
  0
LINE
  5
296
100
AcDbEntity
  8
0
100
AcDbLine
 62
7
  6
CONTINUOUS
 10
3.428915591
 20
6.1692105418
 11
3.608915591
 21
6.1692105418
  0
LINE
  5
297
100
AcDbEntity
  8
0
100
AcDbLine
 62
7
  6
CONTINUOUS
 10
7.428915591
 20
6.1692105418
 11
7.608915591
 21
6.1692105418
  0
LINE
  5
298
100
AcDbEntity
  8
0
100
AcDbLine
 62
9
  6
CONTINUOUS
 10
3.4100857898
 20
6.1843911133
 11
3.6277453923
 21
6.1843911133
  0
LINE
  5
299
100
AcDbEntity
  8
0
100
AcDbLine
 62
9
  6
CONTINUOUS
 10
7.4100857898
 20
6.1843911133
 11
7.6277453923
 21
6.1843911133
  0
LINE
  5
29A
100
AcDbEntity
  8
0
100
AcDbLine
 62
9
  6
CONTINUOUS
 10
8.0848188396
 20
5.71722681
 11
8.0848188396
 21
6.0236063418
  0
LINE
  5
29B
100
AcDbEntity
  8
0
100
AcDbLine
 62
9
  6
CONTINUOUS
 10
8.1010246465
 20
6.0354600359
 11
8.1010246465
 21
5.7053731159
  0
LINE
  5
29C
100
AcDbEntity
  8
0
100
AcDbLine
 62
9
  6
CONTINUOUS
 10
8.1239185083
 20
6.0504165759
 11
8.1239185083
 21
5.6904165759
  0
LINE
  5
29D
100
AcDbEntity
  8
0
100
AcDbLine
 62
9
  6
CONTINUOUS
 10
8.1314029966
 20
6.0504165759
 11
8.1314029966
 21
5.6904165759
  0
LINE
  5
29E
100
AcDbEntity
  8
0
100
AcDbLine
 62
9
  6
CONTINUOUS
 10
8.1563639993
 20
6.0268124069
 11
8.1563639993
 21
5.7140207449
  0
LINE
  5
29F
100
AcDbEntity
  8
0
100
AcDbLine
 62
9
  6
CONTINUOUS
 10
8.1680792293
 20
5.7602928891
 11
8.1680792293
 21
5.9805402627
  0
LINE
  5
2A0
100
AcDbEntity
  8
0
100
AcDbLine
 62
9
  6
CONTINUOUS
 10
7.6721053569
 20
6.4363198244
 11
7.3657258252
 21
6.4363198244
  0
LINE
  5
2A1
100
AcDbEntity
  8
0
100
AcDbLine
 62
9
  6
CONTINUOUS
 10
3.6721053569
 20
6.4363198244
 11
3.3657258252
 21
6.4363198244
  0
LINE
  5
2A2
100
AcDbEntity
  8
0
100
AcDbLine
 62
9
  6
CONTINUOUS
 10
3.353872131
 20
6.4525256313
 11
3.683959051
 21
6.4525256313
  0
LINE
  5
2A3
100
AcDbEntity
  8
0
100
AcDbLine
 62
9
  6
CONTINUOUS
 10
7.353872131
 20
6.4525256313
 11
7.683959051
 21
6.4525256313
  0
LINE
  5
2A4
100
AcDbEntity
  8
0
100
AcDbLine
 62
9
  6
CONTINUOUS
 10
3.338915591
 20
6.4754194932
 11
3.698915591
 21
6.4754194932
  0
LINE
  5
2A5
100
AcDbEntity
  8
0
100
AcDbLine
 62
9
  6
CONTINUOUS
 10
7.338915591
 20
6.4754194932
 11
7.698915591
 21
6.4754194932
  0
LINE
  5
2A6
100
AcDbEntity
  8
0
100
AcDbLine
 62
9
  6
CONTINUOUS
 10
3.338915591
 20
6.4829039814
 11
3.698915591
 21
6.4829039814
  0
LINE
  5
2A7
100
AcDbEntity
  8
0
100
AcDbLine
 62
9
  6
CONTINUOUS
 10
7.338915591
 20
6.4829039814
 11
7.698915591
 21
6.4829039814
  0
LINE
  5
2A8
100
AcDbEntity
  8
0
100
AcDbLine
 62
9
  6
CONTINUOUS
 10
3.36251976
 20
6.5078649841
 11
3.675311422
 21
6.5078649841
  0
LINE
  5
2A9
100
AcDbEntity
  8
0
100
AcDbLine
 62
9
  6
CONTINUOUS
 10
7.36251976
 20
6.5078649841
 11
7.675311422
 21
6.5078649841
  0
LINE
  5
2AA
100
AcDbEntity
  8
0
100
AcDbLine
 62
9
  6
CONTINUOUS
 10
7.6290392778
 20
6.5195802141
 11
7.4087919042
 21
6.5195802141
  0
LINE
  5
2AB
100
AcDbEntity
  8
0
100
AcDbLine
 62
9
  6
CONTINUOUS
 10
3.6290392778
 20
6.5195802141
 11
3.4087919042
 21
6.5195802141
  0
LINE
  5
2AC
100
AcDbEntity
  8
0
100
AcDbLine
 62
7
  6
CONTINUOUS
 10
7.0113440195
 20
6.0979280861
 11
7.0103369748
 21
6.0989195357
  0
ARC
  5
2AD
100
AcDbEntity
  8
0
100
AcDbCircle
 62
7
  6
CONTINUOUS
 10
2.7563217425
 20
4.1690072455
 40
1.865
100
AcDbArc
 50
76.0811997271
 51
83.9460923514
  0
ARC
  5
2AE
100
AcDbEntity
  8
0
100
AcDbCircle
 62
7
  6
CONTINUOUS
 10
1.8175062606
 20
5.1078227274
 40
1.865
100
AcDbArc
 50
6.0539076486
 51
13.9188002729
  0
ARC
  5
2AF
100
AcDbEntity
  8
0
100
AcDbCircle
 62
7
  6
CONTINUOUS
 10
3.355540605
 20
5.1081631542
 40
0.125
100
AcDbArc
 50
64.7853651812
 51
86.7993265714
  0
ARC
  5
2B0
100
AcDbEntity
  8
0
100
AcDbCircle
 62
7
  6
CONTINUOUS
 10
2.7566621693
 20
5.7070415899
 40
0.125
100
AcDbArc
 50
3.2006734286
 51
25.2146348188
  0
ARC
  5
2B1
100
AcDbEntity
  8
0
100
AcDbCircle
 62
7
  6
CONTINUOUS
 10
3.363915591
 20
5.2579291704
 40
0.025
100
AcDbArc
 50
180.0
 51
266.7993265714
  0
ARC
  5
2B2
100
AcDbEntity
  8
0
100
AcDbCircle
 62
7
  6
CONTINUOUS
 10
3.363915591
 20
5.2654136586
 40
0.025
100
AcDbArc
 50
113.6868993629
 51
180.0
  0
ARC
  5
2B3
100
AcDbEntity
  8
0
100
AcDbCircle
 62
7
  6
CONTINUOUS
 10
2.9064281855
 20
5.7154165759
 40
0.025
100
AcDbArc
 50
183.2006734286
 51
270.0
  0
ARC
  5
2B4
100
AcDbEntity
  8
0
100
AcDbCircle
 62
7
  6
CONTINUOUS
 10
2.9139126737
 20
5.7154165759
 40
0.025
100
AcDbArc
 50
270.0
 51
336.3131006371
  0
ARC
  5
2B5
100
AcDbEntity
  8
0
100
AcDbCircle
 62
7
  6
CONTINUOUS
 10
3.4294985419
 20
5.5516311075
 40
0.02
100
AcDbArc
 50
91.6702677146
 51
166.0811997271
  0
ARC
  5
2B6
100
AcDbEntity
  8
0
100
AcDbCircle
 62
7
  6
CONTINUOUS
 10
3.345837363
 20
5.3066226099
 40
0.02
100
AcDbArc
 50
293.6868993629
 51
353.9460923514
  0
ARC
  5
2B7
100
AcDbEntity
  8
0
100
AcDbCircle
 62
7
  6
CONTINUOUS
 10
3.2001301227
 20
5.7809995267
 40
0.02
100
AcDbArc
 50
283.9188002729
 51
358.3297322856
  0
ARC
  5
2B8
100
AcDbEntity
  8
0
100
AcDbCircle
 62
7
  6
CONTINUOUS
 10
2.9551216251
 20
5.6973383479
 40
0.02
100
AcDbArc
 50
96.0539076486
 51
156.3131006371
  0
ARC
  5
2B9
100
AcDbEntity
  8
0
100
AcDbCircle
 62
7
  6
CONTINUOUS
 10
3.433915591
 20
5.6166226099
 40
0.005
100
AcDbArc
 50
129.0266439375
 51
180.0
  0
ARC
  5
2BA
100
AcDbEntity
  8
0
100
AcDbCircle
 62
7
  6
CONTINUOUS
 10
3.2651216251
 20
5.7854165759
 40
0.005
100
AcDbArc
 50
270.0
 51
360.0
  0
ARC
  5
2BB
100
AcDbEntity
  8
0
100
AcDbCircle
 62
7
  6
CONTINUOUS
 10
4.2815094395
 20
4.1690072455
 40
1.865
100
AcDbArc
 50
96.0539076486
 51
103.9188002729
  0
ARC
  5
2BC
100
AcDbEntity
  8
0
100
AcDbCircle
 62
7
  6
CONTINUOUS
 10
4.753915591
 20
3.9154165759
 40
1.76
100
AcDbArc
 50
79.6659127507
 51
100.3340872493
  0
ARC
  5
2BD
100
AcDbEntity
  8
0
100
AcDbCircle
 62
7
  6
CONTINUOUS
 10
5.2203249214
 20
5.1078227274
 40
1.865
100
AcDbArc
 50
166.0811997271
 51
173.9460923514
  0
ARC
  5
2BE
100
AcDbEntity
  8
0
100
AcDbCircle
 62
7
  6
CONTINUOUS
 10
4.2106687972
 20
5.2704165759
 40
0.4
100
AcDbArc
 50
67.1955646394
 51
109.5520953041
  0
ARC
  5
2BF
100
AcDbEntity
  8
0
100
AcDbCircle
 62
7
  6
CONTINUOUS
 10
3.518915591
 20
5.4551226099
 40
0.2585
100
AcDbArc
 50
244.7853651812
 51
295.2146348188
  0
ARC
  5
2C0
100
AcDbEntity
  8
0
100
AcDbCircle
 62
7
  6
CONTINUOUS
 10
4.2811690128
 20
5.7070415899
 40
0.125
100
AcDbArc
 50
154.7853651812
 51
176.7993265714
  0
ARC
  5
2C1
100
AcDbEntity
  8
0
100
AcDbCircle
 62
7
  6
CONTINUOUS
 10
3.6822905771
 20
5.1081631542
 40
0.125
100
AcDbArc
 50
93.2006734286
 51
115.2146348188
  0
ARC
  5
2C2
100
AcDbEntity
  8
0
100
AcDbCircle
 62
7
  6
CONTINUOUS
 10
3.957600162
 20
5.5704165759
 40
0.1
100
AcDbArc
 50
46.4592735464
 51
87.3608756684
  0
ARC
  5
2C3
100
AcDbEntity
  8
0
100
AcDbCircle
 62
7
  6
CONTINUOUS
 10
3.9603628694
 20
5.6303529375
 40
0.04
100
AcDbArc
 50
87.3608756684
 51
151.4621907732
  0
ARC
  5
2C4
100
AcDbEntity
  8
0
100
AcDbCircle
 62
7
  6
CONTINUOUS
 10
4.398915591
 20
5.6554165759
 40
0.035
100
AcDbArc
 50
214.4950417648
 51
335.8821799527
  0
ARC
  5
2C5
100
AcDbEntity
  8
0
100
AcDbCircle
 62
7
  6
CONTINUOUS
 10
5.108915591
 20
5.6554165759
 40
0.035
100
AcDbArc
 50
204.1178200473
 51
288.1310539378
  0
ARC
  5
2C6
100
AcDbEntity
  8
0
100
AcDbCircle
 62
7
  6
CONTINUOUS
 10
4.048915591
 20
5.6629165759
 40
0.03
100
AcDbArc
 50
224.4349199505
 51
321.3392068247
  0
ARC
  5
2C7
100
AcDbEntity
  8
0
100
AcDbCircle
 62
7
  6
CONTINUOUS
 10
4.1314029966
 20
5.7154165759
 40
0.025
100
AcDbArc
 50
270.0
 51
356.7993265714
  0
ARC
  5
2C8
100
AcDbEntity
  8
0
100
AcDbCircle
 62
7
  6
CONTINUOUS
 10
4.1239185083
 20
5.7154165759
 40
0.025
100
AcDbArc
 50
203.6868993629
 51
270.0
  0
ARC
  5
2C9
100
AcDbEntity
  8
0
100
AcDbCircle
 62
7
  6
CONTINUOUS
 10
3.673915591
 20
5.2579291704
 40
0.025
100
AcDbArc
 50
273.2006734286
 51
360.0
  0
ARC
  5
2CA
100
AcDbEntity
  8
0
100
AcDbCircle
 62
7
  6
CONTINUOUS
 10
3.673915591
 20
5.2654136586
 40
0.025
100
AcDbArc
 50
0.0
 51
66.3131006371
  0
ARC
  5
2CB
100
AcDbEntity
  8
0
100
AcDbCircle
 62
7
  6
CONTINUOUS
 10
3.8377010594
 20
5.7809995267
 40
0.02
100
AcDbArc
 50
181.6702677146
 51
256.0811997271
  0
ARC
  5
2CC
100
AcDbEntity
  8
0
100
AcDbCircle
 62
7
  6
CONTINUOUS
 10
4.082709557
 20
5.6973383479
 40
0.02
100
AcDbArc
 50
23.6868993629
 51
83.9460923514
  0
ARC
  5
2CD
100
AcDbEntity
  8
0
100
AcDbCircle
 62
7
  6
CONTINUOUS
 10
3.6083326402
 20
5.5516311075
 40
0.02
100
AcDbArc
 50
13.9188002729
 51
88.3297322856
  0
ARC
  5
2CE
100
AcDbEntity
  8
0
100
AcDbCircle
 62
7
  6
CONTINUOUS
 10
3.6919938191
 20
5.3066226099
 40
0.02
100
AcDbArc
 50
186.0539076486
 51
246.3131006371
  0
ARC
  5
2CF
100
AcDbEntity
  8
0
100
AcDbCircle
 62
7
  6
CONTINUOUS
 10
4.4399874121
 20
5.6370289302
 40
0.01
100
AcDbArc
 50
100.3340872493
 51
155.8821799526
  0
ARC
  5
2D0
100
AcDbEntity
  8
0
100
AcDbCircle
 62
7
  6
CONTINUOUS
 10
4.361827707
 20
5.6299315046
 40
0.01
100
AcDbArc
 50
34.4950417648
 51
67.1955646394
  0
ARC
  5
2D1
100
AcDbEntity
  8
0
100
AcDbCircle
 62
7
  6
CONTINUOUS
 10
4.0801499139
 20
5.6379282371
 40
0.01
100
AcDbArc
 50
109.5520953041
 51
141.3392068247
  0
ARC
  5
2D2
100
AcDbEntity
  8
0
100
AcDbCircle
 62
7
  6
CONTINUOUS
 10
5.06784377
 20
5.6370289302
 40
0.01
100
AcDbArc
 50
24.1178200474
 51
79.6659127507
  0
ARC
  5
2D3
100
AcDbEntity
  8
0
100
AcDbCircle
 62
7
  6
CONTINUOUS
 10
5.1229192111
 20
5.6126509516
 40
0.01
100
AcDbArc
 50
33.0612799793
 51
108.1310539378
  0
ARC
  5
2D4
100
AcDbEntity
  8
0
100
AcDbCircle
 62
7
  6
CONTINUOUS
 10
3.772709557
 20
5.7854165759
 40
0.005
100
AcDbArc
 50
180.0
 51
270.0
  0
ARC
  5
2D5
100
AcDbEntity
  8
0
100
AcDbCircle
 62
7
  6
CONTINUOUS
 10
3.603915591
 20
5.6166226099
 40
0.005
100
AcDbArc
 50
0.0
 51
50.9733560625
  0
ARC
  5
2D6
100
AcDbEntity
  8
0
100
AcDbCircle
 62
7
  6
CONTINUOUS
 10
1.8175062606
 20
6.6330104244
 40
1.865
100
AcDbArc
 50
346.0811997271
 51
353.9460923514
  0
ARC
  5
2D7
100
AcDbEntity
  8
0
100
AcDbCircle
 62
7
  6
CONTINUOUS
 10
3.1036216251
 20
5.8704165759
 40
0.2585
100
AcDbArc
 50
154.7853651812
 51
205.2146348188
  0
ARC
  5
2D8
100
AcDbEntity
  8
0
100
AcDbCircle
 62
7
  6
CONTINUOUS
 10
2.9064281855
 20
6.0254165759
 40
0.025
100
AcDbArc
 50
90.0
 51
176.7993265714
  0
ARC
  5
2D9
100
AcDbEntity
  8
0
100
AcDbCircle
 62
7
  6
CONTINUOUS
 10
2.9139126737
 20
6.0254165759
 40
0.025
100
AcDbArc
 50
23.6868993629
 51
90.0
  0
ARC
  5
2DA
100
AcDbEntity
  8
0
100
AcDbCircle
 62
7
  6
CONTINUOUS
 10
2.7566621693
 20
6.0337915619
 40
0.125
100
AcDbArc
 50
334.7853651812
 51
356.7993265714
  0
ARC
  5
2DB
100
AcDbEntity
  8
0
100
AcDbCircle
 62
7
  6
CONTINUOUS
 10
2.9551216251
 20
6.0434948039
 40
0.02
100
AcDbArc
 50
203.6868993629
 51
263.9460923514
  0
ARC
  5
2DC
100
AcDbEntity
  8
0
100
AcDbCircle
 62
7
  6
CONTINUOUS
 10
3.2001301227
 20
5.959833625
 40
0.02
100
AcDbArc
 50
1.6702677146
 51
76.0811997271
  0
ARC
  5
2DD
100
AcDbEntity
  8
0
100
AcDbCircle
 62
7
  6
CONTINUOUS
 10
3.2651216251
 20
5.9554165759
 40
0.005
100
AcDbArc
 50
0.0
 51
90.0
  0
ARC
  5
2DE
100
AcDbEntity
  8
0
100
AcDbCircle
 62
7
  6
CONTINUOUS
 10
3.518915591
 20
5.8704165759
 40
0.6037231141
100
AcDbArc
 50
105.6901387419
 51
164.3111957848
  0
ARC
  5
2DF
100
AcDbEntity
  8
0
100
AcDbCircle
 62
7
  6
CONTINUOUS
 10
3.518915591
 20
5.8704165759
 40
0.6037231141
100
AcDbArc
 50
21.5588060125
 51
74.3098612581
  0
ARC
  5
2E0
100
AcDbEntity
  8
0
100
AcDbCircle
 62
7
  6
CONTINUOUS
 10
3.518915591
 20
5.8704165759
 40
0.6037231141
100
AcDbArc
 50
285.6901387419
 51
338.4411939875
  0
ARC
  5
2E1
100
AcDbEntity
  8
0
100
AcDbCircle
 62
7
  6
CONTINUOUS
 10
3.518915591
 20
5.8704165759
 40
0.6037231141
100
AcDbArc
 50
195.6888042152
 51
254.3098612581
  0
ARC
  5
2E2
100
AcDbEntity
  8
0
100
AcDbCircle
 62
9
  6
CONTINUOUS
 10
3.518915591
 20
5.8704165759
 40
0.601011173
100
AcDbArc
 50
105.4732941168
 51
164.5262238833
  0
ARC
  5
2E3
100
AcDbEntity
  8
0
100
AcDbCircle
 62
9
  6
CONTINUOUS
 10
3.518915591
 20
5.8704165759
 40
0.601011173
100
AcDbArc
 50
21.7788525491
 51
74.5267058832
  0
ARC
  5
2E4
100
AcDbEntity
  8
0
100
AcDbCircle
 62
9
  6
CONTINUOUS
 10
3.518915591
 20
5.8704165759
 40
0.601011173
100
AcDbArc
 50
285.4732941168
 51
338.221147451
  0
ARC
  5
2E5
100
AcDbEntity
  8
0
100
AcDbCircle
 62
9
  6
CONTINUOUS
 10
3.518915591
 20
5.8704165759
 40
0.601011173
100
AcDbArc
 50
195.4737761168
 51
254.5267058832
  0
ARC
  5
2E6
100
AcDbEntity
  8
0
100
AcDbCircle
 62
7
  6
CONTINUOUS
 10
3.518915591
 20
5.8704165759
 40
0.5152757673
100
AcDbArc
 50
106.2536051144
 51
163.7462168287
  0
ARC
  5
2E7
100
AcDbEntity
  8
0
100
AcDbCircle
 62
7
  6
CONTINUOUS
 10
3.518915591
 20
5.8704165759
 40
0.5152757673
100
AcDbArc
 50
23.5461874538
 51
73.7463948857
  0
ARC
  5
2E8
100
AcDbEntity
  8
0
100
AcDbCircle
 62
7
  6
CONTINUOUS
 10
3.518915591
 20
5.8704165759
 40
0.5152757673
100
AcDbArc
 50
286.2536051144
 51
336.4538125462
  0
ARC
  5
2E9
100
AcDbEntity
  8
0
100
AcDbCircle
 62
7
  6
CONTINUOUS
 10
3.518915591
 20
5.8704165759
 40
0.5152757673
100
AcDbArc
 50
196.2537831713
 51
253.7463948856
  0
ARC
  5
2EA
100
AcDbEntity
  8
0
100
AcDbCircle
 62
9
  6
CONTINUOUS
 10
3.518915591
 20
5.8704165759
 40
0.5148945296
100
AcDbArc
 50
106.2594904715
 51
163.7403235036
  0
ARC
  5
2EB
100
AcDbEntity
  8
0
100
AcDbCircle
 62
9
  6
CONTINUOUS
 10
3.518915591
 20
5.8704165759
 40
0.5148945296
100
AcDbArc
 50
23.5496860973
 51
73.7405095285
  0
ARC
  5
2EC
100
AcDbEntity
  8
0
100
AcDbCircle
 62
9
  6
CONTINUOUS
 10
3.518915591
 20
5.8704165759
 40
0.5148945296
100
AcDbArc
 50
286.2594904715
 51
336.4503139027
  0
ARC
  5
2ED
100
AcDbEntity
  8
0
100
AcDbCircle
 62
9
  6
CONTINUOUS
 10
3.518915591
 20
5.8704165759
 40
0.5148945296
100
AcDbArc
 50
196.2596764964
 51
253.7405095285
  0
ARC
  5
2EE
100
AcDbEntity
  8
0
100
AcDbCircle
 62
9
  6
CONTINUOUS
 10
3.518915591
 20
5.8704165759
 40
0.4971482877
100
AcDbArc
 50
106.5376434549
 51
163.4623565451
  0
ARC
  5
2EF
100
AcDbEntity
  8
0
100
AcDbCircle
 62
9
  6
CONTINUOUS
 10
3.518915591
 20
5.8704165759
 40
0.4971482877
100
AcDbArc
 50
23.8833555633
 51
73.4623565451
  0
ARC
  5
2F0
100
AcDbEntity
  8
0
100
AcDbCircle
 62
9
  6
CONTINUOUS
 10
3.518915591
 20
5.8704165759
 40
0.4971482877
100
AcDbArc
 50
286.5376434549
 51
336.1166444367
  0
ARC
  5
2F1
100
AcDbEntity
  8
0
100
AcDbCircle
 62
9
  6
CONTINUOUS
 10
3.518915591
 20
5.8704165759
 40
0.4971482877
100
AcDbArc
 50
196.5376434549
 51
253.4623565451
  0
ARC
  5
2F2
100
AcDbEntity
  8
0
100
AcDbCircle
 62
9
  6
CONTINUOUS
 10
3.518915591
 20
5.8704165759
 40
0.4725295253
100
AcDbArc
 50
106.921163047
 51
163.0788137353
  0
ARC
  5
2F3
100
AcDbEntity
  8
0
100
AcDbCircle
 62
9
  6
CONTINUOUS
 10
3.518915591
 20
5.8704165759
 40
0.4725295253
100
AcDbArc
 50
25.4243042374
 51
73.0788369531
  0
ARC
  5
2F4
100
AcDbEntity
  8
0
100
AcDbCircle
 62
9
  6
CONTINUOUS
 10
3.518915591
 20
5.8704165759
 40
0.4725295253
100
AcDbArc
 50
286.921163047
 51
334.5756957619
  0
ARC
  5
2F5
100
AcDbEntity
  8
0
100
AcDbCircle
 62
9
  6
CONTINUOUS
 10
3.518915591
 20
5.8704165759
 40
0.4725295253
100
AcDbArc
 50
196.9211862647
 51
253.0788369531
  0
ARC
  5
2F6
100
AcDbEntity
  8
0
100
AcDbCircle
 62
7
  6
CONTINUOUS
 10
3.518915591
 20
5.8704165759
 40
0.4632957819
100
AcDbArc
 50
287.0665080962
 51
332.3992833479
  0
ARC
  5
2F7
100
AcDbEntity
  8
0
100
AcDbCircle
 62
7
  6
CONTINUOUS
 10
3.518915591
 20
5.8704165759
 40
0.4632957819
100
AcDbArc
 50
197.0665080962
 51
252.9334919038
  0
ARC
  5
2F8
100
AcDbEntity
  8
0
100
AcDbCircle
 62
7
  6
CONTINUOUS
 10
3.518915591
 20
5.8704165759
 40
0.4632957819
100
AcDbArc
 50
107.0665080962
 51
162.9334919038
  0
ARC
  5
2F9
100
AcDbEntity
  8
0
100
AcDbCircle
 62
7
  6
CONTINUOUS
 10
3.518915591
 20
5.8704165759
 40
0.4632957819
100
AcDbArc
 50
27.6007166521
 51
72.9334919038
  0
ARC
  5
2FA
100
AcDbEntity
  8
0
100
AcDbCircle
 62
9
  6
CONTINUOUS
 10
3.518915591
 20
5.8704165759
 40
0.4631838875
100
AcDbArc
 50
107.0684858889
 51
162.9315272475
  0
ARC
  5
2FB
100
AcDbEntity
  8
0
100
AcDbCircle
 62
9
  6
CONTINUOUS
 10
3.518915591
 20
5.8704165759
 40
0.4631838875
100
AcDbArc
 50
27.6790537277
 51
72.9315141111
  0
ARC
  5
2FC
100
AcDbEntity
  8
0
100
AcDbCircle
 62
9
  6
CONTINUOUS
 10
3.518915591
 20
5.8704165759
 40
0.4631838875
100
AcDbArc
 50
287.0684858889
 51
332.3209462723
  0
ARC
  5
2FD
100
AcDbEntity
  8
0
100
AcDbCircle
 62
9
  6
CONTINUOUS
 10
3.518915591
 20
5.8704165759
 40
0.4631838875
100
AcDbArc
 50
197.0684727525
 51
252.9315141111
  0
ARC
  5
2FE
100
AcDbEntity
  8
0
100
AcDbCircle
 62
7
  6
CONTINUOUS
 10
3.518915591
 20
5.8704165759
 40
0.4625
100
AcDbArc
 50
197.0793158895
 51
252.9206841105
  0
ARC
  5
2FF
100
AcDbEntity
  8
0
100
AcDbCircle
 62
7
  6
CONTINUOUS
 10
3.518915591
 20
5.8704165759
 40
0.4625
100
AcDbArc
 50
287.0793158895
 51
331.4621907732
  0
ARC
  5
300
100
AcDbEntity
  8
0
100
AcDbCircle
 62
7
  6
CONTINUOUS
 10
3.518915591
 20
5.8704165759
 40
0.4625
100
AcDbArc
 50
28.5378092268
 51
72.9206841105
  0
ARC
  5
301
100
AcDbEntity
  8
0
100
AcDbCircle
 62
7
  6
CONTINUOUS
 10
3.518915591
 20
5.8704165759
 40
0.4625
100
AcDbArc
 50
107.0793158895
 51
162.9206841105
  0
ARC
  5
302
100
AcDbEntity
  8
0
100
AcDbCircle
 62
7
  6
CONTINUOUS
 10
3.518915591
 20
5.8704165759
 40
0.3125
100
AcDbArc
 50
16.9752209974
 51
73.0263757479
  0
ARC
  5
303
100
AcDbEntity
  8
0
100
AcDbCircle
 62
7
  6
CONTINUOUS
 10
3.518915591
 20
5.8704165759
 40
0.3125
100
AcDbArc
 50
286.973624252
 51
343.0247790025
  0
ARC
  5
304
100
AcDbEntity
  8
0
100
AcDbCircle
 62
7
  6
CONTINUOUS
 10
3.518915591
 20
5.8704165759
 40
0.3125
100
AcDbArc
 50
196.9752209974
 51
253.0263757479
  0
ARC
  5
305
100
AcDbEntity
  8
0
100
AcDbCircle
 62
7
  6
CONTINUOUS
 10
3.518915591
 20
5.8704165759
 40
0.3125
100
AcDbArc
 50
106.973624252
 51
163.0247790025
  0
ARC
  5
306
100
AcDbEntity
  8
0
100
AcDbCircle
 62
9
  6
CONTINUOUS
 10
3.518915591
 20
5.8704165759
 40
0.3012679332
100
AcDbArc
 50
197.3822495672
 51
252.6171688688
  0
ARC
  5
307
100
AcDbEntity
  8
0
100
AcDbCircle
 62
9
  6
CONTINUOUS
 10
3.518915591
 20
5.8704165759
 40
0.3012679332
100
AcDbArc
 50
107.3828311312
 51
162.6177504328
  0
ARC
  5
308
100
AcDbEntity
  8
0
100
AcDbCircle
 62
9
  6
CONTINUOUS
 10
3.518915591
 20
5.8704165759
 40
0.3012679332
100
AcDbArc
 50
17.3822495672
 51
72.6171688688
  0
ARC
  5
309
100
AcDbEntity
  8
0
100
AcDbCircle
 62
9
  6
CONTINUOUS
 10
3.518915591
 20
5.8704165759
 40
0.3012679332
100
AcDbArc
 50
287.3828311312
 51
342.6177504328
  0
ARC
  5
30A
100
AcDbEntity
  8
0
100
AcDbCircle
 62
9
  6
CONTINUOUS
 10
3.518915591
 20
5.8704165759
 40
0.2863423263
100
AcDbArc
 50
198.3193248833
 51
251.6806751169
  0
ARC
  5
30B
100
AcDbEntity
  8
0
100
AcDbCircle
 62
9
  6
CONTINUOUS
 10
3.518915591
 20
5.8704165759
 40
0.2863423263
100
AcDbArc
 50
108.3193248831
 51
161.6806751167
  0
ARC
  5
30C
100
AcDbEntity
  8
0
100
AcDbCircle
 62
9
  6
CONTINUOUS
 10
3.518915591
 20
5.8704165759
 40
0.2863423263
100
AcDbArc
 50
18.3193248833
 51
71.6806751169
  0
ARC
  5
30D
100
AcDbEntity
  8
0
100
AcDbCircle
 62
9
  6
CONTINUOUS
 10
3.518915591
 20
5.8704165759
 40
0.2863423263
100
AcDbArc
 50
288.3193248831
 51
341.6806751167
  0
ARC
  5
30E
100
AcDbEntity
  8
0
100
AcDbCircle
 62
7
  6
CONTINUOUS
 10
3.518915591
 20
5.8704165759
 40
0.2825
100
AcDbArc
 50
18.5782464986
 51
71.4217535014
  0
ARC
  5
30F
100
AcDbEntity
  8
0
100
AcDbCircle
 62
7
  6
CONTINUOUS
 10
3.518915591
 20
5.8704165759
 40
0.2825
100
AcDbArc
 50
288.5782464986
 51
341.4217535014
  0
ARC
  5
310
100
AcDbEntity
  8
0
100
AcDbCircle
 62
7
  6
CONTINUOUS
 10
3.518915591
 20
5.8704165759
 40
0.2825
100
AcDbArc
 50
198.5782464986
 51
251.4217535014
  0
ARC
  5
311
100
AcDbEntity
  8
0
100
AcDbCircle
 62
7
  6
CONTINUOUS
 10
3.518915591
 20
5.8704165759
 40
0.2825
100
AcDbArc
 50
108.5782464986
 51
161.4217535014
  0
ARC
  5
312
100
AcDbEntity
  8
0
100
AcDbCircle
 62
7
  6
CONTINUOUS
 10
3.518915591
 20
5.8704165759
 40
0.265
100
AcDbArc
 50
20.1414890982
 51
70.5711818504
  0
ARC
  5
313
100
AcDbEntity
  8
0
100
AcDbCircle
 62
7
  6
CONTINUOUS
 10
3.518915591
 20
5.8704165759
 40
0.265
100
AcDbArc
 50
109.4288181496
 51
159.8585109018
  0
ARC
  5
314
100
AcDbEntity
  8
0
100
AcDbCircle
 62
7
  6
CONTINUOUS
 10
3.518915591
 20
5.8704165759
 40
0.265
100
AcDbArc
 50
200.1414890982
 51
250.5711818504
  0
ARC
  5
315
100
AcDbEntity
  8
0
100
AcDbCircle
 62
7
  6
CONTINUOUS
 10
3.518915591
 20
5.8704165759
 40
0.265
100
AcDbArc
 50
289.4288181496
 51
339.8585109018
  0
CIRCLE
  5
316
100
AcDbEntity
  8
0
100
AcDbCircle
 62
7
  6
CONTINUOUS
 10
3.518915591
 20
5.8704165759
 40
0.1725
  0
CIRCLE
  5
317
100
AcDbEntity
  8
0
100
AcDbCircle
 62
7
  6
CONTINUOUS
 10
3.518915591
 20
5.8704165759
 40
0.1625
  0
CIRCLE
  5
318
100
AcDbEntity
  8
0
100
AcDbCircle
 62
9
  6
CONTINUOUS
 10
3.518915591
 20
5.8704165759
 40
0.1383064516
  0
ARC
  5
319
100
AcDbEntity
  8
0
100
AcDbCircle
 62
7
  6
CONTINUOUS
 10
3.6083326402
 20
6.1892020442
 40
0.02
100
AcDbArc
 50
271.6702677146
 51
346.0811997271
  0
ARC
  5
31A
100
AcDbEntity
  8
0
100
AcDbCircle
 62
7
  6
CONTINUOUS
 10
3.4294985419
 20
6.1892020442
 40
0.02
100
AcDbArc
 50
193.9188002729
 51
268.3297322856
  0
ARC
  5
31B
100
AcDbEntity
  8
0
100
AcDbCircle
 62
7
  6
CONTINUOUS
 10
3.603915591
 20
6.1242105419
 40
0.005
100
AcDbArc
 50
309.0266439375
 51
360.0
  0
ARC
  5
31C
100
AcDbEntity
  8
0
100
AcDbCircle
 62
7
  6
CONTINUOUS
 10
3.433915591
 20
6.1242105419
 40
0.005
100
AcDbArc
 50
180.0
 51
230.9733560625
  0
ARC
  5
31D
100
AcDbEntity
  8
0
100
AcDbCircle
 62
7
  6
CONTINUOUS
 10
3.518915591
 20
6.2857105419
 40
0.2585
100
AcDbArc
 50
64.7853651812
 51
115.2146348188
  0
ARC
  5
31E
100
AcDbEntity
  8
0
100
AcDbCircle
 62
7
  6
CONTINUOUS
 10
3.355540605
 20
6.6326699976
 40
0.125
100
AcDbArc
 50
273.2006734286
 51
295.2146348188
  0
ARC
  5
31F
100
AcDbEntity
  8
0
100
AcDbCircle
 62
7
  6
CONTINUOUS
 10
3.363915591
 20
6.4829039814
 40
0.025
100
AcDbArc
 50
93.2006734286
 51
180.0
  0
ARC
  5
320
100
AcDbEntity
  8
0
100
AcDbCircle
 62
7
  6
CONTINUOUS
 10
3.363915591
 20
6.4754194932
 40
0.025
100
AcDbArc
 50
180.0
 51
246.3131006371
  0
ARC
  5
321
100
AcDbEntity
  8
0
100
AcDbCircle
 62
7
  6
CONTINUOUS
 10
3.345837363
 20
6.4342105419
 40
0.02
100
AcDbArc
 50
6.0539076486
 51
66.3131006371
  0
ARC
  5
322
100
AcDbEntity
  8
0
100
AcDbCircle
 62
7
  6
CONTINUOUS
 10
2.7563217425
 20
7.5718259063
 40
1.865
100
AcDbArc
 50
276.0539076486
 51
283.9188002729
  0
ARC
  5
323
100
AcDbEntity
  8
0
100
AcDbCircle
 62
7
  6
CONTINUOUS
 10
5.2203249214
 20
6.6330104244
 40
1.865
100
AcDbArc
 50
186.0539076486
 51
193.9188002729
  0
ARC
  5
324
100
AcDbEntity
  8
0
100
AcDbCircle
 62
7
  6
CONTINUOUS
 10
4.2106687972
 20
6.4704165759
 40
0.4
100
AcDbArc
 50
250.4479046959
 51
292.8044353606
  0
ARC
  5
325
100
AcDbEntity
  8
0
100
AcDbCircle
 62
7
  6
CONTINUOUS
 10
5.5135895406
 20
5.8704166027
 40
0.290198582
100
AcDbArc
 50
0.0197051865
 51
0.9079295628
  0
ARC
  5
326
100
AcDbEntity
  8
0
100
AcDbCircle
 62
7
  6
CONTINUOUS
 10
5.5179703718
 20
5.8707524158
 40
0.285810233
100
AcDbArc
 50
0.8545347552
 51
16.6339466105
  0
ARC
  5
327
100
AcDbEntity
  8
0
100
AcDbCircle
 62
7
  6
CONTINUOUS
 10
5.5189121055
 20
5.8791917858
 40
0.2762247901
100
AcDbArc
 50
88.7056711565
 51
89.9992770216
  0
ARC
  5
328
100
AcDbEntity
  8
0
100
AcDbCircle
 62
7
  6
CONTINUOUS
 10
5.5105662258
 20
5.873133074
 40
0.2762198377
100
AcDbArc
 50
162.0007151155
 51
163.2873010811
  0
ARC
  5
329
100
AcDbEntity
  8
0
100
AcDbCircle
 62
7
  6
CONTINUOUS
 10
5.5137561026
 20
5.8775238365
 40
0.2762174342
100
AcDbArc
 50
126.0007113151
 51
127.2838902902
  0
ARC
  5
32A
100
AcDbEntity
  8
0
100
AcDbCircle
 62
7
  6
CONTINUOUS
 10
3.934209557
 20
5.8704165759
 40
0.2585
100
AcDbArc
 50
334.7853651812
 51
25.2146348188
  0
ARC
  5
32B
100
AcDbEntity
  8
0
100
AcDbCircle
 62
7
  6
CONTINUOUS
 10
4.2811690128
 20
6.0337915619
 40
0.125
100
AcDbArc
 50
183.2006734286
 51
205.2146348188
  0
ARC
  5
32C
100
AcDbEntity
  8
0
100
AcDbCircle
 62
7
  6
CONTINUOUS
 10
3.6822905771
 20
6.6326699976
 40
0.125
100
AcDbArc
 50
244.7853651812
 51
266.7993265714
  0
ARC
  5
32D
100
AcDbEntity
  8
0
100
AcDbCircle
 62
7
  6
CONTINUOUS
 10
3.957600162
 20
6.1704165759
 40
0.1
100
AcDbArc
 50
272.6391243316
 51
313.5407264536
  0
ARC
  5
32E
100
AcDbEntity
  8
0
100
AcDbCircle
 62
7
  6
CONTINUOUS
 10
3.9603628694
 20
6.1104802142
 40
0.04
100
AcDbArc
 50
208.5378092268
 51
272.6391243316
  0
ARC
  5
32F
100
AcDbEntity
  8
0
100
AcDbCircle
 62
7
  6
CONTINUOUS
 10
4.398915591
 20
6.0854165759
 40
0.035
100
AcDbArc
 50
24.1178200474
 51
145.5049582352
  0
ARC
  5
330
100
AcDbEntity
  8
0
100
AcDbCircle
 62
7
  6
CONTINUOUS
 10
5.108915591
 20
6.0854165759
 40
0.035
100
AcDbArc
 50
71.8689460622
 51
155.8821799527
  0
ARC
  5
331
100
AcDbEntity
  8
0
100
AcDbCircle
 62
7
  6
CONTINUOUS
 10
4.048915591
 20
6.0779165759
 40
0.03
100
AcDbArc
 50
38.6607931753
 51
135.5650800495
  0
ARC
  5
332
100
AcDbEntity
  8
0
100
AcDbCircle
 62
7
  6
CONTINUOUS
 10
4.1314029966
 20
6.0254165759
 40
0.025
100
AcDbArc
 50
3.2006734286
 51
90.0
  0
ARC
  5
333
100
AcDbEntity
  8
0
100
AcDbCircle
 62
7
  6
CONTINUOUS
 10
4.1239185083
 20
6.0254165759
 40
0.025
100
AcDbArc
 50
90.0
 51
156.3131006371
  0
ARC
  5
334
100
AcDbEntity
  8
0
100
AcDbCircle
 62
7
  6
CONTINUOUS
 10
3.673915591
 20
6.4829039814
 40
0.025
100
AcDbArc
 50
0.0
 51
86.7993265714
  0
ARC
  5
335
100
AcDbEntity
  8
0
100
AcDbCircle
 62
7
  6
CONTINUOUS
 10
3.673915591
 20
6.4754194932
 40
0.025
100
AcDbArc
 50
293.6868993629
 51
360.0
  0
ARC
  5
336
100
AcDbEntity
  8
0
100
AcDbCircle
 62
7
  6
CONTINUOUS
 10
3.8377010594
 20
5.959833625
 40
0.02
100
AcDbArc
 50
103.9188002729
 51
178.3297322856
  0
ARC
  5
337
100
AcDbEntity
  8
0
100
AcDbCircle
 62
7
  6
CONTINUOUS
 10
4.082709557
 20
6.0434948039
 40
0.02
100
AcDbArc
 50
276.0539076486
 51
336.3131006371
  0
ARC
  5
338
100
AcDbEntity
  8
0
100
AcDbCircle
 62
7
  6
CONTINUOUS
 10
3.6919938191
 20
6.4342105419
 40
0.02
100
AcDbArc
 50
113.6868993629
 51
173.9460923514
  0
ARC
  5
339
100
AcDbEntity
  8
0
100
AcDbCircle
 62
7
  6
CONTINUOUS
 10
4.4399874121
 20
6.1038042216
 40
0.01
100
AcDbArc
 50
204.1178200474
 51
259.6659127507
  0
ARC
  5
33A
100
AcDbEntity
  8
0
100
AcDbCircle
 62
7
  6
CONTINUOUS
 10
4.361827707
 20
6.1109016472
 40
0.01
100
AcDbArc
 50
292.8044353606
 51
325.5049582352
  0
ARC
  5
33B
100
AcDbEntity
  8
0
100
AcDbCircle
 62
7
  6
CONTINUOUS
 10
4.0801499139
 20
6.1029049147
 40
0.01
100
AcDbArc
 50
218.6607931753
 51
250.4479046959
  0
ARC
  5
33C
100
AcDbEntity
  8
0
100
AcDbCircle
 62
7
  6
CONTINUOUS
 10
5.06784377
 20
6.1038042216
 40
0.01
100
AcDbArc
 50
280.3340872493
 51
335.8821799526
  0
ARC
  5
33D
100
AcDbEntity
  8
0
100
AcDbCircle
 62
7
  6
CONTINUOUS
 10
5.1229192111
 20
6.1281822002
 40
0.01
100
AcDbArc
 50
251.8689460622
 51
326.9387200207
  0
ARC
  5
33E
100
AcDbEntity
  8
0
100
AcDbCircle
 62
7
  6
CONTINUOUS
 10
3.772709557
 20
5.9554165759
 40
0.005
100
AcDbArc
 50
90.0
 51
180.0
  0
ARC
  5
33F
100
AcDbEntity
  8
0
100
AcDbCircle
 62
7
  6
CONTINUOUS
 10
4.2815094395
 20
7.5718259063
 40
1.865
100
AcDbArc
 50
256.0811997271
 51
263.9460923514
  0
ARC
  5
340
100
AcDbEntity
  8
0
100
AcDbCircle
 62
7
  6
CONTINUOUS
 10
4.753915591
 20
7.8254165759
 40
1.76
100
AcDbArc
 50
259.6659127507
 51
280.3340872493
  0
ARC
  5
341
100
AcDbEntity
  8
0
100
AcDbCircle
 62
7
  6
CONTINUOUS
 10
6.7563217425
 20
4.1690072455
 40
1.865
100
AcDbArc
 50
76.0811997271
 51
83.9460923514
  0
ARC
  5
342
100
AcDbEntity
  8
0
100
AcDbCircle
 62
7
  6
CONTINUOUS
 10
6.283915591
 20
3.917536099
 40
1.7578804769
100
AcDbArc
 50
79.5931839797
 51
100.4068160203
  0
ARC
  5
343
100
AcDbEntity
  8
0
100
AcDbCircle
 62
7
  6
CONTINUOUS
 10
5.8175062606
 20
5.1078227274
 40
1.865
100
AcDbArc
 50
6.0539076486
 51
13.9188002729
  0
ARC
  5
344
100
AcDbEntity
  8
0
100
AcDbCircle
 62
7
  6
CONTINUOUS
 10
6.8255075465
 20
5.2712682558
 40
0.3991483201
100
AcDbArc
 50
70.0256037715
 51
112.7983588817
  0
ARC
  5
345
100
AcDbEntity
  8
0
100
AcDbCircle
 62
7
  6
CONTINUOUS
 10
6.7566621693
 20
5.7070415899
 40
0.125
100
AcDbArc
 50
3.2006734286
 51
25.2146348188
  0
ARC
  5
346
100
AcDbEntity
  8
0
100
AcDbCircle
 62
7
  6
CONTINUOUS
 10
7.355540605
 20
5.1081631542
 40
0.125
100
AcDbArc
 50
64.7853651812
 51
86.7993265714
  0
ARC
  5
347
100
AcDbEntity
  8
0
100
AcDbCircle
 62
7
  6
CONTINUOUS
 10
7.0802310201
 20
5.5704165759
 40
0.1
100
AcDbArc
 50
92.6391243316
 51
133.5407264536
  0
ARC
  5
348
100
AcDbEntity
  8
0
100
AcDbCircle
 62
7
  6
CONTINUOUS
 10
7.0774683127
 20
5.6303529375
 40
0.04
100
AcDbArc
 50
28.5378092268
 51
92.6391243316
  0
ARC
  5
349
100
AcDbEntity
  8
0
100
AcDbCircle
 62
7
  6
CONTINUOUS
 10
6.638915591
 20
5.6529165759
 40
0.0325
100
AcDbArc
 50
202.4833766469
 51
327.392405365
  0
ARC
  5
34A
100
AcDbEntity
  8
0
100
AcDbCircle
 62
7
  6
CONTINUOUS
 10
5.928915591
 20
5.6529165759
 40
0.0325
100
AcDbArc
 50
250.8670046495
 51
337.5166233531
  0
ARC
  5
34B
100
AcDbEntity
  8
0
100
AcDbCircle
 62
7
  6
CONTINUOUS
 10
6.988915591
 20
5.6629165759
 40
0.03
100
AcDbArc
 50
220.3704363288
 51
315.5650800495
  0
ARC
  5
34C
100
AcDbEntity
  8
0
100
AcDbCircle
 62
7
  6
CONTINUOUS
 10
6.9064281855
 20
5.7154165759
 40
0.025
100
AcDbArc
 50
183.2006734286
 51
270.0
  0
ARC
  5
34D
100
AcDbEntity
  8
0
100
AcDbCircle
 62
7
  6
CONTINUOUS
 10
6.9139126737
 20
5.7154165759
 40
0.025
100
AcDbArc
 50
270.0
 51
336.3131006371
  0
ARC
  5
34E
100
AcDbEntity
  8
0
100
AcDbCircle
 62
7
  6
CONTINUOUS
 10
7.363915591
 20
5.2579291704
 40
0.025
100
AcDbArc
 50
180.0
 51
266.7993265714
  0
ARC
  5
34F
100
AcDbEntity
  8
0
100
AcDbCircle
 62
7
  6
CONTINUOUS
 10
7.363915591
 20
5.2654136586
 40
0.025
100
AcDbArc
 50
113.6868993629
 51
180.0
  0
ARC
  5
350
100
AcDbEntity
  8
0
100
AcDbCircle
 62
7
  6
CONTINUOUS
 10
7.2001301227
 20
5.7809995267
 40
0.02
100
AcDbArc
 50
283.9188002729
 51
358.3297322856
  0
ARC
  5
351
100
AcDbEntity
  8
0
100
AcDbCircle
 62
7
  6
CONTINUOUS
 10
6.9551216251
 20
5.6973383479
 40
0.02
100
AcDbArc
 50
96.0539076486
 51
156.3131006371
  0
ARC
  5
352
100
AcDbEntity
  8
0
100
AcDbCircle
 62
7
  6
CONTINUOUS
 10
7.4294985419
 20
5.5516311075
 40
0.02
100
AcDbArc
 50
91.6702677146
 51
166.0811997271
  0
ARC
  5
353
100
AcDbEntity
  8
0
100
AcDbCircle
 62
7
  6
CONTINUOUS
 10
7.345837363
 20
5.3066226099
 40
0.02
100
AcDbArc
 50
293.6868993629
 51
353.9460923514
  0
ARC
  5
354
100
AcDbEntity
  8
0
100
AcDbCircle
 62
7
  6
CONTINUOUS
 10
5.9149857052
 20
5.6127642624
 40
0.01
100
AcDbArc
 50
70.8670046495
 51
146.9551131685
  0
ARC
  5
355
100
AcDbEntity
  8
0
100
AcDbCircle
 62
7
  6
CONTINUOUS
 10
5.9681851882
 20
5.6366639227
 40
0.01
100
AcDbArc
 50
100.4068160203
 51
157.5166233531
  0
ARC
  5
356
100
AcDbEntity
  8
0
100
AcDbCircle
 62
7
  6
CONTINUOUS
 10
6.6747167825
 20
5.6300140718
 40
0.01
100
AcDbArc
 50
112.7983588817
 51
147.392405365
  0
ARC
  5
357
100
AcDbEntity
  8
0
100
AcDbCircle
 62
7
  6
CONTINUOUS
 10
6.5996459938
 20
5.6366639227
 40
0.01
100
AcDbArc
 50
22.4833766469
 51
79.5931839797
  0
ARC
  5
358
100
AcDbEntity
  8
0
100
AcDbCircle
 62
7
  6
CONTINUOUS
 10
6.958440686
 20
5.6370075009
 40
0.01
100
AcDbArc
 50
40.3704363288
 51
70.0256037714
  0
ARC
  5
359
100
AcDbEntity
  8
0
100
AcDbCircle
 62
7
  6
CONTINUOUS
 10
7.2651216251
 20
5.7854165759
 40
0.005
100
AcDbArc
 50
270.0
 51
360.0
  0
ARC
  5
35A
100
AcDbEntity
  8
0
100
AcDbCircle
 62
7
  6
CONTINUOUS
 10
7.433915591
 20
5.6166226099
 40
0.005
100
AcDbArc
 50
129.0266439375
 51
180.0
  0
ARC
  5
35B
100
AcDbEntity
  8
0
100
AcDbCircle
 62
7
  6
CONTINUOUS
 10
8.2815094395
 20
4.1690072455
 40
1.865
100
AcDbArc
 50
96.0539076486
 51
103.9188002729
  0
ARC
  5
35C
100
AcDbEntity
  8
0
100
AcDbCircle
 62
7
  6
CONTINUOUS
 10
9.2203249214
 20
5.1078227274
 40
1.865
100
AcDbArc
 50
166.0811997271
 51
173.9460923514
  0
ARC
  5
35D
100
AcDbEntity
  8
0
100
AcDbCircle
 62
7
  6
CONTINUOUS
 10
7.518915591
 20
5.4551226099
 40
0.2585
100
AcDbArc
 50
244.7853651812
 51
295.2146348188
  0
ARC
  5
35E
100
AcDbEntity
  8
0
100
AcDbCircle
 62
7
  6
CONTINUOUS
 10
8.2811690128
 20
5.7070415899
 40
0.125
100
AcDbArc
 50
154.7853651812
 51
176.7993265714
  0
ARC
  5
35F
100
AcDbEntity
  8
0
100
AcDbCircle
 62
7
  6
CONTINUOUS
 10
7.6822905771
 20
5.1081631542
 40
0.125
100
AcDbArc
 50
93.2006734286
 51
115.2146348188
  0
ARC
  5
360
100
AcDbEntity
  8
0
100
AcDbCircle
 62
7
  6
CONTINUOUS
 10
8.1314029966
 20
5.7154165759
 40
0.025
100
AcDbArc
 50
270.0
 51
356.7993265714
  0
ARC
  5
361
100
AcDbEntity
  8
0
100
AcDbCircle
 62
7
  6
CONTINUOUS
 10
8.1239185083
 20
5.7154165759
 40
0.025
100
AcDbArc
 50
203.6868993629
 51
270.0
  0
ARC
  5
362
100
AcDbEntity
  8
0
100
AcDbCircle
 62
7
  6
CONTINUOUS
 10
7.673915591
 20
5.2579291704
 40
0.025
100
AcDbArc
 50
273.2006734286
 51
360.0
  0
ARC
  5
363
100
AcDbEntity
  8
0
100
AcDbCircle
 62
7
  6
CONTINUOUS
 10
7.673915591
 20
5.2654136586
 40
0.025
100
AcDbArc
 50
0.0
 51
66.3131006371
  0
ARC
  5
364
100
AcDbEntity
  8
0
100
AcDbCircle
 62
7
  6
CONTINUOUS
 10
7.8377010594
 20
5.7809995267
 40
0.02
100
AcDbArc
 50
181.6702677146
 51
256.0811997271
  0
ARC
  5
365
100
AcDbEntity
  8
0
100
AcDbCircle
 62
7
  6
CONTINUOUS
 10
8.082709557
 20
5.6973383479
 40
0.02
100
AcDbArc
 50
23.6868993629
 51
83.9460923514
  0
ARC
  5
366
100
AcDbEntity
  8
0
100
AcDbCircle
 62
7
  6
CONTINUOUS
 10
7.6083326402
 20
5.5516311075
 40
0.02
100
AcDbArc
 50
13.9188002729
 51
88.3297322856
  0
ARC
  5
367
100
AcDbEntity
  8
0
100
AcDbCircle
 62
7
  6
CONTINUOUS
 10
7.6919938191
 20
5.3066226099
 40
0.02
100
AcDbArc
 50
186.0539076486
 51
246.3131006371
  0
ARC
  5
368
100
AcDbEntity
  8
0
100
AcDbCircle
 62
7
  6
CONTINUOUS
 10
7.772709557
 20
5.7854165759
 40
0.005
100
AcDbArc
 50
180.0
 51
270.0
  0
ARC
  5
369
100
AcDbEntity
  8
0
100
AcDbCircle
 62
7
  6
CONTINUOUS
 10
7.603915591
 20
5.6166226099
 40
0.005
100
AcDbArc
 50
0.0
 51
50.9733560625
  0
ARC
  5
36A
100
AcDbEntity
  8
0
100
AcDbCircle
 62
7
  6
CONTINUOUS
 10
5.518915591
 20
5.8704165759
 40
0.6037231141
100
AcDbArc
 50
19.9677449022
 51
160.0343429311
  0
ARC
  5
36B
100
AcDbEntity
  8
0
100
AcDbCircle
 62
7
  6
CONTINUOUS
 10
5.518915591
 20
5.8704165759
 40
0.6037231141
100
AcDbArc
 50
298.1562674858
 51
340.0322550978
  0
ARC
  5
36C
100
AcDbEntity
  8
0
100
AcDbCircle
 62
7
  6
CONTINUOUS
 10
5.518915591
 20
5.8704165759
 40
0.6037231141
100
AcDbArc
 50
199.9656570689
 51
241.8437325142
  0
ARC
  5
36D
100
AcDbEntity
  8
0
100
AcDbCircle
 62
9
  6
CONTINUOUS
 10
5.518915591
 20
5.8704165759
 40
0.601011173
100
AcDbArc
 50
20.0948312497
 51
159.9058578364
  0
ARC
  5
36E
100
AcDbEntity
  8
0
100
AcDbCircle
 62
9
  6
CONTINUOUS
 10
5.518915591
 20
5.8704165759
 40
0.601011173
100
AcDbArc
 50
298.2949052512
 51
339.9051687503
  0
ARC
  5
36F
100
AcDbEntity
  8
0
100
AcDbCircle
 62
9
  6
CONTINUOUS
 10
5.518915591
 20
5.8704165759
 40
0.601011173
100
AcDbArc
 50
200.0941421636
 51
241.7050947488
  0
ARC
  5
370
100
AcDbEntity
  8
0
100
AcDbCircle
 62
7
  6
CONTINUOUS
 10
5.518915591
 20
5.8704165759
 40
0.5152757673
100
AcDbArc
 50
25.3637433851
 51
154.6397593255
  0
ARC
  5
371
100
AcDbEntity
  8
0
100
AcDbCircle
 62
7
  6
CONTINUOUS
 10
5.518915591
 20
5.8704165759
 40
0.5152757673
100
AcDbArc
 50
303.5640088711
 51
334.6362566148
  0
ARC
  5
372
100
AcDbEntity
  8
0
100
AcDbCircle
 62
7
  6
CONTINUOUS
 10
5.518915591
 20
5.8704165759
 40
0.5152757673
100
AcDbArc
 50
205.3602406746
 51
236.4359911289
  0
ARC
  5
373
100
AcDbEntity
  8
0
100
AcDbCircle
 62
9
  6
CONTINUOUS
 10
5.518915591
 20
5.8704165759
 40
0.5148945296
100
AcDbArc
 50
25.3939147041
 51
154.6096687535
  0
ARC
  5
374
100
AcDbEntity
  8
0
100
AcDbCircle
 62
9
  6
CONTINUOUS
 10
5.518915591
 20
5.8704165759
 40
0.5148945296
100
AcDbArc
 50
303.5922869667
 51
334.6060852958
  0
ARC
  5
375
100
AcDbEntity
  8
0
100
AcDbCircle
 62
9
  6
CONTINUOUS
 10
5.518915591
 20
5.8704165759
 40
0.5148945296
100
AcDbArc
 50
205.3903312466
 51
236.4077130333
  0
ARC
  5
376
100
AcDbEntity
  8
0
100
AcDbCircle
 62
9
  6
CONTINUOUS
 10
5.518915591
 20
5.8704165759
 40
0.4971482877
100
AcDbArc
 50
27.074344973
 51
151.4302394129
  0
ARC
  5
377
100
AcDbEntity
  8
0
100
AcDbCircle
 62
9
  6
CONTINUOUS
 10
5.518915591
 20
5.8704165759
 40
0.4971482877
100
AcDbArc
 50
304.9623285671
 51
332.925655027
  0
ARC
  5
378
100
AcDbEntity
  8
0
100
AcDbCircle
 62
9
  6
CONTINUOUS
 10
5.518915591
 20
5.8704165759
 40
0.4971482877
100
AcDbArc
 50
208.5697605871
 51
235.0376714329
  0
ARC
  5
379
100
AcDbEntity
  8
0
100
AcDbCircle
 62
9
  6
CONTINUOUS
 10
5.518915591
 20
5.8704165759
 40
0.4725295253
100
AcDbArc
 50
31.7874133943
 51
148.2024349438
  0
ARC
  5
37A
100
AcDbEntity
  8
0
100
AcDbCircle
 62
9
  6
CONTINUOUS
 10
5.518915591
 20
5.8704165759
 40
0.4725295253
100
AcDbArc
 50
307.0765153757
 51
328.2125866058
  0
ARC
  5
37B
100
AcDbEntity
  8
0
100
AcDbCircle
 62
9
  6
CONTINUOUS
 10
5.518915591
 20
5.8704165759
 40
0.4725295253
100
AcDbArc
 50
211.7975650562
 51
232.9234846239
  0
ARC
  5
37C
100
AcDbEntity
  8
0
100
AcDbCircle
 62
7
  6
CONTINUOUS
 10
5.518915591
 20
5.8704165759
 40
0.4632957819
100
AcDbArc
 50
32.5709733117
 51
147.4121166833
  0
ARC
  5
37D
100
AcDbEntity
  8
0
100
AcDbCircle
 62
7
  6
CONTINUOUS
 10
5.518915591
 20
5.8704165759
 40
0.4632957819
100
AcDbArc
 50
307.9443082913
 51
327.4290266883
  0
ARC
  5
37E
100
AcDbEntity
  8
0
100
AcDbCircle
 62
7
  6
CONTINUOUS
 10
5.518915591
 20
5.8704165759
 40
0.4632957819
100
AcDbArc
 50
212.5878833167
 51
232.0556917087
  0
ARC
  5
37F
100
AcDbEntity
  8
0
100
AcDbCircle
 62
9
  6
CONTINUOUS
 10
5.518915591
 20
5.8704165759
 40
0.4631838875
100
AcDbArc
 50
32.6105027447
 51
147.3729699631
  0
ARC
  5
380
100
AcDbEntity
  8
0
100
AcDbCircle
 62
9
  6
CONTINUOUS
 10
5.518915591
 20
5.8704165759
 40
0.4631838875
100
AcDbArc
 50
307.9545801942
 51
327.3894972553
  0
ARC
  5
381
100
AcDbEntity
  8
0
100
AcDbCircle
 62
9
  6
CONTINUOUS
 10
5.518915591
 20
5.8704165759
 40
0.4631838875
100
AcDbArc
 50
212.6270300369
 51
232.0454198058
  0
ARC
  5
382
100
AcDbEntity
  8
0
100
AcDbCircle
 62
7
  6
CONTINUOUS
 10
5.518915591
 20
5.8704165759
 40
0.4625
100
AcDbArc
 50
213.0612799793
 51
231.9774758529
  0
ARC
  5
383
100
AcDbEntity
  8
0
100
AcDbCircle
 62
7
  6
CONTINUOUS
 10
5.518915591
 20
5.8704165759
 40
0.4625
100
AcDbArc
 50
308.0225376285
 51
326.9551131685
  0
ARC
  5
384
100
AcDbEntity
  8
0
100
AcDbCircle
 62
7
  6
CONTINUOUS
 10
5.518915591
 20
5.8704165759
 40
0.4625
100
AcDbArc
 50
33.0448868315
 51
146.9387200207
  0
ARC
  5
385
100
AcDbEntity
  8
0
100
AcDbCircle
 62
7
  6
CONTINUOUS
 10
5.518915591
 20
5.8704165759
 40
0.375
100
AcDbArc
 50
319.4359314288
 51
220.5640685712
  0
ARC
  5
386
100
AcDbEntity
  8
0
100
AcDbCircle
 62
7
  6
CONTINUOUS
 10
5.518915591
 20
5.8704165759
 40
0.3375
100
AcDbArc
 50
327.5732736268
 51
212.4267263732
  0
ARC
  5
387
100
AcDbEntity
  8
0
100
AcDbCircle
 62
9
  6
CONTINUOUS
 10
5.518915591
 20
5.8704165759
 40
0.2975
100
AcDbArc
 50
343.2569081443
 51
196.7430918557
  0
ARC
  5
388
100
AcDbEntity
  8
0
100
AcDbCircle
 62
7
  6
CONTINUOUS
 10
5.5198607735
 20
5.8707524223
 40
0.2858101956
100
AcDbArc
 50
163.3660396782
 51
179.1453815235
  0
ARC
  5
389
100
AcDbEntity
  8
0
100
AcDbCircle
 62
7
  6
CONTINUOUS
 10
5.518915591
 20
5.8704165759
 40
0.285
100
AcDbArc
 50
358.3848097256
 51
181.6151902744
  0
ARC
  5
38A
100
AcDbEntity
  8
0
100
AcDbCircle
 62
7
  6
CONTINUOUS
 10
5.5189190763
 20
5.8791918104
 40
0.2762247655
100
AcDbArc
 50
90.0007229393
 51
91.2942939816
  0
ARC
  5
38B
100
AcDbEntity
  8
0
100
AcDbCircle
 62
7
  6
CONTINUOUS
 10
5.5272649473
 20
5.8731330712
 40
0.2762198471
100
AcDbArc
 50
16.7126856374
 51
17.9992848697
  0
ARC
  5
38C
100
AcDbEntity
  8
0
100
AcDbCircle
 62
7
  6
CONTINUOUS
 10
5.524075077
 20
5.8775238333
 40
0.2762174382
100
AcDbArc
 50
52.7161039695
 51
53.9992886786
  0
ARC
  5
38D
100
AcDbEntity
  8
0
100
AcDbCircle
 62
7
  6
CONTINUOUS
 10
5.928915591
 20
6.0879165759
 40
0.0325
100
AcDbArc
 50
22.4833766469
 51
109.1329953505
  0
ARC
  5
38E
100
AcDbEntity
  8
0
100
AcDbCircle
 62
7
  6
CONTINUOUS
 10
5.9149857052
 20
6.1280688894
 40
0.01
100
AcDbArc
 50
213.0448868315
 51
289.1329953505
  0
ARC
  5
38F
100
AcDbEntity
  8
0
100
AcDbCircle
 62
7
  6
CONTINUOUS
 10
5.9681851882
 20
6.1041692291
 40
0.01
100
AcDbArc
 50
202.4833766469
 51
259.5931839797
  0
ARC
  5
390
100
AcDbEntity
  8
0
100
AcDbCircle
 62
7
  6
CONTINUOUS
 10
5.8175062606
 20
6.6330104244
 40
1.865
100
AcDbArc
 50
346.0811997271
 51
353.9460923514
  0
ARC
  5
391
100
AcDbEntity
  8
0
100
AcDbCircle
 62
7
  6
CONTINUOUS
 10
7.1036216251
 20
5.8704165759
 40
0.2585
100
AcDbArc
 50
154.7853651812
 51
205.2146348188
  0
ARC
  5
392
100
AcDbEntity
  8
0
100
AcDbCircle
 62
7
  6
CONTINUOUS
 10
6.7566621693
 20
6.0337915619
 40
0.125
100
AcDbArc
 50
334.7853651812
 51
356.7993265714
  0
ARC
  5
393
100
AcDbEntity
  8
0
100
AcDbCircle
 62
7
  6
CONTINUOUS
 10
7.0802310201
 20
6.1704165759
 40
0.1
100
AcDbArc
 50
226.4592735464
 51
267.3608756684
  0
ARC
  5
394
100
AcDbEntity
  8
0
100
AcDbCircle
 62
7
  6
CONTINUOUS
 10
7.0774683127
 20
6.1104802142
 40
0.04
100
AcDbArc
 50
267.3608756684
 51
331.4621907732
  0
ARC
  5
395
100
AcDbEntity
  8
0
100
AcDbCircle
 62
7
  6
CONTINUOUS
 10
6.638915591
 20
6.0879165759
 40
0.0325
100
AcDbArc
 50
32.607594635
 51
157.5166233531
  0
ARC
  5
396
100
AcDbEntity
  8
0
100
AcDbCircle
 62
7
  6
CONTINUOUS
 10
6.988915591
 20
6.0779165759
 40
0.03
100
AcDbArc
 50
44.4349199505
 51
139.6295636712
  0
ARC
  5
397
100
AcDbEntity
  8
0
100
AcDbCircle
 62
7
  6
CONTINUOUS
 10
6.9064281855
 20
6.0254165759
 40
0.025
100
AcDbArc
 50
90.0
 51
176.7993265714
  0
ARC
  5
398
100
AcDbEntity
  8
0
100
AcDbCircle
 62
7
  6
CONTINUOUS
 10
6.9139126737
 20
6.0254165759
 40
0.025
100
AcDbArc
 50
23.6868993629
 51
90.0
  0
ARC
  5
399
100
AcDbEntity
  8
0
100
AcDbCircle
 62
7
  6
CONTINUOUS
 10
7.2001301227
 20
5.959833625
 40
0.02
100
AcDbArc
 50
1.6702677146
 51
76.0811997271
  0
ARC
  5
39A
100
AcDbEntity
  8
0
100
AcDbCircle
 62
7
  6
CONTINUOUS
 10
6.9551216251
 20
6.0434948039
 40
0.02
100
AcDbArc
 50
203.6868993629
 51
263.9460923514
  0
ARC
  5
39B
100
AcDbEntity
  8
0
100
AcDbCircle
 62
7
  6
CONTINUOUS
 10
6.6747167825
 20
6.11081908
 40
0.01
100
AcDbArc
 50
212.607594635
 51
247.2016411183
  0
ARC
  5
39C
100
AcDbEntity
  8
0
100
AcDbCircle
 62
7
  6
CONTINUOUS
 10
6.5996459938
 20
6.1041692291
 40
0.01
100
AcDbArc
 50
280.4068160203
 51
337.5166233531
  0
ARC
  5
39D
100
AcDbEntity
  8
0
100
AcDbCircle
 62
7
  6
CONTINUOUS
 10
6.958440686
 20
6.1038256508
 40
0.01
100
AcDbArc
 50
289.9743962286
 51
319.6295636712
  0
ARC
  5
39E
100
AcDbEntity
  8
0
100
AcDbCircle
 62
7
  6
CONTINUOUS
 10
7.2651216251
 20
5.9554165759
 40
0.005
100
AcDbArc
 50
0.0
 51
90.0
  0
ARC
  5
39F
100
AcDbEntity
  8
0
100
AcDbCircle
 62
7
  6
CONTINUOUS
 10
6.8255075465
 20
6.469564896
 40
0.3991483201
100
AcDbArc
 50
247.2016411183
 51
289.9743962285
  0
ARC
  5
3A0
100
AcDbEntity
  8
0
100
AcDbCircle
 62
7
  6
CONTINUOUS
 10
7.355540605
 20
6.6326699976
 40
0.125
100
AcDbArc
 50
273.2006734286
 51
295.2146348188
  0
ARC
  5
3A1
100
AcDbEntity
  8
0
100
AcDbCircle
 62
7
  6
CONTINUOUS
 10
7.363915591
 20
6.4829039814
 40
0.025
100
AcDbArc
 50
93.2006734286
 51
180.0
  0
ARC
  5
3A2
100
AcDbEntity
  8
0
100
AcDbCircle
 62
7
  6
CONTINUOUS
 10
7.363915591
 20
6.4754194932
 40
0.025
100
AcDbArc
 50
180.0
 51
246.3131006371
  0
ARC
  5
3A3
100
AcDbEntity
  8
0
100
AcDbCircle
 62
7
  6
CONTINUOUS
 10
7.345837363
 20
6.4342105419
 40
0.02
100
AcDbArc
 50
6.0539076486
 51
66.3131006371
  0
ARC
  5
3A4
100
AcDbEntity
  8
0
100
AcDbCircle
 62
7
  6
CONTINUOUS
 10
6.7563217425
 20
7.5718259063
 40
1.865
100
AcDbArc
 50
276.0539076486
 51
283.9188002729
  0
ARC
  5
3A5
100
AcDbEntity
  8
0
100
AcDbCircle
 62
7
  6
CONTINUOUS
 10
6.283915591
 20
7.8232970528
 40
1.7578804769
100
AcDbArc
 50
259.5931839797
 51
280.4068160203
  0
ARC
  5
3A6
100
AcDbEntity
  8
0
100
AcDbCircle
 62
7
  6
CONTINUOUS
 10
7.518915591
 20
5.8704165759
 40
0.6037231141
100
AcDbArc
 50
105.6901387419
 51
158.3674472229
  0
ARC
  5
3A7
100
AcDbEntity
  8
0
100
AcDbCircle
 62
7
  6
CONTINUOUS
 10
7.518915591
 20
5.8704165759
 40
0.6037231141
100
AcDbArc
 50
15.6888042152
 51
74.3098612581
  0
ARC
  5
3A8
100
AcDbEntity
  8
0
100
AcDbCircle
 62
7
  6
CONTINUOUS
 10
7.518915591
 20
5.8704165759
 40
0.6037231141
100
AcDbArc
 50
285.6901387419
 51
344.3111957848
  0
ARC
  5
3A9
100
AcDbEntity
  8
0
100
AcDbCircle
 62
7
  6
CONTINUOUS
 10
7.518915591
 20
5.8704165759
 40
0.6037231141
100
AcDbArc
 50
201.6325527771
 51
254.3098612581
  0
ARC
  5
3AA
100
AcDbEntity
  8
0
100
AcDbCircle
 62
9
  6
CONTINUOUS
 10
7.518915591
 20
5.8704165759
 40
0.601011173
100
AcDbArc
 50
105.4732941168
 51
158.1431842461
  0
ARC
  5
3AB
100
AcDbEntity
  8
0
100
AcDbCircle
 62
9
  6
CONTINUOUS
 10
7.518915591
 20
5.8704165759
 40
0.601011173
100
AcDbArc
 50
15.4737761168
 51
74.5267058832
  0
ARC
  5
3AC
100
AcDbEntity
  8
0
100
AcDbCircle
 62
9
  6
CONTINUOUS
 10
7.518915591
 20
5.8704165759
 40
0.601011173
100
AcDbArc
 50
285.4732941168
 51
344.5262238833
  0
ARC
  5
3AD
100
AcDbEntity
  8
0
100
AcDbCircle
 62
9
  6
CONTINUOUS
 10
7.518915591
 20
5.8704165759
 40
0.601011173
100
AcDbArc
 50
201.8568157539
 51
254.5267058832
  0
ARC
  5
3AE
100
AcDbEntity
  8
0
100
AcDbCircle
 62
7
  6
CONTINUOUS
 10
7.518915591
 20
5.8704165759
 40
0.5152757673
100
AcDbArc
 50
106.2536051144
 51
156.4538125462
  0
ARC
  5
3AF
100
AcDbEntity
  8
0
100
AcDbCircle
 62
7
  6
CONTINUOUS
 10
7.518915591
 20
5.8704165759
 40
0.5152757673
100
AcDbArc
 50
16.2537831713
 51
73.7463948857
  0
ARC
  5
3B0
100
AcDbEntity
  8
0
100
AcDbCircle
 62
7
  6
CONTINUOUS
 10
7.518915591
 20
5.8704165759
 40
0.5152757673
100
AcDbArc
 50
286.2536051144
 51
343.7462168287
  0
ARC
  5
3B1
100
AcDbEntity
  8
0
100
AcDbCircle
 62
7
  6
CONTINUOUS
 10
7.518915591
 20
5.8704165759
 40
0.5152757673
100
AcDbArc
 50
203.5461874538
 51
253.7463948856
  0
ARC
  5
3B2
100
AcDbEntity
  8
0
100
AcDbCircle
 62
9
  6
CONTINUOUS
 10
7.518915591
 20
5.8704165759
 40
0.5148945296
100
AcDbArc
 50
106.2594904715
 51
156.4503139027
  0
ARC
  5
3B3
100
AcDbEntity
  8
0
100
AcDbCircle
 62
9
  6
CONTINUOUS
 10
7.518915591
 20
5.8704165759
 40
0.5148945296
100
AcDbArc
 50
16.2596764964
 51
73.7405095285
  0
ARC
  5
3B4
100
AcDbEntity
  8
0
100
AcDbCircle
 62
9
  6
CONTINUOUS
 10
7.518915591
 20
5.8704165759
 40
0.5148945296
100
AcDbArc
 50
286.2594904715
 51
343.7403235036
  0
ARC
  5
3B5
100
AcDbEntity
  8
0
100
AcDbCircle
 62
9
  6
CONTINUOUS
 10
7.518915591
 20
5.8704165759
 40
0.5148945296
100
AcDbArc
 50
203.5496860973
 51
253.7405095285
  0
ARC
  5
3B6
100
AcDbEntity
  8
0
100
AcDbCircle
 62
9
  6
CONTINUOUS
 10
7.518915591
 20
5.8704165759
 40
0.4971482877
100
AcDbArc
 50
106.5374446939
 51
156.1170339527
  0
ARC
  5
3B7
100
AcDbEntity
  8
0
100
AcDbCircle
 62
9
  6
CONTINUOUS
 10
7.518915591
 20
5.8704165759
 40
0.4971482877
100
AcDbArc
 50
16.5376452144
 51
73.4625553061
  0
ARC
  5
3B8
100
AcDbEntity
  8
0
100
AcDbCircle
 62
9
  6
CONTINUOUS
 10
7.518915591
 20
5.8704165759
 40
0.4971482877
100
AcDbArc
 50
286.5374446939
 51
343.4623547856
  0
ARC
  5
3B9
100
AcDbEntity
  8
0
100
AcDbCircle
 62
9
  6
CONTINUOUS
 10
7.518915591
 20
5.8704165759
 40
0.4971482877
100
AcDbArc
 50
203.8829660473
 51
253.4625553061
  0
ARC
  5
3BA
100
AcDbEntity
  8
0
100
AcDbCircle
 62
9
  6
CONTINUOUS
 10
7.518915591
 20
5.8704165759
 40
0.4725295253
100
AcDbArc
 50
106.921163047
 51
154.5756957619
  0
ARC
  5
3BB
100
AcDbEntity
  8
0
100
AcDbCircle
 62
9
  6
CONTINUOUS
 10
7.518915591
 20
5.8704165759
 40
0.4725295253
100
AcDbArc
 50
16.9211862647
 51
73.0788369531
  0
ARC
  5
3BC
100
AcDbEntity
  8
0
100
AcDbCircle
 62
9
  6
CONTINUOUS
 10
7.518915591
 20
5.8704165759
 40
0.4725295253
100
AcDbArc
 50
286.921163047
 51
343.0788137353
  0
ARC
  5
3BD
100
AcDbEntity
  8
0
100
AcDbCircle
 62
9
  6
CONTINUOUS
 10
7.518915591
 20
5.8704165759
 40
0.4725295253
100
AcDbArc
 50
205.4243042374
 51
253.0788369531
  0
ARC
  5
3BE
100
AcDbEntity
  8
0
100
AcDbCircle
 62
7
  6
CONTINUOUS
 10
7.518915591
 20
5.8704165759
 40
0.4632957819
100
AcDbArc
 50
287.0665080962
 51
342.9334919038
  0
ARC
  5
3BF
100
AcDbEntity
  8
0
100
AcDbCircle
 62
7
  6
CONTINUOUS
 10
7.518915591
 20
5.8704165759
 40
0.4632957819
100
AcDbArc
 50
207.6007166521
 51
252.9334919038
  0
ARC
  5
3C0
100
AcDbEntity
  8
0
100
AcDbCircle
 62
7
  6
CONTINUOUS
 10
7.518915591
 20
5.8704165759
 40
0.4632957819
100
AcDbArc
 50
107.0665080962
 51
152.3992833479
  0
ARC
  5
3C1
100
AcDbEntity
  8
0
100
AcDbCircle
 62
7
  6
CONTINUOUS
 10
7.518915591
 20
5.8704165759
 40
0.4632957819
100
AcDbArc
 50
17.0665080962
 51
72.9334919038
  0
ARC
  5
3C2
100
AcDbEntity
  8
0
100
AcDbCircle
 62
9
  6
CONTINUOUS
 10
7.518915591
 20
5.8704165759
 40
0.4631838875
100
AcDbArc
 50
107.0684858889
 51
152.3209462723
  0
ARC
  5
3C3
100
AcDbEntity
  8
0
100
AcDbCircle
 62
9
  6
CONTINUOUS
 10
7.518915591
 20
5.8704165759
 40
0.4631838875
100
AcDbArc
 50
17.0684727525
 51
72.9315141111
  0
ARC
  5
3C4
100
AcDbEntity
  8
0
100
AcDbCircle
 62
9
  6
CONTINUOUS
 10
7.518915591
 20
5.8704165759
 40
0.4631838875
100
AcDbArc
 50
287.0684858889
 51
342.9315272475
  0
ARC
  5
3C5
100
AcDbEntity
  8
0
100
AcDbCircle
 62
9
  6
CONTINUOUS
 10
7.518915591
 20
5.8704165759
 40
0.4631838875
100
AcDbArc
 50
207.6790537277
 51
252.9315141111
  0
ARC
  5
3C6
100
AcDbEntity
  8
0
100
AcDbCircle
 62
7
  6
CONTINUOUS
 10
7.518915591
 20
5.8704165759
 40
0.4625
100
AcDbArc
 50
287.0793158895
 51
342.9206841105
  0
ARC
  5
3C7
100
AcDbEntity
  8
0
100
AcDbCircle
 62
7
  6
CONTINUOUS
 10
7.518915591
 20
5.8704165759
 40
0.4625
100
AcDbArc
 50
208.5378092268
 51
252.9206841105
  0
ARC
  5
3C8
100
AcDbEntity
  8
0
100
AcDbCircle
 62
7
  6
CONTINUOUS
 10
7.518915591
 20
5.8704165759
 40
0.4625
100
AcDbArc
 50
107.0793158895
 51
151.4621907732
  0
ARC
  5
3C9
100
AcDbEntity
  8
0
100
AcDbCircle
 62
7
  6
CONTINUOUS
 10
7.518915591
 20
5.8704165759
 40
0.4625
100
AcDbArc
 50
17.0793158895
 51
72.9206841105
  0
ARC
  5
3CA
100
AcDbEntity
  8
0
100
AcDbCircle
 62
7
  6
CONTINUOUS
 10
7.518915591
 20
5.8704165759
 40
0.3125
100
AcDbArc
 50
196.9752209974
 51
253.0263757479
  0
ARC
  5
3CB
100
AcDbEntity
  8
0
100
AcDbCircle
 62
7
  6
CONTINUOUS
 10
7.518915591
 20
5.8704165759
 40
0.3125
100
AcDbArc
 50
106.973624252
 51
163.0247790025
  0
ARC
  5
3CC
100
AcDbEntity
  8
0
100
AcDbCircle
 62
7
  6
CONTINUOUS
 10
7.518915591
 20
5.8704165759
 40
0.3125
100
AcDbArc
 50
16.9752209974
 51
73.0263757479
  0
ARC
  5
3CD
100
AcDbEntity
  8
0
100
AcDbCircle
 62
7
  6
CONTINUOUS
 10
7.518915591
 20
5.8704165759
 40
0.3125
100
AcDbArc
 50
286.973624252
 51
343.0247790025
  0
ARC
  5
3CE
100
AcDbEntity
  8
0
100
AcDbCircle
 62
9
  6
CONTINUOUS
 10
7.518915591
 20
5.8704165759
 40
0.3012679332
100
AcDbArc
 50
17.3822495672
 51
72.6171688688
  0
ARC
  5
3CF
100
AcDbEntity
  8
0
100
AcDbCircle
 62
9
  6
CONTINUOUS
 10
7.518915591
 20
5.8704165759
 40
0.3012679332
100
AcDbArc
 50
287.3828311312
 51
342.6177504328
  0
ARC
  5
3D0
100
AcDbEntity
  8
0
100
AcDbCircle
 62
9
  6
CONTINUOUS
 10
7.518915591
 20
5.8704165759
 40
0.3012679332
100
AcDbArc
 50
197.3822495672
 51
252.6171688688
  0
ARC
  5
3D1
100
AcDbEntity
  8
0
100
AcDbCircle
 62
9
  6
CONTINUOUS
 10
7.518915591
 20
5.8704165759
 40
0.3012679332
100
AcDbArc
 50
107.3828311312
 51
162.6177504328
  0
ARC
  5
3D2
100
AcDbEntity
  8
0
100
AcDbCircle
 62
9
  6
CONTINUOUS
 10
7.518915591
 20
5.8704165759
 40
0.2863423263
100
AcDbArc
 50
18.3193248833
 51
71.6806751169
  0
ARC
  5
3D3
100
AcDbEntity
  8
0
100
AcDbCircle
 62
9
  6
CONTINUOUS
 10
7.518915591
 20
5.8704165759
 40
0.2863423263
100
AcDbArc
 50
288.3193248831
 51
341.6806751167
  0
ARC
  5
3D4
100
AcDbEntity
  8
0
100
AcDbCircle
 62
9
  6
CONTINUOUS
 10
7.518915591
 20
5.8704165759
 40
0.2863423263
100
AcDbArc
 50
198.3193248833
 51
251.6806751169
  0
ARC
  5
3D5
100
AcDbEntity
  8
0
100
AcDbCircle
 62
9
  6
CONTINUOUS
 10
7.518915591
 20
5.8704165759
 40
0.2863423263
100
AcDbArc
 50
108.3193248831
 51
161.6806751167
  0
ARC
  5
3D6
100
AcDbEntity
  8
0
100
AcDbCircle
 62
7
  6
CONTINUOUS
 10
7.518915591
 20
5.8704165759
 40
0.2825
100
AcDbArc
 50
198.5782464986
 51
251.4217535014
  0
ARC
  5
3D7
100
AcDbEntity
  8
0
100
AcDbCircle
 62
7
  6
CONTINUOUS
 10
7.518915591
 20
5.8704165759
 40
0.2825
100
AcDbArc
 50
108.5782464986
 51
161.4217535014
  0
ARC
  5
3D8
100
AcDbEntity
  8
0
100
AcDbCircle
 62
7
  6
CONTINUOUS
 10
7.518915591
 20
5.8704165759
 40
0.2825
100
AcDbArc
 50
18.5782464986
 51
71.4217535014
  0
ARC
  5
3D9
100
AcDbEntity
  8
0
100
AcDbCircle
 62
7
  6
CONTINUOUS
 10
7.518915591
 20
5.8704165759
 40
0.2825
100
AcDbArc
 50
288.5782464986
 51
341.4217535014
  0
ARC
  5
3DA
100
AcDbEntity
  8
0
100
AcDbCircle
 62
7
  6
CONTINUOUS
 10
7.518915591
 20
5.8704165759
 40
0.265
100
AcDbArc
 50
200.1414890982
 51
250.5711818504
  0
ARC
  5
3DB
100
AcDbEntity
  8
0
100
AcDbCircle
 62
7
  6
CONTINUOUS
 10
7.518915591
 20
5.8704165759
 40
0.265
100
AcDbArc
 50
289.4288181496
 51
339.8585109018
  0
ARC
  5
3DC
100
AcDbEntity
  8
0
100
AcDbCircle
 62
7
  6
CONTINUOUS
 10
7.518915591
 20
5.8704165759
 40
0.265
100
AcDbArc
 50
20.1414890982
 51
70.5711818504
  0
ARC
  5
3DD
100
AcDbEntity
  8
0
100
AcDbCircle
 62
7
  6
CONTINUOUS
 10
7.518915591
 20
5.8704165759
 40
0.265
100
AcDbArc
 50
109.4288181496
 51
159.8585109018
  0
CIRCLE
  5
3DE
100
AcDbEntity
  8
0
100
AcDbCircle
 62
7
  6
CONTINUOUS
 10
7.518915591
 20
5.8704165759
 40
0.1725
  0
CIRCLE
  5
3DF
100
AcDbEntity
  8
0
100
AcDbCircle
 62
7
  6
CONTINUOUS
 10
7.518915591
 20
5.8704165759
 40
0.1625
  0
CIRCLE
  5
3E0
100
AcDbEntity
  8
0
100
AcDbCircle
 62
9
  6
CONTINUOUS
 10
7.518915591
 20
5.8704165759
 40
0.1383064516
  0
ARC
  5
3E1
100
AcDbEntity
  8
0
100
AcDbCircle
 62
7
  6
CONTINUOUS
 10
7.8377010594
 20
5.959833625
 40
0.02
100
AcDbArc
 50
103.9188002729
 51
178.3297322856
  0
ARC
  5
3E2
100
AcDbEntity
  8
0
100
AcDbCircle
 62
7
  6
CONTINUOUS
 10
7.772709557
 20
5.9554165759
 40
0.005
100
AcDbArc
 50
90.0
 51
180.0
  0
ARC
  5
3E3
100
AcDbEntity
  8
0
100
AcDbCircle
 62
7
  6
CONTINUOUS
 10
7.6083326402
 20
6.1892020442
 40
0.02
100
AcDbArc
 50
271.6702677146
 51
346.0811997271
  0
ARC
  5
3E4
100
AcDbEntity
  8
0
100
AcDbCircle
 62
7
  6
CONTINUOUS
 10
7.4294985419
 20
6.1892020442
 40
0.02
100
AcDbArc
 50
193.9188002729
 51
268.3297322856
  0
ARC
  5
3E5
100
AcDbEntity
  8
0
100
AcDbCircle
 62
7
  6
CONTINUOUS
 10
7.603915591
 20
6.1242105419
 40
0.005
100
AcDbArc
 50
309.0266439375
 51
360.0
  0
ARC
  5
3E6
100
AcDbEntity
  8
0
100
AcDbCircle
 62
7
  6
CONTINUOUS
 10
7.433915591
 20
6.1242105419
 40
0.005
100
AcDbArc
 50
180.0
 51
230.9733560625
  0
ARC
  5
3E7
100
AcDbEntity
  8
0
100
AcDbCircle
 62
7
  6
CONTINUOUS
 10
7.934209557
 20
5.8704165759
 40
0.2585
100
AcDbArc
 50
334.7853651812
 51
25.2146348188
  0
ARC
  5
3E8
100
AcDbEntity
  8
0
100
AcDbCircle
 62
7
  6
CONTINUOUS
 10
8.1314029966
 20
6.0254165759
 40
0.025
100
AcDbArc
 50
3.2006734286
 51
90.0
  0
ARC
  5
3E9
100
AcDbEntity
  8
0
100
AcDbCircle
 62
7
  6
CONTINUOUS
 10
8.1239185083
 20
6.0254165759
 40
0.025
100
AcDbArc
 50
90.0
 51
156.3131006371
  0
ARC
  5
3EA
100
AcDbEntity
  8
0
100
AcDbCircle
 62
7
  6
CONTINUOUS
 10
8.2811690128
 20
6.0337915619
 40
0.125
100
AcDbArc
 50
183.2006734286
 51
205.2146348188
  0
ARC
  5
3EB
100
AcDbEntity
  8
0
100
AcDbCircle
 62
7
  6
CONTINUOUS
 10
8.082709557
 20
6.0434948039
 40
0.02
100
AcDbArc
 50
276.0539076486
 51
336.3131006371
  0
ARC
  5
3EC
100
AcDbEntity
  8
0
100
AcDbCircle
 62
7
  6
CONTINUOUS
 10
7.518915591
 20
6.2857105419
 40
0.2585
100
AcDbArc
 50
64.7853651812
 51
115.2146348188
  0
ARC
  5
3ED
100
AcDbEntity
  8
0
100
AcDbCircle
 62
7
  6
CONTINUOUS
 10
7.6822905771
 20
6.6326699976
 40
0.125
100
AcDbArc
 50
244.7853651812
 51
266.7993265714
  0
ARC
  5
3EE
100
AcDbEntity
  8
0
100
AcDbCircle
 62
7
  6
CONTINUOUS
 10
7.673915591
 20
6.4829039814
 40
0.025
100
AcDbArc
 50
0.0
 51
86.7993265714
  0
ARC
  5
3EF
100
AcDbEntity
  8
0
100
AcDbCircle
 62
7
  6
CONTINUOUS
 10
7.673915591
 20
6.4754194932
 40
0.025
100
AcDbArc
 50
293.6868993629
 51
360.0
  0
ARC
  5
3F0
100
AcDbEntity
  8
0
100
AcDbCircle
 62
7
  6
CONTINUOUS
 10
7.6919938191
 20
6.4342105419
 40
0.02
100
AcDbArc
 50
113.6868993629
 51
173.9460923514
  0
ARC
  5
3F1
100
AcDbEntity
  8
0
100
AcDbCircle
 62
7
  6
CONTINUOUS
 10
9.2203249214
 20
6.6330104244
 40
1.865
100
AcDbArc
 50
186.0539076486
 51
193.9188002729
  0
ARC
  5
3F2
100
AcDbEntity
  8
0
100
AcDbCircle
 62
7
  6
CONTINUOUS
 10
8.2815094395
 20
7.5718259063
 40
1.865
100
AcDbArc
 50
256.0811997271
 51
263.9460923514
  0
SPLINE
  5
3F3
100
AcDbEntity
  8
0
100
AcDbSpline
 62
7
  6
CONTINUOUS
 70
0
 71
3
 72
15
 73
11
 74
0
 42
0.0000001
 43
0.0000001
 44
0.0000000001
 40
0.0
 40
0.0
 40
0.0
 40
0.0
 40
0.1249321555
 40
0.2499172696
 40
0.3749554314
 40
0.5000229905
 40
0.6250853669
 40
0.7501098252
 40
0.8750782562
 40
1.0
 40
1.0
 40
1.0
 40
1.0
 10
5.5251515757
 20
6.1553460972
 30
0.0
 10
5.53234378
 20
6.1551836811
 30
0.0
 10
5.5467245659
 20
6.1542980331
 30
0.0
 10
5.5681303531
 20
6.1513280239
 30
0.0
 10
5.589260822
 20
6.1467556317
 30
0.0
 10
5.6099954669
 20
6.1406199413
 30
0.0
 10
5.6302157846
 20
6.1329597621
 30
0.0
 10
5.649803056
 20
6.123813254
 30
0.0
 10
5.6686367674
 20
6.1132195893
 30
0.0
 10
5.680614774
 20
6.1052146163
 30
0.0
 10
5.6864343879
 20
6.1009864193
 30
0.0
  0
SPLINE
  5
3F4
100
AcDbEntity
  8
0
100
AcDbSpline
 62
7
  6
CONTINUOUS
 70
0
 71
3
 72
15
 73
11
 74
0
 42
0.0000001
 43
0.0000001
 44
0.0000000001
 40
0.0
 40
0.0
 40
0.0
 40
0.0
 40
0.1249217439
 40
0.2498901751
 40
0.3749146336
 40
0.4999770101
 40
0.6250445693
 40
0.7500827309
 40
0.8750678448
 40
1.0
 40
1.0
 40
1.0
 40
1.0
 10
5.3513967941
 20
6.1009864193
 30
0.0
 10
5.3572164137
 20
6.1052146204
 30
0.0
 10
5.3691944323
 20
6.1132196008
 30
0.0
 10
5.3880281634
 20
6.1238132738
 30
0.0
 10
5.4076154556
 20
6.1329597872
 30
0.0
 10
5.427835795
 20
6.1406199688
 30
0.0
 10
5.4485704621
 20
6.1467556583
 30
0.0
 10
5.4697009535
 20
6.1513280465
 30
0.0
 10
5.4911067629
 20
6.1542980484
 30
0.0
 10
5.5054875634
 20
6.1551836891
 30
0.0
 10
5.5126797748
 20
6.155346101
 30
0.0
  0
SPLINE
  5
3F5
100
AcDbEntity
  8
0
100
AcDbSpline
 62
7
  6
CONTINUOUS
 70
0
 71
3
 72
30
 73
26
 74
0
 42
0.0000001
 43
0.0000001
 44
0.0000000001
 40
0.0
 40
0.0
 40
0.0
 40
0.0
 40
0.0628166419
 40
0.1256528632
 40
0.1884927997
 40
0.2513000833
 40
0.3140358683
 40
0.345377978
 40
0.3766959331
 40
0.4079923001
 40
0.4392725692
 40
0.470541786
 40
0.5018023137
 40
0.5642777047
 40
0.6267016908
 40
0.6890493466
 40
0.7201981942
 40
0.7513239076
 40
0.7824289374
 40
0.7979764834
 40
0.8135211116
 40
0.844603194
 40
0.875684091
 40
0.9378355345
 40
1.0
 40
1.0
 40
1.0
 40
1.0
 10
5.518915591
 20
1.5053344144
 30
0.0
 10
5.5096004217
 20
1.5053344144
 30
0.0
 10
5.4909545174
 20
1.5062701512
 30
0.0
 10
5.4632669494
 20
1.5103949066
 30
0.0
 10
5.4361017335
 20
1.5171560203
 30
0.0
 10
5.4097205685
 20
1.5264692374
 30
0.0
 10
5.3885891555
 20
1.5362955105
 30
0.0
 10
5.3723399733
 20
1.5453493261
 30
0.0
 10
5.3605124842
 20
1.5527251953
 30
0.0
 10
5.3490761482
 20
1.5606778387
 30
0.0
 10
5.3380619422
 20
1.5691936415
 30
0.0
 10
5.3274891095
 20
1.5782436437
 30
0.0
 10
5.3140129217
 20
1.5909812202
 30
0.0
 10
5.2983660151
 20
1.6081068393
 30
0.0
 10
5.2816800934
 20
1.630352623
 30
0.0
 10
5.2696392377
 20
1.650138719
 30
0.0
 10
5.2612150666
 20
1.6665943282
 30
0.0
 10
5.2555199702
 20
1.6792227945
 30
0.0
 10
5.2513088441
 20
1.6899660461
 30
0.0
 10
5.2482719164
 20
1.698675976
 30
0.0
 10
5.2454600349
 20
1.7074575274
 30
0.0
 10
5.2423664987
 20
1.7185636654
 30
0.0
 10
5.2383177168
 20
1.7365548988
 30
0.0
 10
5.234942399
 20
1.7593899387
 30
0.0
 10
5.2340430594
 20
1.777836715
 30
0.0
 10
5.2340430594
 20
1.7870551721
 30
0.0
  0
SPLINE
  5
3F6
100
AcDbEntity
  8
0
100
AcDbSpline
 62
7
  6
CONTINUOUS
 70
0
 71
3
 72
31
 73
27
 74
0
 42
0.0000001
 43
0.0000001
 44
0.0000000001
 40
0.0
 40
0.0
 40
0.0
 40
0.0
 40
0.0624564651
 40
0.1249464008
 40
0.1874668353
 40
0.2499932037
 40
0.2812586514
 40
0.3125158452
 40
0.3437636976
 40
0.3750031454
 40
0.4062377156
 40
0.4374736071
 40
0.46871612
 40
0.499967687
 40
0.5624780365
 40
0.625005609
 40
0.687521525
 40
0.7187768984
 40
0.7500229372
 40
0.7812610464
 40
0.7968795342
 40
0.8124978361
 40
0.8437347144
 40
0.874978911
 40
0.9374760677
 40
1.0
 40
1.0
 40
1.0
 40
1.0
 10
5.518915591
 20
6.1554165759
 30
0.0
 10
5.5096015228
 20
6.1554165759
 30
0.0
 10
5.490955522
 20
6.1544700108
 30
0.0
 10
5.463268894
 20
6.1502974207
 30
0.0
 10
5.4361063344
 20
6.143458843
 30
0.0
 10
5.4141166107
 20
6.135605515
 30
0.0
 10
5.3970496506
 20
6.1280750963
 30
0.0
 10
5.384540131
 20
6.1218121934
 30
0.0
 10
5.3723562516
 20
6.114945584
 30
0.0
 10
5.3605299982
 20
6.1074857858
 30
0.0
 10
5.3490945101
 20
6.099442541
 30
0.0
 10
5.3380811635
 20
6.0908298037
 30
0.0
 10
5.3275090376
 20
6.0816767722
 30
0.0
 10
5.3140297909
 20
6.0687905313
 30
0.0
 10
5.2983798884
 20
6.0514645863
 30
0.0
 10
5.281695075
 20
6.0289652449
 30
0.0
 10
5.2696574303
 20
6.0089587738
 30
0.0
 10
5.2612341115
 20
5.9923195376
 30
0.0
 10
5.2555378969
 20
5.9795470684
 30
0.0
 10
5.2513260197
 20
5.9686823225
 30
0.0
 10
5.2482882047
 20
5.9598737412
 30
0.0
 10
5.2454748405
 20
5.950991158
 30
0.0
 10
5.2423794933
 20
5.939757416
 30
0.0
 10
5.238327468
 20
5.9215588343
 30
0.0
 10
5.2349482746
 20
5.8984623395
 30
0.0
 10
5.2340451849
 20
5.879806627
 30
0.0
 10
5.2340430669
 20
5.8704824977
 30
0.0
  0
SPLINE
  5
3F7
100
AcDbEntity
  8
0
100
AcDbSpline
 62
7
  6
CONTINUOUS
 70
0
 71
3
 72
31
 73
27
 74
0
 42
0.0000001
 43
0.0000001
 44
0.0000000001
 40
0.0
 40
0.0
 40
0.0
 40
0.0
 40
0.0311221141
 40
0.0622485184
 40
0.0933801074
 40
0.1245177333
 40
0.1867987479
 40
0.249112878
 40
0.2802916051
 40
0.3114802896
 40
0.3426793405
 40
0.3738890782
 40
0.4363261517
 40
0.4988078131
 40
0.5613335635
 40
0.6239015311
 40
0.6552079871
 40
0.6865236895
 40
0.7178480468
 40
0.7491804009
 40
0.8118510636
 40
0.8745443813
 40
0.9059048923
 40
0.9372679386
 40
0.9686342906
 40
1.0
 40
1.0
 40
1.0
 40
1.0
 10
5.9364357781
 20
1.5249996054
 30
0.0
 10
5.9354802488
 20
1.5188905707
 30
0.0
 10
5.9332953856
 20
1.5067126433
 30
0.0
 10
5.9292047701
 20
1.4886106032
 30
0.0
 10
5.9243083247
 20
1.4707057688
 30
0.0
 10
5.9167193045
 20
1.4471454995
 30
0.0
 10
5.9052668287
 20
1.4183550376
 30
0.0
 10
5.8912905863
 20
1.390692618
 30
0.0
 10
5.8786657804
 20
1.3693715967
 30
0.0
 10
5.8684887662
 20
1.3538075258
 30
0.0
 10
5.8576263696
 20
1.3387061977
 30
0.0
 10
5.8422585757
 20
1.3192276269
 30
0.0
 10
5.8214380801
 20
1.2961741038
 30
0.0
 10
5.7940939962
 20
1.2708210754
 30
0.0
 10
5.7645976703
 20
1.2479655901
 30
0.0
 10
5.7384155805
 20
1.2311493622
 30
0.0
 10
5.7166401515
 20
1.2191157491
 30
0.0
 10
5.6999164987
 20
1.2108125818
 30
0.0
 10
5.6828391378
 20
1.2032510072
 30
0.0
 10
5.6596440633
 20
1.1941774607
 30
0.0
 10
5.6299265667
 20
1.1847568917
 30
0.0
 10
5.599492029
 20
1.1779774861
 30
0.0
 10
5.5748604101
 20
1.1741688313
 30
0.0
 10
5.5562725421
 20
1.1721238206
 30
0.0
 10
5.5376125862
 20
1.1708954
 30
0.0
 10
5.5251472998
 20
1.1706221694
 30
0.0
 10
5.518915591
 20
1.1706221694
 30
0.0
  0
SPLINE
  5
3F8
100
AcDbEntity
  8
0
100
AcDbSpline
 62
7
  6
CONTINUOUS
 70
0
 71
3
 72
42
 73
38
 74
0
 42
0.0000001
 43
0.0000001
 44
0.0000000001
 40
0.0
 40
0.0
 40
0.0
 40
0.0
 40
0.0315486845
 40
0.0628512256
 40
0.0939323761
 40
0.1248173291
 40
0.1555317045
 40
0.1861005958
 40
0.216547867
 40
0.2468969052
 40
0.2771698854
 40
0.3073881817
 40
0.3375726654
 40
0.3677437381
 40
0.3979216311
 40
0.4281266545
 40
0.4583795142
 40
0.4887014036
 40
0.5191142013
 40
0.5496408778
 40
0.580305188
 40
0.6111317454
 40
0.6421461857
 40
0.6733738424
 40
0.7048396934
 40
0.7206723324
 40
0.7365729222
 40
0.7685799676
 40
0.8008801954
 40
0.8334763218
 40
0.8663589786
 40
0.882904265
 40
0.8995102762
 40
0.9161710459
 40
0.9328795692
 40
0.9663983717
 40
1.0
 40
1.0
 40
1.0
 40
1.0
 10
5.8037985814
 20
2.01381276
 30
0.0
 10
5.8124104649
 20
2.0061636126
 30
0.0
 10
5.8289821777
 20
1.9902517562
 30
0.0
 10
5.8518489695
 20
1.9646512481
 30
0.0
 10
5.8725760182
 20
1.9375930242
 30
0.0
 10
5.8911201131
 20
1.9092527785
 30
0.0
 10
5.9074498249
 20
1.8797959354
 30
0.0
 10
5.9215401087
 20
1.849381569
 30
0.0
 10
5.9333715803
 20
1.8181627031
 30
0.0
 10
5.9429291642
 20
1.7862877045
 30
0.0
 10
5.9502014293
 20
1.7539010944
 30
0.0
 10
5.9551800444
 20
1.7211446134
 30
0.0
 10
5.9578594877
 20
1.6881579822
 30
0.0
 10
5.9582368354
 20
1.6550796839
 30
0.0
 10
5.9563116734
 20
1.6220477503
 30
0.0
 10
5.9520860864
 20
1.5892004355
 30
0.0
 10
5.9455647173
 20
1.5566769697
 30
0.0
 10
5.9367549369
 20
1.5246183454
 30
0.0
 10
5.9256671083
 20
1.493168089
 30
0.0
 10
5.9123150334
 20
1.4624732005
 30
0.0
 10
5.8967165929
 20
1.4326850947
 30
0.0
 10
5.8788947941
 20
1.4039607064
 30
0.0
 10
5.8588788131
 20
1.3764633471
 30
0.0
 10
5.8367075002
 20
1.3503650258
 30
0.0
 10
5.8165136898
 20
1.3299704955
 30
0.0
 10
5.7993513767
 20
1.3145400858
 30
0.0
 10
5.7814469264
 20
1.2996661132
 30
0.0
 10
5.7578246783
 20
1.2823023457
 30
0.0
 10
5.7276941913
 20
1.2636860363
 30
0.0
 10
5.6958559203
 20
1.2474504015
 30
0.0
 10
5.6681018841
 20
1.2360995643
 30
0.0
 10
5.6452481505
 20
1.228402872
 30
0.0
 10
5.627775726
 20
1.2233365354
 30
0.0
 10
5.6100440724
 20
1.2190103827
 30
0.0
 10
5.5860851751
 20
1.2142495471
 30
0.0
 10
5.5557018386
 20
1.2102448833
 30
0.0
 10
5.5311835402
 20
1.2091721212
 30
0.0
 10
5.518915591
 20
1.2091721212
 30
0.0
  0
SPLINE
  5
3F9
100
AcDbEntity
  8
0
100
AcDbSpline
 62
7
  6
CONTINUOUS
 70
0
 71
3
 72
43
 73
39
 74
0
 42
0.0000001
 43
0.0000001
 44
0.0000000001
 40
0.0
 40
0.0
 40
0.0
 40
0.0
 40
0.0312130633
 40
0.0468171539
 40
0.0624183867
 40
0.0936086313
 40
0.1247895297
 40
0.1403791223
 40
0.1559669913
 40
0.1871341217
 40
0.2182970663
 40
0.2494577298
 40
0.2806180553
 40
0.3117799922
 40
0.3429454616
 40
0.3741163271
 40
0.4052943558
 40
0.4364811931
 40
0.4676783389
 40
0.4988871081
 40
0.530108618
 40
0.5457265789
 40
0.5613480445
 40
0.5925975052
 40
0.6238616859
 40
0.6395014815
 40
0.6551449977
 40
0.686438852
 40
0.7177471368
 40
0.7490692524
 40
0.7804043465
 40
0.8117513449
 40
0.8431089688
 40
0.8744757466
 40
0.9058500447
 40
0.9372301141
 40
0.9686140644
 40
1.0
 40
1.0
 40
1.0
 40
1.0
 10
5.803801366
 20
1.9432786686
 30
0.0
 10
5.8075480037
 20
1.9370748904
 30
0.0
 10
5.8128615928
 20
1.9275795794
 30
0.0
 10
5.8193022349
 20
1.9145943035
 30
0.0
 10
5.8253067897
 20
1.9014069313
 30
0.0
 10
5.8319850757
 20
1.8845641304
 30
0.0
 10
5.8375292936
 20
1.8673174946
 30
0.0
 10
5.8412683687
 20
1.8533272137
 30
0.0
 10
5.8445395534
 20
1.8392235296
 30
0.0
 10
5.8477455825
 20
1.8214033533
 30
0.0
 10
5.8501611789
 20
1.7998148067
 30
0.0
 10
5.8511349184
 20
1.7781144771
 30
0.0
 10
5.8506623482
 20
1.7563978103
 30
0.0
 10
5.8487455981
 20
1.7347595864
 30
0.0
 10
5.8453931376
 20
1.713294422
 30
0.0
 10
5.8406197973
 20
1.6920960895
 30
0.0
 10
5.8344466671
 20
1.671257141
 30
0.0
 10
5.8269010325
 20
1.6508685249
 30
0.0
 10
5.8180160907
 20
1.6310189715
 30
0.0
 10
5.807831332
 20
1.6117953822
 30
0.0
 10
5.7982979133
 20
1.5963667279
 30
0.0
 10
5.7900704393
 20
1.5844207865
 30
0.0
 10
5.7814486983
 20
1.5727480676
 30
0.0
 10
5.7699510018
 20
1.5586963518
 30
0.0
 10
5.7575483319
 20
1.5454308152
 30
0.0
 10
5.7471160772
 20
1.5353239149
 30
0.0
 10
5.7363516436
 20
1.5255613779
 30
0.0
 10
5.7222968415
 20
1.5140265813
 30
0.0
 10
5.7045538217
 20
1.5013201148
 30
0.0
 10
5.686006709
 20
1.4898001064
 30
0.0
 10
5.6667365726
 20
1.4795164435
 30
0.0
 10
5.6468269544
 20
1.4705131385
 30
0.0
 10
5.626364226
 20
1.4628288003
 30
0.0
 10
5.6054369934
 20
1.4564963169
 30
0.0
 10
5.5841359135
 20
1.4515427708
 30
0.0
 10
5.5625527788
 20
1.4479893369
 30
0.0
 10
5.5407820918
 20
1.4458511864
 30
0.0
 10
5.5262030855
 20
1.445375371
 30
0.0
 10
5.518915591
 20
1.445375371
 30
0.0
  0
SPLINE
  5
3FA
100
AcDbEntity
  8
0
100
AcDbSpline
 62
7
  6
CONTINUOUS
 70
0
 71
3
 72
31
 73
27
 74
0
 42
0.0000001
 43
0.0000001
 44
0.0000000001
 40
0.0
 40
0.0
 40
0.0
 40
0.0
 40
0.031365696
 40
0.0627320349
 40
0.094095068
 40
0.125455566
 40
0.188148863
 40
0.2508195085
 40
0.2821518541
 40
0.3134762042
 40
0.3447919009
 40
0.3760983527
 40
0.4386663199
 40
0.5011920763
 40
0.5636737494
 40
0.6261108394
 40
0.6573205849
 40
0.6885196444
 40
0.7197083378
 40
0.750887074
 40
0.8132012248
 40
0.8754822573
 40
0.9066198884
 40
0.937751481
 40
0.9688778868
 40
1.0
 40
1.0
 40
1.0
 40
1.0
 10
5.518915591
 20
1.1706221694
 30
0.0
 10
5.5126845792
 20
1.1706221694
 30
0.0
 10
5.5002206873
 20
1.1708953389
 30
0.0
 10
5.4815628104
 20
1.1721234848
 30
0.0
 10
5.4629769974
 20
1.1741680388
 30
0.0
 10
5.4383480681
 20
1.1779758449
 30
0.0
 10
5.4079167741
 20
1.1847537445
 30
0.0
 10
5.3782022824
 20
1.1941722363
 30
0.0
 10
5.3550094204
 20
1.2032437995
 30
0.0
 10
5.3379336139
 20
1.2108037312
 30
0.0
 10
5.3212113993
 20
1.2191051065
 30
0.0
 10
5.2994377175
 20
1.2311361431
 30
0.0
 10
5.2732574744
 20
1.2479488131
 30
0.0
 10
5.243762746
 20
1.2707995604
 30
0.0
 10
5.2164195771
 20
1.2961474592
 30
0.0
 10
5.1955992298
 20
1.3191964487
 30
0.0
 10
5.1802311609
 20
1.3386712877
 30
0.0
 10
5.1693683573
 20
1.3537697744
 30
0.0
 10
5.1591907318
 20
1.3693309746
 30
0.0
 10
5.1465648334
 20
1.3906481476
 30
0.0
 10
5.1325866983
 20
1.4183057415
 30
0.0
 10
5.1211316167
 20
1.4470914501
 30
0.0
 10
5.1135400832
 20
1.4706480162
 30
0.0
 10
5.1086415412
 20
1.4885501337
 30
0.0
 10
5.1045486194
 20
1.5066495321
 30
0.0
 10
5.1023620785
 20
1.5188257569
 30
0.0
 10
5.1014056774
 20
1.5249339577
 30
0.0
  0
SPLINE
  5
3FB
100
AcDbEntity
  8
0
100
AcDbSpline
 62
7
  6
CONTINUOUS
 70
0
 71
3
 72
42
 73
38
 74
0
 42
0.0000001
 43
0.0000001
 44
0.0000000001
 40
0.0
 40
0.0
 40
0.0
 40
0.0
 40
0.0336016577
 40
0.0671203756
 40
0.0838288179
 40
0.1004894858
 40
0.1170953595
 40
0.133640499
 40
0.1665228253
 40
0.1991185899
 40
0.231418337
 40
0.2634250895
 40
0.2793254367
 40
0.2951578745
 40
0.3266233893
 40
0.3578506994
 40
0.3888648817
 40
0.4196911606
 40
0.4503552485
 40
0.4808817565
 40
0.5112943968
 40
0.5416162046
 40
0.571869012
 40
0.6020740385
 40
0.6322519756
 40
0.6624231398
 40
0.6926077608
 40
0.7228262474
 40
0.7530994642
 40
0.7834487802
 40
0.8138964163
 40
0.8444656587
 40
0.8751804741
 40
0.906065886
 40
0.9371475868
 40
0.968450716
 40
1.0
 40
1.0
 40
1.0
 40
1.0
 10
5.518915591
 20
1.2091721212
 30
0.0
 10
5.5066475081
 20
1.2091721212
 30
0.0
 10
5.4821289834
 20
1.2102449016
 30
0.0
 10
5.4517453976
 20
1.214249646
 30
0.0
 10
5.4277863623
 20
1.2190105424
 30
0.0
 10
5.410054652
 20
1.223336742
 30
0.0
 10
5.3925822006
 20
1.2284031344
 30
0.0
 10
5.3697284688
 20
1.2360998848
 30
0.0
 10
5.3419744572
 20
1.2474507644
 30
0.0
 10
5.3101362788
 20
1.2636864287
 30
0.0
 10
5.280005894
 20
1.2823027857
 30
0.0
 10
5.2563837091
 20
1.2996665097
 30
0.0
 10
5.2384793331
 20
1.3145405155
 30
0.0
 10
5.2213170575
 20
1.3299708866
 30
0.0
 10
5.2011233183
 20
1.350365439
 30
0.0
 10
5.1789520293
 20
1.3764637784
 30
0.0
 10
5.15893607
 20
1.4039611767
 30
0.0
 10
5.1411142729
 20
1.4326856384
 30
0.0
 10
5.1255158338
 20
1.4624738496
 30
0.0
 10
5.1121637562
 20
1.4931688846
 30
0.0
 10
5.1010759322
 20
1.5246193394
 30
0.0
 10
5.0922661686
 20
1.5566782039
 30
0.0
 10
5.0857448378
 20
1.5892019683
 30
0.0
 10
5.0815193243
 20
1.6220496259
 30
0.0
 10
5.0795942818
 20
1.65508195
 30
0.0
 10
5.0799718058
 20
1.6881606783
 30
0.0
 10
5.0826514916
 20
1.7211477771
 30
0.0
 10
5.0876304272
 20
1.7539047548
 30
0.0
 10
5.0949030972
 20
1.7862918799
 30
0.0
 10
5.1044611824
 20
1.818167413
 30
0.0
 10
5.1162932565
 20
1.8493867981
 30
0.0
 10
5.1303842523
 20
1.879801672
 30
0.0
 10
5.1467147808
 20
1.9092589722
 30
0.0
 10
5.1652598185
 20
1.9375996418
 30
0.0
 10
5.1859879443
 20
1.9646582084
 30
0.0
 10
5.2088559252
 20
1.9902589712
 30
0.0
 10
5.2254285056
 20
2.0061708842
 30
0.0
 10
5.2340408156
 20
2.0138200548
 30
0.0
  0
SPLINE
  5
3FC
100
AcDbEntity
  8
0
100
AcDbSpline
 62
7
  6
CONTINUOUS
 70
0
 71
3
 72
43
 73
39
 74
0
 42
0.0000001
 43
0.0000001
 44
0.0000000001
 40
0.0
 40
0.0
 40
0.0
 40
0.0
 40
0.0313859375
 40
0.0627698887
 40
0.0941499584
 40
0.1255242559
 40
0.1568910325
 40
0.1882486545
 40
0.2195956503
 40
0.2509307414
 40
0.2822528536
 40
0.3135611346
 40
0.3448549848
 40
0.3604984989
 40
0.3761382924
 40
0.4074024689
 40
0.4386519254
 40
0.4542733891
 40
0.469891348
 40
0.5011128543
 40
0.5323216202
 40
0.5635187633
 40
0.5947055985
 40
0.6258836258
 40
0.6570544906
 40
0.6882199601
 40
0.7193818979
 40
0.7505422253
 40
0.7817028916
 40
0.8128658398
 40
0.8440329747
 40
0.8596208463
 40
0.8752104417
 40
0.9063913463
 40
0.9375815977
 40
0.9531828342
 40
0.9687869287
 40
1.0
 40
1.0
 40
1.0
 40
1.0
 10
5.518915591
 20
1.445375371
 30
0.0
 10
5.5116280841
 20
1.445375371
 30
0.0
 10
5.497049053
 20
1.4458511881
 30
0.0
 10
5.4752783296
 20
1.4479893458
 30
0.0
 10
5.45369516
 20
1.4515427916
 30
0.0
 10
5.4323940471
 20
1.456496354
 30
0.0
 10
5.4114667838
 20
1.4628288579
 30
0.0
 10
5.3910040272
 20
1.4705132205
 30
0.0
 10
5.371094384
 20
1.4795165537
 30
0.0
 10
5.3518242258
 20
1.4898002481
 30
0.0
 10
5.3332770949
 20
1.5013202913
 30
0.0
 10
5.3155340606
 20
1.5140267951
 30
0.0
 10
5.3014792501
 20
1.5255616252
 30
0.0
 10
5.2907148113
 20
1.5353241895
 30
0.0
 10
5.2802825538
 20
1.5454311185
 30
0.0
 10
5.2678798821
 20
1.5586966914
 30
0.0
 10
5.2563821885
 20
1.5727484453
 30
0.0
 10
5.2477604512
 20
1.5844211943
 30
0.0
 10
5.2395329838
 20
1.5963671673
 30
0.0
 10
5.2299995752
 20
1.6117958607
 30
0.0
 10
5.2198148341
 20
1.6310194976
 30
0.0
 10
5.2109299148
 20
1.6508690985
 30
0.0
 10
5.2033843079
 20
1.6712577617
 30
0.0
 10
5.1972112106
 20
1.6920967565
 30
0.0
 10
5.1924379085
 20
1.7132951339
 30
0.0
 10
5.1890854912
 20
1.7347603416
 30
0.0
 10
5.1871687895
 20
1.7563986067
 30
0.0
 10
5.1866962728
 20
1.7781153119
 30
0.0
 10
5.1876700709
 20
1.7998156767
 30
0.0
 10
5.1900857303
 20
1.8214042552
 30
0.0
 10
5.1932918169
 20
1.8392244541
 30
0.0
 10
5.1965630471
 20
1.8533281546
 30
0.0
 10
5.2003021729
 20
1.8673184495
 30
0.0
 10
5.2058464532
 20
1.8845651006
 30
0.0
 10
5.2125248067
 20
1.9014079111
 30
0.0
 10
5.2185294148
 20
1.9145952891
 30
0.0
 10
5.2249701143
 20
1.9275805674
 30
0.0
 10
5.2302837458
 20
1.9370758784
 30
0.0
 10
5.2340304123
 20
1.9432796553
 30
0.0
  0
SPLINE
  5
3FD
100
AcDbEntity
  8
0
100
AcDbSpline
 62
7
  6
CONTINUOUS
 70
0
 71
3
 72
30
 73
26
 74
0
 42
0.0000001
 43
0.0000001
 44
0.0000000001
 40
0.0
 40
0.0
 40
0.0
 40
0.0
 40
0.0621644655
 40
0.124315909
 40
0.155396806
 40
0.1864788884
 40
0.2020235166
 40
0.2175710626
 40
0.2486760924
 40
0.2798018058
 40
0.3109506534
 40
0.3732983092
 40
0.4357222953
 40
0.4981976863
 40
0.529458214
 40
0.5607274308
 40
0.5920076999
 40
0.6233040669
 40
0.654622022
 40
0.6859641317
 40
0.7486999167
 40
0.8115072003
 40
0.8743471368
 40
0.9371833581
 40
1.0
 40
1.0
 40
1.0
 40
1.0
 10
5.8037881227
 20
1.7870551721
 30
0.0
 10
5.8037881227
 20
1.777836715
 30
0.0
 10
5.802888783
 20
1.7593899387
 30
0.0
 10
5.7995134653
 20
1.7365548988
 30
0.0
 10
5.7954646833
 20
1.7185636654
 30
0.0
 10
5.7923711472
 20
1.7074575274
 30
0.0
 10
5.7895592657
 20
1.698675976
 30
0.0
 10
5.786522338
 20
1.6899660461
 30
0.0
 10
5.7823112119
 20
1.6792227945
 30
0.0
 10
5.7766161154
 20
1.6665943282
 30
0.0
 10
5.7681919444
 20
1.650138719
 30
0.0
 10
5.7561510887
 20
1.630352623
 30
0.0
 10
5.739465167
 20
1.6081068393
 30
0.0
 10
5.7238182604
 20
1.5909812202
 30
0.0
 10
5.7103420725
 20
1.5782436437
 30
0.0
 10
5.6997692399
 20
1.5691936415
 30
0.0
 10
5.6887550338
 20
1.5606778387
 30
0.0
 10
5.6773186979
 20
1.5527251953
 30
0.0
 10
5.6654912088
 20
1.5453493261
 30
0.0
 10
5.6492420265
 20
1.5362955105
 30
0.0
 10
5.6281106136
 20
1.5264692374
 30
0.0
 10
5.6017294486
 20
1.5171560203
 30
0.0
 10
5.5745642326
 20
1.5103949066
 30
0.0
 10
5.5468766647
 20
1.5062701512
 30
0.0
 10
5.5282307603
 20
1.5053344144
 30
0.0
 10
5.518915591
 20
1.5053344144
 30
0.0
  0
SPLINE
  5
3FE
100
AcDbEntity
  8
0
100
AcDbSpline
 62
7
  6
CONTINUOUS
 70
0
 71
3
 72
31
 73
27
 74
0
 42
0.0000001
 43
0.0000001
 44
0.0000000001
 40
0.0
 40
0.0
 40
0.0
 40
0.0
 40
0.0625239189
 40
0.1250210407
 40
0.1562652198
 40
0.1875020878
 40
0.2031203888
 40
0.2187388791
 40
0.2499770008
 40
0.2812230564
 40
0.3124784463
 40
0.3749943865
 40
0.437521961
 40
0.5000322956
 40
0.5312838522
 40
0.5625263567
 40
0.5937622442
 40
0.6249968171
 40
0.6562362717
 40
0.6874841321
 40
0.7187413332
 40
0.7500067862
 40
0.8125331612
 40
0.875053596
 40
0.9375435316
 40
1.0
 40
1.0
 40
1.0
 40
1.0
 10
5.8037881055
 20
5.8705164347
 30
0.0
 10
5.8037848974
 20
5.879839855
 30
0.0
 10
5.8028797633
 20
5.8984940391
 30
0.0
 10
5.7994983538
 20
5.9215884071
 30
0.0
 10
5.7954447602
 20
5.9397851814
 30
0.0
 10
5.7923485191
 20
5.9510177559
 30
0.0
 10
5.7895344888
 20
5.9598993859
 30
0.0
 10
5.7864960518
 20
5.9687070075
 30
0.0
 10
5.7822834848
 20
5.9795705427
 30
0.0
 10
5.7765865765
 20
5.992341548
 30
0.0
 10
5.7681625056
 20
6.0089788273
 30
0.0
 10
5.7561242341
 20
6.0289828554
 30
0.0
 10
5.7394391282
 20
6.051479331
 30
0.0
 10
5.7237893358
 20
6.0688029787
 30
0.0
 10
5.7103103719
 20
6.0816874615
 30
0.0
 10
5.6997385516
 20
6.0908392202
 30
0.0
 10
5.6887255981
 20
6.0994507364
 30
0.0
 10
5.6772905902
 20
6.1074928216
 30
0.0
 10
5.6654649084
 20
6.1149515423
 30
0.0
 10
5.6532816812
 20
6.1218171546
 30
0.0
 10
5.6407728879
 20
6.1280791442
 30
0.0
 10
5.6237069845
 20
6.1356084599
 30
0.0
 10
5.6017187309
 20
6.1434606295
 30
0.0
 10
5.5745581101
 20
6.1502981903
 30
0.0
 10
5.5468735398
 20
6.1544701543
 30
0.0
 10
5.5282289538
 20
6.1554165759
 30
0.0
 10
5.518915591
 20
6.1554165759
 30
0.0
  0
SPLINE
  5
3FF
100
AcDbEntity
  8
0
100
AcDbSpline
 62
9
  6
CONTINUOUS
 70
0
 71
3
 72
31
 73
27
 74
0
 42
0.0000001
 43
0.0000001
 44
0.0000000001
 40
0.0
 40
0.0
 40
0.0
 40
0.0
 40
0.0314029132
 40
0.0628070686
 40
0.0942069482
 40
0.1256032497
 40
0.188366639
 40
0.2511008525
 40
0.2824611709
 40
0.3138111398
 40
0.3451498786
 40
0.376476573
 40
0.4390773798
 40
0.5016224384
 40
0.5641085856
 40
0.6265343064
 40
0.6577313829
 40
0.688913565
 40
0.72008114
 40
0.7512344946
 40
0.8134867571
 40
0.8756892528
 40
0.9067807733
 40
0.937862392
 40
0.9689351144
 40
1.0
 40
1.0
 40
1.0
 40
1.0
 10
5.518915591
 20
1.4388913123
 30
0.0
 10
5.5235268834
 20
1.4388913123
 30
0.0
 10
5.5327508037
 20
1.439082663
 30
0.0
 10
5.5465613784
 20
1.4399428791
 30
0.0
 10
5.560323893
 20
1.4413751313
 30
0.0
 10
5.5785717982
 20
1.4440431262
 30
0.0
 10
5.6011443853
 20
1.4487931907
 30
0.0
 10
5.6232398236
 20
1.4553988516
 30
0.0
 10
5.6405296564
 20
1.4617663549
 30
0.0
 10
5.653283275
 20
1.4670754587
 30
0.0
 10
5.665800418
 20
1.4729087181
 30
0.0
 10
5.6821391029
 20
1.4813682614
 30
0.0
 10
5.7018681858
 20
1.4932019403
 30
0.0
 10
5.7242566097
 20
1.5093151096
 30
0.0
 10
5.7452005254
 20
1.5272263955
 30
0.0
 10
5.7613333732
 20
1.5435531573
 30
0.0
 10
5.7733709596
 20
1.5573780543
 30
0.0
 10
5.7819507915
 20
1.5681110983
 30
0.0
 10
5.7900675348
 20
1.5791905184
 30
0.0
 10
5.8002497081
 20
1.5943928592
 30
0.0
 10
5.8117550523
 20
1.6141682936
 30
0.0
 10
5.8215464272
 20
1.6348361572
 30
0.0
 10
5.8283050554
 20
1.6518081397
 30
0.0
 10
5.8328295565
 20
1.6647360738
 30
0.0
 10
5.8368013368
 20
1.6778397889
 30
0.0
 10
5.8390765575
 20
1.6866793796
 30
0.0
 10
5.8401197314
 20
1.6911201553
 30
0.0
  0
SPLINE
  5
400
100
AcDbEntity
  8
0
100
AcDbSpline
 62
9
  6
CONTINUOUS
 70
0
 71
3
 72
27
 73
23
 74
0
 42
0.0000001
 43
0.0000001
 44
0.0000000001
 40
0.0
 40
0.0
 40
0.0
 40
0.0
 40
0.0627070139
 40
0.0940629371
 40
0.1254158583
 40
0.1881046932
 40
0.2507755955
 40
0.2821067246
 40
0.3134313723
 40
0.3760505511
 40
0.4386367007
 40
0.5011857573
 40
0.5636942857
 40
0.6261595324
 40
0.6885794745
 40
0.7197761722
 40
0.7509611366
 40
0.8132874901
 40
0.8755671479
 40
0.9066939534
 40
0.9378095738
 40
1.0
 40
1.0
 40
1.0
 40
1.0
 10
5.518915591
 20
1.1930916331
 30
0.0
 10
5.5277676988
 20
1.1930916331
 30
0.0
 10
5.5410514195
 20
1.1935200236
 30
0.0
 10
5.5587005771
 20
1.1949457552
 30
0.0
 10
5.5762926892
 20
1.1969393821
 30
0.0
 10
5.5981443889
 20
1.2004930354
 30
0.0
 10
5.6197184759
 20
1.2054480295
 30
0.0
 10
5.6367520671
 20
1.2102391865
 30
0.0
 10
5.653615071
 20
1.2155755708
 30
0.0
 10
5.6743500675
 20
1.2232609924
 30
0.0
 10
5.698571411
 20
1.2340673734
 30
0.0
 10
5.7220292824
 20
1.2464115923
 30
0.0
 10
5.7446233876
 20
1.2602411034
 30
0.0
 10
5.7662572904
 20
1.2754966873
 30
0.0
 10
5.7834138744
 20
1.2893484551
 30
0.0
 10
5.7965668557
 20
1.301073604
 30
0.0
 10
5.809321351
 20
1.3132119449
 30
0.0
 10
5.8245036903
 20
1.3291459728
 30
0.0
 10
5.8386080778
 20
1.3460309067
 30
0.0
 10
5.8492037712
 20
1.3600604877
 30
0.0
 10
5.8593271001
 20
1.3744184232
 30
0.0
 10
5.8663859837
 20
1.3855536025
 30
0.0
 10
5.8708406673
 20
1.3931186438
 30
0.0
  0
SPLINE
  5
401
100
AcDbEntity
  8
0
100
AcDbSpline
 62
9
  6
CONTINUOUS
 70
0
 71
3
 72
30
 73
26
 74
0
 42
0.0000001
 43
0.0000001
 44
0.0000000001
 40
0.0
 40
0.0
 40
0.0
 40
0.0
 40
0.0628166419
 40
0.1256528632
 40
0.1884927997
 40
0.2513000833
 40
0.3140358683
 40
0.345377978
 40
0.3766959331
 40
0.4079923001
 40
0.4392725692
 40
0.470541786
 40
0.5018023137
 40
0.5642777047
 40
0.6267016908
 40
0.6890493466
 40
0.7201981942
 40
0.7513239076
 40
0.7824289374
 40
0.7979764834
 40
0.8135211116
 40
0.844603194
 40
0.875684091
 40
0.9378355345
 40
1.0
 40
1.0
 40
1.0
 40
1.0
 10
5.518915591
 20
1.5336958181
 30
0.0
 10
5.5096004217
 20
1.5336958181
 30
0.0
 10
5.4909545174
 20
1.534631555
 30
0.0
 10
5.4632669494
 20
1.5387563104
 30
0.0
 10
5.4361017335
 20
1.5455174241
 30
0.0
 10
5.4097205685
 20
1.5548306412
 30
0.0
 10
5.3885891555
 20
1.5646569143
 30
0.0
 10
5.3723399733
 20
1.5737107299
 30
0.0
 10
5.3605124842
 20
1.5810865991
 30
0.0
 10
5.3490761482
 20
1.5890392425
 30
0.0
 10
5.3380619422
 20
1.5975550453
 30
0.0
 10
5.3274891095
 20
1.6066050475
 30
0.0
 10
5.3140129217
 20
1.6193426239
 30
0.0
 10
5.2983660151
 20
1.6364682431
 30
0.0
 10
5.2816800934
 20
1.6587140268
 30
0.0
 10
5.2696392377
 20
1.6785001228
 30
0.0
 10
5.2612150666
 20
1.694955732
 30
0.0
 10
5.2555199702
 20
1.7075841983
 30
0.0
 10
5.2513088441
 20
1.7183274499
 30
0.0
 10
5.2482719164
 20
1.7270373798
 30
0.0
 10
5.2454600349
 20
1.7358189312
 30
0.0
 10
5.2423664987
 20
1.7469250692
 30
0.0
 10
5.2383177168
 20
1.7649163026
 30
0.0
 10
5.234942399
 20
1.7877513425
 30
0.0
 10
5.2340430594
 20
1.8061981188
 30
0.0
 10
5.2340430594
 20
1.8154165759
 30
0.0
  0
SPLINE
  5
402
100
AcDbEntity
  8
0
100
AcDbSpline
 62
9
  6
CONTINUOUS
 70
0
 71
3
 72
30
 73
26
 74
0
 42
0.0000001
 43
0.0000001
 44
0.0000000001
 40
0.0
 40
0.0
 40
0.0
 40
0.0
 40
0.0621644655
 40
0.124315909
 40
0.155396806
 40
0.1864788884
 40
0.2020235166
 40
0.2175710626
 40
0.2486760924
 40
0.2798018058
 40
0.3109506534
 40
0.3732983092
 40
0.4357222953
 40
0.4981976863
 40
0.529458214
 40
0.5607274308
 40
0.5920076999
 40
0.6233040669
 40
0.654622022
 40
0.6859641317
 40
0.7486999167
 40
0.8115072003
 40
0.8743471368
 40
0.9371833581
 40
1.0
 40
1.0
 40
1.0
 40
1.0
 10
5.8037881227
 20
1.8154165759
 30
0.0
 10
5.8037881227
 20
1.8061981188
 30
0.0
 10
5.802888783
 20
1.7877513425
 30
0.0
 10
5.7995134653
 20
1.7649163026
 30
0.0
 10
5.7954646833
 20
1.7469250692
 30
0.0
 10
5.7923711472
 20
1.7358189312
 30
0.0
 10
5.7895592657
 20
1.7270373798
 30
0.0
 10
5.786522338
 20
1.7183274499
 30
0.0
 10
5.7823112119
 20
1.7075841983
 30
0.0
 10
5.7766161154
 20
1.694955732
 30
0.0
 10
5.7681919444
 20
1.6785001228
 30
0.0
 10
5.7561510887
 20
1.6587140268
 30
0.0
 10
5.739465167
 20
1.6364682431
 30
0.0
 10
5.7238182604
 20
1.6193426239
 30
0.0
 10
5.7103420725
 20
1.6066050475
 30
0.0
 10
5.6997692399
 20
1.5975550453
 30
0.0
 10
5.6887550338
 20
1.5890392425
 30
0.0
 10
5.6773186979
 20
1.5810865991
 30
0.0
 10
5.6654912088
 20
1.5737107299
 30
0.0
 10
5.6492420265
 20
1.5646569143
 30
0.0
 10
5.6281106136
 20
1.5548306412
 30
0.0
 10
5.6017294486
 20
1.5455174241
 30
0.0
 10
5.5745642326
 20
1.5387563104
 30
0.0
 10
5.5468766647
 20
1.534631555
 30
0.0
 10
5.5282307603
 20
1.5336958181
 30
0.0
 10
5.518915591
 20
1.5336958181
 30
0.0
  0
SPLINE
  5
403
100
AcDbEntity
  8
0
100
AcDbSpline
 62
9
  6
CONTINUOUS
 70
0
 71
3
 72
31
 73
27
 74
0
 42
0.0000001
 43
0.0000001
 44
0.0000000001
 40
0.0
 40
0.0
 40
0.0
 40
0.0
 40
0.031402932
 40
0.0628071055
 40
0.0942070027
 40
0.1256033216
 40
0.1883667396
 40
0.2511009768
 40
0.2824613059
 40
0.3138112839
 40
0.3451500298
 40
0.3764767295
 40
0.4390775384
 40
0.5016225912
 40
0.5641087255
 40
0.6265344273
 40
0.6577314937
 40
0.6889136646
 40
0.720081228
 40
0.7512345705
 40
0.8134868062
 40
0.8756892775
 40
0.906780789
 40
0.9378624003
 40
0.9689351173
 40
1.0
 40
1.0
 40
1.0
 40
1.0
 10
5.518915591
 20
1.4388913123
 30
0.0
 10
5.5143038705
 20
1.4388913123
 30
0.0
 10
5.5050790936
 20
1.4390826986
 30
0.0
 10
5.4912672411
 20
1.4399430743
 30
0.0
 10
5.4775034622
 20
1.4413755921
 30
0.0
 10
5.4592538994
 20
1.4440440807
 30
0.0
 10
5.4366793062
 20
1.4487950215
 30
0.0
 10
5.414581994
 20
1.4554018929
 30
0.0
 10
5.3972907684
 20
1.4617705536
 30
0.0
 10
5.3845361639
 20
1.4670806174
 30
0.0
 10
5.3720180994
 20
1.4729149248
 30
0.0
 10
5.3556782812
 20
1.4813759771
 30
0.0
 10
5.3359479694
 20
1.4932117444
 30
0.0
 10
5.3135584155
 20
1.509327706
 30
0.0
 10
5.2926137515
 20
1.5272420292
 30
0.0
 10
5.2764806248
 20
1.5435714912
 30
0.0
 10
5.2644430375
 20
1.5573986228
 30
0.0
 10
5.2558633182
 20
1.5681333745
 30
0.0
 10
5.2477468032
 20
1.5792145272
 30
0.0
 10
5.2375650928
 20
1.5944192016
 30
0.0
 10
5.2260606262
 20
1.614197584
 30
0.0
 10
5.2162705401
 20
1.634868389
 30
0.0
 10
5.209513191
 20
1.6518426892
 30
0.0
 10
5.2049897732
 20
1.6647723386
 30
0.0
 10
5.2010191989
 20
1.6778777373
 30
0.0
 10
5.1987448649
 20
1.6867184251
 30
0.0
 10
5.1977021542
 20
1.6911597414
 30
0.0
  0
SPLINE
  5
404
100
AcDbEntity
  8
0
100
AcDbSpline
 62
9
  6
CONTINUOUS
 70
0
 71
3
 72
27
 73
23
 74
0
 42
0.0000001
 43
0.0000001
 44
0.0000000001
 40
0.0
 40
0.0
 40
0.0
 40
0.0
 40
0.0627069609
 40
0.0940628577
 40
0.1254157526
 40
0.1881045404
 40
0.2507754017
 40
0.2821065115
 40
0.313431142
 40
0.3760502956
 40
0.4386364295
 40
0.5011854808
 40
0.5636940146
 40
0.6261592772
 40
0.6885792454
 40
0.7197759582
 40
0.7509609398
 40
0.8132873363
 40
0.8755670431
 40
0.9066938734
 40
0.9378095193
 40
1.0
 40
1.0
 40
1.0
 40
1.0
 10
5.518915591
 20
1.1930916331
 30
0.0
 10
5.5100649219
 20
1.1930916331
 30
0.0
 10
5.4967833618
 20
1.1935198842
 30
0.0
 10
5.4791370545
 20
1.1949451528
 30
0.0
 10
5.461547765
 20
1.1969381329
 30
0.0
 10
5.4396995263
 20
1.2004906355
 30
0.0
 10
5.4181287652
 20
1.2054440315
 30
0.0
 10
5.4010977257
 20
1.2102336508
 30
0.0
 10
5.384237191
 20
1.215568328
 30
0.0
 10
5.3635051155
 20
1.2232513039
 30
0.0
 10
5.3392869605
 20
1.2340542763
 30
0.0
 10
5.315831914
 20
1.2463946423
 30
0.0
 10
5.2932402253
 20
1.2602198899
 30
0.0
 10
5.2716082892
 20
1.2754708371
 30
0.0
 10
5.2544529386
 20
1.2893184614
 30
0.0
 10
5.2413006818
 20
1.3010401526
 30
0.0
 10
5.22854673
 20
1.3131749493
 30
0.0
 10
5.2133647257
 20
1.3291043948
 30
0.0
 10
5.1992601898
 20
1.345984584
 30
0.0
 10
5.1886640749
 20
1.3600103007
 30
0.0
 10
5.1785401207
 20
1.374364337
 30
0.0
 10
5.1714805352
 20
1.3854965558
 30
0.0
 10
5.1670252774
 20
1.3930596206
 30
0.0
  0
ENDSEC
  0
SECTION
  2
OBJECTS
  0
DICTIONARY
  5
C
100
AcDbDictionary
280
0
281
1
  3
ACAD_GROUP
350
D
  3
ACAD_MLINESTYLE
350
17
  3
ACAD_LAYOUT
350
1A
  3
ACAD_PLOTSETTINGS
350
19
  3
ACAD_PLOTSTYLENAME
350
E
  0
DICTIONARY
  5
D
102
{ACAD_REACTORS
330
C
102
}
100
AcDbDictionary
280
0
281
1
  0
ACDBDICTIONARYWDFLT
  5
E
102
{ACAD_REACTORS
330
C
102
}
100
AcDbDictionary
281
1
  3
Normal
350
F
100
AcDbDictionaryWithDefault
340
F
  0
DICTIONARY
  5
17
102
{ACAD_REACTORS
330
C
102
}
100
AcDbDictionary
280
0
281
1
  3
Standard
350
18
  0
DICTIONARY
  5
19
102
{ACAD_REACTORS
330
C
102
}
100
AcDbDictionary
281
1
  0
DICTIONARY
  5
1A
102
{ACAD_REACTORS
330
C
102
}
100
AcDbDictionary
281
1
  3
Model
350
405
  3
Layout1
350
406
  0
ACDBPLACEHOLDER
  5
F
102
{ACAD_REACTORS
330
E
102
}
  0
MLINESTYLE
  5
18
102
{ACAD_REACTORS
330
17
102
}
100
AcDbMlineStyle
  2
STANDARD
 70
0
  3

 62
256
 51
90.0
 52
90.0
 71
2
 49
0.5
 62
256
  6
BYLAYER
 49
-0.5
 62
256
  6
BYLAYER
  0
LAYOUT
  5
405
102
{ACAD_REACTORS
330
1A
102
}
100
AcDbPlotSettings
  1

  2
none_device
  4
ANSI_A_(11.00_x_8.50_Inches)
  6

 40
0.0
 41
0.0
 42
0.0
 43
0.0
 44
279.4
 45
215.9
 46
0.0
 47
0.0
 48
0.0
 49
0.0
140
0.0
141
0.0
142
1.0
143
1.0
 70
1024
 72
0
 73
0
 74
0
  7

 75
0
147
1.0
148
0.0
149
0.0
100
AcDbLayout
  1
Model
 70
0
 71
0
 10
0.0
 20
0.0
 11
11.0
 21
8.5
 12
0.0
 22
0.0
 32
0.0
 14
0.0
 24
0.0
 34
0.0
 15
0.0
 25
0.0
 35
0.0
146
0.0
 13
0.0
 23
0.0
 33
0.0
 16
1.0
 26
0.0
 36
0.0
 17
0.0
 27
1.0
 37
0.0
 76
0
330
202
345
0
346
0
  0
LAYOUT
  5
406
102
{ACAD_REACTORS
330
1A
102
}
100
AcDbPlotSettings
  1

  2
none_device
  4
ANSI_A_(11.00_x_8.50_Inches)
  6

 40
0.0
 41
0.0
 42
0.0
 43
0.0
 44
279.4
 45
215.9
 46
0.0
 47
0.0
 48
0.0
 49
0.0
140
0.0
141
0.0
142
1.0
143
1.0
 70
0
 72
0
 73
0
 74
0
  7

 75
0
147
1.0
148
0.0
149
0.0
100
AcDbLayout
  1
Layout1
 70
0
 71
1
 10
0.0
 20
0.0
 11
11.0
 21
8.5
 12
0.0
 22
0.0
 32
0.0
 14
0.0
 24
0.0
 34
0.0
 15
0.0
 25
0.0
 35
0.0
146
0.0
 13
0.0
 23
0.0
 33
0.0
 16
1.0
 26
0.0
 36
0.0
 17
0.0
 27
1.0
 37
0.0
 76
0
330
203
345
0
346
0
  0
ENDSEC
  0
EOF
