999
DXF file: 2480-4261_right.dxf
999
Pro/ENGINEER 2018400 by Parametric Technology Corporation
  0
SECTION
  2
HEADER
  9
$ACADVER
  1
AC1027
  9
$DWGCODEPAGE
  3
ANSI_1252
  9
$EXTMAX
 10
11.0
 20
8.5
 30
0.0
  9
$EXTMIN
 10
0.0
 20
0.0
 30
0.0
  9
$LIMMIN
 10
0.0
 20
0.0
  9
$LIMMAX
 10
11.0
 20
8.5
  9
$VIEWCTR
 10
5.5
 20
4.25
  9
$VIEWSIZE
 40
8.5
  9
$CLAYER
  8
0
  9
$LTSCALE
 40
0.605
  9
$CELTYPE
  6
BYLAYER
  9
$DIMSCALE
 40
1.0
  9
$DIMASZ
 40
0.1
  9
$DIMEXO
 40
0.0625
  9
$DIMDLI
 40
0.418
  9
$DIMEXE
 40
0.125
  9
$DIMCEN
 40
0.099
  9
$DIMLFAC
 40
1.0
  9
$DIMBLK
  1
_FILLED
  9
$DIMALT
 70
1
  9
$DIMALTD
 70
1
  9
$DIMALTTD
 70
2
  9
$DIMALTF
 40
25.4
  9
$DIMTXT
 40
0.08
  9
$DIMTOL
 70
1
  9
$DIMLIM
 70
0
  9
$DIMTFAC
 40
1.0
  9
$DIMTP
 40
0.01
  9
$DIMTM
 40
0.01
  9
$DIMGAP
 40
0.09
  9
$DIMDSEP
 70
46
  9
$AUNITS
 70
0
  9
$PDMODE
 70
3
  9
$PDSIZE
 40
0.3125
  9
$HANDSEED
  5
3D9
  9
$TILEMODE
 70
1
  9
$MEASUREMENT
 70
0
  9
$INSUNITS
 70
1
  0
ENDSEC
  0
SECTION
  2
CLASSES
  0
CLASS
  1
ACDBDICTIONARYWDFLT
  2
AcDbDictionaryWithDefault
  3
AutoCAD 2000
 90
0
 91
1
280
0
281
0
  0
CLASS
  1
ACDBPLACEHOLDER
  2
AcDbPlaceHolder
  3
AutoCAD 2000
 90
0
 91
1
280
0
281
0
  0
CLASS
  1
LAYOUT
  2
AcDbLayout
  3
AutoCAD 2000
 90
0
 91
0
280
0
281
0
  0
ENDSEC
  0
SECTION
  2
TABLES
  0
TABLE
  2
VPORT
  5
8
100
AcDbSymbolTable
 70
2
  0
VPORT
  5
1F4
100
AcDbSymbolTableRecord
100
AcDbViewportTableRecord
  2
*ACTIVE
 70
0
 10
0.0
 20
0.0
 11
1.0
 21
1.0
 12
5.5
 22
4.25
 13
0.0
 23
0.0
 14
1.0
 24
1.0
 15
0.0
 25
0.0
 16
0.0
 26
0.0
 36
1.0
 17
0.0
 27
0.0
 37
0.0
 40
8.5
 41
1.2941176471
 42
50.0
 43
0.0
 44
0.0
 50
0.0
 51
0.0
 71
0
 72
100
 73
1
 74
1
 75
0
 76
0
 77
0
 78
0
  0
ENDTAB
  0
TABLE
  2
LTYPE
  5
5
100
AcDbSymbolTable
 70
6
  0
LTYPE
  5
14
100
AcDbSymbolTableRecord
100
AcDbLinetypeTableRecord
  2
BYBLOCK
 70
0
  3

 72
65
 73
0
 40
0.0
  0
LTYPE
  5
15
100
AcDbSymbolTableRecord
100
AcDbLinetypeTableRecord
  2
BYLAYER
 70
0
  3

 72
65
 73
0
 40
0.0
  0
LTYPE
  5
16
100
AcDbSymbolTableRecord
100
AcDbLinetypeTableRecord
  2
CONTINUOUS
 70
64
  3
Solid line
 72
65
 73
0
 40
0.0
  0
LTYPE
  5
1F5
100
AcDbSymbolTableRecord
100
AcDbLinetypeTableRecord
  2
CENTER
 70
64
  3
____ _ ____ _ ____ _ ____ _ ____ _ ____ _ ____
 72
65
 73
4
 40
0.6
 49
0.375
 74
0
 49
-0.075
 74
0
 49
0.075
 74
0
 49
-0.075
 74
0
  0
LTYPE
  5
1F6
100
AcDbSymbolTableRecord
100
AcDbLinetypeTableRecord
  2
HIDDEN
 70
64
  3
- - - - - - - - - - - - - - - - - - - -
 72
65
 73
2
 40
0.2
 49
0.1
 74
0
 49
-0.1
 74
0
  0
LTYPE
  5
1F7
100
AcDbSymbolTableRecord
100
AcDbLinetypeTableRecord
  2
PHANTOM
 70
64
  3
_____ _ _ _____ _ _ _____ _ _ _____
 72
65
 73
6
 40
0.8
 49
0.45
 74
0
 49
-0.05
 74
0
 49
0.1
 74
0
 49
-0.05
 74
0
 49
0.1
 74
0
 49
-0.05
 74
0
  0
LTYPE
  5
1F8
100
AcDbSymbolTableRecord
100
AcDbLinetypeTableRecord
  2
DOT
 70
64
  3
. . . . . . . . . . . . . . . . . . . .
 72
65
 73
2
 40
0.2
 49
0.1
 74
0
 49
-0.1
 74
0
  0
LTYPE
  5
1F9
100
AcDbSymbolTableRecord
100
AcDbLinetypeTableRecord
  2
DASHED
 70
64
  3
- - - - - - - - - - - - - - - - - - - -
 72
65
 73
2
 40
0.2
 49
0.1
 74
0
 49
-0.1
 74
0
  0
ENDTAB
  0
TABLE
  2
LAYER
  5
2
100
AcDbSymbolTable
 70
36
  0
LAYER
  5
10
100
AcDbSymbolTableRecord
100
AcDbLayerTableRecord
  2
0
 70
0
 62
7
  6
CONTINUOUS
370
-3
390
F
  0
LAYER
  5
1FA
100
AcDbSymbolTableRecord
100
AcDbLayerTableRecord
  2
DEFAULT_1
 70
0
 62
7
  6
CENTER
370
-3
390
F
  0
LAYER
  5
1FB
100
AcDbSymbolTableRecord
100
AcDbLayerTableRecord
  2
DEFAULT_2
 70
0
 62
8
  6
HIDDEN
370
-3
390
F
  0
LAYER
  5
1FC
100
AcDbSymbolTableRecord
100
AcDbLayerTableRecord
  2
DEFAULT_3
 70
0
 62
7
  6
PHANTOM
370
-3
390
F
  0
LAYER
  5
1FD
100
AcDbSymbolTableRecord
100
AcDbLayerTableRecord
  2
DEFAULT_COORDINATE_SYSTEM
 70
0
 62
7
  6
CONTINUOUS
370
-3
390
F
  0
LAYER
  5
1FE
100
AcDbSymbolTableRecord
100
AcDbLayerTableRecord
  2
DEFAULT_DATUM_AXES
 70
0
 62
7
  6
CONTINUOUS
370
-3
390
F
  0
LAYER
  5
1FF
100
AcDbSymbolTableRecord
100
AcDbLayerTableRecord
  2
DEFAULT_DATUM_PLANES
 70
0
 62
7
  6
CONTINUOUS
370
-3
390
F
  0
ENDTAB
  0
TABLE
  2
STYLE
  5
3
100
AcDbSymbolTable
 70
1
  0
STYLE
  5
11
100
AcDbSymbolTableRecord
100
AcDbTextStyleTableRecord
  2
STANDARD
 70
0
 40
0.0
 41
0.8
 50
0.0
 71
0
 42
0.2
  3
txt
  4

  0
STYLE
  5
200
100
AcDbSymbolTableRecord
100
AcDbTextStyleTableRecord
  2
TEXTSTYLE_1
 70
0
 40
0.0
 41
0.8
 50
0.0
 71
0
 42
0.2
  3
gdt
  4

  0
ENDTAB
  0
TABLE
  2
VIEW
  5
6
100
AcDbSymbolTable
 70
0
  0
ENDTAB
  0
TABLE
  2
UCS
  5
7
100
AcDbSymbolTable
 70
0
  0
ENDTAB
  0
TABLE
  2
APPID
  5
9
100
AcDbSymbolTable
 70
1
  0
APPID
  5
201
100
AcDbSymbolTableRecord
100
AcDbRegAppTableRecord
  2
ACAD
 70
0
  0
ENDTAB
  0
TABLE
  2
BLOCK_RECORD
  5
1
100
AcDbSymbolTable
 70
0
  0
BLOCK_RECORD
  5
202
100
AcDbSymbolTableRecord
100
AcDbBlockTableRecord
  2
*Model_Space
  0
BLOCK_RECORD
  5
203
100
AcDbSymbolTableRecord
100
AcDbBlockTableRecord
  2
*Paper_Space
  0
BLOCK_RECORD
  5
204
100
AcDbSymbolTableRecord
100
AcDbBlockTableRecord
  2
_FILLED
  0
ENDTAB
  0
TABLE
  2
DIMSTYLE
  5
A
100
AcDbSymbolTable
 70
1
100
AcDbDimStyleTable
 71
0
  0
DIMSTYLE
105
205
100
AcDbSymbolTableRecord
100
AcDbDimStyleTableRecord
  2
STANDARD
 70
0
  3

  4

 40
1.0
 41
0.1
 42
0.0625
 43
0.38
 44
0.125
 45
0.0
 46
0.0
 47
0.01
 48
0.01
140
0.08
141
0.09
142
0.0
143
25.4
144
1.0
145
0.0
146
1.0
147
0.09
 71
1.0
 72
0.0
 73
1
 74
1
 75
0
 76
0
 77
0
 78
4
 79
1
170
1
171
1
172
0
173
0
174
0
175
0
176
0
177
0
178
0
270
2
179
2
271
2
272
2
273
2
274
2
275
0
280
0
281
0
282
0
283
1
284
4
285
0
286
0
287
3
288
0
340
11
278
46
341
204
342
204
343
204
344
204
  0
ENDTAB
  0
ENDSEC
  0
SECTION
  2
BLOCKS
  0
BLOCK
  5
20
100
AcDbEntity
  8
0
100
AcDbBlockBegin
  2
*Model_Space
 70
0
 10
0.0
 20
0.0
 30
0.0
  3
*Model_Space
  1

  0
ENDBLK
  5
21
100
AcDbEntity
  8
0
100
AcDbBlockEnd
  0
BLOCK
  5
1C
100
AcDbEntity
  8
0
100
AcDbBlockBegin
  2
*Paper_Space
 70
0
 10
0.0
 20
0.0
 30
0.0
  3
*Paper_Space
  1

  0
ENDBLK
  5
1D
100
AcDbEntity
  8
0
100
AcDbBlockEnd
  0
BLOCK
  5
206
100
AcDbEntity
  8
0
100
AcDbBlockBegin
  2
_FILLED
 70
64
 10
0.0
 20
0.0
  3
_FILLED
  1

  0
SOLID
  5
207
100
AcDbEntity
  8
0
  6
BYBLOCK
 62
0
100
AcDbTrace
 10
0.0
 20
0.0
 11
-1.0
 21
0.2
 12
-1.0
 22
-0.2
 13
-1.0
 23
-0.2
  0
ENDBLK
  5
208
100
AcDbEntity
  8
0
  6
BYBLOCK
 62
0
100
AcDbBlockEnd
  0
ENDSEC
  0
SECTION
  2
ENTITIES
  0
MTEXT
  5
209
100
AcDbEntity
  8
0
100
AcDbMText
 62
2
  6
CONTINUOUS
  7
STANDARD
 71
3
 72
1
 10
5.8529101519
 20
0.7934621298
 30
0.0
 11
1.0
 21
0.0
 31
0.0
 73
2
 44
0.9
  1
SCALE  .156
 40
0.08
 41
0.704
  0
LINE
  5
20A
100
AcDbEntity
  8
0
100
AcDbLine
 62
7
  6
CONTINUOUS
 10
0.0
 20
0.0
 11
0.0
 21
8.5
  0
LINE
  5
20B
100
AcDbEntity
  8
0
100
AcDbLine
 62
7
  6
CONTINUOUS
 10
0.0
 20
0.0
 11
11.0
 21
0.0
  0
LINE
  5
20C
100
AcDbEntity
  8
0
100
AcDbLine
 62
7
  6
CONTINUOUS
 10
0.0
 20
8.5
 11
11.0
 21
8.5
  0
LINE
  5
20D
100
AcDbEntity
  8
0
100
AcDbLine
 62
7
  6
CONTINUOUS
 10
11.0
 20
0.0
 11
11.0
 21
8.5
  0
LINE
  5
20E
100
AcDbEntity
  8
0
100
AcDbLine
 62
7
  6
CONTINUOUS
 10
6.1217918514
 20
1.0738197206
 11
5.2030102722
 21
1.0738197206
  0
LINE
  5
20F
100
AcDbEntity
  8
0
100
AcDbLine
 62
7
  6
CONTINUOUS
 10
5.2017819543
 20
1.0750587862
 11
6.1230201705
 21
1.0750587862
  0
LINE
  5
210
100
AcDbEntity
  8
0
100
AcDbLine
 62
7
  6
CONTINUOUS
 10
6.1215703433
 20
1.2411925191
 11
5.2032317814
 21
1.2411925191
  0
LINE
  5
211
100
AcDbEntity
  8
0
100
AcDbLine
 62
7
  6
CONTINUOUS
 10
5.2202337029
 20
1.2594019287
 11
6.1045684159
 21
1.2594019291
  0
LINE
  5
212
100
AcDbEntity
  8
0
100
AcDbLine
 62
7
  6
CONTINUOUS
 10
5.4858262592
 20
1.2740647599
 11
5.8389758655
 21
1.2740647599
  0
LINE
  5
213
100
AcDbEntity
  8
0
100
AcDbLine
 62
7
  6
CONTINUOUS
 10
5.4858262592
 20
1.2771356261
 11
5.8389758655
 21
1.2771356261
  0
LINE
  5
214
100
AcDbEntity
  8
0
100
AcDbLine
 62
7
  6
CONTINUOUS
 10
5.4919679915
 20
1.2832773584
 11
5.8328341318
 21
1.2832773584
  0
LWPOLYLINE
  5
215
100
AcDbEntity
  8
0
100
AcDbPolyline
 62
7
  6
CONTINUOUS
 90
32
 70
0
 10
5.5763910111
 20
7.0641773058
 10
5.5763391397
 20
7.0641292614
 10
5.5762898833
 20
7.0640791309
 10
5.5762435069
 20
7.0640274056
 10
5.5761999061
 20
7.0639742391
 10
5.5761589491
 20
7.0639197403
 10
5.5761207388
 20
7.0638643562
 10
5.5760851464
 20
7.0638082633
 10
5.5760519228
 20
7.0637514262
 10
5.5760209348
 20
7.0636939656
 10
5.5759920299
 20
7.0636359592
 10
5.5759649863
 20
7.0635773103
 10
5.5759395883
 20
7.0635178655
 10
5.5759157038
 20
7.0634576091
 10
5.5758931758
 20
7.0633964251
 10
5.5758718045
 20
7.0633340068
 10
5.5758515006
 20
7.0632703017
 10
5.5758321525
 20
7.0632051732
 10
5.5758135823
 20
7.0631381876
 10
5.5757957262
 20
7.0630692313
 10
5.5757785295
 20
7.0629981978
 10
5.5757618768
 20
7.0629246736
 10
5.5757457334
 20
7.0628485241
 10
5.5757300778
 20
7.0627696561
 10
5.5757148486
 20
7.0626877366
 10
5.5757000312
 20
7.0626026273
 10
5.5756856233
 20
7.0625142443
 10
5.5756716028
 20
7.0624223575
 10
5.5756579697
 20
7.0623268454
 10
5.5756447327
 20
7.062227633
 10
5.5756318913
 20
7.0621245825
 10
5.5756194593
 20
7.0620176742
  0
LWPOLYLINE
  5
216
100
AcDbEntity
  8
0
100
AcDbPolyline
 62
7
  6
CONTINUOUS
 90
32
 70
0
 10
5.5763910111
 20
7.0189373058
 10
5.5763391397
 20
7.0188892614
 10
5.5762898833
 20
7.0188391309
 10
5.5762435069
 20
7.0187874056
 10
5.5761999061
 20
7.0187342391
 10
5.5761589491
 20
7.0186797403
 10
5.5761207388
 20
7.0186243562
 10
5.5760851464
 20
7.0185682633
 10
5.5760519228
 20
7.0185114262
 10
5.5760209348
 20
7.0184539656
 10
5.5759920299
 20
7.0183959592
 10
5.5759649863
 20
7.0183373103
 10
5.5759395883
 20
7.0182778655
 10
5.5759157038
 20
7.0182176091
 10
5.5758931758
 20
7.0181564251
 10
5.5758718045
 20
7.0180940068
 10
5.5758515006
 20
7.0180303017
 10
5.5758321525
 20
7.0179651732
 10
5.5758135823
 20
7.0178981876
 10
5.5757957262
 20
7.0178292313
 10
5.5757785295
 20
7.0177581978
 10
5.5757618768
 20
7.0176846736
 10
5.5757457334
 20
7.0176085241
 10
5.5757300778
 20
7.0175296561
 10
5.5757148486
 20
7.0174477366
 10
5.5757000312
 20
7.0173626273
 10
5.5756856233
 20
7.0172742443
 10
5.5756716028
 20
7.0171823575
 10
5.5756579697
 20
7.0170868454
 10
5.5756447327
 20
7.016987633
 10
5.5756318913
 20
7.0168845825
 10
5.5756194593
 20
7.0167776742
  0
LINE
  5
217
100
AcDbEntity
  8
0
100
AcDbLine
 62
7
  6
CONTINUOUS
 10
5.5764185238
 20
7.0642003665
 11
5.5763922125
 21
7.0641783191
  0
LINE
  5
218
100
AcDbEntity
  8
0
100
AcDbLine
 62
7
  6
CONTINUOUS
 10
5.5764185238
 20
7.0189603665
 11
5.5763922125
 21
7.0189383191
  0
LINE
  5
219
100
AcDbEntity
  8
0
100
AcDbLine
 62
7
  6
CONTINUOUS
 10
5.5764185238
 20
6.9737203665
 11
5.5763922125
 21
6.9736983191
  0
LINE
  5
21A
100
AcDbEntity
  8
0
100
AcDbLine
 62
7
  6
CONTINUOUS
 10
5.5764185238
 20
6.9284803665
 11
5.5763922125
 21
6.9284583191
  0
LWPOLYLINE
  5
21B
100
AcDbEntity
  8
0
100
AcDbPolyline
 62
7
  6
CONTINUOUS
 90
32
 70
0
 10
5.5763910111
 20
6.9736973058
 10
5.5763391397
 20
6.9736492614
 10
5.5762898833
 20
6.9735991309
 10
5.5762435069
 20
6.9735474056
 10
5.5761999061
 20
6.9734942391
 10
5.5761589491
 20
6.9734397403
 10
5.5761207388
 20
6.9733843562
 10
5.5760851464
 20
6.9733282633
 10
5.5760519228
 20
6.9732714262
 10
5.5760209348
 20
6.9732139656
 10
5.5759920299
 20
6.9731559592
 10
5.5759649863
 20
6.9730973103
 10
5.5759395883
 20
6.9730378655
 10
5.5759157038
 20
6.9729776091
 10
5.5758931758
 20
6.9729164251
 10
5.5758718045
 20
6.9728540068
 10
5.5758515006
 20
6.9727903017
 10
5.5758321525
 20
6.9727251732
 10
5.5758135823
 20
6.9726581876
 10
5.5757957262
 20
6.9725892313
 10
5.5757785295
 20
6.9725181978
 10
5.5757618768
 20
6.9724446736
 10
5.5757457334
 20
6.9723685241
 10
5.5757300778
 20
6.9722896561
 10
5.5757148486
 20
6.9722077366
 10
5.5757000312
 20
6.9721226273
 10
5.5756856233
 20
6.9720342443
 10
5.5756716028
 20
6.9719423575
 10
5.5756579697
 20
6.9718468454
 10
5.5756447327
 20
6.971747633
 10
5.5756318913
 20
6.9716445825
 10
5.5756194593
 20
6.9715376742
  0
LWPOLYLINE
  5
21C
100
AcDbEntity
  8
0
100
AcDbPolyline
 62
7
  6
CONTINUOUS
 90
32
 70
0
 10
5.5763910111
 20
6.9284573058
 10
5.5763391397
 20
6.9284092614
 10
5.5762898833
 20
6.9283591309
 10
5.5762435069
 20
6.9283074056
 10
5.5761999061
 20
6.9282542391
 10
5.5761589491
 20
6.9281997403
 10
5.5761207388
 20
6.9281443562
 10
5.5760851464
 20
6.9280882633
 10
5.5760519228
 20
6.9280314262
 10
5.5760209348
 20
6.9279739656
 10
5.5759920299
 20
6.9279159592
 10
5.5759649863
 20
6.9278573103
 10
5.5759395883
 20
6.9277978655
 10
5.5759157038
 20
6.9277376091
 10
5.5758931758
 20
6.9276764251
 10
5.5758718045
 20
6.9276140068
 10
5.5758515006
 20
6.9275503017
 10
5.5758321525
 20
6.9274851732
 10
5.5758135823
 20
6.9274181876
 10
5.5757957262
 20
6.9273492313
 10
5.5757785295
 20
6.9272781978
 10
5.5757618768
 20
6.9272046736
 10
5.5757457334
 20
6.9271285241
 10
5.5757300778
 20
6.9270496561
 10
5.5757148486
 20
6.9269677366
 10
5.5757000312
 20
6.9268826273
 10
5.5756856233
 20
6.9267942443
 10
5.5756716028
 20
6.9267023575
 10
5.5756579697
 20
6.9266068454
 10
5.5756447327
 20
6.926507633
 10
5.5756318913
 20
6.9264045825
 10
5.5756194593
 20
6.9262976742
  0
LWPOLYLINE
  5
21D
100
AcDbEntity
  8
0
100
AcDbPolyline
 62
7
  6
CONTINUOUS
 90
32
 70
0
 10
5.5763910111
 20
6.8832173058
 10
5.5763391397
 20
6.8831692614
 10
5.5762898833
 20
6.8831191309
 10
5.5762435069
 20
6.8830674056
 10
5.5761999061
 20
6.8830142391
 10
5.5761589491
 20
6.8829597403
 10
5.5761207388
 20
6.8829043562
 10
5.5760851464
 20
6.8828482633
 10
5.5760519228
 20
6.8827914262
 10
5.5760209348
 20
6.8827339656
 10
5.5759920299
 20
6.8826759592
 10
5.5759649863
 20
6.8826173103
 10
5.5759395883
 20
6.8825578655
 10
5.5759157038
 20
6.8824976091
 10
5.5758931758
 20
6.8824364251
 10
5.5758718045
 20
6.8823740068
 10
5.5758515006
 20
6.8823103017
 10
5.5758321525
 20
6.8822451732
 10
5.5758135823
 20
6.8821781876
 10
5.5757957262
 20
6.8821092313
 10
5.5757785295
 20
6.8820381978
 10
5.5757618768
 20
6.8819646736
 10
5.5757457334
 20
6.8818885241
 10
5.5757300778
 20
6.8818096561
 10
5.5757148486
 20
6.8817277366
 10
5.5757000312
 20
6.8816426273
 10
5.5756856233
 20
6.8815542443
 10
5.5756716028
 20
6.8814623575
 10
5.5756579697
 20
6.8813668454
 10
5.5756447327
 20
6.881267633
 10
5.5756318913
 20
6.8811645825
 10
5.5756194593
 20
6.8810576742
  0
LWPOLYLINE
  5
21E
100
AcDbEntity
  8
0
100
AcDbPolyline
 62
7
  6
CONTINUOUS
 90
32
 70
0
 10
5.5763910111
 20
6.8379773058
 10
5.5763391397
 20
6.8379292614
 10
5.5762898833
 20
6.8378791309
 10
5.5762435069
 20
6.8378274056
 10
5.5761999061
 20
6.8377742391
 10
5.5761589491
 20
6.8377197403
 10
5.5761207388
 20
6.8376643562
 10
5.5760851464
 20
6.8376082633
 10
5.5760519228
 20
6.8375514262
 10
5.5760209348
 20
6.8374939656
 10
5.5759920299
 20
6.8374359592
 10
5.5759649863
 20
6.8373773103
 10
5.5759395883
 20
6.8373178655
 10
5.5759157038
 20
6.8372576091
 10
5.5758931758
 20
6.8371964251
 10
5.5758718045
 20
6.8371340068
 10
5.5758515006
 20
6.8370703017
 10
5.5758321525
 20
6.8370051732
 10
5.5758135823
 20
6.8369381876
 10
5.5757957262
 20
6.8368692313
 10
5.5757785295
 20
6.8367981978
 10
5.5757618768
 20
6.8367246736
 10
5.5757457334
 20
6.8366485241
 10
5.5757300778
 20
6.8365696561
 10
5.5757148486
 20
6.8364877366
 10
5.5757000312
 20
6.8364026273
 10
5.5756856233
 20
6.8363142443
 10
5.5756716028
 20
6.8362223575
 10
5.5756579697
 20
6.8361268454
 10
5.5756447327
 20
6.836027633
 10
5.5756318913
 20
6.8359245825
 10
5.5756194593
 20
6.8358176742
  0
LWPOLYLINE
  5
21F
100
AcDbEntity
  8
0
100
AcDbPolyline
 62
7
  6
CONTINUOUS
 90
32
 70
0
 10
5.5763910111
 20
6.7927373058
 10
5.5763391397
 20
6.7926892614
 10
5.5762898833
 20
6.7926391309
 10
5.5762435069
 20
6.7925874056
 10
5.5761999061
 20
6.7925342391
 10
5.5761589491
 20
6.7924797403
 10
5.5761207388
 20
6.7924243562
 10
5.5760851464
 20
6.7923682633
 10
5.5760519228
 20
6.7923114262
 10
5.5760209348
 20
6.7922539656
 10
5.5759920299
 20
6.7921959592
 10
5.5759649863
 20
6.7921373103
 10
5.5759395883
 20
6.7920778655
 10
5.5759157038
 20
6.7920176091
 10
5.5758931758
 20
6.7919564251
 10
5.5758718045
 20
6.7918940068
 10
5.5758515006
 20
6.7918303017
 10
5.5758321525
 20
6.7917651732
 10
5.5758135823
 20
6.7916981876
 10
5.5757957262
 20
6.7916292313
 10
5.5757785295
 20
6.7915581978
 10
5.5757618768
 20
6.7914846736
 10
5.5757457334
 20
6.7914085241
 10
5.5757300778
 20
6.7913296561
 10
5.5757148486
 20
6.7912477366
 10
5.5757000312
 20
6.7911626273
 10
5.5756856233
 20
6.7910742443
 10
5.5756716028
 20
6.7909823575
 10
5.5756579697
 20
6.7908868454
 10
5.5756447327
 20
6.790787633
 10
5.5756318913
 20
6.7906845825
 10
5.5756194593
 20
6.7905776742
  0
LWPOLYLINE
  5
220
100
AcDbEntity
  8
0
100
AcDbPolyline
 62
7
  6
CONTINUOUS
 90
32
 70
0
 10
5.5763910111
 20
6.7474973058
 10
5.5763391397
 20
6.7474492614
 10
5.5762898833
 20
6.7473991309
 10
5.5762435069
 20
6.7473474056
 10
5.5761999061
 20
6.7472942391
 10
5.5761589491
 20
6.7472397403
 10
5.5761207388
 20
6.7471843562
 10
5.5760851464
 20
6.7471282633
 10
5.5760519228
 20
6.7470714262
 10
5.5760209348
 20
6.7470139656
 10
5.5759920299
 20
6.7469559592
 10
5.5759649863
 20
6.7468973103
 10
5.5759395883
 20
6.7468378655
 10
5.5759157038
 20
6.7467776091
 10
5.5758931758
 20
6.7467164251
 10
5.5758718045
 20
6.7466540068
 10
5.5758515006
 20
6.7465903017
 10
5.5758321525
 20
6.7465251732
 10
5.5758135823
 20
6.7464581876
 10
5.5757957262
 20
6.7463892313
 10
5.5757785295
 20
6.7463181978
 10
5.5757618768
 20
6.7462446736
 10
5.5757457334
 20
6.7461685241
 10
5.5757300778
 20
6.7460896561
 10
5.5757148486
 20
6.7460077366
 10
5.5757000312
 20
6.7459226273
 10
5.5756856233
 20
6.7458342443
 10
5.5756716028
 20
6.7457423575
 10
5.5756579697
 20
6.7456468454
 10
5.5756447327
 20
6.745547633
 10
5.5756318913
 20
6.7454445825
 10
5.5756194593
 20
6.7453376742
  0
LWPOLYLINE
  5
221
100
AcDbEntity
  8
0
100
AcDbPolyline
 62
7
  6
CONTINUOUS
 90
32
 70
0
 10
5.5763910111
 20
6.7022573058
 10
5.5763391397
 20
6.7022092614
 10
5.5762898833
 20
6.7021591309
 10
5.5762435069
 20
6.7021074056
 10
5.5761999061
 20
6.7020542391
 10
5.5761589491
 20
6.7019997403
 10
5.5761207388
 20
6.7019443562
 10
5.5760851464
 20
6.7018882633
 10
5.5760519228
 20
6.7018314262
 10
5.5760209348
 20
6.7017739656
 10
5.5759920299
 20
6.7017159592
 10
5.5759649863
 20
6.7016573103
 10
5.5759395883
 20
6.7015978655
 10
5.5759157038
 20
6.7015376091
 10
5.5758931758
 20
6.7014764251
 10
5.5758718045
 20
6.7014140068
 10
5.5758515006
 20
6.7013503017
 10
5.5758321525
 20
6.7012851732
 10
5.5758135823
 20
6.7012181876
 10
5.5757957262
 20
6.7011492313
 10
5.5757785295
 20
6.7010781978
 10
5.5757618768
 20
6.7010046736
 10
5.5757457334
 20
6.7009285241
 10
5.5757300778
 20
6.7008496561
 10
5.5757148486
 20
6.7007677366
 10
5.5757000312
 20
6.7006826273
 10
5.5756856233
 20
6.7005942443
 10
5.5756716028
 20
6.7005023575
 10
5.5756579697
 20
6.7004068454
 10
5.5756447327
 20
6.700307633
 10
5.5756318913
 20
6.7002045825
 10
5.5756194593
 20
6.7000976742
  0
LINE
  5
222
100
AcDbEntity
  8
0
100
AcDbLine
 62
7
  6
CONTINUOUS
 10
5.5764185238
 20
6.8832403665
 11
5.5763922125
 21
6.8832183191
  0
LINE
  5
223
100
AcDbEntity
  8
0
100
AcDbLine
 62
7
  6
CONTINUOUS
 10
5.5764185238
 20
6.8380003665
 11
5.5763922125
 21
6.8379783191
  0
LINE
  5
224
100
AcDbEntity
  8
0
100
AcDbLine
 62
7
  6
CONTINUOUS
 10
5.5764185238
 20
6.7927603665
 11
5.5763922125
 21
6.7927383191
  0
LINE
  5
225
100
AcDbEntity
  8
0
100
AcDbLine
 62
7
  6
CONTINUOUS
 10
5.5764185238
 20
6.7475203665
 11
5.5763922125
 21
6.7474983191
  0
LINE
  5
226
100
AcDbEntity
  8
0
100
AcDbLine
 62
7
  6
CONTINUOUS
 10
5.5764185238
 20
6.7022803665
 11
5.5763922125
 21
6.7022583191
  0
LINE
  5
227
100
AcDbEntity
  8
0
100
AcDbLine
 62
7
  6
CONTINUOUS
 10
4.2364208858
 20
7.1383147686
 11
4.2255646109
 21
7.0142269784
  0
LINE
  5
228
100
AcDbEntity
  8
0
100
AcDbLine
 62
7
  6
CONTINUOUS
 10
4.407731584
 20
7.1233270246
 11
4.3968753091
 21
6.9992392344
  0
LINE
  5
229
100
AcDbEntity
  8
0
100
AcDbLine
 62
7
  6
CONTINUOUS
 10
5.5760863517
 20
6.9280903344
 11
5.5760531045
 21
6.9280336224
  0
LINE
  5
22A
100
AcDbEntity
  8
0
100
AcDbLine
 62
7
  6
CONTINUOUS
 10
5.5179432586
 20
5.7528792789
 11
5.5171106203
 21
5.7510464563
  0
LINE
  5
22B
100
AcDbEntity
  8
0
100
AcDbLine
 62
7
  6
CONTINUOUS
 10
5.5171106203
 20
5.7510464563
 11
5.5163059021
 21
5.7493131999
  0
LINE
  5
22C
100
AcDbEntity
  8
0
100
AcDbLine
 62
7
  6
CONTINUOUS
 10
5.5163059021
 20
5.7493131999
 11
5.5155334812
 21
5.7476821348
  0
LINE
  5
22D
100
AcDbEntity
  8
0
100
AcDbLine
 62
7
  6
CONTINUOUS
 10
5.5155334812
 20
5.7476821348
 11
5.5147969034
 21
5.7461543602
  0
LINE
  5
22E
100
AcDbEntity
  8
0
100
AcDbLine
 62
7
  6
CONTINUOUS
 10
5.5147969034
 20
5.7461543602
 11
5.5140993302
 21
5.7447307354
  0
LINE
  5
22F
100
AcDbEntity
  8
0
100
AcDbLine
 62
7
  6
CONTINUOUS
 10
5.5140993302
 20
5.7447307354
 11
5.5134429954
 21
5.7434107215
  0
LINE
  5
230
100
AcDbEntity
  8
0
100
AcDbLine
 62
7
  6
CONTINUOUS
 10
5.5134429954
 20
5.7434107215
 11
5.5128300077
 21
5.7421939537
  0
LINE
  5
231
100
AcDbEntity
  8
0
100
AcDbLine
 62
7
  6
CONTINUOUS
 10
5.5128300077
 20
5.7421939537
 11
5.5122621487
 21
5.7410799855
  0
LINE
  5
232
100
AcDbEntity
  8
0
100
AcDbLine
 62
7
  6
CONTINUOUS
 10
5.5122621487
 20
5.7410799855
 11
5.5114980719
 21
5.7396000652
  0
LINE
  5
233
100
AcDbEntity
  8
0
100
AcDbLine
 62
7
  6
CONTINUOUS
 10
5.5114980719
 20
5.7396000652
 11
5.5108417406
 21
5.7383454233
  0
LINE
  5
234
100
AcDbEntity
  8
0
100
AcDbLine
 62
7
  6
CONTINUOUS
 10
5.5108417406
 20
5.7383454233
 11
5.5101379151
 21
5.7370160801
  0
LINE
  5
235
100
AcDbEntity
  8
0
100
AcDbLine
 62
7
  6
CONTINUOUS
 10
5.5101379151
 20
5.7370160801
 11
5.5094556581
 21
5.7357426306
  0
LINE
  5
236
100
AcDbEntity
  8
0
100
AcDbLine
 62
7
  6
CONTINUOUS
 10
5.5094556581
 20
5.7357426306
 11
5.5092273146
 21
5.7353196079
  0
LINE
  5
237
100
AcDbEntity
  8
0
100
AcDbLine
 62
7
  6
CONTINUOUS
 10
5.5088577553
 20
5.7338590906
 11
5.5095604829
 21
5.7351399437
  0
LINE
  5
238
100
AcDbEntity
  8
0
100
AcDbLine
 62
7
  6
CONTINUOUS
 10
5.416731771
 20
5.8904732639
 11
5.416731771
 21
5.7400008229
  0
LINE
  5
239
100
AcDbEntity
  8
0
100
AcDbLine
 62
7
  6
CONTINUOUS
 10
5.2032317814
 20
1.2411925191
 11
5.2017819543
 21
1.0750587862
  0
LINE
  5
23A
100
AcDbEntity
  8
0
100
AcDbLine
 62
7
  6
CONTINUOUS
 10
5.57552659
 20
7.0608602013
 11
5.5755177461
 21
7.0606918813
  0
LINE
  5
23B
100
AcDbEntity
  8
0
100
AcDbLine
 62
7
  6
CONTINUOUS
 10
5.5755353261
 20
7.0610108334
 11
5.5755259512
 21
7.0608486242
  0
LINE
  5
23C
100
AcDbEntity
  8
0
100
AcDbLine
 62
7
  6
CONTINUOUS
 10
5.5755353261
 20
7.0157708334
 11
5.5755259512
 21
7.0156086242
  0
LINE
  5
23D
100
AcDbEntity
  8
0
100
AcDbLine
 62
7
  6
CONTINUOUS
 10
5.5755353261
 20
6.9705308334
 11
5.5755259512
 21
6.9703686242
  0
LINE
  5
23E
100
AcDbEntity
  8
0
100
AcDbLine
 62
7
  6
CONTINUOUS
 10
5.5755353261
 20
6.9252908334
 11
5.5755259512
 21
6.9251286242
  0
LINE
  5
23F
100
AcDbEntity
  8
0
100
AcDbLine
 62
7
  6
CONTINUOUS
 10
5.5755353261
 20
6.8800508334
 11
5.5755259512
 21
6.8798886242
  0
LINE
  5
240
100
AcDbEntity
  8
0
100
AcDbLine
 62
7
  6
CONTINUOUS
 10
5.5755353261
 20
6.8348108334
 11
5.5755259512
 21
6.8346486242
  0
LWPOLYLINE
  5
241
100
AcDbEntity
  8
0
100
AcDbPolyline
 62
7
  6
CONTINUOUS
 90
3
 70
0
 10
5.5755353261
 20
6.7895708334
 10
5.57552659
 20
6.7894202013
 10
5.5755177461
 20
6.7892518813
  0
LINE
  5
242
100
AcDbEntity
  8
0
100
AcDbLine
 62
7
  6
CONTINUOUS
 10
5.5755445011
 20
7.061155488
 11
5.5755346543
 21
7.0609997355
  0
LINE
  5
243
100
AcDbEntity
  8
0
100
AcDbLine
 62
7
  6
CONTINUOUS
 10
5.5755445011
 20
7.015915488
 11
5.5755346543
 21
7.0157597355
  0
LINE
  5
244
100
AcDbEntity
  8
0
100
AcDbLine
 62
7
  6
CONTINUOUS
 10
5.5755445011
 20
6.970675488
 11
5.5755346543
 21
6.9705197355
  0
LINE
  5
245
100
AcDbEntity
  8
0
100
AcDbLine
 62
7
  6
CONTINUOUS
 10
5.5755445011
 20
6.925435488
 11
5.5755346543
 21
6.9252797355
  0
LINE
  5
246
100
AcDbEntity
  8
0
100
AcDbLine
 62
7
  6
CONTINUOUS
 10
5.5755445011
 20
6.880195488
 11
5.5755346543
 21
6.8800397355
  0
LINE
  5
247
100
AcDbEntity
  8
0
100
AcDbLine
 62
7
  6
CONTINUOUS
 10
5.5755445011
 20
6.834955488
 11
5.5755346543
 21
6.8347997355
  0
LINE
  5
248
100
AcDbEntity
  8
0
100
AcDbLine
 62
7
  6
CONTINUOUS
 10
5.5755445011
 20
6.789715488
 11
5.5755346543
 21
6.7895597355
  0
LINE
  5
249
100
AcDbEntity
  8
0
100
AcDbLine
 62
7
  6
CONTINUOUS
 10
5.5755445011
 20
6.744475488
 11
5.5755346543
 21
6.7443197355
  0
LINE
  5
24A
100
AcDbEntity
  8
0
100
AcDbLine
 62
7
  6
CONTINUOUS
 10
5.5755445011
 20
6.699235488
 11
5.5755346543
 21
6.6990797355
  0
LINE
  5
24B
100
AcDbEntity
  8
0
100
AcDbLine
 62
7
  6
CONTINUOUS
 10
5.5755541015
 20
7.0612945042
 11
5.5755437999
 21
7.0611448687
  0
LINE
  5
24C
100
AcDbEntity
  8
0
100
AcDbLine
 62
7
  6
CONTINUOUS
 10
5.5755541015
 20
7.0160545042
 11
5.5755437999
 21
7.0159048687
  0
LINE
  5
24D
100
AcDbEntity
  8
0
100
AcDbLine
 62
7
  6
CONTINUOUS
 10
5.5755541015
 20
6.9708145042
 11
5.5755437999
 21
6.9706648687
  0
LINE
  5
24E
100
AcDbEntity
  8
0
100
AcDbLine
 62
7
  6
CONTINUOUS
 10
5.5755541015
 20
6.9255745042
 11
5.5755437999
 21
6.9254248687
  0
LINE
  5
24F
100
AcDbEntity
  8
0
100
AcDbLine
 62
7
  6
CONTINUOUS
 10
5.5755541015
 20
6.8803345042
 11
5.5755437999
 21
6.8801848687
  0
LINE
  5
250
100
AcDbEntity
  8
0
100
AcDbLine
 62
7
  6
CONTINUOUS
 10
5.5755541015
 20
6.8350945042
 11
5.5755437999
 21
6.8349448687
  0
LINE
  5
251
100
AcDbEntity
  8
0
100
AcDbLine
 62
7
  6
CONTINUOUS
 10
5.5755541015
 20
6.7898545042
 11
5.5755437999
 21
6.7897048687
  0
LINE
  5
252
100
AcDbEntity
  8
0
100
AcDbLine
 62
7
  6
CONTINUOUS
 10
5.5755541015
 20
6.7446145042
 11
5.5755437999
 21
6.7444648687
  0
LINE
  5
253
100
AcDbEntity
  8
0
100
AcDbLine
 62
7
  6
CONTINUOUS
 10
5.5755541015
 20
6.6993745042
 11
5.5755437999
 21
6.6992248687
  0
LINE
  5
254
100
AcDbEntity
  8
0
100
AcDbLine
 62
7
  6
CONTINUOUS
 10
5.5755641309
 20
7.061428351
 11
5.575553373
 21
7.0612843491
  0
LINE
  5
255
100
AcDbEntity
  8
0
100
AcDbLine
 62
7
  6
CONTINUOUS
 10
5.5755641309
 20
7.016188351
 11
5.575553373
 21
7.0160443491
  0
LINE
  5
256
100
AcDbEntity
  8
0
100
AcDbLine
 62
7
  6
CONTINUOUS
 10
5.5755641309
 20
6.970948351
 11
5.575553373
 21
6.9708043491
  0
LINE
  5
257
100
AcDbEntity
  8
0
100
AcDbLine
 62
7
  6
CONTINUOUS
 10
5.5755641309
 20
6.925708351
 11
5.575553373
 21
6.9255643491
  0
LINE
  5
258
100
AcDbEntity
  8
0
100
AcDbLine
 62
7
  6
CONTINUOUS
 10
5.5755641309
 20
6.880468351
 11
5.575553373
 21
6.8803243491
  0
LINE
  5
259
100
AcDbEntity
  8
0
100
AcDbLine
 62
7
  6
CONTINUOUS
 10
5.5755641309
 20
6.835228351
 11
5.575553373
 21
6.8350843491
  0
LINE
  5
25A
100
AcDbEntity
  8
0
100
AcDbLine
 62
7
  6
CONTINUOUS
 10
5.5755641309
 20
6.789988351
 11
5.575553373
 21
6.7898443491
  0
LINE
  5
25B
100
AcDbEntity
  8
0
100
AcDbLine
 62
7
  6
CONTINUOUS
 10
5.5755641309
 20
6.744748351
 11
5.575553373
 21
6.7446043491
  0
LINE
  5
25C
100
AcDbEntity
  8
0
100
AcDbLine
 62
7
  6
CONTINUOUS
 10
5.5755641309
 20
6.699508351
 11
5.575553373
 21
6.6993643491
  0
LINE
  5
25D
100
AcDbEntity
  8
0
100
AcDbLine
 62
7
  6
CONTINUOUS
 10
5.5755745642
 20
7.0615570412
 11
5.5755633773
 21
7.0614186566
  0
LINE
  5
25E
100
AcDbEntity
  8
0
100
AcDbLine
 62
7
  6
CONTINUOUS
 10
5.5755745642
 20
7.0163170412
 11
5.5755633773
 21
7.0161786566
  0
LINE
  5
25F
100
AcDbEntity
  8
0
100
AcDbLine
 62
7
  6
CONTINUOUS
 10
5.5755745642
 20
6.9710770412
 11
5.5755633773
 21
6.9709386566
  0
LINE
  5
260
100
AcDbEntity
  8
0
100
AcDbLine
 62
7
  6
CONTINUOUS
 10
5.5755745642
 20
6.9258370412
 11
5.5755633773
 21
6.9256986566
  0
LINE
  5
261
100
AcDbEntity
  8
0
100
AcDbLine
 62
7
  6
CONTINUOUS
 10
5.5755745642
 20
6.8805970412
 11
5.5755633773
 21
6.8804586566
  0
LINE
  5
262
100
AcDbEntity
  8
0
100
AcDbLine
 62
7
  6
CONTINUOUS
 10
5.5755745642
 20
6.8353570412
 11
5.5755633773
 21
6.8352186566
  0
LINE
  5
263
100
AcDbEntity
  8
0
100
AcDbLine
 62
7
  6
CONTINUOUS
 10
5.5755745642
 20
6.7901170412
 11
5.5755633773
 21
6.7899786566
  0
LINE
  5
264
100
AcDbEntity
  8
0
100
AcDbLine
 62
7
  6
CONTINUOUS
 10
5.5755745642
 20
6.7448770412
 11
5.5755633773
 21
6.7447386566
  0
LINE
  5
265
100
AcDbEntity
  8
0
100
AcDbLine
 62
7
  6
CONTINUOUS
 10
5.5755745642
 20
6.6996370412
 11
5.5755633773
 21
6.6994986566
  0
LINE
  5
266
100
AcDbEntity
  8
0
100
AcDbLine
 62
7
  6
CONTINUOUS
 10
5.5755853829
 20
7.061680672
 11
5.5755737887
 21
7.061547809
  0
LINE
  5
267
100
AcDbEntity
  8
0
100
AcDbLine
 62
7
  6
CONTINUOUS
 10
5.5755853829
 20
7.016440672
 11
5.5755737887
 21
7.016307809
  0
LINE
  5
268
100
AcDbEntity
  8
0
100
AcDbLine
 62
7
  6
CONTINUOUS
 10
5.5755853829
 20
6.971200672
 11
5.5755737887
 21
6.971067809
  0
LINE
  5
269
100
AcDbEntity
  8
0
100
AcDbLine
 62
7
  6
CONTINUOUS
 10
5.5755853829
 20
6.925960672
 11
5.5755737887
 21
6.925827809
  0
LINE
  5
26A
100
AcDbEntity
  8
0
100
AcDbLine
 62
7
  6
CONTINUOUS
 10
5.5755853829
 20
6.880720672
 11
5.5755737887
 21
6.880587809
  0
LINE
  5
26B
100
AcDbEntity
  8
0
100
AcDbLine
 62
7
  6
CONTINUOUS
 10
5.5755853829
 20
6.835480672
 11
5.5755737887
 21
6.835347809
  0
LINE
  5
26C
100
AcDbEntity
  8
0
100
AcDbLine
 62
7
  6
CONTINUOUS
 10
5.5755853829
 20
6.790240672
 11
5.5755737887
 21
6.790107809
  0
LINE
  5
26D
100
AcDbEntity
  8
0
100
AcDbLine
 62
7
  6
CONTINUOUS
 10
5.5755853829
 20
6.745000672
 11
5.5755737887
 21
6.744867809
  0
LINE
  5
26E
100
AcDbEntity
  8
0
100
AcDbLine
 62
7
  6
CONTINUOUS
 10
5.5755853829
 20
6.699760672
 11
5.5755737887
 21
6.699627809
  0
LINE
  5
26F
100
AcDbEntity
  8
0
100
AcDbLine
 62
7
  6
CONTINUOUS
 10
5.5755966169
 20
7.0617998297
 11
5.5755845881
 21
7.0616718957
  0
LINE
  5
270
100
AcDbEntity
  8
0
100
AcDbLine
 62
7
  6
CONTINUOUS
 10
5.5755966169
 20
7.0165598297
 11
5.5755845881
 21
7.0164318957
  0
LINE
  5
271
100
AcDbEntity
  8
0
100
AcDbLine
 62
7
  6
CONTINUOUS
 10
5.5755966169
 20
6.9713198297
 11
5.5755845881
 21
6.9711918957
  0
LINE
  5
272
100
AcDbEntity
  8
0
100
AcDbLine
 62
7
  6
CONTINUOUS
 10
5.5755966169
 20
6.9260798297
 11
5.5755845881
 21
6.9259518957
  0
LINE
  5
273
100
AcDbEntity
  8
0
100
AcDbLine
 62
7
  6
CONTINUOUS
 10
5.5755966169
 20
6.8808398297
 11
5.5755845881
 21
6.8807118957
  0
LINE
  5
274
100
AcDbEntity
  8
0
100
AcDbLine
 62
7
  6
CONTINUOUS
 10
5.5755966169
 20
6.8355998297
 11
5.5755845881
 21
6.8354718957
  0
LINE
  5
275
100
AcDbEntity
  8
0
100
AcDbLine
 62
7
  6
CONTINUOUS
 10
5.5755966169
 20
6.7903598297
 11
5.5755845881
 21
6.7902318957
  0
LINE
  5
276
100
AcDbEntity
  8
0
100
AcDbLine
 62
7
  6
CONTINUOUS
 10
5.5755966169
 20
6.7451198297
 11
5.5755845881
 21
6.7449918957
  0
LINE
  5
277
100
AcDbEntity
  8
0
100
AcDbLine
 62
7
  6
CONTINUOUS
 10
5.5755966169
 20
6.6998798297
 11
5.5755845881
 21
6.6997518957
  0
LINE
  5
278
100
AcDbEntity
  8
0
100
AcDbLine
 62
7
  6
CONTINUOUS
 10
5.5756082629
 20
7.0619146524
 11
5.5755958049
 21
7.0617914974
  0
LINE
  5
279
100
AcDbEntity
  8
0
100
AcDbLine
 62
7
  6
CONTINUOUS
 10
5.5756082629
 20
7.0166746524
 11
5.5755958049
 21
7.0165514974
  0
LINE
  5
27A
100
AcDbEntity
  8
0
100
AcDbLine
 62
7
  6
CONTINUOUS
 10
5.5756082629
 20
6.9714346524
 11
5.5755958049
 21
6.9713114974
  0
LINE
  5
27B
100
AcDbEntity
  8
0
100
AcDbLine
 62
7
  6
CONTINUOUS
 10
5.5756082629
 20
6.9261946524
 11
5.5755958049
 21
6.9260714974
  0
LINE
  5
27C
100
AcDbEntity
  8
0
100
AcDbLine
 62
7
  6
CONTINUOUS
 10
5.5756082629
 20
6.8809546524
 11
5.5755958049
 21
6.8808314974
  0
LINE
  5
27D
100
AcDbEntity
  8
0
100
AcDbLine
 62
7
  6
CONTINUOUS
 10
5.5756082629
 20
6.8357146524
 11
5.5755958049
 21
6.8355914974
  0
LINE
  5
27E
100
AcDbEntity
  8
0
100
AcDbLine
 62
7
  6
CONTINUOUS
 10
5.5756082629
 20
6.7904746524
 11
5.5755958049
 21
6.7903514974
  0
LINE
  5
27F
100
AcDbEntity
  8
0
100
AcDbLine
 62
7
  6
CONTINUOUS
 10
5.5756082629
 20
6.7452346524
 11
5.5755958049
 21
6.7451114974
  0
LINE
  5
280
100
AcDbEntity
  8
0
100
AcDbLine
 62
7
  6
CONTINUOUS
 10
5.5756082629
 20
6.6999946524
 11
5.5755958049
 21
6.6998714974
  0
LINE
  5
281
100
AcDbEntity
  8
0
100
AcDbLine
 62
7
  6
CONTINUOUS
 10
5.5756202998
 20
7.0620251402
 11
5.5756074358
 21
7.0619067571
  0
LINE
  5
282
100
AcDbEntity
  8
0
100
AcDbLine
 62
7
  6
CONTINUOUS
 10
5.5756202998
 20
7.0167851402
 11
5.5756074358
 21
7.0166667571
  0
LINE
  5
283
100
AcDbEntity
  8
0
100
AcDbLine
 62
7
  6
CONTINUOUS
 10
5.5756202998
 20
6.9715451402
 11
5.5756074358
 21
6.9714267571
  0
LINE
  5
284
100
AcDbEntity
  8
0
100
AcDbLine
 62
7
  6
CONTINUOUS
 10
5.5756202998
 20
6.9263051402
 11
5.5756074358
 21
6.9261867571
  0
LINE
  5
285
100
AcDbEntity
  8
0
100
AcDbLine
 62
7
  6
CONTINUOUS
 10
5.5756202998
 20
6.8810651402
 11
5.5756074358
 21
6.8809467571
  0
LINE
  5
286
100
AcDbEntity
  8
0
100
AcDbLine
 62
7
  6
CONTINUOUS
 10
5.5756202998
 20
6.8358251402
 11
5.5756074358
 21
6.8357067571
  0
LINE
  5
287
100
AcDbEntity
  8
0
100
AcDbLine
 62
7
  6
CONTINUOUS
 10
5.5756202998
 20
6.7905851402
 11
5.5756074358
 21
6.7904667571
  0
LINE
  5
288
100
AcDbEntity
  8
0
100
AcDbLine
 62
7
  6
CONTINUOUS
 10
5.5756202998
 20
6.7453451402
 11
5.5756074358
 21
6.7452267571
  0
LINE
  5
289
100
AcDbEntity
  8
0
100
AcDbLine
 62
7
  6
CONTINUOUS
 10
5.5756202998
 20
6.7001051402
 11
5.5756074358
 21
6.6999867571
  0
LWPOLYLINE
  5
28A
100
AcDbEntity
  8
0
100
AcDbPolyline
 62
7
  6
CONTINUOUS
 90
47
 70
0
 10
5.5754905146
 20
6.6953605136
 10
5.5754962762
 20
6.6951838282
 10
5.5755027205
 20
6.6950108999
 10
5.5755097852
 20
6.6948431081
 10
5.5755174383
 20
6.694680624
 10
5.5755256634
 20
6.6945232218
 10
5.5755343922
 20
6.6943715593
 10
5.5755435608
 20
6.6942260069
 10
5.5755531532
 20
6.6940861584
 10
5.5755631731
 20
6.6939514823
 10
5.5755735915
 20
6.6938219838
 10
5.5755843868
 20
6.6936975719
 10
5.5755955937
 20
6.6935775989
 10
5.5756072117
 20
6.6934619158
 10
5.5756192208
 20
6.6933505778
 10
5.5756316419
 20
6.6932432666
 10
5.5756444778
 20
6.6931398273
 10
5.5756577136
 20
6.6930402414
 10
5.5756713505
 20
6.6929443698
 10
5.5756853846
 20
6.6928521266
 10
5.5756998186
 20
6.6927633887
 10
5.5757146738
 20
6.692677942
 10
5.5757299531
 20
6.6925957068
 10
5.5757456723
 20
6.6925165468
 10
5.5757618922
 20
6.6924401412
 10
5.575778641
 20
6.6923663754
 10
5.5757959513
 20
6.6922951306
 10
5.5758139195
 20
6.6922260519
 10
5.5758325855
 20
6.6921590566
 10
5.5758520185
 20
6.6920939787
 10
5.5758724055
 20
6.6920303314
 10
5.5758938556
 20
6.6919679706
 10
5.5759164575
 20
6.6919068488
 10
5.5759404287
 20
6.6918466255
 10
5.5759659392
 20
6.6917871658
 10
5.5759931127
 20
6.6917284815
 10
5.5760221493
 20
6.6916704542
 10
5.5760532626
 20
6.6916130006
 10
5.5760866088
 20
6.6915561872
 10
5.5761223202
 20
6.6915001335
 10
5.5761606448
 20
6.6914448037
 10
5.5762017091
 20
6.6913903744
 10
5.5762454084
 20
6.6913372914
 10
5.5762918754
 20
6.6912856601
 10
5.5763412118
 20
6.6912356347
 10
5.5763931445
 20
6.6911877093
 10
5.5764185238
 20
6.6911664584
  0
LWPOLYLINE
  5
28B
100
AcDbEntity
  8
0
100
AcDbPolyline
 62
7
  6
CONTINUOUS
 90
47
 70
0
 10
5.5754905146
 20
6.7406005136
 10
5.5754962762
 20
6.7404238282
 10
5.5755027205
 20
6.7402508999
 10
5.5755097852
 20
6.7400831081
 10
5.5755174383
 20
6.739920624
 10
5.5755256634
 20
6.7397632218
 10
5.5755343922
 20
6.7396115593
 10
5.5755435608
 20
6.7394660069
 10
5.5755531532
 20
6.7393261584
 10
5.5755631731
 20
6.7391914823
 10
5.5755735915
 20
6.7390619838
 10
5.5755843868
 20
6.7389375719
 10
5.5755955937
 20
6.7388175989
 10
5.5756072117
 20
6.7387019158
 10
5.5756192208
 20
6.7385905778
 10
5.5756316419
 20
6.7384832666
 10
5.5756444778
 20
6.7383798273
 10
5.5756577136
 20
6.7382802414
 10
5.5756713505
 20
6.7381843698
 10
5.5756853846
 20
6.7380921266
 10
5.5756998186
 20
6.7380033887
 10
5.5757146738
 20
6.737917942
 10
5.5757299531
 20
6.7378357068
 10
5.5757456723
 20
6.7377565468
 10
5.5757618922
 20
6.7376801412
 10
5.575778641
 20
6.7376063754
 10
5.5757959513
 20
6.7375351306
 10
5.5758139195
 20
6.7374660519
 10
5.5758325855
 20
6.7373990566
 10
5.5758520185
 20
6.7373339787
 10
5.5758724055
 20
6.7372703314
 10
5.5758938556
 20
6.7372079706
 10
5.5759164575
 20
6.7371468488
 10
5.5759404287
 20
6.7370866255
 10
5.5759659392
 20
6.7370271658
 10
5.5759931127
 20
6.7369684815
 10
5.5760221493
 20
6.7369104542
 10
5.5760532626
 20
6.7368530006
 10
5.5760866088
 20
6.7367961872
 10
5.5761223202
 20
6.7367401335
 10
5.5761606448
 20
6.7366848037
 10
5.5762017091
 20
6.7366303744
 10
5.5762454084
 20
6.7365772914
 10
5.5762918754
 20
6.7365256601
 10
5.5763412118
 20
6.7364756347
 10
5.5763931445
 20
6.7364277093
 10
5.5764185238
 20
6.7364064584
  0
LWPOLYLINE
  5
28C
100
AcDbEntity
  8
0
100
AcDbPolyline
 62
7
  6
CONTINUOUS
 90
47
 70
0
 10
5.5754905146
 20
6.7858405136
 10
5.5754962762
 20
6.7856638282
 10
5.5755027205
 20
6.7854908999
 10
5.5755097852
 20
6.7853231081
 10
5.5755174383
 20
6.785160624
 10
5.5755256634
 20
6.7850032218
 10
5.5755343922
 20
6.7848515593
 10
5.5755435608
 20
6.7847060069
 10
5.5755531532
 20
6.7845661584
 10
5.5755631731
 20
6.7844314823
 10
5.5755735915
 20
6.7843019838
 10
5.5755843868
 20
6.7841775719
 10
5.5755955937
 20
6.7840575989
 10
5.5756072117
 20
6.7839419158
 10
5.5756192208
 20
6.7838305778
 10
5.5756316419
 20
6.7837232666
 10
5.5756444778
 20
6.7836198273
 10
5.5756577136
 20
6.7835202414
 10
5.5756713505
 20
6.7834243698
 10
5.5756853846
 20
6.7833321266
 10
5.5756998186
 20
6.7832433887
 10
5.5757146738
 20
6.783157942
 10
5.5757299531
 20
6.7830757068
 10
5.5757456723
 20
6.7829965468
 10
5.5757618922
 20
6.7829201412
 10
5.575778641
 20
6.7828463754
 10
5.5757959513
 20
6.7827751306
 10
5.5758139195
 20
6.7827060519
 10
5.5758325855
 20
6.7826390566
 10
5.5758520185
 20
6.7825739787
 10
5.5758724055
 20
6.7825103314
 10
5.5758938556
 20
6.7824479706
 10
5.5759164575
 20
6.7823868488
 10
5.5759404287
 20
6.7823266255
 10
5.5759659392
 20
6.7822671658
 10
5.5759931127
 20
6.7822084815
 10
5.5760221493
 20
6.7821504542
 10
5.5760532626
 20
6.7820930006
 10
5.5760866088
 20
6.7820361872
 10
5.5761223202
 20
6.7819801335
 10
5.5761606448
 20
6.7819248037
 10
5.5762017091
 20
6.7818703744
 10
5.5762454084
 20
6.7818172914
 10
5.5762918754
 20
6.7817656601
 10
5.5763412118
 20
6.7817156347
 10
5.5763931445
 20
6.7816677093
 10
5.5764185238
 20
6.7816464584
  0
LWPOLYLINE
  5
28D
100
AcDbEntity
  8
0
100
AcDbPolyline
 62
7
  6
CONTINUOUS
 90
47
 70
0
 10
5.5754905146
 20
6.8310805136
 10
5.5754962762
 20
6.8309038282
 10
5.5755027205
 20
6.8307308999
 10
5.5755097852
 20
6.8305631081
 10
5.5755174383
 20
6.830400624
 10
5.5755256634
 20
6.8302432218
 10
5.5755343922
 20
6.8300915593
 10
5.5755435608
 20
6.8299460069
 10
5.5755531532
 20
6.8298061584
 10
5.5755631731
 20
6.8296714823
 10
5.5755735915
 20
6.8295419838
 10
5.5755843868
 20
6.8294175719
 10
5.5755955937
 20
6.8292975989
 10
5.5756072117
 20
6.8291819158
 10
5.5756192208
 20
6.8290705778
 10
5.5756316419
 20
6.8289632666
 10
5.5756444778
 20
6.8288598273
 10
5.5756577136
 20
6.8287602414
 10
5.5756713505
 20
6.8286643698
 10
5.5756853846
 20
6.8285721266
 10
5.5756998186
 20
6.8284833887
 10
5.5757146738
 20
6.828397942
 10
5.5757299531
 20
6.8283157068
 10
5.5757456723
 20
6.8282365468
 10
5.5757618922
 20
6.8281601412
 10
5.575778641
 20
6.8280863754
 10
5.5757959513
 20
6.8280151306
 10
5.5758139195
 20
6.8279460519
 10
5.5758325855
 20
6.8278790566
 10
5.5758520185
 20
6.8278139787
 10
5.5758724055
 20
6.8277503314
 10
5.5758938556
 20
6.8276879706
 10
5.5759164575
 20
6.8276268488
 10
5.5759404287
 20
6.8275666255
 10
5.5759659392
 20
6.8275071658
 10
5.5759931127
 20
6.8274484815
 10
5.5760221493
 20
6.8273904542
 10
5.5760532626
 20
6.8273330006
 10
5.5760866088
 20
6.8272761872
 10
5.5761223202
 20
6.8272201335
 10
5.5761606448
 20
6.8271648037
 10
5.5762017091
 20
6.8271103744
 10
5.5762454084
 20
6.8270572914
 10
5.5762918754
 20
6.8270056601
 10
5.5763412118
 20
6.8269556347
 10
5.5763931445
 20
6.8269077093
 10
5.5764185238
 20
6.8268864584
  0
LWPOLYLINE
  5
28E
100
AcDbEntity
  8
0
100
AcDbPolyline
 62
7
  6
CONTINUOUS
 90
47
 70
0
 10
5.5754905146
 20
6.8763205136
 10
5.5754962762
 20
6.8761438282
 10
5.5755027205
 20
6.8759708999
 10
5.5755097852
 20
6.8758031081
 10
5.5755174383
 20
6.875640624
 10
5.5755256634
 20
6.8754832218
 10
5.5755343922
 20
6.8753315593
 10
5.5755435608
 20
6.8751860069
 10
5.5755531532
 20
6.8750461584
 10
5.5755631731
 20
6.8749114823
 10
5.5755735915
 20
6.8747819838
 10
5.5755843868
 20
6.8746575719
 10
5.5755955937
 20
6.8745375989
 10
5.5756072117
 20
6.8744219158
 10
5.5756192208
 20
6.8743105778
 10
5.5756316419
 20
6.8742032666
 10
5.5756444778
 20
6.8740998273
 10
5.5756577136
 20
6.8740002414
 10
5.5756713505
 20
6.8739043698
 10
5.5756853846
 20
6.8738121266
 10
5.5756998186
 20
6.8737233887
 10
5.5757146738
 20
6.873637942
 10
5.5757299531
 20
6.8735557068
 10
5.5757456723
 20
6.8734765468
 10
5.5757618922
 20
6.8734001412
 10
5.575778641
 20
6.8733263754
 10
5.5757959513
 20
6.8732551306
 10
5.5758139195
 20
6.8731860519
 10
5.5758325855
 20
6.8731190566
 10
5.5758520185
 20
6.8730539787
 10
5.5758724055
 20
6.8729903314
 10
5.5758938556
 20
6.8729279706
 10
5.5759164575
 20
6.8728668488
 10
5.5759404287
 20
6.8728066255
 10
5.5759659392
 20
6.8727471658
 10
5.5759931127
 20
6.8726884815
 10
5.5760221493
 20
6.8726304542
 10
5.5760532626
 20
6.8725730006
 10
5.5760866088
 20
6.8725161872
 10
5.5761223202
 20
6.8724601335
 10
5.5761606448
 20
6.8724048037
 10
5.5762017091
 20
6.8723503744
 10
5.5762454084
 20
6.8722972914
 10
5.5762918754
 20
6.8722456601
 10
5.5763412118
 20
6.8721956347
 10
5.5763931445
 20
6.8721477093
 10
5.5764185238
 20
6.8721264584
  0
LWPOLYLINE
  5
28F
100
AcDbEntity
  8
0
100
AcDbPolyline
 62
7
  6
CONTINUOUS
 90
47
 70
0
 10
5.5754905146
 20
6.9215605136
 10
5.5754962762
 20
6.9213838282
 10
5.5755027205
 20
6.9212108999
 10
5.5755097852
 20
6.9210431081
 10
5.5755174383
 20
6.920880624
 10
5.5755256634
 20
6.9207232218
 10
5.5755343922
 20
6.9205715593
 10
5.5755435608
 20
6.9204260069
 10
5.5755531532
 20
6.9202861584
 10
5.5755631731
 20
6.9201514823
 10
5.5755735915
 20
6.9200219838
 10
5.5755843868
 20
6.9198975719
 10
5.5755955937
 20
6.9197775989
 10
5.5756072117
 20
6.9196619158
 10
5.5756192208
 20
6.9195505778
 10
5.5756316419
 20
6.9194432666
 10
5.5756444778
 20
6.9193398273
 10
5.5756577136
 20
6.9192402414
 10
5.5756713505
 20
6.9191443698
 10
5.5756853846
 20
6.9190521266
 10
5.5756998186
 20
6.9189633887
 10
5.5757146738
 20
6.918877942
 10
5.5757299531
 20
6.9187957068
 10
5.5757456723
 20
6.9187165468
 10
5.5757618922
 20
6.9186401412
 10
5.575778641
 20
6.9185663754
 10
5.5757959513
 20
6.9184951306
 10
5.5758139195
 20
6.9184260519
 10
5.5758325855
 20
6.9183590566
 10
5.5758520185
 20
6.9182939787
 10
5.5758724055
 20
6.9182303314
 10
5.5758938556
 20
6.9181679706
 10
5.5759164575
 20
6.9181068488
 10
5.5759404287
 20
6.9180466255
 10
5.5759659392
 20
6.9179871658
 10
5.5759931127
 20
6.9179284815
 10
5.5760221493
 20
6.9178704542
 10
5.5760532626
 20
6.9178130006
 10
5.5760866088
 20
6.9177561872
 10
5.5761223202
 20
6.9177001335
 10
5.5761606448
 20
6.9176448037
 10
5.5762017091
 20
6.9175903744
 10
5.5762454084
 20
6.9175372914
 10
5.5762918754
 20
6.9174856601
 10
5.5763412118
 20
6.9174356347
 10
5.5763931445
 20
6.9173877093
 10
5.5764185238
 20
6.9173664584
  0
LWPOLYLINE
  5
290
100
AcDbEntity
  8
0
100
AcDbPolyline
 62
7
  6
CONTINUOUS
 90
47
 70
0
 10
5.5754905146
 20
6.9668005136
 10
5.5754962762
 20
6.9666238282
 10
5.5755027205
 20
6.9664508999
 10
5.5755097852
 20
6.9662831081
 10
5.5755174383
 20
6.966120624
 10
5.5755256634
 20
6.9659632218
 10
5.5755343922
 20
6.9658115593
 10
5.5755435608
 20
6.9656660069
 10
5.5755531532
 20
6.9655261584
 10
5.5755631731
 20
6.9653914823
 10
5.5755735915
 20
6.9652619838
 10
5.5755843868
 20
6.9651375719
 10
5.5755955937
 20
6.9650175989
 10
5.5756072117
 20
6.9649019158
 10
5.5756192208
 20
6.9647905778
 10
5.5756316419
 20
6.9646832666
 10
5.5756444778
 20
6.9645798273
 10
5.5756577136
 20
6.9644802414
 10
5.5756713505
 20
6.9643843698
 10
5.5756853846
 20
6.9642921266
 10
5.5756998186
 20
6.9642033887
 10
5.5757146738
 20
6.964117942
 10
5.5757299531
 20
6.9640357068
 10
5.5757456723
 20
6.9639565468
 10
5.5757618922
 20
6.9638801412
 10
5.575778641
 20
6.9638063754
 10
5.5757959513
 20
6.9637351306
 10
5.5758139195
 20
6.9636660519
 10
5.5758325855
 20
6.9635990566
 10
5.5758520185
 20
6.9635339787
 10
5.5758724055
 20
6.9634703314
 10
5.5758938556
 20
6.9634079706
 10
5.5759164575
 20
6.9633468488
 10
5.5759404287
 20
6.9632866255
 10
5.5759659392
 20
6.9632271658
 10
5.5759931127
 20
6.9631684815
 10
5.5760221493
 20
6.9631104542
 10
5.5760532626
 20
6.9630530006
 10
5.5760866088
 20
6.9629961872
 10
5.5761223202
 20
6.9629401335
 10
5.5761606448
 20
6.9628848037
 10
5.5762017091
 20
6.9628303744
 10
5.5762454084
 20
6.9627772914
 10
5.5762918754
 20
6.9627256601
 10
5.5763412118
 20
6.9626756347
 10
5.5763931445
 20
6.9626277093
 10
5.5764185238
 20
6.9626064584
  0
LWPOLYLINE
  5
291
100
AcDbEntity
  8
0
100
AcDbPolyline
 62
7
  6
CONTINUOUS
 90
47
 70
0
 10
5.5754905146
 20
7.0120405136
 10
5.5754962762
 20
7.0118638282
 10
5.5755027205
 20
7.0116908999
 10
5.5755097852
 20
7.0115231081
 10
5.5755174383
 20
7.011360624
 10
5.5755256634
 20
7.0112032218
 10
5.5755343922
 20
7.0110515593
 10
5.5755435608
 20
7.0109060069
 10
5.5755531532
 20
7.0107661584
 10
5.5755631731
 20
7.0106314823
 10
5.5755735915
 20
7.0105019838
 10
5.5755843868
 20
7.0103775719
 10
5.5755955937
 20
7.0102575989
 10
5.5756072117
 20
7.0101419158
 10
5.5756192208
 20
7.0100305778
 10
5.5756316419
 20
7.0099232666
 10
5.5756444778
 20
7.0098198273
 10
5.5756577136
 20
7.0097202414
 10
5.5756713505
 20
7.0096243698
 10
5.5756853846
 20
7.0095321266
 10
5.5756998186
 20
7.0094433887
 10
5.5757146738
 20
7.009357942
 10
5.5757299531
 20
7.0092757068
 10
5.5757456723
 20
7.0091965468
 10
5.5757618922
 20
7.0091201412
 10
5.575778641
 20
7.0090463754
 10
5.5757959513
 20
7.0089751306
 10
5.5758139195
 20
7.0089060519
 10
5.5758325855
 20
7.0088390566
 10
5.5758520185
 20
7.0087739787
 10
5.5758724055
 20
7.0087103314
 10
5.5758938556
 20
7.0086479706
 10
5.5759164575
 20
7.0085868488
 10
5.5759404287
 20
7.0085266255
 10
5.5759659392
 20
7.0084671658
 10
5.5759931127
 20
7.0084084815
 10
5.5760221493
 20
7.0083504542
 10
5.5760532626
 20
7.0082930006
 10
5.5760866088
 20
7.0082361872
 10
5.5761223202
 20
7.0081801335
 10
5.5761606448
 20
7.0081248037
 10
5.5762017091
 20
7.0080703744
 10
5.5762454084
 20
7.0080172914
 10
5.5762918754
 20
7.0079656601
 10
5.5763412118
 20
7.0079156347
 10
5.5763931445
 20
7.0078677093
 10
5.5764185238
 20
7.0078464584
  0
LWPOLYLINE
  5
292
100
AcDbEntity
  8
0
100
AcDbPolyline
 62
7
  6
CONTINUOUS
 90
47
 70
0
 10
5.5754905146
 20
7.0572805136
 10
5.5754962762
 20
7.0571038282
 10
5.5755027205
 20
7.0569308999
 10
5.5755097852
 20
7.0567631081
 10
5.5755174383
 20
7.056600624
 10
5.5755256634
 20
7.0564432218
 10
5.5755343922
 20
7.0562915593
 10
5.5755435608
 20
7.0561460069
 10
5.5755531532
 20
7.0560061584
 10
5.5755631731
 20
7.0558714823
 10
5.5755735915
 20
7.0557419838
 10
5.5755843868
 20
7.0556175719
 10
5.5755955937
 20
7.0554975989
 10
5.5756072117
 20
7.0553819158
 10
5.5756192208
 20
7.0552705778
 10
5.5756316419
 20
7.0551632666
 10
5.5756444778
 20
7.0550598273
 10
5.5756577136
 20
7.0549602414
 10
5.5756713505
 20
7.0548643698
 10
5.5756853846
 20
7.0547721266
 10
5.5756998186
 20
7.0546833887
 10
5.5757146738
 20
7.054597942
 10
5.5757299531
 20
7.0545157068
 10
5.5757456723
 20
7.0544365468
 10
5.5757618922
 20
7.0543601412
 10
5.575778641
 20
7.0542863754
 10
5.5757959513
 20
7.0542151306
 10
5.5758139195
 20
7.0541460519
 10
5.5758325855
 20
7.0540790566
 10
5.5758520185
 20
7.0540139787
 10
5.5758724055
 20
7.0539503314
 10
5.5758938556
 20
7.0538879706
 10
5.5759164575
 20
7.0538268488
 10
5.5759404287
 20
7.0537666255
 10
5.5759659392
 20
7.0537071658
 10
5.5759931127
 20
7.0536484815
 10
5.5760221493
 20
7.0535904542
 10
5.5760532626
 20
7.0535330006
 10
5.5760866088
 20
7.0534761872
 10
5.5761223202
 20
7.0534201335
 10
5.5761606448
 20
7.0533648037
 10
5.5762017091
 20
7.0533103744
 10
5.5762454084
 20
7.0532572914
 10
5.5762918754
 20
7.0532056601
 10
5.5763412118
 20
7.0531556347
 10
5.5763931445
 20
7.0531077093
 10
5.5764185238
 20
7.0530864584
  0
LWPOLYLINE
  5
293
100
AcDbEntity
  8
0
100
AcDbPolyline
 62
7
  6
CONTINUOUS
 90
27
 70
0
 10
5.5754905146
 20
7.1025205136
 10
5.5754962762
 20
7.1023438282
 10
5.5755027205
 20
7.1021708999
 10
5.5755097852
 20
7.1020031081
 10
5.5755174383
 20
7.101840624
 10
5.5755256634
 20
7.1016832218
 10
5.5755343922
 20
7.1015315593
 10
5.5755435608
 20
7.1013860069
 10
5.5755531532
 20
7.1012461584
 10
5.5755631731
 20
7.1011114823
 10
5.5755735915
 20
7.1009819838
 10
5.5755843868
 20
7.1008575719
 10
5.5755955937
 20
7.1007375989
 10
5.5756072117
 20
7.1006219158
 10
5.5756192208
 20
7.1005105778
 10
5.5756316419
 20
7.1004032666
 10
5.5756444778
 20
7.1002998273
 10
5.5756577136
 20
7.1002002414
 10
5.5756713505
 20
7.1001043698
 10
5.5756853846
 20
7.1000121266
 10
5.5756998186
 20
7.0999233887
 10
5.5757146738
 20
7.099837942
 10
5.5757299531
 20
7.0997557068
 10
5.5757456723
 20
7.0996765468
 10
5.5757618922
 20
7.0996001412
 10
5.575778641
 20
7.0995263754
 10
5.5757833236
 20
7.0995071032
  0
LINE
  5
294
100
AcDbEntity
  8
0
100
AcDbLine
 62
7
  6
CONTINUOUS
 10
5.57548107
 20
6.6957241173
 11
5.5754905146
 21
6.6953605136
  0
LINE
  5
295
100
AcDbEntity
  8
0
100
AcDbLine
 62
7
  6
CONTINUOUS
 10
5.57548107
 20
6.7409641173
 11
5.5754905146
 21
6.7406005136
  0
LINE
  5
296
100
AcDbEntity
  8
0
100
AcDbLine
 62
7
  6
CONTINUOUS
 10
5.57548107
 20
6.7862041173
 11
5.5754905146
 21
6.7858405136
  0
LINE
  5
297
100
AcDbEntity
  8
0
100
AcDbLine
 62
7
  6
CONTINUOUS
 10
5.57548107
 20
6.8314441173
 11
5.5754905146
 21
6.8310805136
  0
LINE
  5
298
100
AcDbEntity
  8
0
100
AcDbLine
 62
7
  6
CONTINUOUS
 10
5.57548107
 20
6.8766841173
 11
5.5754905146
 21
6.8763205136
  0
LINE
  5
299
100
AcDbEntity
  8
0
100
AcDbLine
 62
7
  6
CONTINUOUS
 10
5.57548107
 20
6.9219241173
 11
5.5754905146
 21
6.9215605136
  0
LINE
  5
29A
100
AcDbEntity
  8
0
100
AcDbLine
 62
7
  6
CONTINUOUS
 10
5.57548107
 20
6.9671641173
 11
5.5754905146
 21
6.9668005136
  0
LINE
  5
29B
100
AcDbEntity
  8
0
100
AcDbLine
 62
7
  6
CONTINUOUS
 10
5.57548107
 20
7.0124041173
 11
5.5754905146
 21
7.0120405136
  0
LINE
  5
29C
100
AcDbEntity
  8
0
100
AcDbLine
 62
7
  6
CONTINUOUS
 10
5.57548107
 20
7.0576441173
 11
5.5754905146
 21
7.0572805136
  0
LINE
  5
29D
100
AcDbEntity
  8
0
100
AcDbLine
 62
7
  6
CONTINUOUS
 10
5.57548107
 20
7.1028841173
 11
5.5754905146
 21
7.1025205136
  0
LINE
  5
29E
100
AcDbEntity
  8
0
100
AcDbLine
 62
7
  6
CONTINUOUS
 10
5.5754745521
 20
6.6960958095
 11
5.57548107
 21
6.6957241173
  0
LINE
  5
29F
100
AcDbEntity
  8
0
100
AcDbLine
 62
7
  6
CONTINUOUS
 10
5.5754745521
 20
6.7413358095
 11
5.57548107
 21
6.7409641173
  0
LINE
  5
2A0
100
AcDbEntity
  8
0
100
AcDbLine
 62
7
  6
CONTINUOUS
 10
5.5754745521
 20
6.7865758095
 11
5.57548107
 21
6.7862041173
  0
LINE
  5
2A1
100
AcDbEntity
  8
0
100
AcDbLine
 62
7
  6
CONTINUOUS
 10
5.5754745521
 20
6.8318158095
 11
5.57548107
 21
6.8314441173
  0
LINE
  5
2A2
100
AcDbEntity
  8
0
100
AcDbLine
 62
7
  6
CONTINUOUS
 10
5.5754745521
 20
6.8770558095
 11
5.57548107
 21
6.8766841173
  0
LINE
  5
2A3
100
AcDbEntity
  8
0
100
AcDbLine
 62
7
  6
CONTINUOUS
 10
5.5754745521
 20
6.9222958095
 11
5.57548107
 21
6.9219241173
  0
LINE
  5
2A4
100
AcDbEntity
  8
0
100
AcDbLine
 62
7
  6
CONTINUOUS
 10
5.5754745521
 20
6.9675358095
 11
5.57548107
 21
6.9671641173
  0
LINE
  5
2A5
100
AcDbEntity
  8
0
100
AcDbLine
 62
7
  6
CONTINUOUS
 10
5.5754745521
 20
7.0127758095
 11
5.57548107
 21
7.0124041173
  0
LINE
  5
2A6
100
AcDbEntity
  8
0
100
AcDbLine
 62
7
  6
CONTINUOUS
 10
5.5754745521
 20
7.0580158095
 11
5.57548107
 21
7.0576441173
  0
LINE
  5
2A7
100
AcDbEntity
  8
0
100
AcDbLine
 62
7
  6
CONTINUOUS
 10
5.5754745521
 20
7.1032558095
 11
5.57548107
 21
7.1028841173
  0
LINE
  5
2A8
100
AcDbEntity
  8
0
100
AcDbLine
 62
7
  6
CONTINUOUS
 10
5.5754710845
 20
6.6964709849
 11
5.5754745521
 21
6.6960958095
  0
LINE
  5
2A9
100
AcDbEntity
  8
0
100
AcDbLine
 62
7
  6
CONTINUOUS
 10
5.5754710845
 20
6.7417109849
 11
5.5754745521
 21
6.7413358095
  0
LINE
  5
2AA
100
AcDbEntity
  8
0
100
AcDbLine
 62
7
  6
CONTINUOUS
 10
5.5754710845
 20
6.7869509849
 11
5.5754745521
 21
6.7865758095
  0
LINE
  5
2AB
100
AcDbEntity
  8
0
100
AcDbLine
 62
7
  6
CONTINUOUS
 10
5.5754710845
 20
6.8321909849
 11
5.5754745521
 21
6.8318158095
  0
LINE
  5
2AC
100
AcDbEntity
  8
0
100
AcDbLine
 62
7
  6
CONTINUOUS
 10
5.5754710845
 20
6.8774309849
 11
5.5754745521
 21
6.8770558095
  0
LINE
  5
2AD
100
AcDbEntity
  8
0
100
AcDbLine
 62
7
  6
CONTINUOUS
 10
5.5754710845
 20
6.9226709849
 11
5.5754745521
 21
6.9222958095
  0
LINE
  5
2AE
100
AcDbEntity
  8
0
100
AcDbLine
 62
7
  6
CONTINUOUS
 10
5.5754710845
 20
6.9679109849
 11
5.5754745521
 21
6.9675358095
  0
LINE
  5
2AF
100
AcDbEntity
  8
0
100
AcDbLine
 62
7
  6
CONTINUOUS
 10
5.5754710845
 20
7.0131509849
 11
5.5754745521
 21
7.0127758095
  0
LINE
  5
2B0
100
AcDbEntity
  8
0
100
AcDbLine
 62
7
  6
CONTINUOUS
 10
5.5754710845
 20
7.0583909849
 11
5.5754745521
 21
7.0580158095
  0
LINE
  5
2B1
100
AcDbEntity
  8
0
100
AcDbLine
 62
7
  6
CONTINUOUS
 10
5.5754710845
 20
7.1036309849
 11
5.5754745521
 21
7.1032558095
  0
LINE
  5
2B2
100
AcDbEntity
  8
0
100
AcDbLine
 62
7
  6
CONTINUOUS
 10
5.4858262592
 20
1.2771356261
 11
5.4858262592
 21
1.2740647599
  0
LINE
  5
2B3
100
AcDbEntity
  8
0
100
AcDbLine
 62
7
  6
CONTINUOUS
 10
5.5088577553
 20
1.2832773584
 11
5.5088577553
 21
5.2833630276
  0
LINE
  5
2B4
100
AcDbEntity
  8
0
100
AcDbLine
 62
7
  6
CONTINUOUS
 10
5.5088577553
 20
5.2901189332
 11
5.5088577553
 21
5.7338590905
  0
LINE
  5
2B5
100
AcDbEntity
  8
0
100
AcDbLine
 62
7
  6
CONTINUOUS
 10
5.5088577553
 20
5.8966149958
 11
5.5088577553
 21
6.0824023977
  0
LINE
  5
2B6
100
AcDbEntity
  8
0
100
AcDbLine
 62
7
  6
CONTINUOUS
 10
5.5764185238
 20
6.0854732639
 11
5.5764185238
 21
7.0723010509
  0
LINE
  5
2B7
100
AcDbEntity
  8
0
100
AcDbLine
 62
7
  6
CONTINUOUS
 10
5.6316924009
 20
5.6793573584
 11
5.6316924009
 21
6.1307746812
  0
LINE
  5
2B8
100
AcDbEntity
  8
0
100
AcDbLine
 62
7
  6
CONTINUOUS
 10
5.6369971464
 20
5.6793573584
 11
5.6369971464
 21
5.5830242875
  0
LINE
  5
2B9
100
AcDbEntity
  8
0
100
AcDbLine
 62
7
  6
CONTINUOUS
 10
5.6624010634
 20
5.3791506655
 11
5.6624010636
 21
5.360748826
  0
LINE
  5
2BA
100
AcDbEntity
  8
0
100
AcDbLine
 62
7
  6
CONTINUOUS
 10
5.5754705238
 20
7.1039758052
 11
5.5754710845
 21
7.1036309849
  0
LINE
  5
2BB
100
AcDbEntity
  8
0
100
AcDbLine
 62
7
  6
CONTINUOUS
 10
5.5754705238
 20
7.0587358052
 11
5.5754710845
 21
7.0583909849
  0
LINE
  5
2BC
100
AcDbEntity
  8
0
100
AcDbLine
 62
7
  6
CONTINUOUS
 10
5.5754705238
 20
7.0134958052
 11
5.5754710845
 21
7.0131509849
  0
LINE
  5
2BD
100
AcDbEntity
  8
0
100
AcDbLine
 62
7
  6
CONTINUOUS
 10
5.5754705238
 20
6.9682558052
 11
5.5754710845
 21
6.9679109849
  0
LINE
  5
2BE
100
AcDbEntity
  8
0
100
AcDbLine
 62
7
  6
CONTINUOUS
 10
5.5754705238
 20
6.9230158052
 11
5.5754710845
 21
6.9226709849
  0
LINE
  5
2BF
100
AcDbEntity
  8
0
100
AcDbLine
 62
7
  6
CONTINUOUS
 10
5.5754705238
 20
6.8777758052
 11
5.5754710845
 21
6.8774309849
  0
LINE
  5
2C0
100
AcDbEntity
  8
0
100
AcDbLine
 62
7
  6
CONTINUOUS
 10
5.5754705238
 20
6.8325358052
 11
5.5754710845
 21
6.8321909849
  0
LINE
  5
2C1
100
AcDbEntity
  8
0
100
AcDbLine
 62
7
  6
CONTINUOUS
 10
5.5754705238
 20
6.7872958052
 11
5.5754710845
 21
6.7869509849
  0
LINE
  5
2C2
100
AcDbEntity
  8
0
100
AcDbLine
 62
7
  6
CONTINUOUS
 10
5.5754705238
 20
6.7420558052
 11
5.5754710845
 21
6.7417109849
  0
LINE
  5
2C3
100
AcDbEntity
  8
0
100
AcDbLine
 62
7
  6
CONTINUOUS
 10
5.5754705238
 20
6.6968158052
 11
5.5754710845
 21
6.6964709849
  0
LINE
  5
2C4
100
AcDbEntity
  8
0
100
AcDbLine
 62
7
  6
CONTINUOUS
 10
5.5754725028
 20
7.0590901963
 11
5.5754705092
 21
7.0587201489
  0
LINE
  5
2C5
100
AcDbEntity
  8
0
100
AcDbLine
 62
7
  6
CONTINUOUS
 10
5.5754725028
 20
7.0138501963
 11
5.5754705092
 21
7.0134801489
  0
LINE
  5
2C6
100
AcDbEntity
  8
0
100
AcDbLine
 62
7
  6
CONTINUOUS
 10
5.5754725028
 20
6.9686101963
 11
5.5754705092
 21
6.9682401489
  0
LINE
  5
2C7
100
AcDbEntity
  8
0
100
AcDbLine
 62
7
  6
CONTINUOUS
 10
5.5754725028
 20
6.9233701963
 11
5.5754705092
 21
6.9230001489
  0
LINE
  5
2C8
100
AcDbEntity
  8
0
100
AcDbLine
 62
7
  6
CONTINUOUS
 10
5.5754725028
 20
6.8781301963
 11
5.5754705092
 21
6.8777601489
  0
LINE
  5
2C9
100
AcDbEntity
  8
0
100
AcDbLine
 62
7
  6
CONTINUOUS
 10
5.5754725028
 20
6.8328901963
 11
5.5754705092
 21
6.8325201489
  0
LINE
  5
2CA
100
AcDbEntity
  8
0
100
AcDbLine
 62
7
  6
CONTINUOUS
 10
5.5754725028
 20
6.7876501963
 11
5.5754705092
 21
6.7872801489
  0
LINE
  5
2CB
100
AcDbEntity
  8
0
100
AcDbLine
 62
7
  6
CONTINUOUS
 10
5.5754725028
 20
6.7424101963
 11
5.5754705092
 21
6.7420401489
  0
LINE
  5
2CC
100
AcDbEntity
  8
0
100
AcDbLine
 62
7
  6
CONTINUOUS
 10
5.5754725028
 20
6.6971701963
 11
5.5754705092
 21
6.6968001489
  0
LINE
  5
2CD
100
AcDbEntity
  8
0
100
AcDbLine
 62
7
  6
CONTINUOUS
 10
5.5754726898
 20
7.1043496594
 11
5.5754705238
 21
7.1039758052
  0
LINE
  5
2CE
100
AcDbEntity
  8
0
100
AcDbLine
 62
7
  6
CONTINUOUS
 10
5.5754749185
 20
7.0592971533
 11
5.5754712331
 21
7.0589223686
  0
LINE
  5
2CF
100
AcDbEntity
  8
0
100
AcDbLine
 62
7
  6
CONTINUOUS
 10
5.5754749185
 20
7.0140571533
 11
5.5754712331
 21
7.0136823686
  0
LINE
  5
2D0
100
AcDbEntity
  8
0
100
AcDbLine
 62
7
  6
CONTINUOUS
 10
5.5754749185
 20
6.9688171533
 11
5.5754712331
 21
6.9684423686
  0
LINE
  5
2D1
100
AcDbEntity
  8
0
100
AcDbLine
 62
7
  6
CONTINUOUS
 10
5.5754749185
 20
6.9235771533
 11
5.5754712331
 21
6.9232023686
  0
LINE
  5
2D2
100
AcDbEntity
  8
0
100
AcDbLine
 62
7
  6
CONTINUOUS
 10
5.5754749185
 20
6.8783371533
 11
5.5754712331
 21
6.8779623686
  0
LINE
  5
2D3
100
AcDbEntity
  8
0
100
AcDbLine
 62
7
  6
CONTINUOUS
 10
5.5754749185
 20
6.8330971533
 11
5.5754712331
 21
6.8327223686
  0
LINE
  5
2D4
100
AcDbEntity
  8
0
100
AcDbLine
 62
7
  6
CONTINUOUS
 10
5.5754749185
 20
6.7878571533
 11
5.5754712331
 21
6.7874823686
  0
LINE
  5
2D5
100
AcDbEntity
  8
0
100
AcDbLine
 62
7
  6
CONTINUOUS
 10
5.5754749185
 20
6.7426171533
 11
5.5754712331
 21
6.7422423686
  0
LINE
  5
2D6
100
AcDbEntity
  8
0
100
AcDbLine
 62
7
  6
CONTINUOUS
 10
5.5754749185
 20
6.6973771533
 11
5.5754712331
 21
6.6970023686
  0
LINE
  5
2D7
100
AcDbEntity
  8
0
100
AcDbLine
 62
7
  6
CONTINUOUS
 10
5.5754779072
 20
7.1047232331
 11
5.5754726898
 21
7.1043496594
  0
LINE
  5
2D8
100
AcDbEntity
  8
0
100
AcDbLine
 62
7
  6
CONTINUOUS
 10
5.5754812744
 20
7.0596512545
 11
5.5754746666
 21
7.059278856
  0
LINE
  5
2D9
100
AcDbEntity
  8
0
100
AcDbLine
 62
7
  6
CONTINUOUS
 10
5.5754812744
 20
7.0144112545
 11
5.5754746666
 21
7.014038856
  0
LINE
  5
2DA
100
AcDbEntity
  8
0
100
AcDbLine
 62
7
  6
CONTINUOUS
 10
5.5754812744
 20
6.9691712545
 11
5.5754746666
 21
6.968798856
  0
LINE
  5
2DB
100
AcDbEntity
  8
0
100
AcDbLine
 62
7
  6
CONTINUOUS
 10
5.5754812744
 20
6.9239312545
 11
5.5754746666
 21
6.923558856
  0
LINE
  5
2DC
100
AcDbEntity
  8
0
100
AcDbLine
 62
7
  6
CONTINUOUS
 10
5.5754812744
 20
6.8786912545
 11
5.5754746666
 21
6.878318856
  0
LINE
  5
2DD
100
AcDbEntity
  8
0
100
AcDbLine
 62
7
  6
CONTINUOUS
 10
5.5754812744
 20
6.8334512545
 11
5.5754746666
 21
6.833078856
  0
LINE
  5
2DE
100
AcDbEntity
  8
0
100
AcDbLine
 62
7
  6
CONTINUOUS
 10
5.5754812744
 20
6.7882112545
 11
5.5754746666
 21
6.787838856
  0
LINE
  5
2DF
100
AcDbEntity
  8
0
100
AcDbLine
 62
7
  6
CONTINUOUS
 10
5.5754812744
 20
6.7429712545
 11
5.5754746666
 21
6.742598856
  0
LINE
  5
2E0
100
AcDbEntity
  8
0
100
AcDbLine
 62
7
  6
CONTINUOUS
 10
5.5754812744
 20
6.6977312545
 11
5.5754746666
 21
6.697358856
  0
LINE
  5
2E1
100
AcDbEntity
  8
0
100
AcDbLine
 62
7
  6
CONTINUOUS
 10
5.5754860901
 20
7.0598499139
 11
5.5754779072
 21
7.0594832331
  0
LINE
  5
2E2
100
AcDbEntity
  8
0
100
AcDbLine
 62
7
  6
CONTINUOUS
 10
5.5754860901
 20
7.0146099139
 11
5.5754779072
 21
7.0142432331
  0
LINE
  5
2E3
100
AcDbEntity
  8
0
100
AcDbLine
 62
7
  6
CONTINUOUS
 10
5.5754860901
 20
6.9693699139
 11
5.5754779072
 21
6.9690032331
  0
LINE
  5
2E4
100
AcDbEntity
  8
0
100
AcDbLine
 62
7
  6
CONTINUOUS
 10
5.5754860901
 20
6.9241299139
 11
5.5754779072
 21
6.9237632331
  0
LINE
  5
2E5
100
AcDbEntity
  8
0
100
AcDbLine
 62
7
  6
CONTINUOUS
 10
5.5754860901
 20
6.8788899139
 11
5.5754779072
 21
6.8785232331
  0
LINE
  5
2E6
100
AcDbEntity
  8
0
100
AcDbLine
 62
7
  6
CONTINUOUS
 10
5.5754860901
 20
6.8336499139
 11
5.5754779072
 21
6.8332832331
  0
LINE
  5
2E7
100
AcDbEntity
  8
0
100
AcDbLine
 62
7
  6
CONTINUOUS
 10
5.5754860901
 20
6.7884099139
 11
5.5754779072
 21
6.7880432331
  0
LINE
  5
2E8
100
AcDbEntity
  8
0
100
AcDbLine
 62
7
  6
CONTINUOUS
 10
5.5754860901
 20
6.7431699139
 11
5.5754779072
 21
6.7428032331
  0
LINE
  5
2E9
100
AcDbEntity
  8
0
100
AcDbLine
 62
7
  6
CONTINUOUS
 10
5.5754860901
 20
6.6979299139
 11
5.5754779072
 21
6.6975632331
  0
LWPOLYLINE
  5
2EA
100
AcDbEntity
  8
0
100
AcDbPolyline
 62
7
  6
CONTINUOUS
 90
3
 70
0
 10
5.5754879207
 20
7.1051536081
 10
5.5754860901
 20
7.1050899139
 10
5.5754779072
 20
7.1047232331
  0
LINE
  5
2EB
100
AcDbEntity
  8
0
100
AcDbLine
 62
7
  6
CONTINUOUS
 10
5.5754912353
 20
7.0600289349
 11
5.575485684
 21
7.0598345296
  0
LINE
  5
2EC
100
AcDbEntity
  8
0
100
AcDbLine
 62
7
  6
CONTINUOUS
 10
5.5754912353
 20
7.0147889349
 11
5.575485684
 21
7.0145945296
  0
LINE
  5
2ED
100
AcDbEntity
  8
0
100
AcDbLine
 62
7
  6
CONTINUOUS
 10
5.5754912353
 20
6.9695489349
 11
5.575485684
 21
6.9693545296
  0
LINE
  5
2EE
100
AcDbEntity
  8
0
100
AcDbLine
 62
7
  6
CONTINUOUS
 10
5.5754912353
 20
6.9243089349
 11
5.575485684
 21
6.9241145296
  0
LINE
  5
2EF
100
AcDbEntity
  8
0
100
AcDbLine
 62
7
  6
CONTINUOUS
 10
5.5754912353
 20
6.8790689349
 11
5.575485684
 21
6.8788745296
  0
LINE
  5
2F0
100
AcDbEntity
  8
0
100
AcDbLine
 62
7
  6
CONTINUOUS
 10
5.5754912353
 20
6.8338289349
 11
5.575485684
 21
6.8336345296
  0
LINE
  5
2F1
100
AcDbEntity
  8
0
100
AcDbLine
 62
7
  6
CONTINUOUS
 10
5.5754912353
 20
6.7885889349
 11
5.575485684
 21
6.7883945296
  0
LINE
  5
2F2
100
AcDbEntity
  8
0
100
AcDbLine
 62
7
  6
CONTINUOUS
 10
5.5754912353
 20
6.7433489349
 11
5.575485684
 21
6.7431545296
  0
LINE
  5
2F3
100
AcDbEntity
  8
0
100
AcDbLine
 62
7
  6
CONTINUOUS
 10
5.5754912353
 20
6.6981089349
 11
5.575485684
 21
6.6979145296
  0
LINE
  5
2F4
100
AcDbEntity
  8
0
100
AcDbLine
 62
7
  6
CONTINUOUS
 10
5.575497059
 20
7.0602043658
 11
5.5754907871
 21
7.0600143715
  0
LINE
  5
2F5
100
AcDbEntity
  8
0
100
AcDbLine
 62
7
  6
CONTINUOUS
 10
5.575497059
 20
7.0149643658
 11
5.5754907871
 21
7.0147743715
  0
LINE
  5
2F6
100
AcDbEntity
  8
0
100
AcDbLine
 62
7
  6
CONTINUOUS
 10
5.575497059
 20
6.9697243658
 11
5.5754907871
 21
6.9695343715
  0
LINE
  5
2F7
100
AcDbEntity
  8
0
100
AcDbLine
 62
7
  6
CONTINUOUS
 10
5.575497059
 20
6.9244843658
 11
5.5754907871
 21
6.9242943715
  0
LINE
  5
2F8
100
AcDbEntity
  8
0
100
AcDbLine
 62
7
  6
CONTINUOUS
 10
5.575497059
 20
6.8792443658
 11
5.5754907871
 21
6.8790543715
  0
LINE
  5
2F9
100
AcDbEntity
  8
0
100
AcDbLine
 62
7
  6
CONTINUOUS
 10
5.575497059
 20
6.8340043658
 11
5.5754907871
 21
6.8338143715
  0
LINE
  5
2FA
100
AcDbEntity
  8
0
100
AcDbLine
 62
7
  6
CONTINUOUS
 10
5.575497059
 20
6.7887643658
 11
5.5754907871
 21
6.7885743715
  0
LINE
  5
2FB
100
AcDbEntity
  8
0
100
AcDbLine
 62
7
  6
CONTINUOUS
 10
5.575497059
 20
6.7435243658
 11
5.5754907871
 21
6.7433343715
  0
LINE
  5
2FC
100
AcDbEntity
  8
0
100
AcDbLine
 62
7
  6
CONTINUOUS
 10
5.575497059
 20
6.6982843658
 11
5.5754907871
 21
6.6980943715
  0
LINE
  5
2FD
100
AcDbEntity
  8
0
100
AcDbLine
 62
7
  6
CONTINUOUS
 10
5.5755035543
 20
7.0603760138
 11
5.5754965707
 21
7.0601905403
  0
LINE
  5
2FE
100
AcDbEntity
  8
0
100
AcDbLine
 62
7
  6
CONTINUOUS
 10
5.5755035543
 20
7.0151360138
 11
5.5754965707
 21
7.0149505403
  0
LINE
  5
2FF
100
AcDbEntity
  8
0
100
AcDbLine
 62
7
  6
CONTINUOUS
 10
5.5755035543
 20
6.9698960138
 11
5.5754965707
 21
6.9697105403
  0
LINE
  5
300
100
AcDbEntity
  8
0
100
AcDbLine
 62
7
  6
CONTINUOUS
 10
5.5755035543
 20
6.9246560138
 11
5.5754965707
 21
6.9244705403
  0
LINE
  5
301
100
AcDbEntity
  8
0
100
AcDbLine
 62
7
  6
CONTINUOUS
 10
5.5755035543
 20
6.8794160138
 11
5.5754965707
 21
6.8792305403
  0
LINE
  5
302
100
AcDbEntity
  8
0
100
AcDbLine
 62
7
  6
CONTINUOUS
 10
5.5755035543
 20
6.8341760138
 11
5.5754965707
 21
6.8339905403
  0
LINE
  5
303
100
AcDbEntity
  8
0
100
AcDbLine
 62
7
  6
CONTINUOUS
 10
5.5755035543
 20
6.7889360138
 11
5.5754965707
 21
6.7887505403
  0
LINE
  5
304
100
AcDbEntity
  8
0
100
AcDbLine
 62
7
  6
CONTINUOUS
 10
5.5755035543
 20
6.7436960138
 11
5.5754965707
 21
6.7435105403
  0
LINE
  5
305
100
AcDbEntity
  8
0
100
AcDbLine
 62
7
  6
CONTINUOUS
 10
5.5755035543
 20
6.6984560138
 11
5.5754965707
 21
6.6982705403
  0
LINE
  5
306
100
AcDbEntity
  8
0
100
AcDbLine
 62
7
  6
CONTINUOUS
 10
5.5755106631
 20
7.0605426098
 11
5.5755030268
 21
7.0603628385
  0
LINE
  5
307
100
AcDbEntity
  8
0
100
AcDbLine
 62
7
  6
CONTINUOUS
 10
5.5755106631
 20
7.0153026098
 11
5.5755030268
 21
7.0151228385
  0
LINE
  5
308
100
AcDbEntity
  8
0
100
AcDbLine
 62
7
  6
CONTINUOUS
 10
5.5755106631
 20
6.9700626098
 11
5.5755030268
 21
6.9698828385
  0
LINE
  5
309
100
AcDbEntity
  8
0
100
AcDbLine
 62
7
  6
CONTINUOUS
 10
5.5755106631
 20
6.9248226098
 11
5.5755030268
 21
6.9246428385
  0
LINE
  5
30A
100
AcDbEntity
  8
0
100
AcDbLine
 62
7
  6
CONTINUOUS
 10
5.5755106631
 20
6.8795826098
 11
5.5755030268
 21
6.8794028385
  0
LINE
  5
30B
100
AcDbEntity
  8
0
100
AcDbLine
 62
7
  6
CONTINUOUS
 10
5.5755106631
 20
6.8343426098
 11
5.5755030268
 21
6.8341628385
  0
LINE
  5
30C
100
AcDbEntity
  8
0
100
AcDbLine
 62
7
  6
CONTINUOUS
 10
5.5755106631
 20
6.7891026098
 11
5.5755030268
 21
6.7889228385
  0
LINE
  5
30D
100
AcDbEntity
  8
0
100
AcDbLine
 62
7
  6
CONTINUOUS
 10
5.5755106631
 20
6.7438626098
 11
5.5755030268
 21
6.7436828385
  0
LINE
  5
30E
100
AcDbEntity
  8
0
100
AcDbLine
 62
7
  6
CONTINUOUS
 10
5.5755106631
 20
6.6986226098
 11
5.5755030268
 21
6.6984428385
  0
LINE
  5
30F
100
AcDbEntity
  8
0
100
AcDbLine
 62
7
  6
CONTINUOUS
 10
5.5755183487
 20
7.0607039415
 11
5.5755100977
 21
7.0605300216
  0
LINE
  5
310
100
AcDbEntity
  8
0
100
AcDbLine
 62
7
  6
CONTINUOUS
 10
5.5755183487
 20
7.0154639415
 11
5.5755100977
 21
7.0152900216
  0
LINE
  5
311
100
AcDbEntity
  8
0
100
AcDbLine
 62
7
  6
CONTINUOUS
 10
5.5755183487
 20
6.9702239415
 11
5.5755100977
 21
6.9700500216
  0
LINE
  5
312
100
AcDbEntity
  8
0
100
AcDbLine
 62
7
  6
CONTINUOUS
 10
5.5755183487
 20
6.9249839415
 11
5.5755100977
 21
6.9248100216
  0
LINE
  5
313
100
AcDbEntity
  8
0
100
AcDbLine
 62
7
  6
CONTINUOUS
 10
5.5755183487
 20
6.8797439415
 11
5.5755100977
 21
6.8795700216
  0
LINE
  5
314
100
AcDbEntity
  8
0
100
AcDbLine
 62
7
  6
CONTINUOUS
 10
5.5755183487
 20
6.8345039415
 11
5.5755100977
 21
6.8343300216
  0
LINE
  5
315
100
AcDbEntity
  8
0
100
AcDbLine
 62
7
  6
CONTINUOUS
 10
5.5755183487
 20
6.7892639415
 11
5.5755100977
 21
6.7890900216
  0
LINE
  5
316
100
AcDbEntity
  8
0
100
AcDbLine
 62
7
  6
CONTINUOUS
 10
5.5755183487
 20
6.7440239415
 11
5.5755100977
 21
6.7438500216
  0
LINE
  5
317
100
AcDbEntity
  8
0
100
AcDbLine
 62
7
  6
CONTINUOUS
 10
5.5755183487
 20
6.6987839415
 11
5.5755100977
 21
6.6986100216
  0
LINE
  5
318
100
AcDbEntity
  8
0
100
AcDbLine
 62
7
  6
CONTINUOUS
 10
5.57552659
 20
7.0156202013
 11
5.5755177461
 21
7.0154518813
  0
LINE
  5
319
100
AcDbEntity
  8
0
100
AcDbLine
 62
7
  6
CONTINUOUS
 10
5.57552659
 20
6.9703802013
 11
5.5755177461
 21
6.9702118813
  0
LINE
  5
31A
100
AcDbEntity
  8
0
100
AcDbLine
 62
7
  6
CONTINUOUS
 10
5.57552659
 20
6.9251402013
 11
5.5755177461
 21
6.9249718813
  0
LINE
  5
31B
100
AcDbEntity
  8
0
100
AcDbLine
 62
7
  6
CONTINUOUS
 10
5.57552659
 20
6.8799002013
 11
5.5755177461
 21
6.8797318813
  0
LINE
  5
31C
100
AcDbEntity
  8
0
100
AcDbLine
 62
7
  6
CONTINUOUS
 10
5.57552659
 20
6.8346602013
 11
5.5755177461
 21
6.8344918813
  0
LINE
  5
31D
100
AcDbEntity
  8
0
100
AcDbLine
 62
7
  6
CONTINUOUS
 10
5.57552659
 20
6.7441802013
 11
5.5755177461
 21
6.7440118813
  0
LINE
  5
31E
100
AcDbEntity
  8
0
100
AcDbLine
 62
7
  6
CONTINUOUS
 10
5.57552659
 20
6.6989402013
 11
5.5755177461
 21
6.6987718813
  0
LINE
  5
31F
100
AcDbEntity
  8
0
100
AcDbLine
 62
7
  6
CONTINUOUS
 10
5.5755346543
 20
6.7895597355
 11
5.5755259512
 21
6.7894086242
  0
LINE
  5
320
100
AcDbEntity
  8
0
100
AcDbLine
 62
7
  6
CONTINUOUS
 10
5.5755353261
 20
6.7443308334
 11
5.5755259512
 21
6.7441686242
  0
LINE
  5
321
100
AcDbEntity
  8
0
100
AcDbLine
 62
7
  6
CONTINUOUS
 10
5.5755353261
 20
6.6990908334
 11
5.5755259512
 21
6.6989286242
  0
LINE
  5
322
100
AcDbEntity
  8
0
100
AcDbLine
 62
7
  6
CONTINUOUS
 10
5.6878049784
 20
5.6793573584
 11
5.6878049784
 21
5.5830242875
  0
LINE
  5
323
100
AcDbEntity
  8
0
100
AcDbLine
 62
7
  6
CONTINUOUS
 10
5.6931097238
 20
5.6793573584
 11
5.6931097238
 21
6.1307746812
  0
LINE
  5
324
100
AcDbEntity
  8
0
100
AcDbLine
 62
7
  6
CONTINUOUS
 10
5.7404010624
 20
7.1819203979
 11
5.7404010624
 21
7.2333630276
  0
LINE
  5
325
100
AcDbEntity
  8
0
100
AcDbLine
 62
7
  6
CONTINUOUS
 10
5.748383601
 20
6.0854732639
 11
5.748383601
 21
7.0723010509
  0
LINE
  5
326
100
AcDbEntity
  8
0
100
AcDbLine
 62
7
  6
CONTINUOUS
 10
5.8159443695
 20
1.2832773584
 11
5.8159443695
 21
5.2833630276
  0
LINE
  5
327
100
AcDbEntity
  8
0
100
AcDbLine
 62
7
  6
CONTINUOUS
 10
5.8159443695
 20
5.2901189332
 11
5.8159443695
 21
6.0348039725
  0
LINE
  5
328
100
AcDbEntity
  8
0
100
AcDbLine
 62
7
  6
CONTINUOUS
 10
5.8159443695
 20
6.0685835001
 11
5.8159443695
 21
6.0824023977
  0
LINE
  5
329
100
AcDbEntity
  8
0
100
AcDbLine
 62
7
  6
CONTINUOUS
 10
5.8389758655
 20
1.2771356261
 11
5.8389758655
 21
1.2740647599
  0
LINE
  5
32A
100
AcDbEntity
  8
0
100
AcDbLine
 62
7
  6
CONTINUOUS
 10
5.8159357035
 20
5.5320400008
 11
5.8159443695
 21
5.5327173584
  0
LINE
  5
32B
100
AcDbEntity
  8
0
100
AcDbLine
 62
7
  6
CONTINUOUS
 10
6.1215703433
 20
1.2411925191
 11
6.1230201705
 21
1.0750587862
  0
LINE
  5
32C
100
AcDbEntity
  8
0
100
AcDbLine
 62
7
  6
CONTINUOUS
 10
5.5088577553
 20
5.2833630276
 11
5.8159443695
 21
5.2833630276
  0
LINE
  5
32D
100
AcDbEntity
  8
0
100
AcDbLine
 62
7
  6
CONTINUOUS
 10
5.5119287196
 20
5.287048067
 11
5.8128734051
 21
5.287048067
  0
LINE
  5
32E
100
AcDbEntity
  8
0
100
AcDbLine
 62
7
  6
CONTINUOUS
 10
5.5088577553
 20
5.2901189332
 11
5.8159443695
 21
5.2901189332
  0
LINE
  5
32F
100
AcDbEntity
  8
0
100
AcDbLine
 62
7
  6
CONTINUOUS
 10
5.5110479006
 20
5.8917361595
 11
5.5117402131
 21
5.8904073202
  0
LINE
  5
330
100
AcDbEntity
  8
0
100
AcDbLine
 62
7
  6
CONTINUOUS
 10
5.5117402131
 20
5.8904073202
 11
5.5125395305
 21
5.8888515121
  0
LINE
  5
331
100
AcDbEntity
  8
0
100
AcDbLine
 62
7
  6
CONTINUOUS
 10
5.5125395305
 20
5.8888515121
 11
5.5131300806
 21
5.8876863861
  0
LINE
  5
332
100
AcDbEntity
  8
0
100
AcDbLine
 62
7
  6
CONTINUOUS
 10
5.5131300806
 20
5.8876863861
 11
5.5137649083
 21
5.8864182202
  0
LINE
  5
333
100
AcDbEntity
  8
0
100
AcDbLine
 62
7
  6
CONTINUOUS
 10
5.5137649083
 20
5.8864182202
 11
5.5144420771
 21
5.8850466062
  0
LINE
  5
334
100
AcDbEntity
  8
0
100
AcDbLine
 62
7
  6
CONTINUOUS
 10
5.5144420771
 20
5.8850466062
 11
5.5151594162
 21
5.8835710625
  0
LINE
  5
335
100
AcDbEntity
  8
0
100
AcDbLine
 62
7
  6
CONTINUOUS
 10
5.5151594162
 20
5.8835710625
 11
5.5159142755
 21
5.8819917004
  0
LINE
  5
336
100
AcDbEntity
  8
0
100
AcDbLine
 62
7
  6
CONTINUOUS
 10
5.5159142755
 20
5.8819917004
 11
5.5167033784
 21
5.8803092698
  0
LWPOLYLINE
  5
337
100
AcDbEntity
  8
0
100
AcDbPolyline
 62
7
  6
CONTINUOUS
 90
104
 70
0
 10
5.5167033784
 20
5.8803092698
 10
5.5175224589
 20
5.8785263032
 10
5.5179420153
 20
5.8775975805
 10
5.5183672764
 20
5.8766448906
 10
5.5187977676
 20
5.8756682964
 10
5.5192329401
 20
5.8746680126
 10
5.5196718254
 20
5.8736452263
 10
5.5201139561
 20
5.8725999661
 10
5.5205586825
 20
5.8715326124
 10
5.5210047313
 20
5.8704450505
 10
5.5214515173
 20
5.8693375476
 10
5.5218984353
 20
5.8682104193
 10
5.5223441697
 20
5.8670658234
 10
5.5227881107
 20
5.8659041904
 10
5.5232296661
 20
5.8647258584
 10
5.5236675569
 20
5.8635330307
 10
5.5241011237
 20
5.8623263422
 10
5.5245298491
 20
5.8611060643
 10
5.5249527002
 20
5.8598739983
 10
5.5253691161
 20
5.8586306842
 10
5.5257785682
 20
5.8573765824
 10
5.5261801111
 20
5.8561134881
 10
5.5265732301
 20
5.8548419746
 10
5.5269574429
 20
5.8535625605
 10
5.5273319141
 20
5.8522770475
 10
5.5276961517
 20
5.8509862246
 10
5.5280498118
 20
5.8496904438
 10
5.5283923434
 20
5.8483909405
 10
5.5287233607
 20
5.8470884586
 10
5.5290425664
 20
5.8457834708
 10
5.529349589
 20
5.8444768262
 10
5.529644103
 20
5.8431692934
 10
5.5299258993
 20
5.8418612691
 10
5.5301948297
 20
5.8405530671
 10
5.5304506451
 20
5.8392455771
 10
5.5306932307
 20
5.8379390922
 10
5.5309226308
 20
5.8366329927
 10
5.5311386621
 20
5.8353278954
 10
5.5313412243
 20
5.8340242782
 10
5.5315304402
 20
5.8327212591
 10
5.5317061986
 20
5.8314193812
 10
5.531868402
 20
5.8301191518
 10
5.5320171272
 20
5.8288195821
 10
5.5321522994
 20
5.8275211859
 10
5.532273894
 20
5.826224483
 10
5.5323820118
 20
5.8249284662
 10
5.5324765889
 20
5.8236337021
 10
5.5325575777
 20
5.8223405994
 10
5.5326250429
 20
5.8210478868
 10
5.532678989
 20
5.8197561414
 10
5.5327194423
 20
5.8184657618
 10
5.5327464575
 20
5.8171752051
 10
5.5327599958
 20
5.8158849494
 10
5.5327600246
 20
5.8145954601
 10
5.53274655
 20
5.8133051662
 10
5.5327196024
 20
5.8120145331
 10
5.5326792151
 20
5.8107240403
 10
5.5326253283
 20
5.8094321467
 10
5.53255791
 20
5.8081392467
 10
5.5324769596
 20
5.8068459211
 10
5.5323824216
 20
5.8055509141
 10
5.5322743393
 20
5.8042546332
 10
5.5321527731
 20
5.8029576504
 10
5.5320176206
 20
5.8016589863
 10
5.5318689055
 20
5.8003591612
 10
5.531706712
 20
5.7990586835
 10
5.5315309666
 20
5.7977565916
 10
5.5313417657
 20
5.796453397
 10
5.5311392186
 20
5.7951496421
 10
5.5309232044
 20
5.7938444641
 10
5.5306938344
 20
5.792538352
 10
5.5304512909
 20
5.7912319034
 10
5.5301955224
 20
5.7899244655
 10
5.529926642
 20
5.788616331
 10
5.5296448973
 20
5.7873083938
 10
5.5293504325
 20
5.7860009366
 10
5.5290434574
 20
5.7846943437
 10
5.5287242985
 20
5.7833893939
 10
5.5283933251
 20
5.7820869349
 10
5.5280508329
 20
5.7807874393
 10
5.5276972071
 20
5.7794916567
 10
5.5273329997
 20
5.7782008242
 10
5.5269585548
 20
5.7769152887
 10
5.5265743647
 20
5.775635841
 10
5.5261812666
 20
5.774364289
 10
5.5257797433
 20
5.7731011541
 10
5.52537031
 20
5.7718470104
 10
5.5249539119
 20
5.7706036554
 10
5.5245310747
 20
5.7693715462
 10
5.52410236
 20
5.7681512229
 10
5.5236688023
 20
5.7669444891
 10
5.5232309205
 20
5.7657516166
 10
5.5227893746
 20
5.7645732399
 10
5.5223454445
 20
5.7634115636
 10
5.5218997199
 20
5.7622669295
 10
5.5214528094
 20
5.7611397657
 10
5.5210060275
 20
5.7600322241
 10
5.5205599799
 20
5.758944618
 10
5.5201152531
 20
5.7578772151
 10
5.5196731206
 20
5.7568318984
 10
5.5192342295
 20
5.7558090529
 10
5.5187990467
 20
5.7548087078
 10
5.5183685404
 20
5.7538320463
 10
5.5179432586
 20
5.7528792789
  0
LINE
  5
338
100
AcDbEntity
  8
0
100
AcDbLine
 62
7
  6
CONTINUOUS
 10
5.8137538538
 20
5.5066706567
 11
5.8007614865
 21
5.5066706567
  0
LINE
  5
339
100
AcDbEntity
  8
0
100
AcDbLine
 62
7
  6
CONTINUOUS
 10
5.7682529617
 20
5.5066706567
 11
5.5565491637
 21
5.5066706567
  0
LINE
  5
33A
100
AcDbEntity
  8
0
100
AcDbLine
 62
7
  6
CONTINUOUS
 10
5.5240406382
 20
5.5066706567
 11
5.5110482709
 21
5.5066706567
  0
LINE
  5
33B
100
AcDbEntity
  8
0
100
AcDbLine
 62
7
  6
CONTINUOUS
 10
5.687805007
 20
5.5830242875
 11
5.6369971177
 21
5.5830242875
  0
LINE
  5
33C
100
AcDbEntity
  8
0
100
AcDbLine
 62
7
  6
CONTINUOUS
 10
5.5095611651
 20
5.8953328853
 11
5.5088577553
 21
5.8966149961
  0
LINE
  5
33D
100
AcDbEntity
  8
0
100
AcDbLine
 62
7
  6
CONTINUOUS
 10
5.5095598257
 20
5.89533562
 11
5.5088577553
 21
5.8966149962
  0
LINE
  5
33E
100
AcDbEntity
  8
0
100
AcDbLine
 62
7
  6
CONTINUOUS
 10
5.5092274415
 20
5.8951542404
 11
5.5092346048
 21
5.8951409847
  0
LINE
  5
33F
100
AcDbEntity
  8
0
100
AcDbLine
 62
7
  6
CONTINUOUS
 10
5.5092338137
 20
5.8951424431
 11
5.5098602391
 21
5.8939780617
  0
LINE
  5
340
100
AcDbEntity
  8
0
100
AcDbLine
 62
7
  6
CONTINUOUS
 10
5.5098602391
 20
5.8939780617
 11
5.5104648573
 21
5.8928425421
  0
LINE
  5
341
100
AcDbEntity
  8
0
100
AcDbLine
 62
7
  6
CONTINUOUS
 10
5.5104648573
 20
5.8928425421
 11
5.5110479006
 21
5.8917361595
  0
LINE
  5
342
100
AcDbEntity
  8
0
100
AcDbLine
 62
7
  6
CONTINUOUS
 10
5.631692462
 20
5.6793573584
 11
5.6931096627
 21
5.6793573584
  0
LINE
  5
343
100
AcDbEntity
  8
0
100
AcDbLine
 62
7
  6
CONTINUOUS
 10
5.416731771
 20
5.7400008229
 11
5.5117059988
 21
5.7400008229
  0
LINE
  5
344
100
AcDbEntity
  8
0
100
AcDbLine
 62
7
  6
CONTINUOUS
 10
5.416731771
 20
5.8904732639
 11
5.511705999
 21
5.8904732639
  0
LINE
  5
345
100
AcDbEntity
  8
0
100
AcDbLine
 62
7
  6
CONTINUOUS
 10
5.8159443695
 20
6.0824023977
 11
5.6931097238
 21
6.0824023977
  0
LINE
  5
346
100
AcDbEntity
  8
0
100
AcDbLine
 62
7
  6
CONTINUOUS
 10
5.6316924009
 20
6.0824023977
 11
5.5088577553
 21
6.0824023977
  0
LINE
  5
347
100
AcDbEntity
  8
0
100
AcDbLine
 62
7
  6
CONTINUOUS
 10
5.8128734053
 20
6.0854732639
 11
5.6931097238
 21
6.0854732639
  0
LINE
  5
348
100
AcDbEntity
  8
0
100
AcDbLine
 62
7
  6
CONTINUOUS
 10
5.6316924009
 20
6.0854732639
 11
5.5119287196
 21
6.0854732639
  0
LINE
  5
349
100
AcDbEntity
  8
0
100
AcDbLine
 62
7
  6
CONTINUOUS
 10
5.6931097238
 20
6.1307746812
 11
5.6316924009
 21
6.1307746812
  0
LINE
  5
34A
100
AcDbEntity
  8
0
100
AcDbLine
 62
7
  6
CONTINUOUS
 10
5.6869679722
 20
6.1369164135
 11
5.6378341525
 21
6.1369164135
  0
LINE
  5
34B
100
AcDbEntity
  8
0
100
AcDbLine
 62
7
  6
CONTINUOUS
 10
5.5754766602
 20
6.6967230276
 11
5.5754704373
 21
6.6967230276
  0
LINE
  5
34C
100
AcDbEntity
  8
0
100
AcDbLine
 62
7
  6
CONTINUOUS
 10
5.575688871
 20
6.6967230276
 11
5.5764185238
 21
6.6967230276
  0
LINE
  5
34D
100
AcDbEntity
  8
0
100
AcDbLine
 62
7
  6
CONTINUOUS
 10
5.5754766602
 20
6.7419630276
 11
5.5754704373
 21
6.7419630276
  0
LINE
  5
34E
100
AcDbEntity
  8
0
100
AcDbLine
 62
7
  6
CONTINUOUS
 10
5.575688871
 20
6.7419630276
 11
5.5764185238
 21
6.7419630276
  0
LINE
  5
34F
100
AcDbEntity
  8
0
100
AcDbLine
 62
7
  6
CONTINUOUS
 10
5.5754766602
 20
6.7872030276
 11
5.5754704373
 21
6.7872030276
  0
LINE
  5
350
100
AcDbEntity
  8
0
100
AcDbLine
 62
7
  6
CONTINUOUS
 10
5.575688871
 20
6.7872030276
 11
5.5764185238
 21
6.7872030276
  0
LINE
  5
351
100
AcDbEntity
  8
0
100
AcDbLine
 62
7
  6
CONTINUOUS
 10
5.5754766602
 20
6.8324430276
 11
5.5754704373
 21
6.8324430276
  0
LINE
  5
352
100
AcDbEntity
  8
0
100
AcDbLine
 62
7
  6
CONTINUOUS
 10
5.575688871
 20
6.8324430276
 11
5.5764185238
 21
6.8324430276
  0
LINE
  5
353
100
AcDbEntity
  8
0
100
AcDbLine
 62
7
  6
CONTINUOUS
 10
5.5754766602
 20
6.8776830276
 11
5.5754704373
 21
6.8776830276
  0
LINE
  5
354
100
AcDbEntity
  8
0
100
AcDbLine
 62
7
  6
CONTINUOUS
 10
5.575688871
 20
6.8776830276
 11
5.5764185238
 21
6.8776830276
  0
LINE
  5
355
100
AcDbEntity
  8
0
100
AcDbLine
 62
7
  6
CONTINUOUS
 10
5.5754766602
 20
6.9229230276
 11
5.5754704373
 21
6.9229230276
  0
LINE
  5
356
100
AcDbEntity
  8
0
100
AcDbLine
 62
7
  6
CONTINUOUS
 10
5.575688871
 20
6.9229230276
 11
5.5764185238
 21
6.9229230276
  0
LINE
  5
357
100
AcDbEntity
  8
0
100
AcDbLine
 62
7
  6
CONTINUOUS
 10
5.5754766602
 20
6.9681630276
 11
5.5754704373
 21
6.9681630276
  0
LINE
  5
358
100
AcDbEntity
  8
0
100
AcDbLine
 62
7
  6
CONTINUOUS
 10
5.575688871
 20
6.9681630276
 11
5.5764185238
 21
6.9681630276
  0
LINE
  5
359
100
AcDbEntity
  8
0
100
AcDbLine
 62
7
  6
CONTINUOUS
 10
5.5754766602
 20
7.0134030276
 11
5.5754704373
 21
7.0134030276
  0
LINE
  5
35A
100
AcDbEntity
  8
0
100
AcDbLine
 62
7
  6
CONTINUOUS
 10
5.575688871
 20
7.0134030276
 11
5.5764185238
 21
7.0134030276
  0
LINE
  5
35B
100
AcDbEntity
  8
0
100
AcDbLine
 62
7
  6
CONTINUOUS
 10
4.2255629041
 20
7.0142271277
 11
4.3968770159
 21
6.999239085
  0
LINE
  5
35C
100
AcDbEntity
  8
0
100
AcDbLine
 62
7
  6
CONTINUOUS
 10
4.407731584
 20
7.1233270246
 11
4.2364208858
 21
7.1383147686
  0
LINE
  5
35D
100
AcDbEntity
  8
0
100
AcDbLine
 62
7
  6
CONTINUOUS
 10
5.5754766602
 20
7.0586430276
 11
5.5754704373
 21
7.0586430276
  0
LINE
  5
35E
100
AcDbEntity
  8
0
100
AcDbLine
 62
7
  6
CONTINUOUS
 10
5.575688871
 20
7.0586430276
 11
5.5764185238
 21
7.0586430276
  0
LINE
  5
35F
100
AcDbEntity
  8
0
100
AcDbLine
 62
7
  6
CONTINUOUS
 10
5.5764185238
 20
7.0723010509
 11
5.748383601
 21
7.0723010509
  0
LINE
  5
360
100
AcDbEntity
  8
0
100
AcDbLine
 62
7
  6
CONTINUOUS
 10
5.5754766602
 20
7.1038830276
 11
5.5754704373
 21
7.1038830276
  0
LINE
  5
361
100
AcDbEntity
  8
0
100
AcDbLine
 62
7
  6
CONTINUOUS
 10
5.7310505586
 20
7.2333630276
 11
5.7404010624
 21
7.2333630276
  0
LINE
  5
362
100
AcDbEntity
  8
0
100
AcDbLine
 62
7
  6
CONTINUOUS
 10
5.7307123871
 20
7.2349230276
 11
5.7388410624
 21
7.2349230276
  0
LINE
  5
363
100
AcDbEntity
  8
0
100
AcDbLine
 62
7
  6
CONTINUOUS
 10
5.7303742155
 20
7.2364830276
 11
5.7326010624
 21
7.2364830276
  0
ARC
  5
364
100
AcDbEntity
  8
0
100
AcDbCircle
 62
7
  6
CONTINUOUS
 10
5.2216562767
 20
1.241031731
 40
0.0184251969
100
AcDbArc
 50
94.4281030819
 51
179.5
  0
ARC
  5
365
100
AcDbEntity
  8
0
100
AcDbCircle
 62
7
  6
CONTINUOUS
 10
5.4919679915
 20
1.2771356261
 40
0.0061417323
100
AcDbArc
 50
90.0
 51
180.0
  0
ARC
  5
366
100
AcDbEntity
  8
0
100
AcDbCircle
 62
7
  6
CONTINUOUS
 10
5.203010254
 20
1.075048067
 40
0.0012283465
100
AcDbArc
 50
179.5
 51
270.0
  0
ARC
  5
367
100
AcDbEntity
  8
0
100
AcDbCircle
 62
7
  6
CONTINUOUS
 10
4.9909611746
 20
7.072301727
 40
0.7574231655
100
AcDbArc
 50
359.9999488512
 51
175.0000512297
  0
ARC
  5
368
100
AcDbEntity
  8
0
100
AcDbCircle
 62
7
  6
CONTINUOUS
 10
4.9909611746
 20
7.072301727
 40
0.5854556668
100
AcDbArc
 50
359.9999338271
 51
175.0000662776
  0
ARC
  5
369
100
AcDbEntity
  8
0
100
AcDbCircle
 62
7
  6
CONTINUOUS
 10
5.2510417522
 20
5.8762197236
 40
0.2945089376
100
AcDbArc
 50
331.3868005604
 51
332.4282806616
  0
ARC
  5
36A
100
AcDbEntity
  8
0
100
AcDbCircle
 62
7
  6
CONTINUOUS
 10
5.2547132293
 20
5.7562142234
 40
0.2903472861
100
AcDbArc
 50
27.5642052959
 51
28.621340151
  0
ARC
  5
36B
100
AcDbEntity
  8
0
100
AcDbCircle
 62
7
  6
CONTINUOUS
 10
5.5125427946
 20
5.2833630276
 40
0.0036850394
100
AcDbArc
 50
92.3076923077
 51
180.0
  0
ARC
  5
36C
100
AcDbEntity
  8
0
100
AcDbCircle
 62
7
  6
CONTINUOUS
 10
5.5119286214
 20
5.2901189332
 40
0.0030708661
100
AcDbArc
 50
180.0
 51
270.0
  0
ARC
  5
36D
100
AcDbEntity
  8
0
100
AcDbCircle
 62
7
  6
CONTINUOUS
 10
5.5119286214
 20
6.0824023977
 40
0.0030708661
100
AcDbArc
 50
90.0
 51
180.0
  0
ARC
  5
36E
100
AcDbEntity
  8
0
100
AcDbCircle
 62
7
  6
CONTINUOUS
 10
5.5119282775
 20
5.8966149317
 40
0.0030705099
100
AcDbArc
 50
179.998797722
 51
208.4058096369
  0
ARC
  5
36F
100
AcDbEntity
  8
0
100
AcDbCircle
 62
7
  6
CONTINUOUS
 10
5.5119282589
 20
5.7338591466
 40
0.0030705043
100
AcDbArc
 50
151.5989185051
 51
180.0010436824
  0
ARC
  5
370
100
AcDbEntity
  8
0
100
AcDbCircle
 62
7
  6
CONTINUOUS
 10
5.6624010624
 20
-4.4504613255
 40
5.7269582115
100
AcDbArc
 50
85.5718969181
 51
88.33012475
  0
ARC
  5
371
100
AcDbEntity
  8
0
100
AcDbCircle
 62
7
  6
CONTINUOUS
 10
5.6624010624
 20
-4.4504613255
 40
5.7269582115
100
AcDbArc
 50
91.66987525
 51
94.4281030819
  0
ARC
  5
372
100
AcDbEntity
  8
0
100
AcDbCircle
 62
7
  6
CONTINUOUS
 10
6.1031458481
 20
1.241031731
 40
0.0184251969
100
AcDbArc
 50
0.5
 51
85.5718969181
  0
ARC
  5
373
100
AcDbEntity
  8
0
100
AcDbCircle
 62
7
  6
CONTINUOUS
 10
5.8328341332
 20
1.2771356261
 40
0.0061417323
100
AcDbArc
 50
0.0
 51
90.0
  0
ARC
  5
374
100
AcDbEntity
  8
0
100
AcDbCircle
 62
7
  6
CONTINUOUS
 10
6.1217918708
 20
1.075048067
 40
0.0012283465
100
AcDbArc
 50
270.0
 51
0.5
  0
ARC
  5
375
100
AcDbEntity
  8
0
100
AcDbCircle
 62
7
  6
CONTINUOUS
 10
5.70322437
 20
5.5326829557
 40
0.1943666178
100
AcDbArc
 50
179.7311683017
 51
179.9898600761
  0
ARC
  5
376
100
AcDbEntity
  8
0
100
AcDbCircle
 62
7
  6
CONTINUOUS
 10
5.7031879167
 20
5.5327505208
 40
0.1943301643
100
AcDbArc
 50
180.0097762029
 51
180.2685169678
  0
ARC
  5
377
100
AcDbEntity
  8
0
100
AcDbCircle
 62
7
  6
CONTINUOUS
 10
5.6218374115
 20
5.5326878049
 40
0.1941069602
100
AcDbArc
 50
0.0087217559
 51
0.3287021782
  0
ARC
  5
378
100
AcDbEntity
  8
0
100
AcDbCircle
 62
7
  6
CONTINUOUS
 10
5.7028784775
 20
5.532684926
 40
0.1940207198
100
AcDbArc
 50
179.1056565125
 51
179.7312708618
  0
ARC
  5
379
100
AcDbEntity
  8
0
100
AcDbCircle
 62
7
  6
CONTINUOUS
 10
5.7028462336
 20
5.5327485765
 40
0.1939884758
100
AcDbArc
 50
180.2684156563
 51
180.8941317285
  0
ARC
  5
37A
100
AcDbEntity
  8
0
100
AcDbCircle
 62
7
  6
CONTINUOUS
 10
5.6220942488
 20
5.5327455593
 40
0.1938501197
100
AcDbArc
 50
359.175139343
 51
359.7915753047
  0
ARC
  5
37B
100
AcDbEntity
  8
0
100
AcDbCircle
 62
7
  6
CONTINUOUS
 10
5.622180651
 20
5.5326900394
 40
0.1937637136
100
AcDbArc
 50
0.3286237164
 51
0.9418513726
  0
ARC
  5
37C
100
AcDbEntity
  8
0
100
AcDbCircle
 62
7
  6
CONTINUOUS
 10
5.6238038146
 20
5.5326963378
 40
0.192140024
100
AcDbArc
 50
352.1981067745
 51
359.1824766343
  0
ARC
  5
37D
100
AcDbEntity
  8
0
100
AcDbCircle
 62
7
  6
CONTINUOUS
 10
5.7008903919
 20
5.5326883014
 40
0.1920319339
100
AcDbArc
 50
180.885256234
 51
187.8041277113
  0
ARC
  5
37E
100
AcDbEntity
  8
0
100
AcDbCircle
 62
7
  6
CONTINUOUS
 10
5.6624010624
 20
5.5327173584
 40
0.1535776616
100
AcDbArc
 50
189.7645366319
 51
350.2354633681
  0
ARC
  5
37F
100
AcDbEntity
  8
0
100
AcDbCircle
 62
7
  6
CONTINUOUS
 10
5.9685573619
 20
6.0516937363
 40
0.1535441439
100
AcDbArc
 50
173.6847439305
 51
186.3152560695
  0
ARC
  5
380
100
AcDbEntity
  8
0
100
AcDbCircle
 62
7
  6
CONTINUOUS
 10
5.6624010624
 20
5.5327173584
 40
0.1535433071
100
AcDbArc
 50
350.2354177635
 51
78.4623259166
  0
ARC
  5
381
100
AcDbEntity
  8
0
100
AcDbCircle
 62
7
  6
CONTINUOUS
 10
5.6624010624
 20
5.5327173584
 40
0.1535433071
100
AcDbArc
 50
101.5366293908
 51
189.7645359101
  0
ARC
  5
382
100
AcDbEntity
  8
0
100
AcDbCircle
 62
7
  6
CONTINUOUS
 10
5.6624010624
 20
5.5327173584
 40
0.1504724409
100
AcDbArc
 50
350.0311235897
 51
78.2232184479
  0
ARC
  5
383
100
AcDbEntity
  8
0
100
AcDbCircle
 62
7
  6
CONTINUOUS
 10
5.6624010624
 20
5.5327173584
 40
0.1504724409
100
AcDbArc
 50
101.7767914499
 51
189.9689596262
  0
ARC
  5
384
100
AcDbEntity
  8
0
100
AcDbCircle
 62
7
  6
CONTINUOUS
 10
5.6624010624
 20
5.5327173584
 40
0.1427952756
100
AcDbArc
 50
100.2484237376
 51
190.5100012088
  0
ARC
  5
385
100
AcDbEntity
  8
0
100
AcDbCircle
 62
7
  6
CONTINUOUS
 10
5.6624010624
 20
5.5327173584
 40
0.1427952756
100
AcDbArc
 50
349.4899987912
 51
79.7515762624
  0
ARC
  5
386
100
AcDbEntity
  8
0
100
AcDbCircle
 62
7
  6
CONTINUOUS
 10
5.6624010624
 20
5.5327173584
 40
0.1105511811
100
AcDbArc
 50
103.2856098488
 51
76.7143902148
  0
ARC
  5
387
100
AcDbEntity
  8
0
100
AcDbCircle
 62
7
  6
CONTINUOUS
 10
5.6624010624
 20
5.5327173584
 40
0.109015748
100
AcDbArc
 50
103.4756115343
 51
76.5243883052
  0
ARC
  5
388
100
AcDbEntity
  8
0
100
AcDbCircle
 62
7
  6
CONTINUOUS
 10
5.6184407561
 20
7.103905043
 40
0.0429641016
100
AcDbArc
 50
178.449411641
 51
180.029359048
  0
ARC
  5
389
100
AcDbEntity
  8
0
100
AcDbCircle
 62
7
  6
CONTINUOUS
 10
5.6869679915
 20
6.1307746812
 40
0.0061417323
100
AcDbArc
 50
0.0
 51
90.0
  0
ARC
  5
38A
100
AcDbEntity
  8
0
100
AcDbCircle
 62
7
  6
CONTINUOUS
 10
5.6378341332
 20
6.1307746812
 40
0.0061417323
100
AcDbArc
 50
90.0
 51
180.0
  0
ARC
  5
38B
100
AcDbEntity
  8
0
100
AcDbCircle
 62
7
  6
CONTINUOUS
 10
5.8122593301
 20
5.2833630276
 40
0.0036850394
100
AcDbArc
 50
0.0
 51
87.6923076923
  0
ARC
  5
38C
100
AcDbEntity
  8
0
100
AcDbCircle
 62
7
  6
CONTINUOUS
 10
5.8128735033
 20
5.2901189332
 40
0.0030708661
100
AcDbArc
 50
270.0
 51
360.0
  0
ARC
  5
38D
100
AcDbEntity
  8
0
100
AcDbCircle
 62
7
  6
CONTINUOUS
 10
5.8128735033
 20
6.0824023977
 40
0.0030708661
100
AcDbArc
 50
0.0
 51
90.0
  0
ARC
  5
38E
100
AcDbEntity
  8
0
100
AcDbCircle
 62
7
  6
CONTINUOUS
 10
5.7326010624
 20
7.2349230276
 40
0.00156
100
AcDbArc
 50
0.0
 51
90.0
  0
ARC
  5
38F
100
AcDbEntity
  8
0
100
AcDbCircle
 62
7
  6
CONTINUOUS
 10
5.7388410624
 20
7.2333630276
 40
0.00156
100
AcDbArc
 50
0.0
 51
90.0
  0
LINE
  5
390
100
AcDbEntity
  8
0
100
AcDbLine
 62
7
  6
CONTINUOUS
 10
5.5760538893
 20
6.6940712697
 11
5.5764185372
 21
6.6952512475
  0
LINE
  5
391
100
AcDbEntity
  8
0
100
AcDbLine
 62
7
  6
CONTINUOUS
 10
5.5760538893
 20
6.7393112697
 11
5.5764185372
 21
6.7404912475
  0
LINE
  5
392
100
AcDbEntity
  8
0
100
AcDbLine
 62
7
  6
CONTINUOUS
 10
5.5760538893
 20
6.7845512697
 11
5.5764185372
 21
6.7857312475
  0
LINE
  5
393
100
AcDbEntity
  8
0
100
AcDbLine
 62
7
  6
CONTINUOUS
 10
5.5760538893
 20
6.8297912697
 11
5.5764185372
 21
6.8309712475
  0
LINE
  5
394
100
AcDbEntity
  8
0
100
AcDbLine
 62
7
  6
CONTINUOUS
 10
5.5760538893
 20
6.8750312697
 11
5.5764185372
 21
6.8762112475
  0
LINE
  5
395
100
AcDbEntity
  8
0
100
AcDbLine
 62
7
  6
CONTINUOUS
 10
5.5760538893
 20
6.9202712697
 11
5.5764185372
 21
6.9214512475
  0
LINE
  5
396
100
AcDbEntity
  8
0
100
AcDbLine
 62
7
  6
CONTINUOUS
 10
5.5760538893
 20
6.9655112697
 11
5.5764185372
 21
6.9666912475
  0
LINE
  5
397
100
AcDbEntity
  8
0
100
AcDbLine
 62
7
  6
CONTINUOUS
 10
5.5760538893
 20
7.0107512697
 11
5.5764185372
 21
7.0119312475
  0
LINE
  5
398
100
AcDbEntity
  8
0
100
AcDbLine
 62
7
  6
CONTINUOUS
 10
5.5760538893
 20
7.0559912697
 11
5.5764185372
 21
7.0571712475
  0
LINE
  5
399
100
AcDbEntity
  8
0
100
AcDbLine
 62
7
  6
CONTINUOUS
 10
5.5764185372
 20
7.0601148078
 11
5.5760538893
 21
7.0612947856
  0
LINE
  5
39A
100
AcDbEntity
  8
0
100
AcDbLine
 62
7
  6
CONTINUOUS
 10
5.5764185372
 20
7.0148748078
 11
5.5760538893
 21
7.0160547856
  0
LINE
  5
39B
100
AcDbEntity
  8
0
100
AcDbLine
 62
7
  6
CONTINUOUS
 10
5.5764185372
 20
6.9696348078
 11
5.5760538893
 21
6.9708147856
  0
LINE
  5
39C
100
AcDbEntity
  8
0
100
AcDbLine
 62
7
  6
CONTINUOUS
 10
5.5764185372
 20
6.9243948078
 11
5.5760538893
 21
6.9255747856
  0
LINE
  5
39D
100
AcDbEntity
  8
0
100
AcDbLine
 62
7
  6
CONTINUOUS
 10
5.5764185372
 20
6.8791548078
 11
5.5760538893
 21
6.8803347856
  0
LINE
  5
39E
100
AcDbEntity
  8
0
100
AcDbLine
 62
7
  6
CONTINUOUS
 10
5.5764185372
 20
6.8339148078
 11
5.5760538893
 21
6.8350947856
  0
LINE
  5
39F
100
AcDbEntity
  8
0
100
AcDbLine
 62
7
  6
CONTINUOUS
 10
5.5764185372
 20
6.7886748078
 11
5.5760538893
 21
6.7898547856
  0
LINE
  5
3A0
100
AcDbEntity
  8
0
100
AcDbLine
 62
7
  6
CONTINUOUS
 10
5.5764185372
 20
6.7434348078
 11
5.5760538893
 21
6.7446147856
  0
LINE
  5
3A1
100
AcDbEntity
  8
0
100
AcDbLine
 62
7
  6
CONTINUOUS
 10
5.5764185372
 20
6.6981948078
 11
5.5760538893
 21
6.6993747856
  0
SPLINE
  5
3A2
100
AcDbEntity
  8
0
100
AcDbSpline
 62
7
  6
CONTINUOUS
 70
0
 71
3
 72
22
 73
18
 74
0
 42
0.0000001
 43
0.0000001
 44
0.0000000001
 40
0.0
 40
0.0
 40
0.0
 40
0.0
 40
0.0337141488
 40
0.0694695147
 40
0.1083760538
 40
0.1513662643
 40
0.1991686194
 40
0.2521831456
 40
0.3105760134
 40
0.3742003386
 40
0.4427248561
 40
0.5155843704
 40
0.5920938703
 40
0.6714446779
 40
0.752774527
 40
0.8352120594
 40
1.0
 40
1.0
 40
1.0
 40
1.0
 10
5.729329041
 20
5.6709063341
 30
0.0
 10
5.7291501636
 20
5.6709929684
 30
0.0
 10
5.7287990161
 20
5.6712099937
 30
0.0
 10
5.7283302645
 20
5.6716497332
 30
0.0
 10
5.7279186214
 20
5.6722123708
 30
0.0
 10
5.7275711032
 20
5.6728966252
 30
0.0
 10
5.7272948437
 20
5.6737005322
 30
0.0
 10
5.7270938688
 20
5.6746191398
 30
0.0
 10
5.7269733239
 20
5.6756453311
 30
0.0
 10
5.7269345485
 20
5.6767690402
 30
0.0
 10
5.7269794399
 20
5.6779776645
 30
0.0
 10
5.7271058712
 20
5.679256675
 30
0.0
 10
5.7273118384
 20
5.6805898102
 30
0.0
 10
5.7275918505
 20
5.6819602733
 30
0.0
 10
5.7279404856
 20
5.6833509207
 30
0.0
 10
5.7284862561
 20
5.685209721
 30
0.0
 10
5.7289742795
 20
5.6865847044
 30
0.0
 10
5.7293290626
 20
5.6874890657
 30
0.0
  0
SPLINE
  5
3A3
100
AcDbEntity
  8
0
100
AcDbSpline
 62
7
  6
CONTINUOUS
 70
0
 71
3
 72
21
 73
17
 74
0
 42
0.0000001
 43
0.0000001
 44
0.0000000001
 40
0.0
 40
0.0
 40
0.0
 40
0.0
 40
0.0073252272
 40
0.0153196589
 40
0.0245442825
 40
0.0353323249
 40
0.0622064373
 40
0.096637224
 40
0.1387456201
 40
0.1884606334
 40
0.2456222889
 40
0.3100139951
 40
0.4583444521
 40
0.6271736526
 40
0.8099057324
 40
1.0
 40
1.0
 40
1.0
 40
1.0
 10
5.5760538893
 20
6.6993747856
 30
0.0
 10
5.5760472254
 20
6.6993747915
 30
0.0
 10
5.5760331975
 20
6.6993723633
 30
0.0
 10
5.576013219
 20
6.6993618069
 30
0.0
 10
5.5759939413
 20
6.6993448967
 30
0.0
 10
5.5759669344
 20
6.6993117058
 30
0.0
 10
5.5759354631
 20
6.6992536693
 30
0.0
 10
5.5759015212
 20
6.6991658341
 30
0.0
 10
5.575869333
 20
6.6990554579
 30
0.0
 10
5.5758391665
 20
6.6989232744
 30
0.0
 10
5.5758112811
 20
6.6987699407
 30
0.0
 10
5.5757759372
 20
6.6985269413
 30
0.0
 10
5.5757409445
 20
6.6981814619
 30
0.0
 10
5.5757113405
 20
6.6977276099
 30
0.0
 10
5.5756930802
 20
6.6972351386
 30
0.0
 10
5.575688871
 20
6.6968959594
 30
0.0
 10
5.575688871
 20
6.6967230276
 30
0.0
  0
SPLINE
  5
3A4
100
AcDbEntity
  8
0
100
AcDbSpline
 62
7
  6
CONTINUOUS
 70
0
 71
3
 72
21
 73
17
 74
0
 42
0.0000001
 43
0.0000001
 44
0.0000000001
 40
0.0
 40
0.0
 40
0.0
 40
0.0
 40
0.0073252272
 40
0.0153196589
 40
0.0245442825
 40
0.0353323249
 40
0.0622064373
 40
0.096637224
 40
0.1387456201
 40
0.1884606334
 40
0.2456222889
 40
0.3100139951
 40
0.4583444521
 40
0.6271736526
 40
0.8099057324
 40
1.0
 40
1.0
 40
1.0
 40
1.0
 10
5.5760538893
 20
6.7446147856
 30
0.0
 10
5.5760472254
 20
6.7446147915
 30
0.0
 10
5.5760331975
 20
6.7446123633
 30
0.0
 10
5.576013219
 20
6.7446018069
 30
0.0
 10
5.5759939413
 20
6.7445848967
 30
0.0
 10
5.5759669344
 20
6.7445517058
 30
0.0
 10
5.5759354631
 20
6.7444936693
 30
0.0
 10
5.5759015212
 20
6.7444058341
 30
0.0
 10
5.575869333
 20
6.7442954579
 30
0.0
 10
5.5758391665
 20
6.7441632744
 30
0.0
 10
5.5758112811
 20
6.7440099407
 30
0.0
 10
5.5757759372
 20
6.7437669413
 30
0.0
 10
5.5757409445
 20
6.7434214619
 30
0.0
 10
5.5757113405
 20
6.7429676099
 30
0.0
 10
5.5756930802
 20
6.7424751386
 30
0.0
 10
5.575688871
 20
6.7421359594
 30
0.0
 10
5.575688871
 20
6.7419630276
 30
0.0
  0
SPLINE
  5
3A5
100
AcDbEntity
  8
0
100
AcDbSpline
 62
7
  6
CONTINUOUS
 70
0
 71
3
 72
21
 73
17
 74
0
 42
0.0000001
 43
0.0000001
 44
0.0000000001
 40
0.0
 40
0.0
 40
0.0
 40
0.0
 40
0.0073252272
 40
0.0153196589
 40
0.0245442826
 40
0.0353323249
 40
0.0622064373
 40
0.096637224
 40
0.1387456201
 40
0.1884606334
 40
0.2456222889
 40
0.3100139951
 40
0.4583444521
 40
0.6271736526
 40
0.8099057324
 40
1.0
 40
1.0
 40
1.0
 40
1.0
 10
5.5760538893
 20
6.7898547856
 30
0.0
 10
5.5760472254
 20
6.7898547915
 30
0.0
 10
5.5760331975
 20
6.7898523633
 30
0.0
 10
5.576013219
 20
6.7898418069
 30
0.0
 10
5.5759939413
 20
6.7898248967
 30
0.0
 10
5.5759669344
 20
6.7897917058
 30
0.0
 10
5.5759354631
 20
6.7897336693
 30
0.0
 10
5.5759015212
 20
6.7896458341
 30
0.0
 10
5.575869333
 20
6.7895354579
 30
0.0
 10
5.5758391665
 20
6.7894032744
 30
0.0
 10
5.5758112811
 20
6.7892499407
 30
0.0
 10
5.5757759372
 20
6.7890069413
 30
0.0
 10
5.5757409445
 20
6.7886614619
 30
0.0
 10
5.5757113405
 20
6.7882076099
 30
0.0
 10
5.5756930802
 20
6.7877151386
 30
0.0
 10
5.575688871
 20
6.7873759594
 30
0.0
 10
5.575688871
 20
6.7872030276
 30
0.0
  0
SPLINE
  5
3A6
100
AcDbEntity
  8
0
100
AcDbSpline
 62
7
  6
CONTINUOUS
 70
0
 71
3
 72
13
 73
9
 74
0
 42
0.0000001
 43
0.0000001
 44
0.0000000001
 40
0.0
 40
0.0
 40
0.0
 40
0.0
 40
0.1457725226
 40
0.2892855335
 40
0.4284608104
 40
0.5614750617
 40
0.8025590264
 40
1.0
 40
1.0
 40
1.0
 40
1.0
 10
5.5320881068
 20
5.8152370434
 30
0.0
 10
5.5320881068
 20
5.8183850981
 30
0.0
 10
5.5318609118
 20
5.8246347612
 30
0.0
 10
5.5308689988
 20
5.8338413362
 30
0.0
 10
5.5293172009
 20
5.8426898624
 30
0.0
 10
5.5267547605
 20
5.8534794537
 30
0.0
 10
5.5230025824
 20
5.8652571155
 30
0.0
 10
5.519473884
 20
5.8740514572
 30
0.0
 10
5.5177772671
 20
5.8779632436
 30
0.0
  0
SPLINE
  5
3A7
100
AcDbEntity
  8
0
100
AcDbSpline
 62
7
  6
CONTINUOUS
 70
0
 71
3
 72
21
 73
17
 74
0
 42
0.0000001
 43
0.0000001
 44
0.0000000001
 40
0.0
 40
0.0
 40
0.0
 40
0.0
 40
0.0073252272
 40
0.0153196589
 40
0.0245442826
 40
0.0353323249
 40
0.0622064373
 40
0.096637224
 40
0.1387456201
 40
0.1884606334
 40
0.2456222889
 40
0.3100139951
 40
0.4583444521
 40
0.6271736526
 40
0.8099057324
 40
1.0
 40
1.0
 40
1.0
 40
1.0
 10
5.5760538893
 20
6.8350947856
 30
0.0
 10
5.5760472254
 20
6.8350947915
 30
0.0
 10
5.5760331975
 20
6.8350923633
 30
0.0
 10
5.576013219
 20
6.8350818069
 30
0.0
 10
5.5759939413
 20
6.8350648967
 30
0.0
 10
5.5759669344
 20
6.8350317058
 30
0.0
 10
5.5759354631
 20
6.8349736693
 30
0.0
 10
5.5759015212
 20
6.8348858341
 30
0.0
 10
5.575869333
 20
6.8347754579
 30
0.0
 10
5.5758391665
 20
6.8346432744
 30
0.0
 10
5.5758112811
 20
6.8344899407
 30
0.0
 10
5.5757759372
 20
6.8342469413
 30
0.0
 10
5.5757409445
 20
6.8339014619
 30
0.0
 10
5.5757113405
 20
6.8334476099
 30
0.0
 10
5.5756930802
 20
6.8329551386
 30
0.0
 10
5.575688871
 20
6.8326159594
 30
0.0
 10
5.575688871
 20
6.8324430276
 30
0.0
  0
SPLINE
  5
3A8
100
AcDbEntity
  8
0
100
AcDbSpline
 62
7
  6
CONTINUOUS
 70
0
 71
3
 72
21
 73
17
 74
0
 42
0.0000001
 43
0.0000001
 44
0.0000000001
 40
0.0
 40
0.0
 40
0.0
 40
0.0
 40
0.0352783324
 40
0.0731346016
 40
0.1145314715
 40
0.1602075788
 40
0.2106324426
 40
0.2659882926
 40
0.3262240467
 40
0.3910429673
 40
0.4599968701
 40
0.5324691267
 40
0.6077683429
 40
0.6851317833
 40
0.8429290589
 40
1.0
 40
1.0
 40
1.0
 40
1.0
 10
5.7290064965
 20
5.3943463052
 30
0.0
 10
5.7288357681
 20
5.3942353392
 30
0.0
 10
5.7285046407
 20
5.3939684006
 30
0.0
 10
5.7280758239
 20
5.3934608386
 30
0.0
 10
5.727708057
 20
5.3928371102
 30
0.0
 10
5.7274074206
 20
5.3921001127
 30
0.0
 10
5.7271781278
 20
5.3912546407
 30
0.0
 10
5.727023414
 20
5.3903075481
 30
0.0
 10
5.7269456259
 20
5.3892680377
 30
0.0
 10
5.7269449194
 20
5.3881473652
 30
0.0
 10
5.7270208637
 20
5.3869586598
 30
0.0
 10
5.7271702871
 20
5.3857161296
 30
0.0
 10
5.7273897802
 20
5.3844348577
 30
0.0
 10
5.7277706736
 20
5.3826833795
 30
0.0
 10
5.7283860846
 20
5.3805023574
 30
0.0
 10
5.7289979499
 20
5.3787896337
 30
0.0
 10
5.729329041
 20
5.3779456638
 30
0.0
  0
SPLINE
  5
3A9
100
AcDbEntity
  8
0
100
AcDbSpline
 62
7
  6
CONTINUOUS
 70
0
 71
3
 72
21
 73
17
 74
0
 42
0.0000001
 43
0.0000001
 44
0.0000000001
 40
0.0
 40
0.0
 40
0.0
 40
0.0
 40
0.0073252272
 40
0.0153196589
 40
0.0245442825
 40
0.0353323249
 40
0.0622064373
 40
0.096637224
 40
0.1387456201
 40
0.1884606334
 40
0.2456222889
 40
0.3100139951
 40
0.4583444521
 40
0.6271736526
 40
0.8099057324
 40
1.0
 40
1.0
 40
1.0
 40
1.0
 10
5.5760538893
 20
6.8803347856
 30
0.0
 10
5.5760472254
 20
6.8803347915
 30
0.0
 10
5.5760331975
 20
6.8803323633
 30
0.0
 10
5.576013219
 20
6.8803218069
 30
0.0
 10
5.5759939413
 20
6.8803048967
 30
0.0
 10
5.5759669344
 20
6.8802717058
 30
0.0
 10
5.5759354631
 20
6.8802136693
 30
0.0
 10
5.5759015212
 20
6.8801258341
 30
0.0
 10
5.575869333
 20
6.8800154579
 30
0.0
 10
5.5758391665
 20
6.8798832744
 30
0.0
 10
5.5758112811
 20
6.8797299407
 30
0.0
 10
5.5757759372
 20
6.8794869413
 30
0.0
 10
5.5757409445
 20
6.8791414619
 30
0.0
 10
5.5757113405
 20
6.8786876099
 30
0.0
 10
5.5756930802
 20
6.8781951386
 30
0.0
 10
5.575688871
 20
6.8778559594
 30
0.0
 10
5.575688871
 20
6.8776830276
 30
0.0
  0
SPLINE
  5
3AA
100
AcDbEntity
  8
0
100
AcDbSpline
 62
7
  6
CONTINUOUS
 70
0
 71
3
 72
21
 73
17
 74
0
 42
0.0000001
 43
0.0000001
 44
0.0000000001
 40
0.0
 40
0.0
 40
0.0
 40
0.0
 40
0.0073252272
 40
0.0153196589
 40
0.0245442826
 40
0.0353323249
 40
0.0622064373
 40
0.096637224
 40
0.1387456201
 40
0.1884606334
 40
0.2456222889
 40
0.3100139951
 40
0.4583444521
 40
0.6271736526
 40
0.8099057324
 40
1.0
 40
1.0
 40
1.0
 40
1.0
 10
5.5760538893
 20
6.9255747856
 30
0.0
 10
5.5760472254
 20
6.9255747915
 30
0.0
 10
5.5760331975
 20
6.9255723633
 30
0.0
 10
5.576013219
 20
6.9255618069
 30
0.0
 10
5.5759939413
 20
6.9255448967
 30
0.0
 10
5.5759669344
 20
6.9255117058
 30
0.0
 10
5.5759354631
 20
6.9254536693
 30
0.0
 10
5.5759015212
 20
6.9253658341
 30
0.0
 10
5.575869333
 20
6.9252554579
 30
0.0
 10
5.5758391665
 20
6.9251232744
 30
0.0
 10
5.5758112811
 20
6.9249699407
 30
0.0
 10
5.5757759372
 20
6.9247269413
 30
0.0
 10
5.5757409445
 20
6.9243814619
 30
0.0
 10
5.5757113405
 20
6.9239276099
 30
0.0
 10
5.5756930802
 20
6.9234351386
 30
0.0
 10
5.575688871
 20
6.9230959594
 30
0.0
 10
5.575688871
 20
6.9229230276
 30
0.0
  0
SPLINE
  5
3AB
100
AcDbEntity
  8
0
100
AcDbSpline
 62
7
  6
CONTINUOUS
 70
0
 71
3
 72
21
 73
17
 74
0
 42
0.0000001
 43
0.0000001
 44
0.0000000001
 40
0.0
 40
0.0
 40
0.0
 40
0.0
 40
0.0073252272
 40
0.0153196589
 40
0.0245442826
 40
0.0353323249
 40
0.0622064373
 40
0.096637224
 40
0.1387456201
 40
0.1884606334
 40
0.2456222889
 40
0.3100139951
 40
0.4583444521
 40
0.6271736526
 40
0.8099057324
 40
1.0
 40
1.0
 40
1.0
 40
1.0
 10
5.5760538893
 20
6.9708147856
 30
0.0
 10
5.5760472254
 20
6.9708147915
 30
0.0
 10
5.5760331975
 20
6.9708123633
 30
0.0
 10
5.576013219
 20
6.9708018069
 30
0.0
 10
5.5759939413
 20
6.9707848967
 30
0.0
 10
5.5759669344
 20
6.9707517058
 30
0.0
 10
5.5759354631
 20
6.9706936693
 30
0.0
 10
5.5759015212
 20
6.9706058341
 30
0.0
 10
5.575869333
 20
6.9704954579
 30
0.0
 10
5.5758391665
 20
6.9703632744
 30
0.0
 10
5.5758112811
 20
6.9702099407
 30
0.0
 10
5.5757759372
 20
6.9699669413
 30
0.0
 10
5.5757409445
 20
6.9696214619
 30
0.0
 10
5.5757113405
 20
6.9691676099
 30
0.0
 10
5.5756930802
 20
6.9686751386
 30
0.0
 10
5.575688871
 20
6.9683359594
 30
0.0
 10
5.575688871
 20
6.9681630276
 30
0.0
  0
SPLINE
  5
3AC
100
AcDbEntity
  8
0
100
AcDbSpline
 62
7
  6
CONTINUOUS
 70
0
 71
3
 72
21
 73
17
 74
0
 42
0.0000001
 43
0.0000001
 44
0.0000000001
 40
0.0
 40
0.0
 40
0.0
 40
0.0
 40
0.0073252272
 40
0.0153196589
 40
0.0245442826
 40
0.0353323249
 40
0.0622064373
 40
0.096637224
 40
0.1387456201
 40
0.1884606334
 40
0.2456222889
 40
0.3100139951
 40
0.4583444521
 40
0.6271736526
 40
0.8099057324
 40
1.0
 40
1.0
 40
1.0
 40
1.0
 10
5.5760538893
 20
7.0160547856
 30
0.0
 10
5.5760472254
 20
7.0160547915
 30
0.0
 10
5.5760331975
 20
7.0160523633
 30
0.0
 10
5.576013219
 20
7.0160418069
 30
0.0
 10
5.5759939413
 20
7.0160248967
 30
0.0
 10
5.5759669344
 20
7.0159917058
 30
0.0
 10
5.5759354631
 20
7.0159336693
 30
0.0
 10
5.5759015212
 20
7.0158458341
 30
0.0
 10
5.575869333
 20
7.0157354579
 30
0.0
 10
5.5758391665
 20
7.0156032744
 30
0.0
 10
5.5758112811
 20
7.0154499407
 30
0.0
 10
5.5757759372
 20
7.0152069413
 30
0.0
 10
5.5757409445
 20
7.0148614619
 30
0.0
 10
5.5757113405
 20
7.0144076099
 30
0.0
 10
5.5756930802
 20
7.0139151386
 30
0.0
 10
5.575688871
 20
7.0135759594
 30
0.0
 10
5.575688871
 20
7.0134030276
 30
0.0
  0
SPLINE
  5
3AD
100
AcDbEntity
  8
0
100
AcDbSpline
 62
7
  6
CONTINUOUS
 70
0
 71
3
 72
21
 73
17
 74
0
 42
0.0000001
 43
0.0000001
 44
0.0000000001
 40
0.0
 40
0.0
 40
0.0
 40
0.0
 40
0.0073252272
 40
0.0153196589
 40
0.0245442825
 40
0.0353323249
 40
0.0622064373
 40
0.096637224
 40
0.1387456201
 40
0.1884606334
 40
0.2456222889
 40
0.3100139951
 40
0.4583444521
 40
0.6271736526
 40
0.8099057324
 40
1.0
 40
1.0
 40
1.0
 40
1.0
 10
5.5760538893
 20
7.0612947856
 30
0.0
 10
5.5760472254
 20
7.0612947915
 30
0.0
 10
5.5760331975
 20
7.0612923633
 30
0.0
 10
5.576013219
 20
7.0612818069
 30
0.0
 10
5.5759939413
 20
7.0612648967
 30
0.0
 10
5.5759669344
 20
7.0612317058
 30
0.0
 10
5.5759354631
 20
7.0611736693
 30
0.0
 10
5.5759015212
 20
7.0610858341
 30
0.0
 10
5.575869333
 20
7.0609754579
 30
0.0
 10
5.5758391665
 20
7.0608432744
 30
0.0
 10
5.5758112811
 20
7.0606899407
 30
0.0
 10
5.5757759372
 20
7.0604469413
 30
0.0
 10
5.5757409445
 20
7.0601014619
 30
0.0
 10
5.5757113405
 20
7.0596476099
 30
0.0
 10
5.5756930802
 20
7.0591551386
 30
0.0
 10
5.575688871
 20
7.0588159594
 30
0.0
 10
5.575688871
 20
7.0586430276
 30
0.0
  0
SPLINE
  5
3AE
100
AcDbEntity
  8
0
100
AcDbSpline
 62
7
  6
CONTINUOUS
 70
0
 71
3
 72
29
 73
25
 74
0
 42
0.0000001
 43
0.0000001
 44
0.0000000001
 40
0.0
 40
0.0
 40
0.0
 40
0.0
 40
0.0365371937
 40
0.072691703
 40
0.1084285589
 40
0.1437138106
 40
0.2128716472
 40
0.2801891548
 40
0.3457714113
 40
0.4097790978
 40
0.472395277
 40
0.5337983565
 40
0.5641095867
 40
0.5941856122
 40
0.6240433932
 40
0.6536988686
 40
0.6831728211
 40
0.7124851514
 40
0.7416535509
 40
0.7706935685
 40
0.8284359615
 40
0.8858223848
 40
0.9429558955
 40
1.0
 40
1.0
 40
1.0
 40
1.0
 10
5.6316900318
 20
5.7012104527
 30
0.0
 10
5.6290560978
 20
5.7006083529
 30
0.0
 10
5.6238493636
 20
5.6992577463
 30
0.0
 10
5.6162130575
 20
5.6967995996
 30
0.0
 10
5.6088127082
 20
5.6939504507
 30
0.0
 10
5.5993542217
 20
5.6896982595
 30
0.0
 10
5.5881988254
 20
5.6835723608
 30
0.0
 10
5.5758776416
 20
5.6750782043
 30
0.0
 10
5.5647180663
 20
5.6656918268
 30
0.0
 10
5.5546995786
 20
5.6555836435
 30
0.0
 10
5.5457852076
 20
5.6448922369
 30
0.0
 10
5.5392076133
 20
5.6355497982
 30
0.0
 10
5.5344652749
 20
5.6278911303
 30
0.0
 10
5.5311714406
 20
5.6220852037
 30
0.0
 10
5.5281202262
 20
5.616202976
 30
0.0
 10
5.5253060309
 20
5.6102529907
 30
0.0
 10
5.5227255204
 20
5.6042419113
 30
0.0
 10
5.5203748207
 20
5.5981759801
 30
0.0
 10
5.5182501216
 20
5.5920611762
 30
0.0
 10
5.5157181375
 20
5.583867672
 30
0.0
 10
5.5130958168
 20
5.5735248433
 30
0.0
 10
5.5108041092
 20
5.5609845969
 30
0.0
 10
5.5093551039
 20
5.548371748
 30
0.0
 10
5.5089472455
 20
5.5399311385
 30
0.0
 10
5.5088813936
 20
5.5357133187
 30
0.0
  0
SPLINE
  5
3AF
100
AcDbEntity
  8
0
100
AcDbSpline
 62
7
  6
CONTINUOUS
 70
0
 71
3
 72
29
 73
25
 74
0
 42
0.0000001
 43
0.0000001
 44
0.0000000001
 40
0.0
 40
0.0
 40
0.0
 40
0.0
 40
0.0555613182
 40
0.1114536794
 40
0.1677732981
 40
0.2246337449
 40
0.2533143637
 40
0.2821856459
 40
0.3112645897
 40
0.3405667325
 40
0.3999093774
 40
0.4604052005
 40
0.5222281222
 40
0.5855568594
 40
0.650552791
 40
0.6837236829
 40
0.7173506069
 40
0.751426637
 40
0.7859458779
 40
0.820880588
 40
0.8561967915
 40
0.9277198965
 40
0.9638141742
 40
1.0
 40
1.0
 40
1.0
 40
1.0
 10
5.5106370461
 20
5.5066128712
 30
0.0
 10
5.5112148894
 20
5.5023995964
 30
0.0
 10
5.5126556997
 20
5.4939837623
 30
0.0
 10
5.5156745819
 20
5.4814923299
 30
0.0
 10
5.5195731977
 20
5.469141859
 30
0.0
 10
5.5235656527
 20
5.4590334956
 30
0.0
 10
5.5272203529
 20
5.4510735599
 30
0.0
 10
5.5302068278
 20
5.4451516379
 30
0.0
 10
5.5334355019
 20
5.4393036856
 30
0.0
 10
5.5380899933
 20
5.4315861144
 30
0.0
 10
5.544557739
 20
5.4221639413
 30
0.0
 10
5.5533410748
 20
5.411364619
 30
0.0
 10
5.5632289745
 20
5.40113384
 30
0.0
 10
5.5742594621
 20
5.3916082495
 30
0.0
 10
5.5843590965
 20
5.3844436728
 30
0.0
 10
5.593004748
 20
5.3792391591
 30
0.0
 10
5.5998204332
 20
5.3756036401
 30
0.0
 10
5.606913533
 20
5.3722922733
 30
0.0
 10
5.6142704477
 20
5.3693370896
 30
0.0
 10
5.6218716338
 20
5.3667673146
 30
0.0
 10
5.6323382858
 20
5.3638862629
 30
0.0
 10
5.6431309273
 20
5.3619144693
 30
0.0
 10
5.6540972946
 20
5.3609178084
 30
0.0
 10
5.6596313654
 20
5.3607488849
 30
0.0
 10
5.6624010624
 20
5.3607488655
 30
0.0
  0
SPLINE
  5
3B0
100
AcDbEntity
  8
0
100
AcDbSpline
 62
7
  6
CONTINUOUS
 70
0
 71
3
 72
23
 73
19
 74
0
 42
0.0000001
 43
0.0000001
 44
0.0000000001
 40
0.0
 40
0.0
 40
0.0
 40
0.0
 40
0.0650111413
 40
0.1299369851
 40
0.1946971369
 40
0.2592134267
 40
0.3234159516
 40
0.3872432166
 40
0.4506442174
 40
0.5135799002
 40
0.5760240048
 40
0.637963744
 40
0.6994000845
 40
0.7603478857
 40
0.8208352187
 40
0.8809030998
 40
0.9406032908
 40
1.0
 40
1.0
 40
1.0
 40
1.0
 10
5.6624010624
 20
5.4062190621
 30
0.0
 10
5.6584188441
 20
5.4062190621
 30
0.0
 10
5.6504561797
 20
5.4065276693
 30
0.0
 10
5.6385993426
 20
5.4079126917
 30
0.0
 10
5.6269148327
 20
5.4102085869
 30
0.0
 10
5.6154877831
 20
5.413396914
 30
0.0
 10
5.6043996042
 20
5.4174523103
 30
0.0
 10
5.5937286396
 20
5.4223429829
 30
0.0
 10
5.5835492106
 20
5.4280311511
 30
0.0
 10
5.5739312183
 20
5.4344736301
 30
0.0
 10
5.564939728
 20
5.4416223735
 30
0.0
 10
5.5566346948
 20
5.4494250105
 30
0.0
 10
5.5490707364
 20
5.4578253482
 30
0.0
 10
5.5422969661
 20
5.4667638698
 30
0.0
 10
5.5363568866
 20
5.4761780609
 30
0.0
 10
5.5312882649
 20
5.4860032828
 30
0.0
 10
5.5271233247
 20
5.4961714298
 30
0.0
 10
5.5249612928
 20
5.5031507573
 30
0.0
 10
5.5240406382
 20
5.5066706567
 30
0.0
  0
SPLINE
  5
3B1
100
AcDbEntity
  8
0
100
AcDbSpline
 62
7
  6
CONTINUOUS
 70
0
 71
3
 72
23
 73
19
 74
0
 42
0.0000001
 43
0.0000001
 44
0.0000000001
 40
0.0
 40
0.0
 40
0.0
 40
0.0
 40
0.0593967093
 40
0.1190969005
 40
0.1791647815
 40
0.2396521147
 40
0.3005999163
 40
0.3620362569
 40
0.4239759962
 40
0.4864201008
 40
0.5493557837
 40
0.6127567844
 40
0.6765840492
 40
0.740786574
 40
0.8053028637
 40
0.8700630152
 40
0.9349888589
 40
1.0
 40
1.0
 40
1.0
 40
1.0
 10
5.8007614865
 20
5.5066706567
 30
0.0
 10
5.7998408319
 20
5.5031507573
 30
0.0
 10
5.7976788
 20
5.4961714298
 30
0.0
 10
5.7935138599
 20
5.4860032828
 30
0.0
 10
5.7884452381
 20
5.4761780609
 30
0.0
 10
5.7825051585
 20
5.4667638697
 30
0.0
 10
5.7757313882
 20
5.457825348
 30
0.0
 10
5.7681674298
 20
5.4494250104
 30
0.0
 10
5.7598623966
 20
5.4416223733
 30
0.0
 10
5.7508709063
 20
5.43447363
 30
0.0
 10
5.7412529139
 20
5.428031151
 30
0.0
 10
5.731073485
 20
5.4223429828
 30
0.0
 10
5.7204025204
 20
5.4174523102
 30
0.0
 10
5.7093143415
 20
5.4133969139
 30
0.0
 10
5.6978872919
 20
5.4102085869
 30
0.0
 10
5.686202782
 20
5.4079126917
 30
0.0
 10
5.674345945
 20
5.4065276693
 30
0.0
 10
5.6663832806
 20
5.4062190621
 30
0.0
 10
5.6624010624
 20
5.4062190621
 30
0.0
  0
SPLINE
  5
3B2
100
AcDbEntity
  8
0
100
AcDbSpline
 62
7
  6
CONTINUOUS
 70
0
 71
3
 72
13
 73
9
 74
0
 42
0.0000001
 43
0.0000001
 44
0.0000000001
 40
0.0
 40
0.0
 40
0.0
 40
0.0
 40
0.1974416718
 40
0.4385257456
 40
0.5715398911
 40
0.710714982
 40
0.8542277504
 40
1.0
 40
1.0
 40
1.0
 40
1.0
 10
5.5177773744
 20
5.7525110905
 30
0.0
 10
5.5194739856
 20
5.7564228765
 30
0.0
 10
5.5230026649
 20
5.7652172022
 30
0.0
 10
5.5267548162
 20
5.7769948344
 30
0.0
 10
5.5293172321
 20
5.78778438
 30
0.0
 10
5.5308690131
 20
5.7966328595
 30
0.0
 10
5.5318609145
 20
5.8058393818
 30
0.0
 10
5.5320881068
 20
5.8120890076
 30
0.0
 10
5.5320881068
 20
5.8152370434
 30
0.0
  0
SPLINE
  5
3B3
100
AcDbEntity
  8
0
100
AcDbSpline
 62
7
  6
CONTINUOUS
 70
0
 71
3
 72
8
 73
4
 74
0
 42
0.0000001
 43
0.0000001
 44
0.0000000001
 40
0.0
 40
0.0
 40
0.0
 40
0.0
 40
1.0
 40
1.0
 40
1.0
 40
1.0
 10
5.5095590059
 20
5.7351369654
 30
0.0
 10
5.5095670388
 20
5.7351516857
 30
0.0
 10
5.5095750704
 20
5.7351664066
 30
0.0
 10
5.5095831009
 20
5.7351811282
 30
0.0
  0
SPLINE
  5
3B4
100
AcDbEntity
  8
0
100
AcDbSpline
 62
7
  6
CONTINUOUS
 70
0
 71
3
 72
25
 73
21
 74
0
 42
0.0000001
 43
0.0000001
 44
0.0000000001
 40
0.0
 40
0.0
 40
0.0
 40
0.0
 40
0.0850875198
 40
0.1407338614
 40
0.203371703
 40
0.2718410138
 40
0.345000519
 40
0.3829567402
 40
0.4215835266
 40
0.4606730353
 40
0.4999991966
 40
0.5393253638
 40
0.5784148876
 40
0.617041707
 40
0.6549979889
 40
0.7281576795
 40
0.7966272058
 40
0.8592652792
 40
0.9149118792
 40
1.0
 40
1.0
 40
1.0
 40
1.0
 10
5.512103943
 20
5.7399037417
 30
0.0
 10
5.5141776939
 20
5.7438772698
 30
0.0
 10
5.5174517921
 20
5.7505334494
 30
0.0
 10
5.5217122843
 20
5.760365468
 30
0.0
 10
5.5252056977
 20
5.7695667394
 30
0.0
 10
5.5284333411
 20
5.7798388713
 30
0.0
 10
5.530613379
 20
5.7890555511
 30
0.0
 10
5.5319381161
 20
5.7968337318
 30
0.0
 10
5.5326853111
 20
5.8028833155
 30
0.0
 10
5.5331458184
 20
5.8090339508
 30
0.0
 10
5.533301446
 20
5.8152368321
 30
0.0
 10
5.5331458437
 20
5.8214397149
 30
0.0
 10
5.5326853544
 20
5.8275903545
 30
0.0
 10
5.5319381756
 20
5.833639946
 30
0.0
 10
5.5306134578
 20
5.8414181448
 30
0.0
 10
5.5284334439
 20
5.8506348555
 30
0.0
 10
5.5252058088
 20
5.8609070251
 30
0.0
 10
5.5217123996
 20
5.8701083379
 30
0.0
 10
5.5174518971
 20
5.8799404147
 30
0.0
 10
5.5141777852
 20
5.8865966383
 30
0.0
 10
5.5121040206
 20
5.8905701949
 30
0.0
  0
SPLINE
  5
3B5
100
AcDbEntity
  8
0
100
AcDbSpline
 62
7
  6
CONTINUOUS
 70
0
 71
3
 72
8
 73
4
 74
0
 42
0.0000001
 43
0.0000001
 44
0.0000000001
 40
0.0
 40
0.0
 40
0.0
 40
0.0
 40
1.0
 40
1.0
 40
1.0
 40
1.0
 10
5.5095814193
 20
5.895296042
 30
0.0
 10
5.5095742224
 20
5.8953092352
 30
0.0
 10
5.5095670245
 20
5.8953224279
 30
0.0
 10
5.5095598257
 20
5.89533562
 30
0.0
  0
SPLINE
  5
3B6
100
AcDbEntity
  8
0
100
AcDbSpline
 62
7
  6
CONTINUOUS
 70
0
 71
3
 72
13
 73
9
 74
0
 42
0.0000001
 43
0.0000001
 44
0.0000000001
 40
0.0
 40
0.0
 40
0.0
 40
0.0
 40
0.3052008869
 40
0.586775737
 40
0.7120518797
 40
0.8239152613
 40
0.9203420521
 40
1.0
 40
1.0
 40
1.0
 40
1.0
 10
5.5754766602
 20
7.1038830276
 30
0.0
 10
5.5754766598
 20
7.1034599879
 30
0.0
 10
5.5754876649
 20
7.1026466268
 30
0.0
 10
5.5755309034
 20
7.1016603321
 30
0.0
 10
5.5755871453
 20
7.1009434766
 30
0.0
 10
5.5756367558
 20
7.1004836832
 30
0.0
 10
5.5756955469
 20
7.1000888125
 30
0.0
 10
5.5757451307
 20
7.0998495416
 30
0.0
 10
5.5757729914
 20
7.0997427004
 30
0.0
  0
SPLINE
  5
3B7
100
AcDbEntity
  8
0
100
AcDbSpline
 62
7
  6
CONTINUOUS
 70
0
 71
3
 72
21
 73
17
 74
0
 42
0.0000001
 43
0.0000001
 44
0.0000000001
 40
0.0
 40
0.0
 40
0.0
 40
0.0
 40
0.1900942676
 40
0.3728263474
 40
0.5416555479
 40
0.6899860049
 40
0.7543777111
 40
0.8115393666
 40
0.8612543799
 40
0.903362776
 40
0.9377935627
 40
0.9646676751
 40
0.9754557175
 40
0.9846803411
 40
0.9926747728
 40
1.0
 40
1.0
 40
1.0
 40
1.0
 10
5.575688871
 20
7.0586430276
 30
0.0
 10
5.575688871
 20
7.0584700959
 30
0.0
 10
5.5756930802
 20
7.0581309167
 30
0.0
 10
5.5757113405
 20
7.0576384454
 30
0.0
 10
5.5757409445
 20
7.0571845934
 30
0.0
 10
5.5757759372
 20
7.056839114
 30
0.0
 10
5.5758112811
 20
7.0565961146
 30
0.0
 10
5.5758391665
 20
7.0564427809
 30
0.0
 10
5.575869333
 20
7.0563105974
 30
0.0
 10
5.5759015212
 20
7.0562002212
 30
0.0
 10
5.5759354631
 20
7.056112386
 30
0.0
 10
5.5759669344
 20
7.0560543495
 30
0.0
 10
5.5759939413
 20
7.0560211586
 30
0.0
 10
5.576013219
 20
7.0560042484
 30
0.0
 10
5.5760331975
 20
7.055993692
 30
0.0
 10
5.5760472254
 20
7.0559912638
 30
0.0
 10
5.5760538893
 20
7.0559912697
 30
0.0
  0
SPLINE
  5
3B8
100
AcDbEntity
  8
0
100
AcDbSpline
 62
7
  6
CONTINUOUS
 70
0
 71
3
 72
28
 73
24
 74
0
 42
0.0000001
 43
0.0000001
 44
0.0000000001
 40
0.0
 40
0.0
 40
0.0
 40
0.0
 40
0.0449452317
 40
0.0631302124
 40
0.0785683615
 40
0.0914396203
 40
0.1020641313
 40
0.1110641177
 40
0.119522581
 40
0.1287376817
 40
0.139734098
 40
0.1531163971
 40
0.1692084695
 40
0.1881776088
 40
0.2100925256
 40
0.2626889585
 40
0.3265019942
 40
0.400863992
 40
0.4849216333
 40
0.5773866139
 40
0.6767571574
 40
0.7814821241
 40
1.0
 40
1.0
 40
1.0
 40
1.0
 10
5.5764185293
 20
7.062807483
 30
0.0
 10
5.5763905356
 20
7.0628830378
 30
0.0
 10
5.5763471276
 20
7.0629879708
 30
0.0
 10
5.5762785697
 20
7.0631111833
 30
0.0
 10
5.5762309794
 20
7.0631798343
 30
0.0
 10
5.576183595
 20
7.0632314837
 30
0.0
 10
5.5761360731
 20
7.063266138
 30
0.0
 10
5.5760872676
 20
7.0632825605
 30
0.0
 10
5.5760382286
 20
7.0632779779
 30
0.0
 10
5.5759921345
 20
7.0632529588
 30
0.0
 10
5.5759490785
 20
7.0632101326
 30
0.0
 10
5.5759079868
 20
7.0631499941
 30
0.0
 10
5.5758685533
 20
7.0630724346
 30
0.0
 10
5.5758307368
 20
7.0629774403
 30
0.0
 10
5.5757794328
 20
7.0628178042
 30
0.0
 10
5.5757224341
 20
7.0625761367
 30
0.0
 10
5.5756642664
 20
7.0622390178
 30
0.0
 10
5.5756137156
 20
7.0618437305
 30
0.0
 10
5.5755711351
 20
7.0613959317
 30
0.0
 10
5.5755364835
 20
7.060902509
 30
0.0
 10
5.5755096098
 20
7.0603715108
 30
0.0
 10
5.5754839058
 20
7.0596142984
 30
0.0
 10
5.5754766598
 20
7.0590347681
 30
0.0
 10
5.5754766602
 20
7.0586430276
 30
0.0
  0
SPLINE
  5
3B9
100
AcDbEntity
  8
0
100
AcDbSpline
 62
7
  6
CONTINUOUS
 70
0
 71
3
 72
27
 73
23
 74
0
 42
0.0000001
 43
0.0000001
 44
0.0000000001
 40
0.0
 40
0.0
 40
0.0
 40
0.0
 40
0.2185084749
 40
0.3232265163
 40
0.4225547929
 40
0.5149733798
 40
0.599111303
 40
0.6735947274
 40
0.7374337408
 40
0.7899026594
 40
0.8306073386
 40
0.846656365
 40
0.8600306352
 40
0.871050402
 40
0.8802950713
 40
0.8887608981
 40
0.8977391806
 40
0.9083349315
 40
0.9211968808
 40
0.9366587685
 40
0.9548990753
 40
1.0
 40
1.0
 40
1.0
 40
1.0
 10
5.5754766602
 20
7.0586430276
 30
0.0
 10
5.5754766598
 20
7.0582512695
 30
0.0
 10
5.5754839082
 20
7.0576717173
 30
0.0
 10
5.5755096002
 20
7.0569145432
 30
0.0
 10
5.575536516
 20
7.0563836699
 30
0.0
 10
5.5755712824
 20
7.0558902308
 30
0.0
 10
5.5756137712
 20
7.0554420948
 30
0.0
 10
5.5756642181
 20
7.0550463803
 30
0.0
 10
5.5757222153
 20
7.0547090689
 30
0.0
 10
5.575787334
 20
7.0544350604
 30
0.0
 10
5.5758508824
 20
7.054249041
 30
0.0
 10
5.5759080751
 20
7.0541368063
 30
0.0
 10
5.575949204
 20
7.0540767507
 30
0.0
 10
5.57599223
 20
7.0540337968
 30
0.0
 10
5.5760382329
 20
7.054008437
 30
0.0
 10
5.5760872444
 20
7.0540033253
 30
0.0
 10
5.5761361439
 20
7.05401931
 30
0.0
 10
5.5761837263
 20
7.0540537442
 30
0.0
 10
5.5762311177
 20
7.0541053712
 30
0.0
 10
5.576278686
 20
7.0541742034
 30
0.0
 10
5.5763471986
 20
7.0542979382
 30
0.0
 10
5.5763905456
 20
7.0544033139
 30
0.0
 10
5.5764185329
 20
7.0544791763
 30
0.0
  0
SPLINE
  5
3BA
100
AcDbEntity
  8
0
100
AcDbSpline
 62
7
  6
CONTINUOUS
 70
0
 71
3
 72
21
 73
17
 74
0
 42
0.0000001
 43
0.0000001
 44
0.0000000001
 40
0.0
 40
0.0
 40
0.0
 40
0.0
 40
0.1900942676
 40
0.3728263474
 40
0.5416555479
 40
0.6899860049
 40
0.7543777111
 40
0.8115393666
 40
0.8612543799
 40
0.903362776
 40
0.9377935627
 40
0.9646676751
 40
0.9754557174
 40
0.9846803411
 40
0.9926747728
 40
1.0
 40
1.0
 40
1.0
 40
1.0
 10
5.575688871
 20
7.0134030276
 30
0.0
 10
5.575688871
 20
7.0132300959
 30
0.0
 10
5.5756930802
 20
7.0128909167
 30
0.0
 10
5.5757113405
 20
7.0123984454
 30
0.0
 10
5.5757409445
 20
7.0119445934
 30
0.0
 10
5.5757759372
 20
7.011599114
 30
0.0
 10
5.5758112811
 20
7.0113561146
 30
0.0
 10
5.5758391665
 20
7.0112027809
 30
0.0
 10
5.575869333
 20
7.0110705974
 30
0.0
 10
5.5759015212
 20
7.0109602212
 30
0.0
 10
5.5759354631
 20
7.010872386
 30
0.0
 10
5.5759669344
 20
7.0108143495
 30
0.0
 10
5.5759939413
 20
7.0107811586
 30
0.0
 10
5.576013219
 20
7.0107642484
 30
0.0
 10
5.5760331975
 20
7.010753692
 30
0.0
 10
5.5760472254
 20
7.0107512638
 30
0.0
 10
5.5760538893
 20
7.0107512697
 30
0.0
  0
SPLINE
  5
3BB
100
AcDbEntity
  8
0
100
AcDbSpline
 62
7
  6
CONTINUOUS
 70
0
 71
3
 72
28
 73
24
 74
0
 42
0.0000001
 43
0.0000001
 44
0.0000000001
 40
0.0
 40
0.0
 40
0.0
 40
0.0
 40
0.0449452317
 40
0.0631302124
 40
0.0785683615
 40
0.0914396203
 40
0.1020641313
 40
0.1110641177
 40
0.119522581
 40
0.1287376817
 40
0.139734098
 40
0.1531163971
 40
0.1692084695
 40
0.1881776088
 40
0.2100925256
 40
0.2626889585
 40
0.3265019942
 40
0.400863992
 40
0.4849216333
 40
0.5773866139
 40
0.6767571574
 40
0.7814821241
 40
1.0
 40
1.0
 40
1.0
 40
1.0
 10
5.5764185293
 20
7.017567483
 30
0.0
 10
5.5763905356
 20
7.0176430378
 30
0.0
 10
5.5763471276
 20
7.0177479708
 30
0.0
 10
5.5762785697
 20
7.0178711833
 30
0.0
 10
5.5762309794
 20
7.0179398343
 30
0.0
 10
5.576183595
 20
7.0179914837
 30
0.0
 10
5.5761360731
 20
7.018026138
 30
0.0
 10
5.5760872676
 20
7.0180425605
 30
0.0
 10
5.5760382286
 20
7.0180379779
 30
0.0
 10
5.5759921345
 20
7.0180129588
 30
0.0
 10
5.5759490785
 20
7.0179701326
 30
0.0
 10
5.5759079868
 20
7.0179099941
 30
0.0
 10
5.5758685533
 20
7.0178324346
 30
0.0
 10
5.5758307368
 20
7.0177374403
 30
0.0
 10
5.5757794328
 20
7.0175778042
 30
0.0
 10
5.5757224341
 20
7.0173361367
 30
0.0
 10
5.5756642664
 20
7.0169990178
 30
0.0
 10
5.5756137156
 20
7.0166037305
 30
0.0
 10
5.5755711351
 20
7.0161559317
 30
0.0
 10
5.5755364835
 20
7.015662509
 30
0.0
 10
5.5755096098
 20
7.0151315108
 30
0.0
 10
5.5754839058
 20
7.0143742984
 30
0.0
 10
5.5754766598
 20
7.0137947681
 30
0.0
 10
5.5754766602
 20
7.0134030276
 30
0.0
  0
SPLINE
  5
3BC
100
AcDbEntity
  8
0
100
AcDbSpline
 62
7
  6
CONTINUOUS
 70
0
 71
3
 72
27
 73
23
 74
0
 42
0.0000001
 43
0.0000001
 44
0.0000000001
 40
0.0
 40
0.0
 40
0.0
 40
0.0
 40
0.2185084749
 40
0.3232265163
 40
0.4225547929
 40
0.5149733798
 40
0.599111303
 40
0.6735947274
 40
0.7374337408
 40
0.7899026594
 40
0.8306073386
 40
0.846656365
 40
0.8600306352
 40
0.871050402
 40
0.8802950713
 40
0.8887608981
 40
0.8977391806
 40
0.9083349315
 40
0.9211968808
 40
0.9366587685
 40
0.9548990753
 40
1.0
 40
1.0
 40
1.0
 40
1.0
 10
5.5754766602
 20
7.0134030276
 30
0.0
 10
5.5754766598
 20
7.0130112695
 30
0.0
 10
5.5754839082
 20
7.0124317173
 30
0.0
 10
5.5755096002
 20
7.0116745432
 30
0.0
 10
5.575536516
 20
7.0111436699
 30
0.0
 10
5.5755712824
 20
7.0106502308
 30
0.0
 10
5.5756137712
 20
7.0102020948
 30
0.0
 10
5.5756642181
 20
7.0098063803
 30
0.0
 10
5.5757222153
 20
7.0094690689
 30
0.0
 10
5.575787334
 20
7.0091950604
 30
0.0
 10
5.5758508824
 20
7.009009041
 30
0.0
 10
5.5759080751
 20
7.0088968063
 30
0.0
 10
5.575949204
 20
7.0088367507
 30
0.0
 10
5.57599223
 20
7.0087937968
 30
0.0
 10
5.5760382329
 20
7.008768437
 30
0.0
 10
5.5760872444
 20
7.0087633253
 30
0.0
 10
5.5761361439
 20
7.00877931
 30
0.0
 10
5.5761837263
 20
7.0088137442
 30
0.0
 10
5.5762311177
 20
7.0088653712
 30
0.0
 10
5.576278686
 20
7.0089342034
 30
0.0
 10
5.5763471986
 20
7.0090579382
 30
0.0
 10
5.5763905456
 20
7.0091633139
 30
0.0
 10
5.5764185329
 20
7.0092391763
 30
0.0
  0
SPLINE
  5
3BD
100
AcDbEntity
  8
0
100
AcDbSpline
 62
7
  6
CONTINUOUS
 70
0
 71
3
 72
21
 73
17
 74
0
 42
0.0000001
 43
0.0000001
 44
0.0000000001
 40
0.0
 40
0.0
 40
0.0
 40
0.0
 40
0.1900942676
 40
0.3728263474
 40
0.5416555479
 40
0.6899860049
 40
0.7543777111
 40
0.8115393666
 40
0.8612543799
 40
0.903362776
 40
0.9377935627
 40
0.9646676751
 40
0.9754557174
 40
0.9846803411
 40
0.9926747728
 40
1.0
 40
1.0
 40
1.0
 40
1.0
 10
5.575688871
 20
6.9681630276
 30
0.0
 10
5.575688871
 20
6.9679900959
 30
0.0
 10
5.5756930802
 20
6.9676509167
 30
0.0
 10
5.5757113405
 20
6.9671584454
 30
0.0
 10
5.5757409445
 20
6.9667045934
 30
0.0
 10
5.5757759372
 20
6.966359114
 30
0.0
 10
5.5758112811
 20
6.9661161146
 30
0.0
 10
5.5758391665
 20
6.9659627809
 30
0.0
 10
5.575869333
 20
6.9658305974
 30
0.0
 10
5.5759015212
 20
6.9657202212
 30
0.0
 10
5.5759354631
 20
6.965632386
 30
0.0
 10
5.5759669344
 20
6.9655743495
 30
0.0
 10
5.5759939413
 20
6.9655411586
 30
0.0
 10
5.576013219
 20
6.9655242484
 30
0.0
 10
5.5760331975
 20
6.965513692
 30
0.0
 10
5.5760472254
 20
6.9655112638
 30
0.0
 10
5.5760538893
 20
6.9655112697
 30
0.0
  0
SPLINE
  5
3BE
100
AcDbEntity
  8
0
100
AcDbSpline
 62
7
  6
CONTINUOUS
 70
0
 71
3
 72
28
 73
24
 74
0
 42
0.0000001
 43
0.0000001
 44
0.0000000001
 40
0.0
 40
0.0
 40
0.0
 40
0.0
 40
0.0449452317
 40
0.0631302124
 40
0.0785683615
 40
0.0914396203
 40
0.1020641313
 40
0.1110641177
 40
0.119522581
 40
0.1287376817
 40
0.139734098
 40
0.1531163971
 40
0.1692084695
 40
0.1881776088
 40
0.2100925256
 40
0.2626889585
 40
0.3265019942
 40
0.400863992
 40
0.4849216333
 40
0.5773866139
 40
0.6767571574
 40
0.7814821241
 40
1.0
 40
1.0
 40
1.0
 40
1.0
 10
5.5764185293
 20
6.972327483
 30
0.0
 10
5.5763905356
 20
6.9724030378
 30
0.0
 10
5.5763471276
 20
6.9725079708
 30
0.0
 10
5.5762785697
 20
6.9726311833
 30
0.0
 10
5.5762309794
 20
6.9726998343
 30
0.0
 10
5.576183595
 20
6.9727514837
 30
0.0
 10
5.5761360731
 20
6.972786138
 30
0.0
 10
5.5760872676
 20
6.9728025605
 30
0.0
 10
5.5760382286
 20
6.9727979779
 30
0.0
 10
5.5759921345
 20
6.9727729588
 30
0.0
 10
5.5759490785
 20
6.9727301326
 30
0.0
 10
5.5759079868
 20
6.9726699941
 30
0.0
 10
5.5758685533
 20
6.9725924346
 30
0.0
 10
5.5758307368
 20
6.9724974403
 30
0.0
 10
5.5757794328
 20
6.9723378042
 30
0.0
 10
5.5757224341
 20
6.9720961367
 30
0.0
 10
5.5756642664
 20
6.9717590178
 30
0.0
 10
5.5756137156
 20
6.9713637305
 30
0.0
 10
5.5755711351
 20
6.9709159317
 30
0.0
 10
5.5755364835
 20
6.970422509
 30
0.0
 10
5.5755096098
 20
6.9698915108
 30
0.0
 10
5.5754839058
 20
6.9691342984
 30
0.0
 10
5.5754766598
 20
6.9685547681
 30
0.0
 10
5.5754766602
 20
6.9681630276
 30
0.0
  0
SPLINE
  5
3BF
100
AcDbEntity
  8
0
100
AcDbSpline
 62
7
  6
CONTINUOUS
 70
0
 71
3
 72
27
 73
23
 74
0
 42
0.0000001
 43
0.0000001
 44
0.0000000001
 40
0.0
 40
0.0
 40
0.0
 40
0.0
 40
0.2185084749
 40
0.3232265163
 40
0.4225547929
 40
0.5149733798
 40
0.599111303
 40
0.6735947274
 40
0.7374337408
 40
0.7899026594
 40
0.8306073386
 40
0.846656365
 40
0.8600306352
 40
0.871050402
 40
0.8802950713
 40
0.8887608981
 40
0.8977391806
 40
0.9083349315
 40
0.9211968808
 40
0.9366587685
 40
0.9548990753
 40
1.0
 40
1.0
 40
1.0
 40
1.0
 10
5.5754766602
 20
6.9681630276
 30
0.0
 10
5.5754766598
 20
6.9677712695
 30
0.0
 10
5.5754839082
 20
6.9671917173
 30
0.0
 10
5.5755096002
 20
6.9664345432
 30
0.0
 10
5.575536516
 20
6.9659036699
 30
0.0
 10
5.5755712824
 20
6.9654102308
 30
0.0
 10
5.5756137712
 20
6.9649620948
 30
0.0
 10
5.5756642181
 20
6.9645663803
 30
0.0
 10
5.5757222153
 20
6.9642290689
 30
0.0
 10
5.575787334
 20
6.9639550604
 30
0.0
 10
5.5758508824
 20
6.963769041
 30
0.0
 10
5.5759080751
 20
6.9636568063
 30
0.0
 10
5.575949204
 20
6.9635967507
 30
0.0
 10
5.57599223
 20
6.9635537968
 30
0.0
 10
5.5760382329
 20
6.963528437
 30
0.0
 10
5.5760872444
 20
6.9635233253
 30
0.0
 10
5.5761361439
 20
6.96353931
 30
0.0
 10
5.5761837263
 20
6.9635737442
 30
0.0
 10
5.5762311177
 20
6.9636253712
 30
0.0
 10
5.576278686
 20
6.9636942034
 30
0.0
 10
5.5763471986
 20
6.9638179382
 30
0.0
 10
5.5763905456
 20
6.9639233139
 30
0.0
 10
5.5764185329
 20
6.9639991763
 30
0.0
  0
SPLINE
  5
3C0
100
AcDbEntity
  8
0
100
AcDbSpline
 62
7
  6
CONTINUOUS
 70
0
 71
3
 72
21
 73
17
 74
0
 42
0.0000001
 43
0.0000001
 44
0.0000000001
 40
0.0
 40
0.0
 40
0.0
 40
0.0
 40
0.1900942676
 40
0.3728263474
 40
0.5416555479
 40
0.6899860049
 40
0.7543777111
 40
0.8115393666
 40
0.8612543799
 40
0.903362776
 40
0.9377935627
 40
0.9646676751
 40
0.9754557174
 40
0.9846803411
 40
0.9926747728
 40
1.0
 40
1.0
 40
1.0
 40
1.0
 10
5.575688871
 20
6.9229230276
 30
0.0
 10
5.575688871
 20
6.9227500959
 30
0.0
 10
5.5756930802
 20
6.9224109167
 30
0.0
 10
5.5757113405
 20
6.9219184454
 30
0.0
 10
5.5757409445
 20
6.9214645934
 30
0.0
 10
5.5757759372
 20
6.921119114
 30
0.0
 10
5.5758112811
 20
6.9208761146
 30
0.0
 10
5.5758391665
 20
6.9207227809
 30
0.0
 10
5.575869333
 20
6.9205905974
 30
0.0
 10
5.5759015212
 20
6.9204802212
 30
0.0
 10
5.5759354631
 20
6.920392386
 30
0.0
 10
5.5759669344
 20
6.9203343495
 30
0.0
 10
5.5759939413
 20
6.9203011586
 30
0.0
 10
5.576013219
 20
6.9202842484
 30
0.0
 10
5.5760331975
 20
6.920273692
 30
0.0
 10
5.5760472254
 20
6.9202712638
 30
0.0
 10
5.5760538893
 20
6.9202712697
 30
0.0
  0
SPLINE
  5
3C1
100
AcDbEntity
  8
0
100
AcDbSpline
 62
7
  6
CONTINUOUS
 70
0
 71
3
 72
28
 73
24
 74
0
 42
0.0000001
 43
0.0000001
 44
0.0000000001
 40
0.0
 40
0.0
 40
0.0
 40
0.0
 40
0.0449452317
 40
0.0631302124
 40
0.0785683615
 40
0.0914396203
 40
0.1020641313
 40
0.1110641177
 40
0.119522581
 40
0.1287376817
 40
0.139734098
 40
0.1531163971
 40
0.1692084695
 40
0.1881776088
 40
0.2100925256
 40
0.2626889585
 40
0.3265019942
 40
0.400863992
 40
0.4849216333
 40
0.5773866139
 40
0.6767571574
 40
0.7814821241
 40
1.0
 40
1.0
 40
1.0
 40
1.0
 10
5.5764185293
 20
6.927087483
 30
0.0
 10
5.5763905356
 20
6.9271630378
 30
0.0
 10
5.5763471276
 20
6.9272679708
 30
0.0
 10
5.5762785697
 20
6.9273911833
 30
0.0
 10
5.5762309794
 20
6.9274598343
 30
0.0
 10
5.576183595
 20
6.9275114837
 30
0.0
 10
5.5761360731
 20
6.927546138
 30
0.0
 10
5.5760872676
 20
6.9275625605
 30
0.0
 10
5.5760382286
 20
6.9275579779
 30
0.0
 10
5.5759921345
 20
6.9275329588
 30
0.0
 10
5.5759490785
 20
6.9274901326
 30
0.0
 10
5.5759079868
 20
6.9274299941
 30
0.0
 10
5.5758685533
 20
6.9273524346
 30
0.0
 10
5.5758307368
 20
6.9272574403
 30
0.0
 10
5.5757794328
 20
6.9270978042
 30
0.0
 10
5.5757224341
 20
6.9268561367
 30
0.0
 10
5.5756642664
 20
6.9265190178
 30
0.0
 10
5.5756137156
 20
6.9261237305
 30
0.0
 10
5.5755711351
 20
6.9256759317
 30
0.0
 10
5.5755364835
 20
6.925182509
 30
0.0
 10
5.5755096098
 20
6.9246515108
 30
0.0
 10
5.5754839058
 20
6.9238942984
 30
0.0
 10
5.5754766598
 20
6.9233147681
 30
0.0
 10
5.5754766602
 20
6.9229230276
 30
0.0
  0
SPLINE
  5
3C2
100
AcDbEntity
  8
0
100
AcDbSpline
 62
7
  6
CONTINUOUS
 70
0
 71
3
 72
27
 73
23
 74
0
 42
0.0000001
 43
0.0000001
 44
0.0000000001
 40
0.0
 40
0.0
 40
0.0
 40
0.0
 40
0.2185084749
 40
0.3232265163
 40
0.4225547929
 40
0.5149733798
 40
0.599111303
 40
0.6735947274
 40
0.7374337408
 40
0.7899026594
 40
0.8306073386
 40
0.846656365
 40
0.8600306352
 40
0.871050402
 40
0.8802950713
 40
0.8887608981
 40
0.8977391806
 40
0.9083349315
 40
0.9211968808
 40
0.9366587685
 40
0.9548990753
 40
1.0
 40
1.0
 40
1.0
 40
1.0
 10
5.5754766602
 20
6.9229230276
 30
0.0
 10
5.5754766598
 20
6.9225312695
 30
0.0
 10
5.5754839082
 20
6.9219517173
 30
0.0
 10
5.5755096002
 20
6.9211945432
 30
0.0
 10
5.575536516
 20
6.9206636699
 30
0.0
 10
5.5755712824
 20
6.9201702308
 30
0.0
 10
5.5756137712
 20
6.9197220948
 30
0.0
 10
5.5756642181
 20
6.9193263803
 30
0.0
 10
5.5757222153
 20
6.9189890689
 30
0.0
 10
5.575787334
 20
6.9187150604
 30
0.0
 10
5.5758508824
 20
6.918529041
 30
0.0
 10
5.5759080751
 20
6.9184168063
 30
0.0
 10
5.575949204
 20
6.9183567507
 30
0.0
 10
5.57599223
 20
6.9183137968
 30
0.0
 10
5.5760382329
 20
6.918288437
 30
0.0
 10
5.5760872444
 20
6.9182833253
 30
0.0
 10
5.5761361439
 20
6.91829931
 30
0.0
 10
5.5761837263
 20
6.9183337442
 30
0.0
 10
5.5762311177
 20
6.9183853712
 30
0.0
 10
5.576278686
 20
6.9184542034
 30
0.0
 10
5.5763471986
 20
6.9185779382
 30
0.0
 10
5.5763905456
 20
6.9186833139
 30
0.0
 10
5.5764185329
 20
6.9187591763
 30
0.0
  0
SPLINE
  5
3C3
100
AcDbEntity
  8
0
100
AcDbSpline
 62
7
  6
CONTINUOUS
 70
0
 71
3
 72
21
 73
17
 74
0
 42
0.0000001
 43
0.0000001
 44
0.0000000001
 40
0.0
 40
0.0
 40
0.0
 40
0.0
 40
0.1900942676
 40
0.3728263474
 40
0.5416555479
 40
0.6899860049
 40
0.7543777111
 40
0.8115393666
 40
0.8612543799
 40
0.903362776
 40
0.9377935627
 40
0.9646676751
 40
0.9754557175
 40
0.9846803411
 40
0.9926747728
 40
1.0
 40
1.0
 40
1.0
 40
1.0
 10
5.575688871
 20
6.8776830276
 30
0.0
 10
5.575688871
 20
6.8775100959
 30
0.0
 10
5.5756930802
 20
6.8771709167
 30
0.0
 10
5.5757113405
 20
6.8766784454
 30
0.0
 10
5.5757409445
 20
6.8762245934
 30
0.0
 10
5.5757759372
 20
6.875879114
 30
0.0
 10
5.5758112811
 20
6.8756361146
 30
0.0
 10
5.5758391665
 20
6.8754827809
 30
0.0
 10
5.575869333
 20
6.8753505974
 30
0.0
 10
5.5759015212
 20
6.8752402212
 30
0.0
 10
5.5759354631
 20
6.875152386
 30
0.0
 10
5.5759669344
 20
6.8750943495
 30
0.0
 10
5.5759939413
 20
6.8750611586
 30
0.0
 10
5.576013219
 20
6.8750442484
 30
0.0
 10
5.5760331975
 20
6.875033692
 30
0.0
 10
5.5760472254
 20
6.8750312638
 30
0.0
 10
5.5760538893
 20
6.8750312697
 30
0.0
  0
SPLINE
  5
3C4
100
AcDbEntity
  8
0
100
AcDbSpline
 62
7
  6
CONTINUOUS
 70
0
 71
3
 72
28
 73
24
 74
0
 42
0.0000001
 43
0.0000001
 44
0.0000000001
 40
0.0
 40
0.0
 40
0.0
 40
0.0
 40
0.0449452317
 40
0.0631302124
 40
0.0785683615
 40
0.0914396203
 40
0.1020641313
 40
0.1110641177
 40
0.119522581
 40
0.1287376817
 40
0.139734098
 40
0.1531163971
 40
0.1692084695
 40
0.1881776088
 40
0.2100925256
 40
0.2626889585
 40
0.3265019942
 40
0.400863992
 40
0.4849216333
 40
0.5773866139
 40
0.6767571574
 40
0.7814821241
 40
1.0
 40
1.0
 40
1.0
 40
1.0
 10
5.5764185293
 20
6.881847483
 30
0.0
 10
5.5763905356
 20
6.8819230378
 30
0.0
 10
5.5763471276
 20
6.8820279708
 30
0.0
 10
5.5762785697
 20
6.8821511833
 30
0.0
 10
5.5762309794
 20
6.8822198343
 30
0.0
 10
5.576183595
 20
6.8822714837
 30
0.0
 10
5.5761360731
 20
6.882306138
 30
0.0
 10
5.5760872676
 20
6.8823225605
 30
0.0
 10
5.5760382286
 20
6.8823179779
 30
0.0
 10
5.5759921345
 20
6.8822929588
 30
0.0
 10
5.5759490785
 20
6.8822501326
 30
0.0
 10
5.5759079868
 20
6.8821899941
 30
0.0
 10
5.5758685533
 20
6.8821124346
 30
0.0
 10
5.5758307368
 20
6.8820174403
 30
0.0
 10
5.5757794328
 20
6.8818578042
 30
0.0
 10
5.5757224341
 20
6.8816161367
 30
0.0
 10
5.5756642664
 20
6.8812790178
 30
0.0
 10
5.5756137156
 20
6.8808837305
 30
0.0
 10
5.5755711351
 20
6.8804359317
 30
0.0
 10
5.5755364835
 20
6.879942509
 30
0.0
 10
5.5755096098
 20
6.8794115108
 30
0.0
 10
5.5754839058
 20
6.8786542984
 30
0.0
 10
5.5754766598
 20
6.8780747681
 30
0.0
 10
5.5754766602
 20
6.8776830276
 30
0.0
  0
SPLINE
  5
3C5
100
AcDbEntity
  8
0
100
AcDbSpline
 62
7
  6
CONTINUOUS
 70
0
 71
3
 72
27
 73
23
 74
0
 42
0.0000001
 43
0.0000001
 44
0.0000000001
 40
0.0
 40
0.0
 40
0.0
 40
0.0
 40
0.2185084749
 40
0.3232265163
 40
0.4225547929
 40
0.5149733798
 40
0.599111303
 40
0.6735947274
 40
0.7374337408
 40
0.7899026594
 40
0.8306073386
 40
0.846656365
 40
0.8600306352
 40
0.871050402
 40
0.8802950713
 40
0.8887608981
 40
0.8977391806
 40
0.9083349315
 40
0.9211968808
 40
0.9366587685
 40
0.9548990753
 40
1.0
 40
1.0
 40
1.0
 40
1.0
 10
5.5754766602
 20
6.8776830276
 30
0.0
 10
5.5754766598
 20
6.8772912695
 30
0.0
 10
5.5754839082
 20
6.8767117173
 30
0.0
 10
5.5755096002
 20
6.8759545432
 30
0.0
 10
5.575536516
 20
6.8754236699
 30
0.0
 10
5.5755712824
 20
6.8749302308
 30
0.0
 10
5.5756137712
 20
6.8744820948
 30
0.0
 10
5.5756642181
 20
6.8740863803
 30
0.0
 10
5.5757222153
 20
6.8737490689
 30
0.0
 10
5.575787334
 20
6.8734750604
 30
0.0
 10
5.5758508824
 20
6.873289041
 30
0.0
 10
5.5759080751
 20
6.8731768063
 30
0.0
 10
5.575949204
 20
6.8731167507
 30
0.0
 10
5.57599223
 20
6.8730737968
 30
0.0
 10
5.5760382329
 20
6.873048437
 30
0.0
 10
5.5760872444
 20
6.8730433253
 30
0.0
 10
5.5761361439
 20
6.87305931
 30
0.0
 10
5.5761837263
 20
6.8730937442
 30
0.0
 10
5.5762311177
 20
6.8731453712
 30
0.0
 10
5.576278686
 20
6.8732142034
 30
0.0
 10
5.5763471986
 20
6.8733379382
 30
0.0
 10
5.5763905456
 20
6.8734433139
 30
0.0
 10
5.5764185329
 20
6.8735191763
 30
0.0
  0
SPLINE
  5
3C6
100
AcDbEntity
  8
0
100
AcDbSpline
 62
7
  6
CONTINUOUS
 70
0
 71
3
 72
21
 73
17
 74
0
 42
0.0000001
 43
0.0000001
 44
0.0000000001
 40
0.0
 40
0.0
 40
0.0
 40
0.0
 40
0.1900942676
 40
0.3728263474
 40
0.5416555479
 40
0.6899860049
 40
0.7543777111
 40
0.8115393666
 40
0.8612543799
 40
0.903362776
 40
0.9377935627
 40
0.9646676751
 40
0.9754557175
 40
0.9846803411
 40
0.9926747728
 40
1.0
 40
1.0
 40
1.0
 40
1.0
 10
5.575688871
 20
6.8324430276
 30
0.0
 10
5.575688871
 20
6.8322700959
 30
0.0
 10
5.5756930802
 20
6.8319309167
 30
0.0
 10
5.5757113405
 20
6.8314384454
 30
0.0
 10
5.5757409445
 20
6.8309845934
 30
0.0
 10
5.5757759372
 20
6.830639114
 30
0.0
 10
5.5758112811
 20
6.8303961146
 30
0.0
 10
5.5758391665
 20
6.8302427809
 30
0.0
 10
5.575869333
 20
6.8301105974
 30
0.0
 10
5.5759015212
 20
6.8300002212
 30
0.0
 10
5.5759354631
 20
6.829912386
 30
0.0
 10
5.5759669344
 20
6.8298543495
 30
0.0
 10
5.5759939413
 20
6.8298211586
 30
0.0
 10
5.576013219
 20
6.8298042484
 30
0.0
 10
5.5760331975
 20
6.829793692
 30
0.0
 10
5.5760472254
 20
6.8297912638
 30
0.0
 10
5.5760538893
 20
6.8297912697
 30
0.0
  0
SPLINE
  5
3C7
100
AcDbEntity
  8
0
100
AcDbSpline
 62
7
  6
CONTINUOUS
 70
0
 71
3
 72
28
 73
24
 74
0
 42
0.0000001
 43
0.0000001
 44
0.0000000001
 40
0.0
 40
0.0
 40
0.0
 40
0.0
 40
0.0449452317
 40
0.0631302124
 40
0.0785683615
 40
0.0914396203
 40
0.1020641313
 40
0.1110641177
 40
0.119522581
 40
0.1287376817
 40
0.1397340979
 40
0.1531163971
 40
0.1692084695
 40
0.1881776088
 40
0.2100925256
 40
0.2626889585
 40
0.3265019942
 40
0.400863992
 40
0.4849216333
 40
0.5773866139
 40
0.6767571574
 40
0.7814821241
 40
1.0
 40
1.0
 40
1.0
 40
1.0
 10
5.5764185293
 20
6.836607483
 30
0.0
 10
5.5763905356
 20
6.8366830378
 30
0.0
 10
5.5763471276
 20
6.8367879708
 30
0.0
 10
5.5762785697
 20
6.8369111833
 30
0.0
 10
5.5762309794
 20
6.8369798343
 30
0.0
 10
5.576183595
 20
6.8370314837
 30
0.0
 10
5.5761360731
 20
6.837066138
 30
0.0
 10
5.5760872676
 20
6.8370825605
 30
0.0
 10
5.5760382286
 20
6.8370779779
 30
0.0
 10
5.5759921345
 20
6.8370529588
 30
0.0
 10
5.5759490785
 20
6.8370101326
 30
0.0
 10
5.5759079868
 20
6.8369499941
 30
0.0
 10
5.5758685533
 20
6.8368724346
 30
0.0
 10
5.5758307368
 20
6.8367774403
 30
0.0
 10
5.5757794328
 20
6.8366178042
 30
0.0
 10
5.5757224341
 20
6.8363761367
 30
0.0
 10
5.5756642664
 20
6.8360390178
 30
0.0
 10
5.5756137156
 20
6.8356437305
 30
0.0
 10
5.5755711351
 20
6.8351959317
 30
0.0
 10
5.5755364835
 20
6.834702509
 30
0.0
 10
5.5755096098
 20
6.8341715108
 30
0.0
 10
5.5754839058
 20
6.8334142984
 30
0.0
 10
5.5754766598
 20
6.8328347681
 30
0.0
 10
5.5754766602
 20
6.8324430276
 30
0.0
  0
SPLINE
  5
3C8
100
AcDbEntity
  8
0
100
AcDbSpline
 62
7
  6
CONTINUOUS
 70
0
 71
3
 72
27
 73
23
 74
0
 42
0.0000001
 43
0.0000001
 44
0.0000000001
 40
0.0
 40
0.0
 40
0.0
 40
0.0
 40
0.2185084749
 40
0.3232265163
 40
0.4225547929
 40
0.5149733798
 40
0.599111303
 40
0.6735947274
 40
0.7374337408
 40
0.7899026594
 40
0.8306073386
 40
0.846656365
 40
0.8600306352
 40
0.871050402
 40
0.8802950713
 40
0.8887608981
 40
0.8977391806
 40
0.9083349315
 40
0.9211968808
 40
0.9366587685
 40
0.9548990753
 40
1.0
 40
1.0
 40
1.0
 40
1.0
 10
5.5754766602
 20
6.8324430276
 30
0.0
 10
5.5754766598
 20
6.8320512695
 30
0.0
 10
5.5754839082
 20
6.8314717173
 30
0.0
 10
5.5755096002
 20
6.8307145432
 30
0.0
 10
5.575536516
 20
6.8301836699
 30
0.0
 10
5.5755712824
 20
6.8296902308
 30
0.0
 10
5.5756137712
 20
6.8292420948
 30
0.0
 10
5.5756642181
 20
6.8288463803
 30
0.0
 10
5.5757222153
 20
6.8285090689
 30
0.0
 10
5.575787334
 20
6.8282350604
 30
0.0
 10
5.5758508824
 20
6.828049041
 30
0.0
 10
5.5759080751
 20
6.8279368063
 30
0.0
 10
5.575949204
 20
6.8278767507
 30
0.0
 10
5.57599223
 20
6.8278337968
 30
0.0
 10
5.5760382329
 20
6.827808437
 30
0.0
 10
5.5760872444
 20
6.8278033253
 30
0.0
 10
5.5761361439
 20
6.82781931
 30
0.0
 10
5.5761837263
 20
6.8278537442
 30
0.0
 10
5.5762311177
 20
6.8279053712
 30
0.0
 10
5.576278686
 20
6.8279742034
 30
0.0
 10
5.5763471986
 20
6.8280979382
 30
0.0
 10
5.5763905456
 20
6.8282033139
 30
0.0
 10
5.5764185329
 20
6.8282791763
 30
0.0
  0
SPLINE
  5
3C9
100
AcDbEntity
  8
0
100
AcDbSpline
 62
7
  6
CONTINUOUS
 70
0
 71
3
 72
21
 73
17
 74
0
 42
0.0000001
 43
0.0000001
 44
0.0000000001
 40
0.0
 40
0.0
 40
0.0
 40
0.0
 40
0.1900942676
 40
0.3728263474
 40
0.5416555479
 40
0.6899860049
 40
0.7543777111
 40
0.8115393666
 40
0.8612543799
 40
0.903362776
 40
0.9377935627
 40
0.9646676751
 40
0.9754557175
 40
0.9846803411
 40
0.9926747728
 40
1.0
 40
1.0
 40
1.0
 40
1.0
 10
5.575688871
 20
6.7872030276
 30
0.0
 10
5.575688871
 20
6.7870300959
 30
0.0
 10
5.5756930802
 20
6.7866909167
 30
0.0
 10
5.5757113405
 20
6.7861984454
 30
0.0
 10
5.5757409445
 20
6.7857445934
 30
0.0
 10
5.5757759372
 20
6.785399114
 30
0.0
 10
5.5758112811
 20
6.7851561146
 30
0.0
 10
5.5758391665
 20
6.7850027809
 30
0.0
 10
5.575869333
 20
6.7848705974
 30
0.0
 10
5.5759015212
 20
6.7847602212
 30
0.0
 10
5.5759354631
 20
6.784672386
 30
0.0
 10
5.5759669344
 20
6.7846143495
 30
0.0
 10
5.5759939413
 20
6.7845811586
 30
0.0
 10
5.576013219
 20
6.7845642484
 30
0.0
 10
5.5760331975
 20
6.784553692
 30
0.0
 10
5.5760472254
 20
6.7845512638
 30
0.0
 10
5.5760538893
 20
6.7845512697
 30
0.0
  0
SPLINE
  5
3CA
100
AcDbEntity
  8
0
100
AcDbSpline
 62
7
  6
CONTINUOUS
 70
0
 71
3
 72
28
 73
24
 74
0
 42
0.0000001
 43
0.0000001
 44
0.0000000001
 40
0.0
 40
0.0
 40
0.0
 40
0.0
 40
0.0449452317
 40
0.0631302124
 40
0.0785683615
 40
0.0914396203
 40
0.1020641313
 40
0.1110641177
 40
0.119522581
 40
0.1287376817
 40
0.1397340979
 40
0.1531163971
 40
0.1692084695
 40
0.1881776088
 40
0.2100925256
 40
0.2626889585
 40
0.3265019942
 40
0.400863992
 40
0.4849216333
 40
0.5773866139
 40
0.6767571574
 40
0.7814821241
 40
1.0
 40
1.0
 40
1.0
 40
1.0
 10
5.5764185293
 20
6.791367483
 30
0.0
 10
5.5763905356
 20
6.7914430378
 30
0.0
 10
5.5763471276
 20
6.7915479708
 30
0.0
 10
5.5762785697
 20
6.7916711833
 30
0.0
 10
5.5762309794
 20
6.7917398343
 30
0.0
 10
5.576183595
 20
6.7917914837
 30
0.0
 10
5.5761360731
 20
6.791826138
 30
0.0
 10
5.5760872676
 20
6.7918425605
 30
0.0
 10
5.5760382286
 20
6.7918379779
 30
0.0
 10
5.5759921345
 20
6.7918129588
 30
0.0
 10
5.5759490785
 20
6.7917701326
 30
0.0
 10
5.5759079868
 20
6.7917099941
 30
0.0
 10
5.5758685533
 20
6.7916324346
 30
0.0
 10
5.5758307368
 20
6.7915374403
 30
0.0
 10
5.5757794328
 20
6.7913778042
 30
0.0
 10
5.5757224341
 20
6.7911361367
 30
0.0
 10
5.5756642664
 20
6.7907990178
 30
0.0
 10
5.5756137156
 20
6.7904037305
 30
0.0
 10
5.5755711351
 20
6.7899559317
 30
0.0
 10
5.5755364835
 20
6.789462509
 30
0.0
 10
5.5755096098
 20
6.7889315108
 30
0.0
 10
5.5754839058
 20
6.7881742984
 30
0.0
 10
5.5754766598
 20
6.7875947681
 30
0.0
 10
5.5754766602
 20
6.7872030276
 30
0.0
  0
SPLINE
  5
3CB
100
AcDbEntity
  8
0
100
AcDbSpline
 62
7
  6
CONTINUOUS
 70
0
 71
3
 72
27
 73
23
 74
0
 42
0.0000001
 43
0.0000001
 44
0.0000000001
 40
0.0
 40
0.0
 40
0.0
 40
0.0
 40
0.2185084749
 40
0.3232265163
 40
0.4225547929
 40
0.5149733798
 40
0.599111303
 40
0.6735947274
 40
0.7374337408
 40
0.7899026594
 40
0.8306073386
 40
0.846656365
 40
0.8600306352
 40
0.871050402
 40
0.8802950713
 40
0.8887608981
 40
0.8977391806
 40
0.9083349315
 40
0.9211968808
 40
0.9366587685
 40
0.9548990753
 40
1.0
 40
1.0
 40
1.0
 40
1.0
 10
5.5754766602
 20
6.7872030276
 30
0.0
 10
5.5754766598
 20
6.7868112695
 30
0.0
 10
5.5754839082
 20
6.7862317173
 30
0.0
 10
5.5755096002
 20
6.7854745432
 30
0.0
 10
5.575536516
 20
6.7849436699
 30
0.0
 10
5.5755712824
 20
6.7844502308
 30
0.0
 10
5.5756137712
 20
6.7840020948
 30
0.0
 10
5.5756642181
 20
6.7836063803
 30
0.0
 10
5.5757222153
 20
6.7832690689
 30
0.0
 10
5.575787334
 20
6.7829950604
 30
0.0
 10
5.5758508824
 20
6.782809041
 30
0.0
 10
5.5759080751
 20
6.7826968063
 30
0.0
 10
5.575949204
 20
6.7826367507
 30
0.0
 10
5.57599223
 20
6.7825937968
 30
0.0
 10
5.5760382329
 20
6.782568437
 30
0.0
 10
5.5760872444
 20
6.7825633253
 30
0.0
 10
5.5761361439
 20
6.78257931
 30
0.0
 10
5.5761837263
 20
6.7826137442
 30
0.0
 10
5.5762311177
 20
6.7826653712
 30
0.0
 10
5.576278686
 20
6.7827342034
 30
0.0
 10
5.5763471986
 20
6.7828579382
 30
0.0
 10
5.5763905456
 20
6.7829633139
 30
0.0
 10
5.5764185329
 20
6.7830391763
 30
0.0
  0
SPLINE
  5
3CC
100
AcDbEntity
  8
0
100
AcDbSpline
 62
7
  6
CONTINUOUS
 70
0
 71
3
 72
21
 73
17
 74
0
 42
0.0000001
 43
0.0000001
 44
0.0000000001
 40
0.0
 40
0.0
 40
0.0
 40
0.0
 40
0.1900942676
 40
0.3728263474
 40
0.5416555479
 40
0.6899860049
 40
0.7543777111
 40
0.8115393666
 40
0.8612543799
 40
0.903362776
 40
0.9377935627
 40
0.9646676751
 40
0.9754557174
 40
0.9846803411
 40
0.9926747728
 40
1.0
 40
1.0
 40
1.0
 40
1.0
 10
5.575688871
 20
6.7419630276
 30
0.0
 10
5.575688871
 20
6.7417900959
 30
0.0
 10
5.5756930802
 20
6.7414509167
 30
0.0
 10
5.5757113405
 20
6.7409584454
 30
0.0
 10
5.5757409445
 20
6.7405045934
 30
0.0
 10
5.5757759372
 20
6.740159114
 30
0.0
 10
5.5758112811
 20
6.7399161146
 30
0.0
 10
5.5758391665
 20
6.7397627809
 30
0.0
 10
5.575869333
 20
6.7396305974
 30
0.0
 10
5.5759015212
 20
6.7395202212
 30
0.0
 10
5.5759354631
 20
6.739432386
 30
0.0
 10
5.5759669344
 20
6.7393743495
 30
0.0
 10
5.5759939413
 20
6.7393411586
 30
0.0
 10
5.576013219
 20
6.7393242484
 30
0.0
 10
5.5760331975
 20
6.739313692
 30
0.0
 10
5.5760472254
 20
6.7393112638
 30
0.0
 10
5.5760538893
 20
6.7393112697
 30
0.0
  0
SPLINE
  5
3CD
100
AcDbEntity
  8
0
100
AcDbSpline
 62
7
  6
CONTINUOUS
 70
0
 71
3
 72
28
 73
24
 74
0
 42
0.0000001
 43
0.0000001
 44
0.0000000001
 40
0.0
 40
0.0
 40
0.0
 40
0.0
 40
0.0449452317
 40
0.0631302124
 40
0.0785683615
 40
0.0914396203
 40
0.1020641313
 40
0.1110641177
 40
0.119522581
 40
0.1287376817
 40
0.139734098
 40
0.1531163971
 40
0.1692084695
 40
0.1881776088
 40
0.2100925256
 40
0.2626889585
 40
0.3265019942
 40
0.400863992
 40
0.4849216333
 40
0.5773866139
 40
0.6767571574
 40
0.7814821241
 40
1.0
 40
1.0
 40
1.0
 40
1.0
 10
5.5764185293
 20
6.746127483
 30
0.0
 10
5.5763905356
 20
6.7462030378
 30
0.0
 10
5.5763471276
 20
6.7463079708
 30
0.0
 10
5.5762785697
 20
6.7464311833
 30
0.0
 10
5.5762309794
 20
6.7464998343
 30
0.0
 10
5.576183595
 20
6.7465514837
 30
0.0
 10
5.5761360731
 20
6.746586138
 30
0.0
 10
5.5760872676
 20
6.7466025605
 30
0.0
 10
5.5760382286
 20
6.7465979779
 30
0.0
 10
5.5759921345
 20
6.7465729588
 30
0.0
 10
5.5759490785
 20
6.7465301326
 30
0.0
 10
5.5759079868
 20
6.7464699941
 30
0.0
 10
5.5758685533
 20
6.7463924346
 30
0.0
 10
5.5758307368
 20
6.7462974403
 30
0.0
 10
5.5757794328
 20
6.7461378042
 30
0.0
 10
5.5757224341
 20
6.7458961367
 30
0.0
 10
5.5756642664
 20
6.7455590178
 30
0.0
 10
5.5756137156
 20
6.7451637305
 30
0.0
 10
5.5755711351
 20
6.7447159317
 30
0.0
 10
5.5755364835
 20
6.744222509
 30
0.0
 10
5.5755096098
 20
6.7436915108
 30
0.0
 10
5.5754839058
 20
6.7429342984
 30
0.0
 10
5.5754766598
 20
6.7423547681
 30
0.0
 10
5.5754766602
 20
6.7419630276
 30
0.0
  0
SPLINE
  5
3CE
100
AcDbEntity
  8
0
100
AcDbSpline
 62
7
  6
CONTINUOUS
 70
0
 71
3
 72
27
 73
23
 74
0
 42
0.0000001
 43
0.0000001
 44
0.0000000001
 40
0.0
 40
0.0
 40
0.0
 40
0.0
 40
0.2185084749
 40
0.3232265163
 40
0.4225547929
 40
0.5149733798
 40
0.599111303
 40
0.6735947274
 40
0.7374337408
 40
0.7899026594
 40
0.8306073386
 40
0.846656365
 40
0.8600306352
 40
0.871050402
 40
0.8802950713
 40
0.8887608981
 40
0.8977391806
 40
0.9083349315
 40
0.9211968808
 40
0.9366587685
 40
0.9548990753
 40
1.0
 40
1.0
 40
1.0
 40
1.0
 10
5.5754766602
 20
6.7419630276
 30
0.0
 10
5.5754766598
 20
6.7415712695
 30
0.0
 10
5.5754839082
 20
6.7409917173
 30
0.0
 10
5.5755096002
 20
6.7402345432
 30
0.0
 10
5.575536516
 20
6.7397036699
 30
0.0
 10
5.5755712824
 20
6.7392102308
 30
0.0
 10
5.5756137712
 20
6.7387620948
 30
0.0
 10
5.5756642181
 20
6.7383663803
 30
0.0
 10
5.5757222153
 20
6.7380290689
 30
0.0
 10
5.575787334
 20
6.7377550604
 30
0.0
 10
5.5758508824
 20
6.737569041
 30
0.0
 10
5.5759080751
 20
6.7374568063
 30
0.0
 10
5.575949204
 20
6.7373967507
 30
0.0
 10
5.57599223
 20
6.7373537968
 30
0.0
 10
5.5760382329
 20
6.737328437
 30
0.0
 10
5.5760872444
 20
6.7373233253
 30
0.0
 10
5.5761361439
 20
6.73733931
 30
0.0
 10
5.5761837263
 20
6.7373737442
 30
0.0
 10
5.5762311177
 20
6.7374253712
 30
0.0
 10
5.576278686
 20
6.7374942034
 30
0.0
 10
5.5763471986
 20
6.7376179382
 30
0.0
 10
5.5763905456
 20
6.7377233139
 30
0.0
 10
5.5764185329
 20
6.7377991763
 30
0.0
  0
SPLINE
  5
3CF
100
AcDbEntity
  8
0
100
AcDbSpline
 62
7
  6
CONTINUOUS
 70
0
 71
3
 72
21
 73
17
 74
0
 42
0.0000001
 43
0.0000001
 44
0.0000000001
 40
0.0
 40
0.0
 40
0.0
 40
0.0
 40
0.1900942676
 40
0.3728263474
 40
0.5416555479
 40
0.6899860049
 40
0.7543777111
 40
0.8115393666
 40
0.8612543799
 40
0.903362776
 40
0.9377935627
 40
0.9646676751
 40
0.9754557175
 40
0.9846803411
 40
0.9926747728
 40
1.0
 40
1.0
 40
1.0
 40
1.0
 10
5.575688871
 20
6.6967230276
 30
0.0
 10
5.575688871
 20
6.6965500959
 30
0.0
 10
5.5756930802
 20
6.6962109167
 30
0.0
 10
5.5757113405
 20
6.6957184454
 30
0.0
 10
5.5757409445
 20
6.6952645934
 30
0.0
 10
5.5757759372
 20
6.694919114
 30
0.0
 10
5.5758112811
 20
6.6946761146
 30
0.0
 10
5.5758391665
 20
6.6945227809
 30
0.0
 10
5.575869333
 20
6.6943905974
 30
0.0
 10
5.5759015212
 20
6.6942802212
 30
0.0
 10
5.5759354631
 20
6.694192386
 30
0.0
 10
5.5759669344
 20
6.6941343495
 30
0.0
 10
5.5759939413
 20
6.6941011586
 30
0.0
 10
5.576013219
 20
6.6940842484
 30
0.0
 10
5.5760331975
 20
6.694073692
 30
0.0
 10
5.5760472254
 20
6.6940712638
 30
0.0
 10
5.5760538893
 20
6.6940712697
 30
0.0
  0
SPLINE
  5
3D0
100
AcDbEntity
  8
0
100
AcDbSpline
 62
7
  6
CONTINUOUS
 70
0
 71
3
 72
28
 73
24
 74
0
 42
0.0000001
 43
0.0000001
 44
0.0000000001
 40
0.0
 40
0.0
 40
0.0
 40
0.0
 40
0.0449452317
 40
0.0631302124
 40
0.0785683615
 40
0.0914396203
 40
0.1020641313
 40
0.1110641177
 40
0.119522581
 40
0.1287376817
 40
0.139734098
 40
0.1531163971
 40
0.1692084695
 40
0.1881776088
 40
0.2100925256
 40
0.2626889585
 40
0.3265019942
 40
0.400863992
 40
0.4849216333
 40
0.5773866139
 40
0.6767571574
 40
0.7814821241
 40
1.0
 40
1.0
 40
1.0
 40
1.0
 10
5.5764185293
 20
6.700887483
 30
0.0
 10
5.5763905356
 20
6.7009630378
 30
0.0
 10
5.5763471276
 20
6.7010679708
 30
0.0
 10
5.5762785697
 20
6.7011911833
 30
0.0
 10
5.5762309794
 20
6.7012598343
 30
0.0
 10
5.576183595
 20
6.7013114837
 30
0.0
 10
5.5761360731
 20
6.701346138
 30
0.0
 10
5.5760872676
 20
6.7013625605
 30
0.0
 10
5.5760382286
 20
6.7013579779
 30
0.0
 10
5.5759921345
 20
6.7013329588
 30
0.0
 10
5.5759490785
 20
6.7012901326
 30
0.0
 10
5.5759079868
 20
6.7012299941
 30
0.0
 10
5.5758685533
 20
6.7011524346
 30
0.0
 10
5.5758307368
 20
6.7010574403
 30
0.0
 10
5.5757794328
 20
6.7008978042
 30
0.0
 10
5.5757224341
 20
6.7006561367
 30
0.0
 10
5.5756642664
 20
6.7003190178
 30
0.0
 10
5.5756137156
 20
6.6999237305
 30
0.0
 10
5.5755711351
 20
6.6994759317
 30
0.0
 10
5.5755364835
 20
6.698982509
 30
0.0
 10
5.5755096098
 20
6.6984515108
 30
0.0
 10
5.5754839058
 20
6.6976942984
 30
0.0
 10
5.5754766598
 20
6.6971147681
 30
0.0
 10
5.5754766602
 20
6.6967230276
 30
0.0
  0
SPLINE
  5
3D1
100
AcDbEntity
  8
0
100
AcDbSpline
 62
7
  6
CONTINUOUS
 70
0
 71
3
 72
27
 73
23
 74
0
 42
0.0000001
 43
0.0000001
 44
0.0000000001
 40
0.0
 40
0.0
 40
0.0
 40
0.0
 40
0.2185084749
 40
0.3232265163
 40
0.4225547929
 40
0.5149733798
 40
0.599111303
 40
0.6735947274
 40
0.7374337408
 40
0.7899026594
 40
0.8306073386
 40
0.846656365
 40
0.8600306352
 40
0.871050402
 40
0.8802950713
 40
0.8887608981
 40
0.8977391806
 40
0.9083349315
 40
0.9211968808
 40
0.9366587685
 40
0.9548990753
 40
1.0
 40
1.0
 40
1.0
 40
1.0
 10
5.5754766602
 20
6.6967230276
 30
0.0
 10
5.5754766598
 20
6.6963312695
 30
0.0
 10
5.5754839082
 20
6.6957517173
 30
0.0
 10
5.5755096002
 20
6.6949945432
 30
0.0
 10
5.575536516
 20
6.6944636699
 30
0.0
 10
5.5755712824
 20
6.6939702308
 30
0.0
 10
5.5756137712
 20
6.6935220948
 30
0.0
 10
5.5756642181
 20
6.6931263803
 30
0.0
 10
5.5757222153
 20
6.6927890689
 30
0.0
 10
5.575787334
 20
6.6925150604
 30
0.0
 10
5.5758508824
 20
6.692329041
 30
0.0
 10
5.5759080751
 20
6.6922168063
 30
0.0
 10
5.575949204
 20
6.6921567507
 30
0.0
 10
5.57599223
 20
6.6921137968
 30
0.0
 10
5.5760382329
 20
6.692088437
 30
0.0
 10
5.5760872444
 20
6.6920833253
 30
0.0
 10
5.5761361439
 20
6.69209931
 30
0.0
 10
5.5761837263
 20
6.6921337442
 30
0.0
 10
5.5762311177
 20
6.6921853712
 30
0.0
 10
5.576278686
 20
6.6922542034
 30
0.0
 10
5.5763471986
 20
6.6923779382
 30
0.0
 10
5.5763905456
 20
6.6924833139
 30
0.0
 10
5.5764185329
 20
6.6925591763
 30
0.0
  0
SPLINE
  5
3D2
100
AcDbEntity
  8
0
100
AcDbSpline
 62
7
  6
CONTINUOUS
 70
0
 71
3
 72
13
 73
9
 74
0
 42
0.0000001
 43
0.0000001
 44
0.0000000001
 40
0.0
 40
0.0
 40
0.0
 40
0.0
 40
0.1284517346
 40
0.2565491331
 40
0.3838709706
 40
0.5101185688
 40
0.7583194091
 40
1.0
 40
1.0
 40
1.0
 40
1.0
 10
5.6624010624
 20
5.3607488476
 30
0.0
 10
5.6653894849
 20
5.3607489494
 30
0.0
 10
5.6713598762
 20
5.3609454468
 30
0.0
 10
5.6802538587
 20
5.3618178282
 30
0.0
 10
5.6890222837
 20
5.363258047
 30
0.0
 10
5.7004044758
 20
5.3658800352
 30
0.0
 10
5.7140472052
 20
5.3704008587
 30
0.0
 10
5.7243866001
 20
5.3752648471
 30
0.0
 10
5.7293290334
 20
5.3779456954
 30
0.0
  0
SPLINE
  5
3D3
100
AcDbEntity
  8
0
100
AcDbSpline
 62
7
  6
CONTINUOUS
 70
0
 71
3
 72
21
 73
17
 74
0
 42
0.0000001
 43
0.0000001
 44
0.0000000001
 40
0.0
 40
0.0
 40
0.0
 40
0.0
 40
0.0697238712
 40
0.1380928578
 40
0.2051534747
 40
0.2709925177
 40
0.3993439758
 40
0.4621204155
 40
0.5240696439
 40
0.6458178424
 40
0.7058296978
 40
0.7653576515
 40
0.8244720007
 40
0.883243355
 40
0.9417341394
 40
1.0
 40
1.0
 40
1.0
 40
1.0
 10
5.7293290352
 20
5.3779457123
 30
0.0
 10
5.7325939262
 20
5.3797167112
 30
0.0
 10
5.7389299169
 20
5.3834708126
 30
0.0
 10
5.7479050355
 20
5.3897220519
 30
0.0
 10
5.75625777
 20
5.3964589086
 30
0.0
 10
5.7664804969
 20
5.4059144569
 30
0.0
 10
5.7756150174
 20
5.4161672629
 30
0.0
 10
5.7836317186
 20
5.4270140292
 30
0.0
 10
5.7908124522
 20
5.4380138319
 30
0.0
 10
5.7969821871
 20
5.4494722787
 30
0.0
 10
5.8021464126
 20
5.4612477203
 30
0.0
 10
5.8055091158
 20
5.4701559042
 30
0.0
 10
5.808391221
 20
5.4791609768
 30
0.0
 10
5.8108012371
 20
5.4882465885
 30
0.0
 10
5.812748541
 20
5.4973958802
 30
0.0
 10
5.8137436633
 20
5.5035385154
 30
0.0
 10
5.8141652667
 20
5.5066136544
 30
0.0
  0
SPLINE
  5
3D4
100
AcDbEntity
  8
0
100
AcDbSpline
 62
7
  6
CONTINUOUS
 70
0
 71
3
 72
23
 73
19
 74
0
 42
0.0000001
 43
0.0000001
 44
0.0000000001
 40
0.0
 40
0.0
 40
0.0
 40
0.0
 40
0.0585496429
 40
0.1171688403
 40
0.1759762297
 40
0.2350450319
 40
0.2944508
 40
0.3542802397
 40
0.4146286228
 40
0.4755954448
 40
0.5372914739
 40
0.599829767
 40
0.6633391191
 40
0.7279455003
 40
0.7937932173
 40
0.861004411
 40
0.9297174283
 40
1.0
 40
1.0
 40
1.0
 40
1.0
 10
5.8159181856
 20
5.5358750629
 30
0.0
 10
5.8158595197
 20
5.5394431299
 30
0.0
 10
5.8155443637
 20
5.546581861
 30
0.0
 10
5.8144740352
 20
5.5572592626
 30
0.0
 10
5.8128020219
 20
5.5678916023
 30
0.0
 10
5.8105199686
 20
5.5784590152
 30
0.0
 10
5.8076186982
 20
5.5889383728
 30
0.0
 10
5.8040839336
 20
5.5993040771
 30
0.0
 10
5.7999011969
 20
5.6095289657
 30
0.0
 10
5.795049835
 20
5.619581038
 30
0.0
 10
5.7895101607
 20
5.6294249087
 30
0.0
 10
5.7832554576
 20
5.6390169965
 30
0.0
 10
5.776262044
 20
5.6483086247
 30
0.0
 10
5.7684995807
 20
5.6572384111
 30
0.0
 10
5.7599449373
 20
5.6657373067
 30
0.0
 10
5.7505711792
 20
5.6737176037
 30
0.0
 10
5.7403683133
 20
5.6810793486
 30
0.0
 10
5.7330944076
 20
5.6854465249
 30
0.0
 10
5.7293290354
 20
5.6874890047
 30
0.0
  0
SPLINE
  5
3D5
100
AcDbEntity
  8
0
100
AcDbSpline
 62
7
  6
CONTINUOUS
 70
0
 71
3
 72
13
 73
9
 74
0
 42
0.0000001
 43
0.0000001
 44
0.0000000001
 40
0.0
 40
0.0
 40
0.0
 40
0.0
 40
0.2443114622
 40
0.4926021775
 40
0.6181826072
 40
0.744640584
 40
0.8719287653
 40
1.0
 40
1.0
 40
1.0
 40
1.0
 10
5.7293290385
 20
5.6874890262
 30
0.0
 10
5.7265482701
 20
5.6889973609
 30
0.0
 10
5.7208417026
 20
5.6918585319
 30
0.0
 10
5.7134589642
 20
5.6949682877
 30
0.0
 10
5.7073669084
 20
5.6971757717
 30
0.0
 10
5.7026930088
 20
5.6986891425
 30
0.0
 10
5.6979380605
 20
5.7000468368
 30
0.0
 10
5.694727489
 20
5.7008412427
 30
0.0
 10
5.6931108367
 20
5.7012107779
 30
0.0
  0
ELLIPSE
  5
3D6
100
AcDbEntity
  8
0
100
AcDbEllipse
 62
7
  6
CONTINUOUS
 10
5.6624010624
 20
5.5337184963
 30
0.0
 11
0.0
 21
0.1537537784
 31
0.0
 40
0.9999788012
 41
-4.5355521841
 42
-1.7476331231
  0
ENDSEC
  0
SECTION
  2
OBJECTS
  0
DICTIONARY
  5
C
100
AcDbDictionary
280
0
281
1
  3
ACAD_GROUP
350
D
  3
ACAD_MLINESTYLE
350
17
  3
ACAD_LAYOUT
350
1A
  3
ACAD_PLOTSETTINGS
350
19
  3
ACAD_PLOTSTYLENAME
350
E
  0
DICTIONARY
  5
D
102
{ACAD_REACTORS
330
C
102
}
100
AcDbDictionary
280
0
281
1
  0
ACDBDICTIONARYWDFLT
  5
E
102
{ACAD_REACTORS
330
C
102
}
100
AcDbDictionary
281
1
  3
Normal
350
F
100
AcDbDictionaryWithDefault
340
F
  0
DICTIONARY
  5
17
102
{ACAD_REACTORS
330
C
102
}
100
AcDbDictionary
280
0
281
1
  3
Standard
350
18
  0
DICTIONARY
  5
19
102
{ACAD_REACTORS
330
C
102
}
100
AcDbDictionary
281
1
  0
DICTIONARY
  5
1A
102
{ACAD_REACTORS
330
C
102
}
100
AcDbDictionary
281
1
  3
Model
350
3D7
  3
Layout1
350
3D8
  0
ACDBPLACEHOLDER
  5
F
102
{ACAD_REACTORS
330
E
102
}
  0
MLINESTYLE
  5
18
102
{ACAD_REACTORS
330
17
102
}
100
AcDbMlineStyle
  2
STANDARD
 70
0
  3

 62
256
 51
90.0
 52
90.0
 71
2
 49
0.5
 62
256
  6
BYLAYER
 49
-0.5
 62
256
  6
BYLAYER
  0
LAYOUT
  5
3D7
102
{ACAD_REACTORS
330
1A
102
}
100
AcDbPlotSettings
  1

  2
none_device
  4
ANSI_A_(11.00_x_8.50_Inches)
  6

 40
0.0
 41
0.0
 42
0.0
 43
0.0
 44
279.4
 45
215.9
 46
0.0
 47
0.0
 48
0.0
 49
0.0
140
0.0
141
0.0
142
1.0
143
1.0
 70
1024
 72
0
 73
0
 74
0
  7

 75
0
147
1.0
148
0.0
149
0.0
100
AcDbLayout
  1
Model
 70
0
 71
0
 10
0.0
 20
0.0
 11
11.0
 21
8.5
 12
0.0
 22
0.0
 32
0.0
 14
0.0
 24
0.0
 34
0.0
 15
0.0
 25
0.0
 35
0.0
146
0.0
 13
0.0
 23
0.0
 33
0.0
 16
1.0
 26
0.0
 36
0.0
 17
0.0
 27
1.0
 37
0.0
 76
0
330
202
345
0
346
0
  0
LAYOUT
  5
3D8
102
{ACAD_REACTORS
330
1A
102
}
100
AcDbPlotSettings
  1

  2
none_device
  4
ANSI_A_(11.00_x_8.50_Inches)
  6

 40
0.0
 41
0.0
 42
0.0
 43
0.0
 44
279.4
 45
215.9
 46
0.0
 47
0.0
 48
0.0
 49
0.0
140
0.0
141
0.0
142
1.0
143
1.0
 70
0
 72
0
 73
0
 74
0
  7

 75
0
147
1.0
148
0.0
149
0.0
100
AcDbLayout
  1
Layout1
 70
0
 71
1
 10
0.0
 20
0.0
 11
11.0
 21
8.5
 12
0.0
 22
0.0
 32
0.0
 14
0.0
 24
0.0
 34
0.0
 15
0.0
 25
0.0
 35
0.0
146
0.0
 13
0.0
 23
0.0
 33
0.0
 16
1.0
 26
0.0
 36
0.0
 17
0.0
 27
1.0
 37
0.0
 76
0
330
203
345
0
346
0
  0
ENDSEC
  0
EOF
