999
DXF file: 2560-4261_top.dxf
999
Pro/ENGINEER 2018400 by Parametric Technology Corporation
  0
SECTION
  2
HEADER
  9
$ACADVER
  1
AC1027
  9
$DWGCODEPAGE
  3
ANSI_1252
  9
$EXTMAX
 10
11.0
 20
8.5
 30
0.0
  9
$EXTMIN
 10
0.0
 20
0.0
 30
0.0
  9
$LIMMIN
 10
0.0
 20
0.0
  9
$LIMMAX
 10
11.0
 20
8.5
  9
$VIEWCTR
 10
5.5
 20
4.25
  9
$VIEWSIZE
 40
8.5
  9
$CLAYER
  8
0
  9
$LTSCALE
 40
0.605
  9
$CELTYPE
  6
BYLAYER
  9
$DIMSCALE
 40
1.0
  9
$DIMASZ
 40
0.1
  9
$DIMEXO
 40
0.0625
  9
$DIMDLI
 40
0.418
  9
$DIMEXE
 40
0.125
  9
$DIMCEN
 40
0.099
  9
$DIMLFAC
 40
1.0
  9
$DIMBLK
  1
_FILLED
  9
$DIMALT
 70
1
  9
$DIMALTD
 70
1
  9
$DIMALTTD
 70
2
  9
$DIMALTF
 40
25.4
  9
$DIMTXT
 40
0.08
  9
$DIMTOL
 70
1
  9
$DIMLIM
 70
0
  9
$DIMTFAC
 40
1.0
  9
$DIMTP
 40
0.01
  9
$DIMTM
 40
0.01
  9
$DIMGAP
 40
0.09
  9
$DIMDSEP
 70
46
  9
$AUNITS
 70
0
  9
$PDMODE
 70
3
  9
$PDSIZE
 40
0.3125
  9
$HANDSEED
  5
2AE
  9
$TILEMODE
 70
1
  9
$MEASUREMENT
 70
0
  9
$INSUNITS
 70
1
  0
ENDSEC
  0
SECTION
  2
CLASSES
  0
CLASS
  1
ACDBDICTIONARYWDFLT
  2
AcDbDictionaryWithDefault
  3
AutoCAD 2000
 90
0
 91
1
280
0
281
0
  0
CLASS
  1
ACDBPLACEHOLDER
  2
AcDbPlaceHolder
  3
AutoCAD 2000
 90
0
 91
1
280
0
281
0
  0
CLASS
  1
LAYOUT
  2
AcDbLayout
  3
AutoCAD 2000
 90
0
 91
0
280
0
281
0
  0
ENDSEC
  0
SECTION
  2
TABLES
  0
TABLE
  2
VPORT
  5
8
100
AcDbSymbolTable
 70
2
  0
VPORT
  5
1F4
100
AcDbSymbolTableRecord
100
AcDbViewportTableRecord
  2
*ACTIVE
 70
0
 10
0.0
 20
0.0
 11
1.0
 21
1.0
 12
5.5
 22
4.25
 13
0.0
 23
0.0
 14
1.0
 24
1.0
 15
0.0
 25
0.0
 16
0.0
 26
0.0
 36
1.0
 17
0.0
 27
0.0
 37
0.0
 40
8.5
 41
1.2941176471
 42
50.0
 43
0.0
 44
0.0
 50
0.0
 51
0.0
 71
0
 72
100
 73
1
 74
1
 75
0
 76
0
 77
0
 78
0
  0
ENDTAB
  0
TABLE
  2
LTYPE
  5
5
100
AcDbSymbolTable
 70
6
  0
LTYPE
  5
14
100
AcDbSymbolTableRecord
100
AcDbLinetypeTableRecord
  2
BYBLOCK
 70
0
  3

 72
65
 73
0
 40
0.0
  0
LTYPE
  5
15
100
AcDbSymbolTableRecord
100
AcDbLinetypeTableRecord
  2
BYLAYER
 70
0
  3

 72
65
 73
0
 40
0.0
  0
LTYPE
  5
16
100
AcDbSymbolTableRecord
100
AcDbLinetypeTableRecord
  2
CONTINUOUS
 70
64
  3
Solid line
 72
65
 73
0
 40
0.0
  0
LTYPE
  5
1F5
100
AcDbSymbolTableRecord
100
AcDbLinetypeTableRecord
  2
CENTER
 70
64
  3
____ _ ____ _ ____ _ ____ _ ____ _ ____ _ ____
 72
65
 73
4
 40
0.6
 49
0.375
 74
0
 49
-0.075
 74
0
 49
0.075
 74
0
 49
-0.075
 74
0
  0
LTYPE
  5
1F6
100
AcDbSymbolTableRecord
100
AcDbLinetypeTableRecord
  2
HIDDEN
 70
64
  3
- - - - - - - - - - - - - - - - - - - -
 72
65
 73
2
 40
0.2
 49
0.1
 74
0
 49
-0.1
 74
0
  0
LTYPE
  5
1F7
100
AcDbSymbolTableRecord
100
AcDbLinetypeTableRecord
  2
PHANTOM
 70
64
  3
_____ _ _ _____ _ _ _____ _ _ _____
 72
65
 73
6
 40
0.8
 49
0.45
 74
0
 49
-0.05
 74
0
 49
0.1
 74
0
 49
-0.05
 74
0
 49
0.1
 74
0
 49
-0.05
 74
0
  0
LTYPE
  5
1F8
100
AcDbSymbolTableRecord
100
AcDbLinetypeTableRecord
  2
DOT
 70
64
  3
. . . . . . . . . . . . . . . . . . . .
 72
65
 73
2
 40
0.2
 49
0.1
 74
0
 49
-0.1
 74
0
  0
LTYPE
  5
1F9
100
AcDbSymbolTableRecord
100
AcDbLinetypeTableRecord
  2
DASHED
 70
64
  3
- - - - - - - - - - - - - - - - - - - -
 72
65
 73
2
 40
0.2
 49
0.1
 74
0
 49
-0.1
 74
0
  0
ENDTAB
  0
TABLE
  2
LAYER
  5
2
100
AcDbSymbolTable
 70
36
  0
LAYER
  5
10
100
AcDbSymbolTableRecord
100
AcDbLayerTableRecord
  2
0
 70
0
 62
7
  6
CONTINUOUS
370
-3
390
F
  0
LAYER
  5
1FA
100
AcDbSymbolTableRecord
100
AcDbLayerTableRecord
  2
DEFAULT_1
 70
0
 62
7
  6
CENTER
370
-3
390
F
  0
LAYER
  5
1FB
100
AcDbSymbolTableRecord
100
AcDbLayerTableRecord
  2
DEFAULT_2
 70
0
 62
8
  6
HIDDEN
370
-3
390
F
  0
LAYER
  5
1FC
100
AcDbSymbolTableRecord
100
AcDbLayerTableRecord
  2
DEFAULT_3
 70
0
 62
7
  6
PHANTOM
370
-3
390
F
  0
LAYER
  5
1FD
100
AcDbSymbolTableRecord
100
AcDbLayerTableRecord
  2
DEFAULT_COORDINATE_SYSTEM
 70
0
 62
7
  6
CONTINUOUS
370
-3
390
F
  0
LAYER
  5
1FE
100
AcDbSymbolTableRecord
100
AcDbLayerTableRecord
  2
DEFAULT_DATUM_AXES
 70
0
 62
7
  6
CONTINUOUS
370
-3
390
F
  0
LAYER
  5
1FF
100
AcDbSymbolTableRecord
100
AcDbLayerTableRecord
  2
DEFAULT_DATUM_PLANES
 70
0
 62
7
  6
CONTINUOUS
370
-3
390
F
  0
ENDTAB
  0
TABLE
  2
STYLE
  5
3
100
AcDbSymbolTable
 70
1
  0
STYLE
  5
11
100
AcDbSymbolTableRecord
100
AcDbTextStyleTableRecord
  2
STANDARD
 70
0
 40
0.0
 41
0.8
 50
0.0
 71
0
 42
0.2
  3
txt
  4

  0
STYLE
  5
200
100
AcDbSymbolTableRecord
100
AcDbTextStyleTableRecord
  2
TEXTSTYLE_1
 70
0
 40
0.0
 41
0.8
 50
0.0
 71
0
 42
0.2
  3
gdt
  4

  0
ENDTAB
  0
TABLE
  2
VIEW
  5
6
100
AcDbSymbolTable
 70
0
  0
ENDTAB
  0
TABLE
  2
UCS
  5
7
100
AcDbSymbolTable
 70
0
  0
ENDTAB
  0
TABLE
  2
APPID
  5
9
100
AcDbSymbolTable
 70
1
  0
APPID
  5
201
100
AcDbSymbolTableRecord
100
AcDbRegAppTableRecord
  2
ACAD
 70
0
  0
ENDTAB
  0
TABLE
  2
BLOCK_RECORD
  5
1
100
AcDbSymbolTable
 70
0
  0
BLOCK_RECORD
  5
202
100
AcDbSymbolTableRecord
100
AcDbBlockTableRecord
  2
*Model_Space
  0
BLOCK_RECORD
  5
203
100
AcDbSymbolTableRecord
100
AcDbBlockTableRecord
  2
*Paper_Space
  0
BLOCK_RECORD
  5
204
100
AcDbSymbolTableRecord
100
AcDbBlockTableRecord
  2
_FILLED
  0
ENDTAB
  0
TABLE
  2
DIMSTYLE
  5
A
100
AcDbSymbolTable
 70
1
100
AcDbDimStyleTable
 71
0
  0
DIMSTYLE
105
205
100
AcDbSymbolTableRecord
100
AcDbDimStyleTableRecord
  2
STANDARD
 70
0
  3

  4

 40
1.0
 41
0.1
 42
0.0625
 43
0.38
 44
0.125
 45
0.0
 46
0.0
 47
0.01
 48
0.01
140
0.08
141
0.09
142
0.0
143
25.4
144
1.0
145
0.0
146
1.0
147
0.09
 71
1.0
 72
0.0
 73
1
 74
1
 75
0
 76
0
 77
0
 78
4
 79
1
170
1
171
1
172
0
173
0
174
0
175
0
176
0
177
0
178
0
270
2
179
2
271
2
272
2
273
2
274
2
275
0
280
0
281
0
282
0
283
1
284
4
285
0
286
0
287
3
288
0
340
11
278
46
341
204
342
204
343
204
344
204
  0
ENDTAB
  0
ENDSEC
  0
SECTION
  2
BLOCKS
  0
BLOCK
  5
20
100
AcDbEntity
  8
0
100
AcDbBlockBegin
  2
*Model_Space
 70
0
 10
0.0
 20
0.0
 30
0.0
  3
*Model_Space
  1

  0
ENDBLK
  5
21
100
AcDbEntity
  8
0
100
AcDbBlockEnd
  0
BLOCK
  5
1C
100
AcDbEntity
  8
0
100
AcDbBlockBegin
  2
*Paper_Space
 70
0
 10
0.0
 20
0.0
 30
0.0
  3
*Paper_Space
  1

  0
ENDBLK
  5
1D
100
AcDbEntity
  8
0
100
AcDbBlockEnd
  0
BLOCK
  5
206
100
AcDbEntity
  8
0
100
AcDbBlockBegin
  2
_FILLED
 70
64
 10
0.0
 20
0.0
  3
_FILLED
  1

  0
SOLID
  5
207
100
AcDbEntity
  8
0
  6
BYBLOCK
 62
0
100
AcDbTrace
 10
0.0
 20
0.0
 11
-1.0
 21
0.2
 12
-1.0
 22
-0.2
 13
-1.0
 23
-0.2
  0
ENDBLK
  5
208
100
AcDbEntity
  8
0
  6
BYBLOCK
 62
0
100
AcDbBlockEnd
  0
ENDSEC
  0
SECTION
  2
ENTITIES
  0
MTEXT
  5
209
100
AcDbEntity
  8
0
100
AcDbMText
 62
2
  6
CONTINUOUS
  7
STANDARD
 71
3
 72
1
 10
5.7719809783
 20
3.1374719545
 30
0.0
 11
1.0
 21
0.0
 31
0.0
 73
2
 44
0.9
  1
SCALE  .187
 40
0.08
 41
0.704
  0
LINE
  5
20A
100
AcDbEntity
  8
0
100
AcDbLine
 62
7
  6
CONTINUOUS
 10
0.0
 20
0.0
 11
0.0
 21
8.5
  0
LINE
  5
20B
100
AcDbEntity
  8
0
100
AcDbLine
 62
7
  6
CONTINUOUS
 10
0.0
 20
0.0
 11
11.0
 21
0.0
  0
LINE
  5
20C
100
AcDbEntity
  8
0
100
AcDbLine
 62
7
  6
CONTINUOUS
 10
0.0
 20
8.5
 11
11.0
 21
8.5
  0
LINE
  5
20D
100
AcDbEntity
  8
0
100
AcDbLine
 62
7
  6
CONTINUOUS
 10
11.0
 20
0.0
 11
11.0
 21
8.5
  0
LINE
  5
20E
100
AcDbEntity
  8
0
100
AcDbLine
 62
7
  6
CONTINUOUS
 10
5.3018996963
 20
3.3648057639
 11
5.6405611136
 21
3.3648057639
  0
LINE
  5
20F
100
AcDbEntity
  8
0
100
AcDbLine
 62
7
  6
CONTINUOUS
 10
5.2871752869
 20
3.3795301733
 11
5.6552855231
 21
3.3795301733
  0
LINE
  5
210
100
AcDbEntity
  8
0
100
AcDbLine
 62
7
  6
CONTINUOUS
 10
4.637269908
 20
4.9219120597
 11
4.6341170028
 21
4.9200121377
  0
LINE
  5
211
100
AcDbEntity
  8
0
100
AcDbLine
 62
7
  6
CONTINUOUS
 10
4.6976099325
 20
4.8940896624
 11
4.6946872393
 21
4.8858949941
  0
LINE
  5
212
100
AcDbEntity
  8
0
100
AcDbLine
 62
7
  6
CONTINUOUS
 10
4.637269906
 20
4.9255931654
 11
4.637269906
 21
4.9219120631
  0
LINE
  5
213
100
AcDbEntity
  8
0
100
AcDbLine
 62
7
  6
CONTINUOUS
 10
4.637269906
 20
5.0360262363
 11
4.637269906
 21
5.0397073387
  0
LINE
  5
214
100
AcDbEntity
  8
0
100
AcDbLine
 62
7
  6
CONTINUOUS
 10
4.6977632976
 20
4.8950488626
 11
4.6976099325
 21
4.8940896624
  0
LINE
  5
215
100
AcDbEntity
  8
0
100
AcDbLine
 62
7
  6
CONTINUOUS
 10
4.7612661913
 20
4.8910720125
 11
4.7611712328
 21
4.8905214329
  0
LINE
  5
216
100
AcDbEntity
  8
0
100
AcDbLine
 62
7
  6
CONTINUOUS
 10
4.7294405198
 20
4.8874757835
 11
4.7294186323
 21
4.8873649103
  0
LINE
  5
217
100
AcDbEntity
  8
0
100
AcDbLine
 62
7
  6
CONTINUOUS
 10
4.7929799325
 20
4.9046318987
 11
4.7896738531
 21
4.8919825858
  0
LINE
  5
218
100
AcDbEntity
  8
0
100
AcDbLine
 62
7
  6
CONTINUOUS
 10
4.7611712328
 20
4.8905214329
 11
4.757798685
 21
4.8793856146
  0
LINE
  5
219
100
AcDbEntity
  8
0
100
AcDbLine
 62
7
  6
CONTINUOUS
 10
4.7294186323
 20
4.8873649103
 11
4.7261321266
 21
4.877622227
  0
LINE
  5
21A
100
AcDbEntity
  8
0
100
AcDbLine
 62
7
  6
CONTINUOUS
 10
4.6767337846
 20
4.9076924882
 11
4.6770399325
 21
4.9046318987
  0
LINE
  5
21B
100
AcDbEntity
  8
0
100
AcDbLine
 62
7
  6
CONTINUOUS
 10
4.7932860805
 20
4.9076924889
 11
4.7929799325
 21
4.9046318987
  0
LINE
  5
21C
100
AcDbEntity
  8
0
100
AcDbLine
 62
7
  6
CONTINUOUS
 10
4.7087536743
 20
4.8910720095
 11
4.7088486323
 21
4.8905214329
  0
LINE
  5
21D
100
AcDbEntity
  8
0
100
AcDbLine
 62
7
  6
CONTINUOUS
 10
4.7088486323
 20
4.8905214329
 11
4.7122211801
 21
4.8793856146
  0
LINE
  5
21E
100
AcDbEntity
  8
0
100
AcDbLine
 62
7
  6
CONTINUOUS
 10
4.6770399325
 20
4.9046318987
 11
4.680346012
 21
4.8919825857
  0
LINE
  5
21F
100
AcDbEntity
  8
0
100
AcDbLine
 62
7
  6
CONTINUOUS
 10
4.7405793459
 20
4.8874757803
 11
4.7406012328
 21
4.8873649103
  0
LINE
  5
220
100
AcDbEntity
  8
0
100
AcDbLine
 62
7
  6
CONTINUOUS
 10
4.7722565675
 20
4.8950488625
 11
4.7724099325
 21
4.8940896624
  0
LINE
  5
221
100
AcDbEntity
  8
0
100
AcDbLine
 62
7
  6
CONTINUOUS
 10
4.7724099325
 20
4.8940896624
 11
4.7753326258
 21
4.8858949939
  0
LINE
  5
222
100
AcDbEntity
  8
0
100
AcDbLine
 62
7
  6
CONTINUOUS
 10
4.7406012328
 20
4.8873649103
 11
4.7438877385
 21
4.877622227
  0
LINE
  5
223
100
AcDbEntity
  8
0
100
AcDbLine
 62
7
  6
CONTINUOUS
 10
5.2871752869
 20
3.3795301733
 11
5.2871752869
 21
4.9844908032
  0
LINE
  5
224
100
AcDbEntity
  8
0
100
AcDbLine
 62
7
  6
CONTINUOUS
 10
5.3018996963
 20
4.9844908032
 11
5.3018996963
 21
3.3648057639
  0
LINE
  5
225
100
AcDbEntity
  8
0
100
AcDbLine
 62
7
  6
CONTINUOUS
 10
4.637269912
 20
5.0397073486
 11
4.6341170081
 21
5.0416072727
  0
LINE
  5
226
100
AcDbEntity
  8
0
100
AcDbLine
 62
7
  6
CONTINUOUS
 10
6.1117534813
 20
4.8046575287
 11
6.104457267
 21
4.804497388
  0
LINE
  5
227
100
AcDbEntity
  8
0
100
AcDbLine
 62
7
  6
CONTINUOUS
 10
6.1636457593
 20
4.7916010395
 11
6.1615148943
 21
4.7916010395
  0
LINE
  5
228
100
AcDbEntity
  8
0
100
AcDbLine
 62
7
  6
CONTINUOUS
 10
5.921609004
 20
4.7916010395
 11
5.9206930034
 21
4.7916010395
  0
LINE
  5
229
100
AcDbEntity
  8
0
100
AcDbLine
 62
7
  6
CONTINUOUS
 10
5.6552855231
 20
4.7967545828
 11
5.8724705625
 21
4.7967545828
  0
LINE
  5
22A
100
AcDbEntity
  8
0
100
AcDbLine
 62
7
  6
CONTINUOUS
 10
5.9216089343
 20
4.7915930463
 11
6.1563462683
 21
4.7895445246
  0
LINE
  5
22B
100
AcDbEntity
  8
0
100
AcDbLine
 62
7
  6
CONTINUOUS
 10
6.1565194296
 20
4.8042668622
 11
6.1117534821
 21
4.8046575287
  0
LINE
  5
22C
100
AcDbEntity
  8
0
100
AcDbLine
 62
7
  6
CONTINUOUS
 10
6.1639439254
 20
4.8040972454
 11
6.1565194306
 21
4.8042668622
  0
LINE
  5
22D
100
AcDbEntity
  8
0
100
AcDbLine
 62
7
  6
CONTINUOUS
 10
5.6405611136
 20
3.3648057639
 11
5.6405611136
 21
4.9844908032
  0
LINE
  5
22E
100
AcDbEntity
  8
0
100
AcDbLine
 62
7
  6
CONTINUOUS
 10
5.6552855231
 20
4.9844908032
 11
5.6552855231
 21
3.3795301733
  0
LINE
  5
22F
100
AcDbEntity
  8
0
100
AcDbLine
 62
7
  6
CONTINUOUS
 10
5.2871752869
 20
4.87037663
 11
4.7929799905
 21
4.87037663
  0
LINE
  5
230
100
AcDbEntity
  8
0
100
AcDbLine
 62
7
  6
CONTINUOUS
 10
4.6623950549
 20
4.9219120631
 11
4.637269906
 21
4.9219120631
  0
LINE
  5
231
100
AcDbEntity
  8
0
100
AcDbLine
 62
7
  6
CONTINUOUS
 10
4.637269906
 20
4.9255931654
 11
4.6595607282
 21
4.9255931654
  0
LINE
  5
232
100
AcDbEntity
  8
0
100
AcDbLine
 62
7
  6
CONTINUOUS
 10
4.6569226599
 20
4.9293847009
 11
4.2339978243
 21
4.9293847009
  0
LINE
  5
233
100
AcDbEntity
  8
0
100
AcDbLine
 62
7
  6
CONTINUOUS
 10
5.6773721373
 20
4.9808097013
 11
5.6552854993
 21
4.9808096996
  0
LINE
  5
234
100
AcDbEntity
  8
0
100
AcDbLine
 62
7
  6
CONTINUOUS
 10
5.2724508904
 20
4.9808097013
 11
5.2871752963
 21
4.980809701
  0
LINE
  5
235
100
AcDbEntity
  8
0
100
AcDbLine
 62
7
  6
CONTINUOUS
 10
5.6552855231
 20
4.9844908032
 11
5.6405611136
 21
4.9844908032
  0
LINE
  5
236
100
AcDbEntity
  8
0
100
AcDbLine
 62
7
  6
CONTINUOUS
 10
5.3018996963
 20
4.9844908032
 11
5.2871752869
 21
4.9844908032
  0
LINE
  5
237
100
AcDbEntity
  8
0
100
AcDbLine
 62
7
  6
CONTINUOUS
 10
4.6569226599
 20
5.0322347009
 11
4.2339978243
 21
5.0322347009
  0
LINE
  5
238
100
AcDbEntity
  8
0
100
AcDbLine
 62
7
  6
CONTINUOUS
 10
4.6595607282
 20
5.0360262363
 11
4.637269906
 21
5.0360262363
  0
LINE
  5
239
100
AcDbEntity
  8
0
100
AcDbLine
 62
7
  6
CONTINUOUS
 10
4.637269905
 20
5.0397073387
 11
4.6623950549
 21
5.0397073387
  0
LINE
  5
23A
100
AcDbEntity
  8
0
100
AcDbLine
 62
7
  6
CONTINUOUS
 10
5.8724705625
 20
4.7967545828
 11
5.8724705625
 21
5.164864819
  0
LINE
  5
23B
100
AcDbEntity
  8
0
100
AcDbLine
 62
7
  6
CONTINUOUS
 10
6.1639467104
 20
5.1575222248
 11
6.1565194308
 21
5.1573525395
  0
LINE
  5
23C
100
AcDbEntity
  8
0
100
AcDbLine
 62
7
  6
CONTINUOUS
 10
5.3167994958
 20
5.0912427717
 11
4.7929799905
 21
5.0912427717
  0
LINE
  5
23D
100
AcDbEntity
  8
0
100
AcDbLine
 62
7
  6
CONTINUOUS
 10
5.8761516648
 20
4.8004356851
 11
5.8761516648
 21
5.1611837159
  0
LINE
  5
23E
100
AcDbEntity
  8
0
100
AcDbLine
 62
7
  6
CONTINUOUS
 10
5.9206930034
 20
4.7916010395
 11
5.9206930034
 21
5.1700183623
  0
LINE
  5
23F
100
AcDbEntity
  8
0
100
AcDbLine
 62
7
  6
CONTINUOUS
 10
6.1117534821
 20
5.156961873
 11
6.1565194296
 21
5.1573525395
  0
LINE
  5
240
100
AcDbEntity
  8
0
100
AcDbLine
 62
7
  6
CONTINUOUS
 10
5.9216089341
 20
5.1700263555
 11
6.1563462683
 21
5.1720748772
  0
LINE
  5
241
100
AcDbEntity
  8
0
100
AcDbLine
 62
7
  6
CONTINUOUS
 10
5.5078200468
 20
5.164864819
 11
5.8724705625
 21
5.164864819
  0
LINE
  5
242
100
AcDbEntity
  8
0
100
AcDbLine
 62
7
  6
CONTINUOUS
 10
6.1636457593
 20
5.1700183623
 11
6.1615148943
 21
5.1700183623
  0
LINE
  5
243
100
AcDbEntity
  8
0
100
AcDbLine
 62
7
  6
CONTINUOUS
 10
5.9216090039
 20
5.1700183623
 11
5.9206930034
 21
5.1700183623
  0
LINE
  5
244
100
AcDbEntity
  8
0
100
AcDbLine
 62
7
  6
CONTINUOUS
 10
6.1117534833
 20
5.156961873
 11
6.1044556657
 21
5.1571220523
  0
LINE
  5
245
100
AcDbEntity
  8
0
100
AcDbLine
 62
7
  6
CONTINUOUS
 10
5.5494891462
 20
5.1510754514
 11
5.5494376373
 21
5.1510938339
  0
LINE
  5
246
100
AcDbEntity
  8
0
100
AcDbLine
 62
7
  6
CONTINUOUS
 10
5.5494910584
 20
5.151085087
 11
5.549439647
 21
5.1511039171
  0
ARC
  5
247
100
AcDbEntity
  8
0
100
AcDbCircle
 62
7
  6
CONTINUOUS
 10
5.6405611136
 20
3.3795301733
 40
0.0147244094
100
AcDbArc
 50
270.0000000019
 51
360.0
  0
ARC
  5
248
100
AcDbEntity
  8
0
100
AcDbCircle
 62
7
  6
CONTINUOUS
 10
5.3018996963
 20
3.3795301733
 40
0.0147244094
100
AcDbArc
 50
180.0000000022
 51
270.0
  0
ARC
  5
249
100
AcDbEntity
  8
0
100
AcDbCircle
 62
7
  6
CONTINUOUS
 10
-1.5040877289
 20
4.9808097009
 40
7.6700675853
100
AcDbArc
 50
358.5864586686
 51
1.4135413314
  0
ARC
  5
24A
100
AcDbEntity
  8
0
100
AcDbCircle
 62
7
  6
CONTINUOUS
 10
-1.504152589
 20
4.9808097009
 40
7.662705994
100
AcDbArc
 50
358.6798326016
 51
1.3201673984
  0
ARC
  5
24B
100
AcDbEntity
  8
0
100
AcDbCircle
 62
7
  6
CONTINUOUS
 10
4.7136529579
 20
4.8798192369
 40
0.001496
100
AcDbArc
 50
196.8492439121
 51
258.0592943439
  0
ARC
  5
24C
100
AcDbEntity
  8
0
100
AcDbCircle
 62
7
  6
CONTINUOUS
 10
4.7247146054
 20
4.8781004003
 40
0.001496
100
AcDbArc
 50
264.2759321528
 51
341.3591723378
  0
ARC
  5
24D
100
AcDbEntity
  8
0
100
AcDbCircle
 62
7
  6
CONTINUOUS
 10
4.6932781771
 20
4.8863975472
 40
0.001496
100
AcDbArc
 50
246.1537673916
 51
340.3708257109
  0
ARC
  5
24E
100
AcDbEntity
  8
0
100
AcDbCircle
 62
7
  6
CONTINUOUS
 10
4.7929809046
 20
4.8740579913
 40
0.0036814134
100
AcDbArc
 50
118.5171185075
 51
269.9857726306
  0
ARC
  5
24F
100
AcDbEntity
  8
0
100
AcDbCircle
 62
7
  6
CONTINUOUS
 10
4.7453052597
 20
4.8781004003
 40
0.001496
100
AcDbArc
 50
198.6408276687
 51
275.724067847
  0
ARC
  5
250
100
AcDbEntity
  8
0
100
AcDbCircle
 62
7
  6
CONTINUOUS
 10
4.7563669072
 20
4.8798192369
 40
0.001496
100
AcDbArc
 50
281.9407056562
 51
343.1507561468
  0
ARC
  5
251
100
AcDbEntity
  8
0
100
AcDbCircle
 62
7
  6
CONTINUOUS
 10
4.776741688
 20
4.8863975472
 40
0.001496
100
AcDbArc
 50
199.6291732009
 51
293.8462326091
  0
ARC
  5
252
100
AcDbEntity
  8
0
100
AcDbCircle
 62
7
  6
CONTINUOUS
 10
4.2340285826
 20
4.9808072961
 40
0.0514228893
100
AcDbArc
 50
179.9973206347
 51
269.9973195421
  0
ARC
  5
253
100
AcDbEntity
  8
0
100
AcDbCircle
 62
7
  6
CONTINUOUS
 10
4.23540302
 20
4.9808070025
 40
0.0514222989
100
AcDbArc
 50
179.9974221526
 51
270.0000114906
  0
ARC
  5
254
100
AcDbEntity
  8
0
100
AcDbCircle
 62
7
  6
CONTINUOUS
 10
4.637269906
 20
4.9219120631
 40
0.0036811024
100
AcDbArc
 50
90.0
 51
211.0729509726
  0
ARC
  5
255
100
AcDbEntity
  8
0
100
AcDbCircle
 62
7
  6
CONTINUOUS
 10
4.6817933923
 20
4.8923608794
 40
0.001496
100
AcDbArc
 50
194.6474175819
 51
238.966159291
  0
ARC
  5
256
100
AcDbEntity
  8
0
100
AcDbCircle
 62
7
  6
CONTINUOUS
 10
4.7882264728
 20
4.8923608794
 40
0.001496
100
AcDbArc
 50
301.0338407129
 51
345.3525838161
  0
ARC
  5
257
100
AcDbEntity
  8
0
100
AcDbCircle
 62
7
  6
CONTINUOUS
 10
6.1119812848
 20
4.797294177
 40
0.0073622047
100
AcDbArc
 50
181.2985097167
 51
269.499998729
  0
ARC
  5
258
100
AcDbEntity
  8
0
100
AcDbCircle
 62
7
  6
CONTINUOUS
 10
6.156410515
 20
4.796906449
 40
0.0073622047
100
AcDbArc
 50
269.5
 51
358.6247817927
  0
ARC
  5
259
100
AcDbEntity
  8
0
100
AcDbCircle
 62
7
  6
CONTINUOUS
 10
5.8724705625
 20
4.8004356851
 40
0.0036811024
100
AcDbArc
 50
270.0
 51
360.0
  0
ARC
  5
25A
100
AcDbEntity
  8
0
100
AcDbCircle
 62
7
  6
CONTINUOUS
 10
5.8737548928
 20
4.9458531623
 40
0.2061417323
100
AcDbArc
 50
76.8384044197
 51
89.3338174841
  0
ARC
  5
25B
100
AcDbEntity
  8
0
100
AcDbCircle
 62
7
  6
CONTINUOUS
 10
4.233997789
 20
4.9808097009
 40
0.051425
100
AcDbArc
 50
90.0
 51
270.0
  0
ARC
  5
25C
100
AcDbEntity
  8
0
100
AcDbCircle
 62
7
  6
CONTINUOUS
 10
4.234028594
 20
4.9808121171
 40
0.0514228893
100
AcDbArc
 50
90.002693202
 51
180.0026921092
  0
ARC
  5
25D
100
AcDbEntity
  8
0
100
AcDbCircle
 62
7
  6
CONTINUOUS
 10
4.2354054474
 20
4.9808121171
 40
0.0514228893
100
AcDbArc
 50
90.002693202
 51
180.0026921092
  0
ARC
  5
25E
100
AcDbEntity
  8
0
100
AcDbCircle
 62
7
  6
CONTINUOUS
 10
4.7350099325
 20
4.9808097009
 40
0.1177952756
100
AcDbArc
 50
0.1061236391
 51
148.9270490278
  0
ARC
  5
25F
100
AcDbEntity
  8
0
100
AcDbCircle
 62
7
  6
CONTINUOUS
 10
4.7350099325
 20
4.9808097009
 40
0.1177952756
100
AcDbArc
 50
211.0729509722
 51
359.8938538629
  0
ARC
  5
260
100
AcDbEntity
  8
0
100
AcDbCircle
 62
7
  6
CONTINUOUS
 10
4.7352717117
 20
4.9808103817
 40
0.1175334955
100
AcDbArc
 50
359.8932857443
 51
0.1060278889
  0
ARC
  5
261
100
AcDbEntity
  8
0
100
AcDbCircle
 62
7
  6
CONTINUOUS
 10
4.7350099325
 20
4.9808097009
 40
0.1141141732
100
AcDbArc
 50
211.0729509722
 51
148.9270492712
  0
ARC
  5
262
100
AcDbEntity
  8
0
100
AcDbCircle
 62
7
  6
CONTINUOUS
 10
4.7350099389
 20
4.992403772
 40
0.1051875609
100
AcDbArc
 50
236.5567451768
 51
249.1725135872
  0
ARC
  5
263
100
AcDbEntity
  8
0
100
AcDbCircle
 62
7
  6
CONTINUOUS
 10
4.7350099261
 20
4.992403772
 40
0.1051875609
100
AcDbArc
 50
290.8274864128
 51
303.4432548232
  0
ARC
  5
264
100
AcDbEntity
  8
0
100
AcDbCircle
 62
7
  6
CONTINUOUS
 10
4.7350099329
 20
4.9924036984
 40
0.1051874975
100
AcDbArc
 50
273.0470250451
 51
284.4012557632
  0
ARC
  5
265
100
AcDbEntity
  8
0
100
AcDbCircle
 62
7
  6
CONTINUOUS
 10
4.7350099322
 20
4.9924036984
 40
0.1051874975
100
AcDbArc
 50
255.5987442368
 51
266.9529749549
  0
ARC
  5
266
100
AcDbEntity
  8
0
100
AcDbCircle
 62
7
  6
CONTINUOUS
 10
4.7350099325
 20
4.9808097009
 40
0.10472
100
AcDbArc
 50
293.8462325994
 51
301.0338407167
  0
ARC
  5
267
100
AcDbEntity
  8
0
100
AcDbCircle
 62
7
  6
CONTINUOUS
 10
4.7350099325
 20
4.9808097009
 40
0.10472
100
AcDbArc
 50
275.7240678469
 51
281.9407056562
  0
ARC
  5
268
100
AcDbEntity
  8
0
100
AcDbCircle
 62
7
  6
CONTINUOUS
 10
4.7350099325
 20
4.9808097009
 40
0.10472
100
AcDbArc
 50
258.0592943438
 51
264.2759321531
  0
ARC
  5
269
100
AcDbEntity
  8
0
100
AcDbCircle
 62
7
  6
CONTINUOUS
 10
4.7350099325
 20
4.9808097009
 40
0.10472
100
AcDbArc
 50
238.9661592833
 51
246.1537674006
  0
CIRCLE
  5
26A
100
AcDbEntity
  8
0
100
AcDbCircle
 62
7
  6
CONTINUOUS
 10
4.7350099325
 20
4.9808097009
 40
0.0935
  0
CIRCLE
  5
26B
100
AcDbEntity
  8
0
100
AcDbCircle
 62
7
  6
CONTINUOUS
 10
4.7350099325
 20
4.9808097009
 40
0.09163
  0
CIRCLE
  5
26C
100
AcDbEntity
  8
0
100
AcDbCircle
 62
7
  6
CONTINUOUS
 10
4.7350099325
 20
4.9808097009
 40
0.08789
  0
CIRCLE
  5
26D
100
AcDbEntity
  8
0
100
AcDbCircle
 62
7
  6
CONTINUOUS
 10
4.7350099325
 20
4.9808097009
 40
0.086955
  0
CIRCLE
  5
26E
100
AcDbEntity
  8
0
100
AcDbCircle
 62
7
  6
CONTINUOUS
 10
4.7350099325
 20
4.9808097009
 40
0.08602
  0
CIRCLE
  5
26F
100
AcDbEntity
  8
0
100
AcDbCircle
 62
7
  6
CONTINUOUS
 10
4.7350099325
 20
4.9808097009
 40
0.08415
  0
ARC
  5
270
100
AcDbEntity
  8
0
100
AcDbCircle
 62
7
  6
CONTINUOUS
 10
4.637269906
 20
5.0397073387
 40
0.0036811024
100
AcDbArc
 50
148.9270490274
 51
270.0000000002
  0
ARC
  5
271
100
AcDbEntity
  8
0
100
AcDbCircle
 62
7
  6
CONTINUOUS
 10
4.7929809044
 20
5.0875614101
 40
0.0036814132
100
AcDbArc
 50
90.0142230174
 51
241.482882139
  0
ARC
  5
272
100
AcDbEntity
  8
0
100
AcDbCircle
 62
7
  6
CONTINUOUS
 10
5.471230405
 20
4.9808097009
 40
0.5521523924
100
AcDbArc
 50
191.5373525822
 51
250.5279986342
  0
ARC
  5
273
100
AcDbEntity
  8
0
100
AcDbCircle
 62
7
  6
CONTINUOUS
 10
5.471230405
 20
4.9808097009
 40
0.5521523924
100
AcDbArc
 50
289.4720013658
 51
339.8933178023
  0
ARC
  5
274
100
AcDbEntity
  8
0
100
AcDbCircle
 62
7
  6
CONTINUOUS
 10
5.471230405
 20
4.9808097009
 40
0.5521523924
100
AcDbArc
 50
20.1066821977
 51
168.4626474178
  0
ARC
  5
275
100
AcDbEntity
  8
0
100
AcDbCircle
 62
7
  6
CONTINUOUS
 10
5.471230405
 20
4.9808097009
 40
0.5504144586
100
AcDbArc
 50
289.536033229
 51
339.8287734598
  0
ARC
  5
276
100
AcDbEntity
  8
0
100
AcDbCircle
 62
7
  6
CONTINUOUS
 10
5.471230405
 20
4.9808097009
 40
0.5504144586
100
AcDbArc
 50
191.5743151618
 51
250.463966748
  0
ARC
  5
277
100
AcDbEntity
  8
0
100
AcDbCircle
 62
7
  6
CONTINUOUS
 10
5.471230405
 20
4.9808097009
 40
0.5504144586
100
AcDbArc
 50
20.1712264993
 51
168.4256848119
  0
ARC
  5
278
100
AcDbEntity
  8
0
100
AcDbCircle
 62
7
  6
CONTINUOUS
 10
5.471230405
 20
4.9808097009
 40
0.5300339502
100
AcDbArc
 50
192.0259542239
 51
249.6802985231
  0
ARC
  5
279
100
AcDbEntity
  8
0
100
AcDbCircle
 62
7
  6
CONTINUOUS
 10
5.471230405
 20
4.9808097009
 40
0.5300339502
100
AcDbArc
 50
290.3197014769
 51
339.03952498
  0
ARC
  5
27A
100
AcDbEntity
  8
0
100
AcDbCircle
 62
7
  6
CONTINUOUS
 10
5.471230405
 20
4.9808097009
 40
0.5300339502
100
AcDbArc
 50
20.9604703396
 51
167.9740466009
  0
ARC
  5
27B
100
AcDbEntity
  8
0
100
AcDbCircle
 62
7
  6
CONTINUOUS
 10
5.471230405
 20
4.9808097009
 40
0.2116633858
100
AcDbArc
 50
60.4113015821
 51
148.5499574302
  0
ARC
  5
27C
100
AcDbEntity
  8
0
100
AcDbCircle
 62
7
  6
CONTINUOUS
 10
5.8737548928
 20
5.0157662394
 40
0.2061417323
100
AcDbArc
 50
270.6661825159
 51
283.1615955803
  0
ARC
  5
27D
100
AcDbEntity
  8
0
100
AcDbCircle
 62
7
  6
CONTINUOUS
 10
5.471230405
 20
4.9808097009
 40
0.2043011811
100
AcDbArc
 50
64.2788138448
 51
147.2795453858
  0
ARC
  5
27E
100
AcDbEntity
  8
0
100
AcDbCircle
 62
7
  6
CONTINUOUS
 10
5.4712304069
 20
4.9808097009
 40
0.1932578731
100
AcDbArc
 50
72.2522323809
 51
145.149185771
  0
ARC
  5
27F
100
AcDbEntity
  8
0
100
AcDbCircle
 62
7
  6
CONTINUOUS
 10
5.471230405
 20
4.9844908032
 40
0.1840551181
100
AcDbArc
 50
0.0
 51
180.0
  0
ARC
  5
280
100
AcDbEntity
  8
0
100
AcDbCircle
 62
7
  6
CONTINUOUS
 10
5.471230405
 20
4.9844908032
 40
0.1693307087
100
AcDbArc
 50
0.0
 51
180.0
  0
CIRCLE
  5
281
100
AcDbEntity
  8
0
100
AcDbCircle
 62
7
  6
CONTINUOUS
 10
6.0274449719
 20
4.9808097009
 40
0.0287125984
  0
ARC
  5
282
100
AcDbEntity
  8
0
100
AcDbCircle
 62
7
  6
CONTINUOUS
 10
5.3167999666
 20
5.1059621975
 40
0.014719445
100
AcDbArc
 50
269.9980694569
 51
290.5867209909
  0
ARC
  5
283
100
AcDbEntity
  8
0
100
AcDbCircle
 62
7
  6
CONTINUOUS
 10
6.156410515
 20
5.1647129528
 40
0.0073622047
100
AcDbArc
 50
1.375218207
 51
90.5
  0
ARC
  5
284
100
AcDbEntity
  8
0
100
AcDbCircle
 62
7
  6
CONTINUOUS
 10
6.1119812848
 20
5.1643252248
 40
0.0073622047
100
AcDbArc
 50
90.5000070085
 51
178.7014902833
  0
ARC
  5
285
100
AcDbEntity
  8
0
100
AcDbCircle
 62
7
  6
CONTINUOUS
 10
5.8724705625
 20
5.1611837166
 40
0.0036811024
100
AcDbArc
 50
0.0
 51
90.0
  0
ARC
  5
286
100
AcDbEntity
  8
0
100
AcDbCircle
 62
7
  6
CONTINUOUS
 10
14.2080814549
 20
4.9808097009
 40
8.1055419948
100
AcDbArc
 50
178.701488425
 51
181.298511635
  0
ARC
  5
287
100
AcDbEntity
  8
0
100
AcDbCircle
 62
7
  6
CONTINUOUS
 10
14.2080178448
 20
4.9808097009
 40
8.0981804264
100
AcDbArc
 50
178.7535999993
 51
181.2464000008
  0
SPLINE
  5
288
100
AcDbEntity
  8
0
100
AcDbSpline
 62
7
  6
CONTINUOUS
 70
0
 71
3
 72
23
 73
19
 74
0
 42
0.0000001
 43
0.0000001
 44
0.0000000001
 40
0.0
 40
0.0
 40
0.0
 40
0.0
 40
0.0613789531
 40
0.1228015621
 40
0.1843097154
 40
0.2459418482
 40
0.3077314179
 40
0.3697056006
 40
0.4318842739
 40
0.4942792965
 40
0.5568941417
 40
0.6197238333
 40
0.6827552417
 40
0.7459676342
 40
0.8093335472
 40
0.8728198062
 40
0.9363884705
 40
1.0
 40
1.0
 40
1.0
 40
1.0
 10
4.2622107361
 20
4.9293847036
 30
0.0
 10
4.2605876995
 20
4.9293847036
 30
0.0
 10
4.2573380499
 20
4.9295501855
 30
0.0
 10
4.2525131315
 20
4.9302923896
 30
0.0
 10
4.2477812848
 20
4.9315213789
 30
0.0
 10
4.2431888237
 20
4.9332252686
 30
0.0
 10
4.2387798401
 20
4.9353875336
 30
0.0
 10
4.2345968686
 20
4.9379872646
 30
0.0
 10
4.2306801607
 20
4.9409993104
 30
0.0
 10
4.2270674024
 20
4.9443945787
 30
0.0
 10
4.223793318
 20
4.9481402939
 30
0.0
 10
4.2208893531
 20
4.9522003313
 30
0.0
 10
4.2183833887
 20
4.9565355672
 30
0.0
 10
4.2162994518
 20
4.9611042591
 30
0.0
 10
4.2146575402
 20
4.9658624012
 30
0.0
 10
4.213473373
 20
4.9707643644
 30
0.0
 10
4.2127583055
 20
4.9757624396
 30
0.0
 10
4.2125989096
 20
4.9791276284
 30
0.0
 10
4.2125989096
 20
4.9808097009
 30
0.0
  0
SPLINE
  5
289
100
AcDbEntity
  8
0
100
AcDbSpline
 62
7
  6
CONTINUOUS
 70
0
 71
3
 72
15
 73
11
 74
0
 42
0.0000001
 43
0.0000001
 44
0.0000000001
 40
0.0
 40
0.0
 40
0.0
 40
0.0
 40
0.1288003021
 40
0.2571647118
 40
0.3846913493
 40
0.5110280628
 40
0.6358957258
 40
0.7590893687
 40
0.8804813075
 40
1.0
 40
1.0
 40
1.0
 40
1.0
 10
5.6773721373
 20
4.9808097009
 30
0.0
 10
5.6773720451
 20
4.9844024877
 30
0.0
 10
5.6771364688
 20
4.991578118
 30
0.0
 10
5.6760836725
 20
5.0022642903
 30
0.0
 10
5.674351482
 20
5.0127921854
 30
0.0
 10
5.6719723106
 20
5.0230924439
 30
0.0
 10
5.6689873174
 20
5.0331072973
 30
0.0
 10
5.6654417663
 20
5.0427905866
 30
0.0
 10
5.661384856
 20
5.0521076672
 30
0.0
 10
5.6583475256
 20
5.0581069255
 30
0.0
 10
5.656757964
 20
5.0610374669
 30
0.0
  0
SPLINE
  5
28A
100
AcDbEntity
  8
0
100
AcDbSpline
 62
7
  6
CONTINUOUS
 70
0
 71
3
 72
23
 73
19
 74
0
 42
0.0000001
 43
0.0000001
 44
0.0000000001
 40
0.0
 40
0.0
 40
0.0
 40
0.0
 40
0.0613789531
 40
0.1228015621
 40
0.1843097154
 40
0.2459418482
 40
0.3077314179
 40
0.3697056006
 40
0.4318842739
 40
0.4942792965
 40
0.5568941417
 40
0.6197238333
 40
0.6827552417
 40
0.7459676342
 40
0.8093335472
 40
0.8728198062
 40
0.9363884705
 40
1.0
 40
1.0
 40
1.0
 40
1.0
 10
4.3530677669
 20
4.9293847036
 30
0.0
 10
4.3514447302
 20
4.9293847036
 30
0.0
 10
4.3481950806
 20
4.9295501855
 30
0.0
 10
4.3433701623
 20
4.9302923896
 30
0.0
 10
4.3386383156
 20
4.9315213789
 30
0.0
 10
4.3340458545
 20
4.9332252686
 30
0.0
 10
4.3296368709
 20
4.9353875336
 30
0.0
 10
4.3254538993
 20
4.9379872646
 30
0.0
 10
4.3215371914
 20
4.9409993104
 30
0.0
 10
4.3179244331
 20
4.9443945787
 30
0.0
 10
4.3146503488
 20
4.9481402939
 30
0.0
 10
4.3117463838
 20
4.9522003313
 30
0.0
 10
4.3092404194
 20
4.9565355672
 30
0.0
 10
4.3071564825
 20
4.9611042591
 30
0.0
 10
4.3055145709
 20
4.9658624012
 30
0.0
 10
4.3043304037
 20
4.9707643644
 30
0.0
 10
4.3036153363
 20
4.9757624396
 30
0.0
 10
4.3034559403
 20
4.9791276284
 30
0.0
 10
4.3034559403
 20
4.9808097009
 30
0.0
  0
SPLINE
  5
28B
100
AcDbEntity
  8
0
100
AcDbSpline
 62
7
  6
CONTINUOUS
 70
0
 71
3
 72
23
 73
19
 74
0
 42
0.0000001
 43
0.0000001
 44
0.0000000001
 40
0.0
 40
0.0
 40
0.0
 40
0.0
 40
0.0621737844
 40
0.1243601531
 40
0.1865712005
 40
0.2488180563
 40
0.3111104602
 40
0.373456377
 40
0.4358617044
 40
0.4983300356
 40
0.5608625446
 40
0.6234579293
 40
0.6861124886
 40
0.7488202512
 40
0.8115732353
 40
0.8743617146
 40
0.9371742773
 40
1.0
 40
1.0
 40
1.0
 40
1.0
 10
4.4051706403
 20
4.9293847036
 30
0.0
 10
4.4035059253
 20
4.9293847036
 30
0.0
 10
4.4001737961
 20
4.9295500867
 30
0.0
 10
4.3952258201
 20
4.9302919227
 30
0.0
 10
4.3903731639
 20
4.9315203422
 30
0.0
 10
4.3856632336
 20
4.9332235205
 30
0.0
 10
4.3811412233
 20
4.9353850073
 30
0.0
 10
4.3768507427
 20
4.9379839746
 30
0.0
 10
4.3728330906
 20
4.9409953512
 30
0.0
 10
4.3691269561
 20
4.9443901159
 30
0.0
 10
4.3657680113
 20
4.9481355493
 30
0.0
 10
4.3627885782
 20
4.9521955636
 30
0.0
 10
4.3602173303
 20
4.9565310509
 30
0.0
 10
4.358078989
 20
4.9611002629
 30
0.0
 10
4.356394137
 20
4.9658591658
 30
0.0
 10
4.3551789588
 20
4.9707620946
 30
0.0
 10
4.3544451479
 20
4.9757612512
 30
0.0
 10
4.3542815591
 20
4.9791275301
 30
0.0
 10
4.3542815591
 20
4.9808097009
 30
0.0
  0
SPLINE
  5
28C
100
AcDbEntity
  8
0
100
AcDbSpline
 62
7
  6
CONTINUOUS
 70
0
 71
3
 72
23
 73
19
 74
0
 42
0.0000001
 43
0.0000001
 44
0.0000000001
 40
0.0
 40
0.0
 40
0.0
 40
0.0
 40
0.0621512762
 40
0.1243160081
 40
0.1865071274
 40
0.248736533
 40
0.3110146366
 40
0.3733499513
 40
0.4357487783
 40
0.4982149553
 40
0.5607497323
 40
0.6233517139
 40
0.6860169397
 40
0.7487390252
 40
0.8115094369
 40
0.8743177798
 40
0.9371518827
 40
1.0
 40
1.0
 40
1.0
 40
1.0
 10
4.4505134448
 20
4.9293847036
 30
0.0
 10
4.4488499185
 20
4.9293847036
 30
0.0
 10
4.4455201416
 20
4.9295500875
 30
0.0
 10
4.4405756733
 20
4.930291925
 30
0.0
 10
4.4357264573
 20
4.931520347
 30
0.0
 10
4.4310198673
 20
4.9332235282
 30
0.0
 10
4.426501065
 20
4.935385018
 30
0.0
 10
4.4222136296
 20
4.9379839883
 30
0.0
 10
4.41819883
 20
4.9409953673
 30
0.0
 10
4.4144953281
 20
4.9443901336
 30
0.0
 10
4.4111387701
 20
4.9481355677
 30
0.0
 10
4.4081614549
 20
4.9521955817
 30
0.0
 10
4.4055920352
 20
4.9565310676
 30
0.0
 10
4.4034552146
 20
4.9611002774
 30
0.0
 10
4.401771561
 20
4.9658591774
 30
0.0
 10
4.4005572472
 20
4.9707621025
 30
0.0
 10
4.3998239583
 20
4.9757612557
 30
0.0
 10
4.3996604864
 20
4.979127523
 30
0.0
 10
4.3996604864
 20
4.9808097009
 30
0.0
  0
SPLINE
  5
28D
100
AcDbEntity
  8
0
100
AcDbSpline
 62
7
  6
CONTINUOUS
 70
0
 71
3
 72
60
 73
56
 74
0
 42
0.0000001
 43
0.0000001
 44
0.0000000001
 40
0.0
 40
0.0
 40
0.0
 40
0.0
 40
0.0000371465
 40
0.0001488177
 40
0.0003354721
 40
0.0005975682
 40
0.0009355646
 40
0.0013499201
 40
0.0024095425
 40
0.0037797519
 40
0.0054592435
 40
0.0074434675
 40
0.0097278064
 40
0.015179685
 40
0.0217962456
 40
0.0295704342
 40
0.0384899666
 40
0.0485360431
 40
0.0596818557
 40
0.0851078743
 40
0.1144672385
 40
0.147500879
 40
0.1839173462
 40
0.2233474524
 40
0.2654036276
 40
0.3096960182
 40
0.3558116616
 40
0.4032928276
 40
0.5005655701
 40
0.5978849721
 40
0.691523849
 40
0.7358103991
 40
0.7778487926
 40
0.8172523561
 40
0.853627953
 40
0.8865805436
 40
0.9157825559
 40
0.9409883729
 40
0.9520191569
 40
0.9619586463
 40
0.9707825338
 40
0.9784705602
 40
0.9850110307
 40
0.9903982081
 40
0.9926545865
 40
0.9946139213
 40
0.9962717622
 40
0.9976237512
 40
0.9986689747
 40
0.9990776193
 40
0.9994109135
 40
0.9996693279
 40
0.9998533333
 40
0.9999634005
 40
1.0
 40
1.0
 40
1.0
 40
1.0
 10
4.757798685
 20
4.8793856146
 30
0.0
 10
4.7577985889
 20
4.87938547
 30
0.0
 10
4.757797722
 20
4.8793856226
 30
0.0
 10
4.7577963546
 20
4.8793850763
 30
0.0
 10
4.7577936746
 20
4.8793847654
 30
0.0
 10
4.7577900985
 20
4.8793840474
 30
0.0
 10
4.7577854119
 20
4.8793832376
 30
0.0
 10
4.7577770798
 20
4.8793817346
 30
0.0
 10
4.757763981
 20
4.8793794115
 30
0.0
 10
4.7577450635
 20
4.8793760538
 30
0.0
 10
4.757721884
 20
4.8793719567
 30
0.0
 10
4.7576944957
 20
4.8793671177
 30
0.0
 10
4.7576497365
 20
4.8793592115
 30
0.0
 10
4.7575836504
 20
4.8793475194
 30
0.0
 10
4.7574922804
 20
4.8793313906
 30
0.0
 10
4.75738492
 20
4.8793125726
 30
0.0
 10
4.7572617382
 20
4.8792911358
 30
0.0
 10
4.7571230052
 20
4.8792671057
 30
0.0
 10
4.7569081939
 20
4.8792300633
 30
0.0
 10
4.7566043108
 20
4.879178126
 30
0.0
 10
4.7561993185
 20
4.87911028
 30
0.0
 10
4.7557433301
 20
4.8790358269
 30
0.0
 10
4.7552405666
 20
4.8789556494
 30
0.0
 10
4.7546958581
 20
4.8788706206
 30
0.0
 10
4.7541144281
 20
4.8787820755
 30
0.0
 10
4.7535016156
 20
4.8786920168
 30
0.0
 10
4.7528633403
 20
4.8786007941
 30
0.0
 10
4.7519792582
 20
4.87847855
 30
0.0
 10
4.7508569191
 20
4.8783314529
 30
0.0
 10
4.7495188455
 20
4.8781701171
 30
0.0
 10
4.7484257051
 20
4.8780474591
 30
0.0
 10
4.7475888451
 20
4.8779592189
 30
0.0
 10
4.7470039452
 20
4.8778999216
 30
0.0
 10
4.7464556665
 20
4.8778461727
 30
0.0
 10
4.7459494764
 20
4.8777985791
 30
0.0
 10
4.7454906273
 20
4.8777570974
 30
0.0
 10
4.7450837043
 20
4.8777213427
 30
0.0
 10
4.7447788414
 20
4.8776951485
 30
0.0
 10
4.7445636864
 20
4.8776770384
 30
0.0
 10
4.7444248455
 20
4.8776655514
 30
0.0
 10
4.7443015703
 20
4.8776554946
 30
0.0
 10
4.7441941324
 20
4.8776467752
 30
0.0
 10
4.7441027105
 20
4.8776393697
 30
0.0
 10
4.7440366016
 20
4.8776340407
 30
0.0
 10
4.7439918427
 20
4.877630453
 30
0.0
 10
4.7439644657
 20
4.8776282675
 30
0.0
 10
4.7439413029
 20
4.8776264249
 30
0.0
 10
4.7439224019
 20
4.8776249344
 30
0.0
 10
4.7439093195
 20
4.8776238983
 30
0.0
 10
4.7439009923
 20
4.8776232609
 30
0.0
 10
4.7438963204
 20
4.8776228701
 30
0.0
 10
4.7438927258
 20
4.8776226609
 30
0.0
 10
4.7438901012
 20
4.8776223013
 30
0.0
 10
4.7438886451
 20
4.8776224632
 30
0.0
 10
4.7438878729
 20
4.8776221211
 30
0.0
 10
4.7438877385
 20
4.877622227
 30
0.0
  0
SPLINE
  5
28E
100
AcDbEntity
  8
0
100
AcDbSpline
 62
7
  6
CONTINUOUS
 70
0
 71
3
 72
63
 73
59
 74
0
 42
0.0000001
 43
0.0000001
 44
0.0000000001
 40
0.0
 40
0.0
 40
0.0
 40
0.0
 40
0.0000365842
 40
0.0001466424
 40
0.0003306439
 40
0.0005890581
 40
0.0009223545
 40
0.0013310025
 40
0.002376231
 40
0.0037282167
 40
0.0053860538
 40
0.0073453864
 40
0.0096017652
 40
0.0149889496
 40
0.0215294198
 40
0.0292174497
 40
0.0380413706
 40
0.0479808804
 40
0.0590116509
 40
0.0711013109
 40
0.0842174442
 40
0.1134194906
 40
0.1463719535
 40
0.1827475078
 40
0.2221515907
 40
0.2641895016
 40
0.3084759534
 40
0.4021154839
 40
0.499434345
 40
0.5483083289
 40
0.5967075077
 40
0.6441891035
 40
0.6903034735
 40
0.7345965316
 40
0.7766526951
 40
0.8160829226
 40
0.8524987634
 40
0.8855326055
 40
0.9148922503
 40
0.9281138772
 40
0.9403181286
 40
0.9514639465
 40
0.9615099566
 40
0.9704294312
 40
0.9782036613
 40
0.9848203641
 40
0.990272358
 40
0.9925567111
 40
0.9945409268
 40
0.9962203971
 40
0.9975905821
 40
0.9986501892
 40
0.9990645375
 40
0.9994025247
 40
0.9996646078
 40
0.9998512435
 40
0.9999628886
 40
1.0
 40
1.0
 40
1.0
 40
1.0
 10
4.7261321266
 20
4.877622227
 30
0.0
 10
4.7261320611
 20
4.877622069
 30
0.0
 10
4.7261311211
 20
4.8776225386
 30
0.0
 10
4.7261298279
 20
4.8776222533
 30
0.0
 10
4.7261271101
 20
4.8776226837
 30
0.0
 10
4.7261235569
 20
4.8776228617
 30
0.0
 10
4.7261188689
 20
4.8776232648
 30
0.0
 10
4.7261105494
 20
4.8776238966
 30
0.0
 10
4.7260974619
 20
4.8776249367
 30
0.0
 10
4.7260785632
 20
4.8776264257
 30
0.0
 10
4.7260553996
 20
4.877628269
 30
0.0
 10
4.7260280229
 20
4.8776304542
 30
0.0
 10
4.7259832639
 20
4.8776340421
 30
0.0
 10
4.725917155
 20
4.8776393714
 30
0.0
 10
4.725825733
 20
4.8776467773
 30
0.0
 10
4.7257182948
 20
4.8776554959
 30
0.0
 10
4.7255950191
 20
4.8776655505
 30
0.0
 10
4.7254561779
 20
4.8776770363
 30
0.0
 10
4.7253021368
 20
4.8776900019
 30
0.0
 10
4.7251333107
 20
4.8777044063
 30
0.0
 10
4.7248798469
 20
4.8777262923
 30
0.0
 10
4.7245292371
 20
4.8777570927
 30
0.0
 10
4.724070389
 20
4.8777985799
 30
0.0
 10
4.7235641989
 20
4.8778461918
 30
0.0
 10
4.723015913
 20
4.8778998682
 30
0.0
 10
4.7224310235
 20
4.8779592687
 30
0.0
 10
4.7215941642
 20
4.8780475172
 30
0.0
 10
4.7205009926
 20
4.878169911
 30
0.0
 10
4.719387658
 20
4.8783046166
 30
0.0
 10
4.7184851171
 20
4.8784201147
 30
0.0
 10
4.7178142216
 20
4.8785098172
 30
0.0
 10
4.7171565472
 20
4.8786009628
 30
0.0
 10
4.7165182251
 20
4.8786918529
 30
0.0
 10
4.715905446
 20
4.8787821228
 30
0.0
 10
4.7153240039
 20
4.8788706115
 30
0.0
 10
4.7147793031
 20
4.8789556753
 30
0.0
 10
4.7142765326
 20
4.8790358012
 30
0.0
 10
4.7138205482
 20
4.8791102754
 30
0.0
 10
4.7134718381
 20
4.8791687052
 30
0.0
 10
4.7132192947
 20
4.8792116753
 30
0.0
 10
4.7130507464
 20
4.8792405667
 30
0.0
 10
4.7128968608
 20
4.8792671073
 30
0.0
 10
4.712758128
 20
4.8792911351
 30
0.0
 10
4.7126349458
 20
4.8793125679
 30
0.0
 10
4.7125275849
 20
4.8793313867
 30
0.0
 10
4.7124362143
 20
4.8793475207
 30
0.0
 10
4.7123701277
 20
4.8793592163
 30
0.0
 10
4.7123253677
 20
4.8793671231
 30
0.0
 10
4.7122979803
 20
4.8793719619
 30
0.0
 10
4.7122747985
 20
4.8793760584
 30
0.0
 10
4.7122558876
 20
4.8793794152
 30
0.0
 10
4.7122427744
 20
4.8793817378
 30
0.0
 10
4.7122344644
 20
4.8793832399
 30
0.0
 10
4.7122297317
 20
4.87938405
 30
0.0
 10
4.7122262742
 20
4.8793847655
 30
0.0
 10
4.7122233275
 20
4.8793850805
 30
0.0
 10
4.7122224269
 20
4.8793856184
 30
0.0
 10
4.7122210787
 20
4.8793854738
 30
0.0
 10
4.7122211801
 20
4.8793856146
 30
0.0
  0
SPLINE
  5
28F
100
AcDbEntity
  8
0
100
AcDbSpline
 62
7
  6
CONTINUOUS
 70
0
 71
3
 72
28
 73
24
 74
0
 42
0.0000001
 43
0.0000001
 44
0.0000000001
 40
0.0
 40
0.0
 40
0.0
 40
0.0
 40
0.0004692684
 40
0.0018736251
 40
0.0042092582
 40
0.0074705099
 40
0.0116498777
 40
0.016738702
 40
0.0295912568
 40
0.0459049398
 40
0.065529232
 40
0.0882893776
 40
0.1139840811
 40
0.1423924626
 40
0.1732836137
 40
0.2415603826
 40
0.3168066282
 40
0.3970088933
 40
0.4802564847
 40
0.564696497
 40
0.7302185489
 40
0.8800513552
 40
1.0
 40
1.0
 40
1.0
 40
1.0
 10
4.6946872393
 20
4.8858949941
 30
0.0
 10
4.6946852104
 20
4.8858959278
 30
0.0
 10
4.6946765675
 20
4.8858983005
 30
0.0
 10
4.6946578094
 20
4.8859052786
 30
0.0
 10
4.6946261687
 20
4.885915784
 30
0.0
 10
4.6945821978
 20
4.885930983
 30
0.0
 10
4.694525771
 20
4.885950284
 30
0.0
 10
4.6944262119
 20
4.8859845245
 30
0.0
 10
4.6942720795
 20
4.8860376713
 30
0.0
 10
4.694052684
 20
4.8861137703
 30
0.0
 10
4.6937889202
 20
4.8862058501
 30
0.0
 10
4.6934833097
 20
4.8863135229
 30
0.0
 10
4.6931386287
 20
4.8864361102
 30
0.0
 10
4.6927579201
 20
4.8865728823
 30
0.0
 10
4.6921872494
 20
4.8867803135
 30
0.0
 10
4.6914086897
 20
4.8870683639
 30
0.0
 10
4.690413895
 20
4.8874481889
 30
0.0
 10
4.6893564271
 20
4.8878634844
 30
0.0
 10
4.6882630722
 20
4.8883069361
 30
0.0
 10
4.6868005607
 20
4.8889203417
 30
0.0
 10
4.6850583371
 20
4.8896859303
 30
0.0
 10
4.6831810535
 20
4.89056282
 30
0.0
 10
4.6820283259
 20
4.8911286168
 30
0.0
 10
4.6815180469
 20
4.8913846202
 30
0.0
  0
LINE
  5
290
100
AcDbEntity
  8
0
100
AcDbLine
 62
7
  6
CONTINUOUS
 10
4.6815180469
 20
4.8913846202
 11
4.6803460119
 21
4.8919825858
  0
SPLINE
  5
291
100
AcDbEntity
  8
0
100
AcDbSpline
 62
7
  6
CONTINUOUS
 70
0
 71
3
 72
20
 73
16
 74
0
 42
0.0000001
 43
0.0000001
 44
0.0000000001
 40
0.0
 40
0.0
 40
0.0
 40
0.0
 40
0.0231463479
 40
0.0461809819
 40
0.0929097361
 40
0.1417490671
 40
0.1934179499
 40
0.2481261621
 40
0.3059181301
 40
0.3666662864
 40
0.4300897742
 40
0.5636200584
 40
0.7045065385
 40
0.850604157
 40
1.0
 40
1.0
 40
1.0
 40
1.0
 10
6.1046209724
 20
4.7971273195
 30
0.0
 10
6.1046239456
 20
4.7969962712
 30
0.0
 10
6.1046125954
 20
4.7967340879
 30
0.0
 10
6.1045229371
 20
4.7962144333
 30
0.0
 10
6.1042901938
 20
4.7955780846
 30
0.0
 10
6.1038556166
 20
4.7948618238
 30
0.0
 10
6.1032861742
 20
4.7941883695
 30
0.0
 10
6.1025998334
 20
4.7935582371
 30
0.0
 10
6.1018096156
 20
4.7929740738
 30
0.0
 10
6.1009280515
 20
4.792438087
 30
0.0
 10
6.0996243804
 20
4.7917794286
 30
0.0
 10
6.0978298383
 20
4.7910994022
 30
0.0
 10
6.0955150392
 20
4.7905204651
 30
0.0
 10
6.0930633821
 20
4.790177773
 30
0.0
 10
6.0913881231
 20
4.790111402
 30
0.0
 10
6.0905420996
 20
4.7901188029
 30
0.0
  0
SPLINE
  5
292
100
AcDbEntity
  8
0
100
AcDbSpline
 62
7
  6
CONTINUOUS
 70
0
 71
3
 72
23
 73
19
 74
0
 42
0.0000001
 43
0.0000001
 44
0.0000000001
 40
0.0
 40
0.0
 40
0.0
 40
0.0
 40
0.0621945259
 40
0.1244002189
 40
0.1866293378
 40
0.2488920215
 40
0.3111973796
 40
0.3735528887
 40
0.4359640856
 40
0.4984343507
 40
0.5609647878
 40
0.6235541812
 40
0.6861990609
 40
0.7488938376
 40
0.8116310253
 40
0.8744014991
 40
0.9371945909
 40
1.0
 40
1.0
 40
1.0
 40
1.0
 10
4.5632511688
 20
4.9293847009
 30
0.0
 10
4.5615852725
 20
4.9293847009
 30
0.0
 10
4.558250821
 20
4.9295500706
 30
0.0
 10
4.5532993646
 20
4.9302918149
 30
0.0
 10
4.5484432763
 20
4.9315201135
 30
0.0
 10
4.5437299541
 20
4.933223114
 30
0.0
 10
4.5392046413
 20
4.9353844279
 30
0.0
 10
4.5349109557
 20
4.9379832023
 30
0.0
 10
4.5308902488
 20
4.9409944218
 30
0.0
 10
4.5271812232
 20
4.9443890523
 30
0.0
 10
4.5238196099
 20
4.9481344135
 30
0.0
 10
4.5208377515
 20
4.9521944099
 30
0.0
 10
4.5182643768
 20
4.9565299518
 30
0.0
 10
4.5161242315
 20
4.9610992829
 30
0.0
 10
4.5144379412
 20
4.9658583687
 30
0.0
 10
4.5132217118
 20
4.9707615326
 30
0.0
 10
4.512487263
 20
4.9757609603
 30
0.0
 10
4.5123235308
 20
4.9791274419
 30
0.0
 10
4.5123235308
 20
4.9808097009
 30
0.0
  0
SPLINE
  5
293
100
AcDbEntity
  8
0
100
AcDbSpline
 62
7
  6
CONTINUOUS
 70
0
 71
3
 72
20
 73
16
 74
0
 42
0.0000001
 43
0.0000001
 44
0.0000000001
 40
0.0
 40
0.0
 40
0.0
 40
0.0
 40
0.1493790306
 40
0.2954938258
 40
0.4363843955
 40
0.5699098669
 40
0.6333323262
 40
0.6940806464
 40
0.7518732765
 40
0.8065819691
 40
0.8582507243
 40
0.907089766
 40
0.9538186353
 40
0.9768534551
 40
1.0
 40
1.0
 40
1.0
 40
1.0
 10
6.0905421
 20
5.1715005989
 30
0.0
 10
6.0913880283
 20
5.1715080259
 30
0.0
 10
6.0930632898
 20
5.1714416186
 30
0.0
 10
6.0955149731
 20
5.1710989469
 30
0.0
 10
6.0978298741
 20
5.1705200222
 30
0.0
 10
6.0996243997
 20
5.1698399754
 30
0.0
 10
6.1009280351
 20
5.1691813175
 30
0.0
 10
6.101809596
 20
5.1686453276
 30
0.0
 10
6.1025998214
 20
5.1680611621
 30
0.0
 10
6.1032861721
 20
5.1674310318
 30
0.0
 10
6.1038556206
 20
5.1667575814
 30
0.0
 10
6.1042901972
 20
5.1660413215
 30
0.0
 10
6.1045229354
 20
5.1654049706
 30
0.0
 10
6.1046125918
 20
5.1648853127
 30
0.0
 10
6.104623942
 20
5.1646231272
 30
0.0
 10
6.1046209691
 20
5.1644920778
 30
0.0
  0
LINE
  5
294
100
AcDbEntity
  8
0
100
AcDbLine
 62
7
  6
CONTINUOUS
 10
6.1563460746
 20
5.1720748755
 11
6.1565194296
 21
5.1573525395
  0
LINE
  5
295
100
AcDbEntity
  8
0
100
AcDbLine
 62
7
  6
CONTINUOUS
 10
6.1119172201
 20
5.1716871508
 11
6.1117534816
 21
5.156961873
  0
LINE
  5
296
100
AcDbEntity
  8
0
100
AcDbLine
 62
7
  6
CONTINUOUS
 10
6.1117532969
 20
4.8046575303
 11
6.11191704
 21
4.7899322526
  0
LINE
  5
297
100
AcDbEntity
  8
0
100
AcDbLine
 62
7
  6
CONTINUOUS
 10
6.1565196237
 20
4.8042668605
 11
6.1563462682
 21
4.7895445246
  0
SPLINE
  5
298
100
AcDbEntity
  8
0
100
AcDbSpline
 62
7
  6
CONTINUOUS
 70
0
 71
3
 72
23
 73
19
 74
0
 42
0.0000001
 43
0.0000001
 44
0.0000000001
 40
0.0
 40
0.0
 40
0.0
 40
0.0
 40
0.0623797733
 40
0.1247634363
 40
0.1871568994
 40
0.2495640166
 40
0.3119881842
 40
0.3744321839
 40
0.436898066
 40
0.4993870493
 40
0.5618994948
 40
0.6244348747
 40
0.6869918083
 40
0.7495680982
 40
0.8121608335
 40
0.8747664607
 40
0.9373806414
 40
1.0
 40
1.0
 40
1.0
 40
1.0
 10
4.6569156004
 20
4.9293936771
 30
0.0
 10
4.6552594692
 20
4.9294247246
 30
0.0
 10
4.6519478663
 20
4.9296481455
 30
0.0
 10
4.6470380005
 20
4.9304640541
 30
0.0
 10
4.6422293823
 20
4.9317531035
 30
0.0
 10
4.6375677406
 20
4.9335032419
 30
0.0
 10
4.6330967063
 20
4.9356980964
 30
0.0
 10
4.6288583429
 20
4.9383171088
 30
0.0
 10
4.6248925052
 20
4.9413357513
 30
0.0
 10
4.6212365108
 20
4.9447257123
 30
0.0
 10
4.6179248027
 20
4.9484551984
 30
0.0
 10
4.6149885791
 20
4.9524891817
 30
0.0
 10
4.6124555513
 20
4.9567897685
 30
0.0
 10
4.6103496061
 20
4.9613165238
 30
0.0
 10
4.6086906549
 20
4.9660268262
 30
0.0
 10
4.6074943513
 20
4.970876485
 30
0.0
 10
4.6067720163
 20
4.9758192424
 30
0.0
 10
4.6066109908
 20
4.9791469168
 30
0.0
 10
4.6066109908
 20
4.9808097009
 30
0.0
  0
LINE
  5
299
100
AcDbEntity
  8
0
100
AcDbLine
 62
7
  6
CONTINUOUS
 10
5.9206930034
 20
5.1698422874
 11
5.9216090035
 21
5.1700183623
  0
LINE
  5
29A
100
AcDbEntity
  8
0
100
AcDbLine
 62
7
  6
CONTINUOUS
 10
5.9216090035
 20
4.7916010395
 11
5.9211004589
 21
4.7916202971
  0
LINE
  5
29B
100
AcDbEntity
  8
0
100
AcDbLine
 62
7
  6
CONTINUOUS
 10
5.9211004589
 20
4.7916202971
 11
5.9206930034
 21
4.7917771143
  0
SPLINE
  5
29C
100
AcDbEntity
  8
0
100
AcDbSpline
 62
7
  6
CONTINUOUS
 70
0
 71
3
 72
73
 73
69
 74
0
 42
0.0000001
 43
0.0000001
 44
0.0000000001
 40
0.0
 40
0.0
 40
0.0
 40
0.0
 40
0.0000094304
 40
0.0000377319
 40
0.0000848933
 40
0.000150903
 40
0.0003394227
 40
0.0006032002
 40
0.000942145
 40
0.0013561664
 40
0.0018451738
 40
0.0024090766
 40
0.0037612056
 40
0.0054118284
 40
0.00736022
 40
0.0096056553
 40
0.0121471714
 40
0.0149828545
 40
0.0215281141
 40
0.0292242211
 40
0.0380539631
 40
0.0479983496
 40
0.0590312732
 40
0.0711248493
 40
0.0842511956
 40
0.0983808263
 40
0.1134778318
 40
0.146423918
 40
0.1827784364
 40
0.2221865552
 40
0.2642738617
 40
0.3086312646
 40
0.3548350272
 40
0.4024373484
 40
0.4509813396
 40
0.4999977105
 40
0.5975580411
 40
0.6451604782
 40
0.6913643968
 40
0.7357219719
 40
0.7778095167
 40
0.8172179668
 40
0.8535727735
 40
0.8865190651
 40
0.9157463326
 40
0.9288733202
 40
0.9409676551
 40
0.9520013036
 40
0.9619462295
 40
0.9707762155
 40
0.9784723274
 40
0.9850174512
 40
0.987853044
 40
0.9903944715
 40
0.9926398301
 40
0.9945881599
 40
0.9962387372
 40
0.9975908381
 40
0.9981547337
 40
0.9986437387
 40
0.9990577627
 40
0.9993967151
 40
0.9996605056
 40
0.9998490435
 40
0.9999150645
 40
0.9999622385
 40
0.9999905541
 40
1.0
 40
1.0
 40
1.0
 40
1.0
 10
6.0905421008
 20
5.1715005989
 30
0.0
 10
6.0905422313
 20
5.1715017907
 30
0.0
 10
6.0905417019
 20
5.1714911732
 30
0.0
 10
6.0905417897
 20
5.1714860062
 30
0.0
 10
6.0905410787
 20
5.1714648423
 30
0.0
 10
6.0905401593
 20
5.171428435
 30
0.0
 10
6.0905382566
 20
5.1713611206
 30
0.0
 10
6.0905355542
 20
5.1712612517
 30
0.0
 10
6.0905320083
 20
5.1711317574
 30
0.0
 10
6.0905277138
 20
5.1709740056
 30
0.0
 10
6.0905226403
 20
5.1707875311
 30
0.0
 10
6.0905143419
 20
5.1704818742
 30
0.0
 10
6.0905020687
 20
5.1700285565
 30
0.0
 10
6.0904850938
 20
5.169399286
 30
0.0
 10
6.0904651292
 20
5.1686564723
 30
0.0
 10
6.090442206
 20
5.1678004281
 30
0.0
 10
6.0904163606
 20
5.1668316083
 30
0.0
 10
6.0903761476
 20
5.165316285
 30
0.0
 10
6.0903191206
 20
5.1631458072
 30
0.0
 10
6.0902432763
 20
5.1602134586
 30
0.0
 10
6.0901577864
 20
5.1568490401
 30
0.0
 10
6.0900633774
 20
5.153060459
 30
0.0
 10
6.0899610451
 20
5.1488569736
 30
0.0
 10
6.0898518052
 20
5.1442489735
 30
0.0
 10
6.0897366879
 20
5.1392472788
 30
0.0
 10
6.0896167476
 20
5.1338637302
 30
0.0
 10
6.0894469638
 20
5.1259607287
 30
0.0
 10
6.0892305505
 20
5.1152323424
 30
0.0
 10
6.0889779474
 20
5.1014130924
 30
0.0
 10
6.0887348926
 20
5.0864312607
 30
0.0
 10
6.08851109
 20
5.0704315099
 30
0.0
 10
6.0883146269
 20
5.0535673174
 30
0.0
 10
6.0881537147
 20
5.0360015201
 30
0.0
 10
6.088033776
 20
5.0179030867
 30
0.0
 10
6.0879602645
 20
4.9994467957
 30
0.0
 10
6.087926899
 20
4.9746385726
 30
0.0
 10
6.0879925506
 20
4.9499500072
 30
0.0
 10
6.0881536865
 20
4.9256195926
 30
0.0
 10
6.0883146128
 20
4.9080537376
 30
0.0
 10
6.0885110685
 20
4.8911894734
 30
0.0
 10
6.0887348708
 20
4.8751896282
 30
0.0
 10
6.0889779239
 20
4.8602076874
 30
0.0
 10
6.0892305267
 20
4.8463883323
 30
0.0
 10
6.0894831684
 20
4.8338636847
 30
0.0
 10
6.0896924989
 20
4.8242920342
 30
0.0
 10
6.0898517891
 20
4.8173711113
 30
0.0
 10
6.089961035
 20
4.8127628411
 30
0.0
 10
6.0900633735
 20
4.8085590985
 30
0.0
 10
6.0901577872
 20
4.8047703257
 30
0.0
 10
6.09024328
 20
4.801405807
 30
0.0
 10
6.0903191251
 20
4.7984734441
 30
0.0
 10
6.0903761515
 20
4.7963029944
 30
0.0
 10
6.0904163633
 20
4.7947877111
 30
0.0
 10
6.0904422075
 20
4.7938189239
 30
0.0
 10
6.0904651294
 20
4.7929629081
 30
0.0
 10
6.0904850925
 20
4.792220119
 30
0.0
 10
6.0905020665
 20
4.7915908621
 30
0.0
 10
6.0905143381
 20
4.7911375634
 30
0.0
 10
6.0905226376
 20
4.790831897
 30
0.0
 10
6.0905277074
 20
4.7906454567
 30
0.0
 10
6.0905320126
 20
4.7904876064
 30
0.0
 10
6.0905355293
 20
4.790358379
 30
0.0
 10
6.0905383079
 20
4.7902578128
 30
0.0
 10
6.090540054
 20
4.790191929
 30
0.0
 10
6.0905411852
 20
4.7901535856
 30
0.0
 10
6.0905415493
 20
4.7901355914
 30
0.0
 10
6.0905420756
 20
4.7901248123
 30
0.0
 10
6.09054197
 20
4.7901199967
 30
0.0
 10
6.0905421008
 20
4.7901188028
 30
0.0
  0
SPLINE
  5
29D
100
AcDbEntity
  8
0
100
AcDbSpline
 62
7
  6
CONTINUOUS
 70
0
 71
3
 72
23
 73
19
 74
0
 42
0.0000001
 43
0.0000001
 44
0.0000000001
 40
0.0
 40
0.0
 40
0.0
 40
0.0
 40
0.0636115295
 40
0.1271801938
 40
0.1906664528
 40
0.2540323658
 40
0.3172447583
 40
0.3802761667
 40
0.4431058583
 40
0.5057207035
 40
0.5681157261
 40
0.6302943994
 40
0.6922685821
 40
0.7540581518
 40
0.8156902846
 40
0.8771984379
 40
0.9386210469
 40
1.0
 40
1.0
 40
1.0
 40
1.0
 10
4.2125989096
 20
4.9808097009
 30
0.0
 10
4.2125989096
 20
4.9824917733
 30
0.0
 10
4.2127583055
 20
4.9858569622
 30
0.0
 10
4.213473373
 20
4.9908550374
 30
0.0
 10
4.2146575402
 20
4.9957570005
 30
0.0
 10
4.2162994518
 20
5.0005151427
 30
0.0
 10
4.2183833887
 20
5.0050838345
 30
0.0
 10
4.2208893531
 20
5.0094190704
 30
0.0
 10
4.223793318
 20
5.0134791079
 30
0.0
 10
4.2270674024
 20
5.0172248231
 30
0.0
 10
4.2306801607
 20
5.0206200914
 30
0.0
 10
4.2345968686
 20
5.0236321372
 30
0.0
 10
4.2387798401
 20
5.0262318682
 30
0.0
 10
4.2431888237
 20
5.0283941332
 30
0.0
 10
4.2477812848
 20
5.0300980228
 30
0.0
 10
4.2525131315
 20
5.0313270122
 30
0.0
 10
4.2573380499
 20
5.0320692162
 30
0.0
 10
4.2605876995
 20
5.0322346982
 30
0.0
 10
4.2622107361
 20
5.0322346982
 30
0.0
  0
SPLINE
  5
29E
100
AcDbEntity
  8
0
100
AcDbSpline
 62
7
  6
CONTINUOUS
 70
0
 71
3
 72
23
 73
19
 74
0
 42
0.0000001
 43
0.0000001
 44
0.0000000001
 40
0.0
 40
0.0
 40
0.0
 40
0.0
 40
0.0636115295
 40
0.1271801938
 40
0.1906664528
 40
0.2540323658
 40
0.3172447583
 40
0.3802761667
 40
0.4431058583
 40
0.5057207035
 40
0.5681157261
 40
0.6302943994
 40
0.6922685821
 40
0.7540581518
 40
0.8156902846
 40
0.8771984379
 40
0.9386210469
 40
1.0
 40
1.0
 40
1.0
 40
1.0
 10
4.3034559403
 20
4.9808097009
 30
0.0
 10
4.3034559403
 20
4.9824917733
 30
0.0
 10
4.3036153363
 20
4.9858569622
 30
0.0
 10
4.3043304037
 20
4.9908550374
 30
0.0
 10
4.3055145709
 20
4.9957570005
 30
0.0
 10
4.3071564825
 20
5.0005151427
 30
0.0
 10
4.3092404194
 20
5.0050838345
 30
0.0
 10
4.3117463838
 20
5.0094190704
 30
0.0
 10
4.3146503488
 20
5.0134791079
 30
0.0
 10
4.3179244331
 20
5.0172248231
 30
0.0
 10
4.3215371914
 20
5.0206200914
 30
0.0
 10
4.3254538993
 20
5.0236321372
 30
0.0
 10
4.3296368709
 20
5.0262318682
 30
0.0
 10
4.3340458545
 20
5.0283941332
 30
0.0
 10
4.3386383156
 20
5.0300980228
 30
0.0
 10
4.3433701623
 20
5.0313270122
 30
0.0
 10
4.3481950806
 20
5.0320692162
 30
0.0
 10
4.3514447302
 20
5.0322346982
 30
0.0
 10
4.3530677669
 20
5.0322346982
 30
0.0
  0
SPLINE
  5
29F
100
AcDbEntity
  8
0
100
AcDbSpline
 62
7
  6
CONTINUOUS
 70
0
 71
3
 72
23
 73
19
 74
0
 42
0.0000001
 43
0.0000001
 44
0.0000000001
 40
0.0
 40
0.0
 40
0.0
 40
0.0
 40
0.0628257227
 40
0.1256382854
 40
0.1884267647
 40
0.2511797488
 40
0.3138875114
 40
0.3765420707
 40
0.4391374554
 40
0.5016699644
 40
0.5641382956
 40
0.626543623
 40
0.6888895398
 40
0.7511819437
 40
0.8134287995
 40
0.8756398469
 40
0.9378262156
 40
1.0
 40
1.0
 40
1.0
 40
1.0
 10
4.3542815591
 20
4.9808097009
 30
0.0
 10
4.3542815591
 20
4.9824918716
 30
0.0
 10
4.3544451479
 20
4.9858581506
 30
0.0
 10
4.3551789588
 20
4.9908573072
 30
0.0
 10
4.356394137
 20
4.995760236
 30
0.0
 10
4.358078989
 20
5.0005191389
 30
0.0
 10
4.3602173303
 20
5.0050883509
 30
0.0
 10
4.3627885782
 20
5.0094238381
 30
0.0
 10
4.3657680113
 20
5.0134838525
 30
0.0
 10
4.3691269561
 20
5.0172292858
 30
0.0
 10
4.3728330906
 20
5.0206240505
 30
0.0
 10
4.3768507427
 20
5.0236354271
 30
0.0
 10
4.3811412233
 20
5.0262343945
 30
0.0
 10
4.3856632336
 20
5.0283958812
 30
0.0
 10
4.3903731639
 20
5.0300990595
 30
0.0
 10
4.3952258201
 20
5.031327479
 30
0.0
 10
4.4001737961
 20
5.032069315
 30
0.0
 10
4.4035059253
 20
5.0322346982
 30
0.0
 10
4.4051706403
 20
5.0322346982
 30
0.0
  0
SPLINE
  5
2A0
100
AcDbEntity
  8
0
100
AcDbSpline
 62
7
  6
CONTINUOUS
 70
0
 71
3
 72
23
 73
19
 74
0
 42
0.0000001
 43
0.0000001
 44
0.0000000001
 40
0.0
 40
0.0
 40
0.0
 40
0.0
 40
0.0628481173
 40
0.1256822202
 40
0.1884905631
 40
0.2512609748
 40
0.3139830603
 40
0.3766482861
 40
0.4392502677
 40
0.5017850447
 40
0.5642512217
 40
0.6266500487
 40
0.6889853634
 40
0.751263467
 40
0.8134928726
 40
0.8756839919
 40
0.9378487238
 40
1.0
 40
1.0
 40
1.0
 40
1.0
 10
4.3996604864
 20
4.9808097009
 30
0.0
 10
4.3996604864
 20
4.9824918787
 30
0.0
 10
4.3998239583
 20
4.985858146
 30
0.0
 10
4.4005572472
 20
4.9908572993
 30
0.0
 10
4.401771561
 20
4.9957602244
 30
0.0
 10
4.4034552146
 20
5.0005191243
 30
0.0
 10
4.4055920352
 20
5.0050883341
 30
0.0
 10
4.4081614549
 20
5.00942382
 30
0.0
 10
4.4111387701
 20
5.0134838341
 30
0.0
 10
4.4144953281
 20
5.0172292681
 30
0.0
 10
4.41819883
 20
5.0206240345
 30
0.0
 10
4.4222136296
 20
5.0236354135
 30
0.0
 10
4.426501065
 20
5.0262343837
 30
0.0
 10
4.4310198673
 20
5.0283958736
 30
0.0
 10
4.4357264573
 20
5.0300990548
 30
0.0
 10
4.4405756733
 20
5.0313274767
 30
0.0
 10
4.4455201416
 20
5.0320693143
 30
0.0
 10
4.4488499185
 20
5.0322346982
 30
0.0
 10
4.4505134448
 20
5.0322346982
 30
0.0
  0
SPLINE
  5
2A1
100
AcDbEntity
  8
0
100
AcDbSpline
 62
7
  6
CONTINUOUS
 70
0
 71
3
 72
23
 73
19
 74
0
 42
0.0000001
 43
0.0000001
 44
0.0000000001
 40
0.0
 40
0.0
 40
0.0
 40
0.0
 40
0.0628054091
 40
0.1255985009
 40
0.1883689747
 40
0.2511061624
 40
0.3138009391
 40
0.3764458188
 40
0.4390352122
 40
0.5015656493
 40
0.5640359144
 40
0.6264471113
 40
0.6888026204
 40
0.7511079785
 40
0.8133706622
 40
0.8755997811
 40
0.9378054741
 40
1.0
 40
1.0
 40
1.0
 40
1.0
 10
4.5123235308
 20
4.9808097009
 30
0.0
 10
4.5123235308
 20
4.9824919598
 30
0.0
 10
4.512487263
 20
4.9858584414
 30
0.0
 10
4.5132217118
 20
4.9908578692
 30
0.0
 10
4.5144379412
 20
4.995761033
 30
0.0
 10
4.5161242315
 20
5.0005201188
 30
0.0
 10
4.5182643768
 20
5.0050894499
 30
0.0
 10
4.5208377515
 20
5.0094249919
 30
0.0
 10
4.5238196099
 20
5.0134849883
 30
0.0
 10
4.5271812232
 20
5.0172303494
 30
0.0
 10
4.5308902488
 20
5.02062498
 30
0.0
 10
4.5349109557
 20
5.0236361995
 30
0.0
 10
4.5392046413
 20
5.0262349738
 30
0.0
 10
4.5437299541
 20
5.0283962878
 30
0.0
 10
4.5484432763
 20
5.0300992882
 30
0.0
 10
4.5532993646
 20
5.0313275869
 30
0.0
 10
4.558250821
 20
5.0320693311
 30
0.0
 10
4.5615852725
 20
5.0322347009
 30
0.0
 10
4.5632511688
 20
5.0322347009
 30
0.0
  0
SPLINE
  5
2A2
100
AcDbEntity
  8
0
100
AcDbSpline
 62
7
  6
CONTINUOUS
 70
0
 71
3
 72
23
 73
19
 74
0
 42
0.0000001
 43
0.0000001
 44
0.0000000001
 40
0.0
 40
0.0
 40
0.0
 40
0.0
 40
0.0626193586
 40
0.1252335393
 40
0.1878391665
 40
0.2504319018
 40
0.3130081917
 40
0.3755651253
 40
0.4381005052
 40
0.5006129507
 40
0.563101934
 40
0.6255678161
 40
0.6880118158
 40
0.7504359834
 40
0.8128431006
 40
0.8752365637
 40
0.9376202267
 40
1.0
 40
1.0
 40
1.0
 40
1.0
 10
4.6066109908
 20
4.9808097009
 30
0.0
 10
4.6066109908
 20
4.982472485
 30
0.0
 10
4.6067720163
 20
4.9858001594
 30
0.0
 10
4.6074943513
 20
4.9907429168
 30
0.0
 10
4.6086906549
 20
4.9955925756
 30
0.0
 10
4.6103496061
 20
5.000302878
 30
0.0
 10
4.6124555513
 20
5.0048296333
 30
0.0
 10
4.6149885791
 20
5.00913022
 30
0.0
 10
4.6179248027
 20
5.0131642033
 30
0.0
 10
4.6212365108
 20
5.0168936895
 30
0.0
 10
4.6248925052
 20
5.0202836505
 30
0.0
 10
4.6288583429
 20
5.0233022929
 30
0.0
 10
4.6330967063
 20
5.0259213054
 30
0.0
 10
4.6375677406
 20
5.0281161599
 30
0.0
 10
4.6422293823
 20
5.0298662983
 30
0.0
 10
4.6470380005
 20
5.0311553477
 30
0.0
 10
4.6519478663
 20
5.0319712562
 30
0.0
 10
4.6552594692
 20
5.0321946772
 30
0.0
 10
4.6569156004
 20
5.0322257247
 30
0.0
  0
SPLINE
  5
2A3
100
AcDbEntity
  8
0
100
AcDbSpline
 62
7
  6
CONTINUOUS
 70
0
 71
3
 72
16
 73
12
 74
0
 42
0.0000001
 43
0.0000001
 44
0.0000000001
 40
0.0
 40
0.0
 40
0.0
 40
0.0
 40
0.0688964269
 40
0.1367064864
 40
0.2691640594
 40
0.3978161325
 40
0.5231301379
 40
0.6455787505
 40
0.7656083825
 40
0.8836263633
 40
1.0
 40
1.0
 40
1.0
 40
1.0
 10
5.656757964
 20
5.0610374669
 30
0.0
 10
5.65519108
 20
5.0639260676
 30
0.0
 10
5.6519209118
 20
5.0695721459
 30
0.0
 10
5.644887074
 20
5.08031819
 30
0.0
 10
5.6352702982
 20
5.0927523635
 30
0.0
 10
5.6225837428
 20
5.1061609983
 30
0.0
 10
5.6090609903
 20
5.1180093264
 30
0.0
 10
5.5948786977
 20
5.128371421
 30
0.0
 10
5.5801745859
 20
5.1373227372
 30
0.0
 10
5.5650598272
 20
5.14493145
 30
0.0
 10
5.5547029765
 20
5.1491754139
 30
0.0
 10
5.5494910584
 20
5.151085087
 30
0.0
  0
SPLINE
  5
2A4
100
AcDbEntity
  8
0
100
AcDbSpline
 62
7
  6
CONTINUOUS
 70
0
 71
3
 72
17
 73
13
 74
0
 42
0.0000001
 43
0.0000001
 44
0.0000000001
 40
0.0
 40
0.0
 40
0.0
 40
0.0
 40
0.1437855121
 40
0.2880543532
 40
0.4297288885
 40
0.5656029579
 40
0.692619757
 40
0.8082537179
 40
0.8612654796
 40
0.9108956605
 40
0.9571107328
 40
1.0
 40
1.0
 40
1.0
 40
1.0
 10
5.6567579624
 20
5.0610374702
 30
0.0
 10
5.6559722088
 20
5.0607292184
 30
0.0
 10
5.6543829927
 20
5.0601492089
 30
0.0
 10
5.6519706515
 20
5.0594074482
 30
0.0
 10
5.6495644951
 20
5.0588163347
 30
0.0
 10
5.6472240398
 20
5.0584015537
 30
0.0
 10
5.6450104539
 20
5.0581824068
 30
0.0
 10
5.6432713478
 20
5.0581705763
 30
0.0
 10
5.6419935599
 20
5.0582752107
 30
0.0
 10
5.6411283779
 20
5.0584028663
 30
0.0
 10
5.6403329047
 20
5.0585809585
 30
0.0
 10
5.6398328844
 20
5.0587372638
 30
0.0
 10
5.6395965334
 20
5.0588240183
 30
0.0
  0
LINE
  5
2A5
100
AcDbEntity
  8
0
100
AcDbLine
 62
7
  6
CONTINUOUS
 10
4.7896738531
 20
4.8919825857
 11
4.7885006998
 21
4.8913840504
  0
SPLINE
  5
2A6
100
AcDbEntity
  8
0
100
AcDbSpline
 62
7
  6
CONTINUOUS
 70
0
 71
3
 72
30
 73
26
 74
0
 42
0.0000001
 43
0.0000001
 44
0.0000000001
 40
0.0
 40
0.0
 40
0.0
 40
0.0
 40
0.119975535
 40
0.2698210239
 40
0.3514635857
 40
0.4353480981
 40
0.5197858523
 40
0.6030295063
 40
0.683225933
 40
0.7584660657
 40
0.8267366299
 40
0.8576246098
 40
0.8860298374
 40
0.9117216097
 40
0.9344791062
 40
0.954100997
 40
0.9704126077
 40
0.9832635081
 40
0.9883516712
 40
0.9925304855
 40
0.9957913023
 40
0.9981266323
 40
0.9989453598
 40
0.9995308099
 40
1.0
 40
1.0
 40
1.0
 40
1.0
 10
4.7885006998
 20
4.8913840504
 30
0.0
 10
4.7879903513
 20
4.8911280088
 30
0.0
 10
4.7868375168
 20
4.8905622572
 30
0.0
 10
4.7853219008
 20
4.8898543444
 30
0.0
 10
4.7839515184
 20
4.8892421299
 30
0.0
 10
4.7828598396
 20
4.888769405
 30
0.0
 10
4.7817556792
 20
4.8883065348
 30
0.0
 10
4.780662444
 20
4.8878632154
 30
0.0
 10
4.7796051923
 20
4.8874478401
 30
0.0
 10
4.7786105599
 20
4.8870680853
 30
0.0
 10
4.7778321191
 20
4.8867801299
 30
0.0
 10
4.7772615471
 20
4.8865727531
 30
0.0
 10
4.7768809203
 20
4.8864359857
 30
0.0
 10
4.7765363083
 20
4.8863134214
 30
0.0
 10
4.7762307526
 20
4.8862057904
 30
0.0
 10
4.7759670431
 20
4.8861137306
 30
0.0
 10
4.7757476939
 20
4.8860376461
 30
0.0
 10
4.7755936024
 20
4.8859844906
 30
0.0
 10
4.7754940517
 20
4.8859502901
 30
0.0
 10
4.7754376627
 20
4.8859309298
 30
0.0
 10
4.7753936349
 20
4.885915899
 30
0.0
 10
4.7753647855
 20
4.8859059294
 30
0.0
 10
4.7753478988
 20
4.8859002859
 30
0.0
 10
4.7753395474
 20
4.8858971957
 30
0.0
 10
4.7753346349
 20
4.8858959684
 30
0.0
 10
4.7753326258
 20
4.8858949939
 30
0.0
  0
SPLINE
  5
2A7
100
AcDbEntity
  8
0
100
AcDbSpline
 62
7
  6
CONTINUOUS
 70
0
 71
3
 72
15
 73
11
 74
0
 42
0.0000001
 43
0.0000001
 44
0.0000000001
 40
0.0
 40
0.0
 40
0.0
 40
0.0
 40
0.1290500159
 40
0.2576294674
 40
0.3853075307
 40
0.5117109467
 40
0.6365491576
 40
0.759615658
 40
0.8807847025
 40
1.0
 40
1.0
 40
1.0
 40
1.0
 10
5.6773721373
 20
4.9808097009
 30
0.0
 10
5.6773721246
 20
4.9770798372
 30
0.0
 10
5.6771183918
 20
4.9696312181
 30
0.0
 10
5.6759839935
 20
4.9585446816
 30
0.0
 10
5.6741200622
 20
4.9476345706
 30
0.0
 10
5.6715634285
 20
4.9369773915
 30
0.0
 10
5.6683606696
 20
4.9266361602
 30
0.0
 10
5.6645639241
 20
4.9166600697
 30
0.0
 10
5.6602279434
 20
4.9070853194
 30
0.0
 10
5.6569868599
 20
4.9009345959
 30
0.0
 10
5.655292365
 20
4.8979344364
 30
0.0
  0
SPLINE
  5
2A8
100
AcDbEntity
  8
0
100
AcDbSpline
 62
7
  6
CONTINUOUS
 70
0
 71
3
 72
46
 73
42
 74
0
 42
0.0000001
 43
0.0000001
 44
0.0000000001
 40
0.0
 40
0.0
 40
0.0
 40
0.0
 40
0.0000244194
 40
0.0000547257
 40
0.0000970826
 40
0.0002179064
 40
0.0003868077
 40
0.0006037033
 40
0.00086851
 40
0.0011811447
 40
0.0015415244
 40
0.0024051861
 40
0.0034588308
 40
0.0047017942
 40
0.0061334127
 40
0.0077528219
 40
0.0095583546
 40
0.0137203271
 40
0.01860443
 40
0.0241958046
 40
0.0304788439
 40
0.0374348303
 40
0.0450443407
 40
0.0532880494
 40
0.0715989074
 40
0.0922037624
 40
0.1149429324
 40
0.139674911
 40
0.166265297
 40
0.1945833673
 40
0.2245077754
 40
0.255942597
 40
0.3229987002
 40
0.3951334269
 40
0.4718404857
 40
0.5526795047
 40
0.6371664353
 40
0.7248271148
 40
0.8150363521
 40
0.9070465098
 40
1.0
 40
1.0
 40
1.0
 40
1.0
 10
5.3167994686
 20
5.0912427525
 30
0.0
 10
5.3167986134
 20
5.0912422511
 30
0.0
 10
5.316797386
 20
5.0912402688
 30
0.0
 10
5.3167945679
 20
5.0912375534
 30
0.0
 10
5.3167893247
 20
5.0912316763
 30
0.0
 10
5.3167801298
 20
5.0912218362
 30
0.0
 10
5.3167662325
 20
5.0912066641
 30
0.0
 10
5.3167483455
 20
5.091187233
 30
0.0
 10
5.3167265353
 20
5.091163477
 30
0.0
 10
5.3167007909
 20
5.091135427
 30
0.0
 10
5.3166586287
 20
5.0910894444
 30
0.0
 10
5.3165961773
 20
5.0910212504
 30
0.0
 10
5.3165096009
 20
5.0909265634
 30
0.0
 10
5.3164075518
 20
5.0908147805
 30
0.0
 10
5.316290116
 20
5.0906859436
 30
0.0
 10
5.3161574087
 20
5.0905401233
 30
0.0
 10
5.3159503409
 20
5.0903120981
 30
0.0
 10
5.3156548396
 20
5.0899853454
 30
0.0
 10
5.3152576546
 20
5.0895433266
 30
0.0
 10
5.3148047204
 20
5.0890356394
 30
0.0
 10
5.3142979942
 20
5.0884632257
 30
0.0
 10
5.3137398128
 20
5.0878269489
 30
0.0
 10
5.3131326121
 20
5.0871278008
 30
0.0
 10
5.3122287924
 20
5.0860757175
 30
0.0
 10
5.3109941938
 20
5.0846123015
 30
0.0
 10
5.3094057402
 20
5.0826777289
 30
0.0
 10
5.3076837997
 20
5.0805158151
 30
0.0
 10
5.3058491788
 20
5.0781334619
 30
0.0
 10
5.3039221707
 20
5.0755369818
 30
0.0
 10
5.301922863
 20
5.0727323837
 30
0.0
 10
5.2998707479
 20
5.0697247634
 30
0.0
 10
5.2970263463
 20
5.0653552565
 30
0.0
 10
5.2934512513
 20
5.0594186656
 30
0.0
 10
5.2893123405
 20
5.0516879018
 30
0.0
 10
5.2853643471
 20
5.0432347464
 30
0.0
 10
5.2817365604
 20
5.0340964112
 30
0.0
 10
5.2785457025
 20
5.0243264296
 30
0.0
 10
5.2759143375
 20
5.0139970173
 30
0.0
 10
5.2739453864
 20
5.003209502
 30
0.0
 10
5.2727258765
 20
4.9920954943
 30
0.0
 10
5.2724509498
 20
4.98458343
 30
0.0
 10
5.2724508909
 20
4.9808097009
 30
0.0
  0
SPLINE
  5
2A9
100
AcDbEntity
  8
0
100
AcDbSpline
 62
7
  6
CONTINUOUS
 70
0
 71
3
 72
14
 73
10
 74
0
 42
0.0000001
 43
0.0000001
 44
0.0000000001
 40
0.0
 40
0.0
 40
0.0
 40
0.0
 40
0.1330964626
 40
0.2653179052
 40
0.395833445
 40
0.523909285
 40
0.6488839119
 40
0.7701903794
 40
1.0
 40
1.0
 40
1.0
 40
1.0
 10
5.2724508897
 20
4.9808097009
 30
0.0
 10
5.2724509326
 20
4.9777759502
 30
0.0
 10
5.2726289484
 20
4.9717268845
 30
0.0
 10
5.2734221415
 20
4.9627344659
 30
0.0
 10
5.2747169894
 20
4.953916015
 30
0.0
 10
5.2764749316
 20
4.9453471874
 30
0.0
 10
5.278647351
 20
4.9370907675
 30
0.0
 10
5.28196375
 20
4.9267544862
 30
0.0
 10
5.2849751116
 20
4.9193217011
 30
0.0
 10
5.2871731707
 20
4.9145669968
 30
0.0
  0
SPLINE
  5
2AA
100
AcDbEntity
  8
0
100
AcDbSpline
 62
7
  6
CONTINUOUS
 70
0
 71
3
 72
49
 73
45
 74
0
 42
0.0000001
 43
0.0000001
 44
0.0000000001
 40
0.0
 40
0.0
 40
0.0
 40
0.0
 40
0.0000103409
 40
0.0000401397
 40
0.0000893617
 40
0.0001579706
 40
0.0002459305
 40
0.000353205
 40
0.0006255534
 40
0.0009747264
 40
0.0014004344
 40
0.0019023873
 40
0.0024801297
 40
0.0038596509
 40
0.0055320915
 40
0.0074905022
 40
0.0097274379
 40
0.0122336232
 40
0.0149993763
 40
0.0180150318
 40
0.0212708221
 40
0.0284627077
 40
0.0364951402
 40
0.045293275
 40
0.0547875888
 40
0.0649125348
 40
0.0756131096
 40
0.0985378587
 40
0.1232333287
 40
0.149448429
 40
0.1769981752
 40
0.2057418184
 40
0.2355806873
 40
0.266442299
 40
0.2982748643
 40
0.364704001
 40
0.4346934314
 40
0.5081214114
 40
0.584832647
 40
0.6645453666
 40
0.7467697458
 40
0.8307584987
 40
0.9155339628
 40
1.0
 40
1.0
 40
1.0
 40
1.0
 10
4.7929799905
 20
5.0912427717
 30
0.0
 10
4.7929805006
 20
5.0912426941
 30
0.0
 10
4.7929821407
 20
5.0912413651
 30
0.0
 10
4.7929861536
 20
5.0912395556
 30
0.0
 10
4.7929925279
 20
5.0912357781
 30
0.0
 10
4.7930015214
 20
5.0912308602
 30
0.0
 10
4.7930130003
 20
5.0912244006
 30
0.0
 10
4.793033359
 20
5.0912130135
 30
0.0
 10
4.7930650642
 20
5.0911952021
 30
0.0
 10
4.7931106072
 20
5.0911695897
 30
0.0
 10
4.7931661101
 20
5.0911383138
 30
0.0
 10
4.7932315252
 20
5.0911013983
 30
0.0
 10
4.7933383458
 20
5.0910410203
 30
0.0
 10
4.7934958884
 20
5.0909516922
 30
0.0
 10
4.7937131026
 20
5.0908279377
 30
0.0
 10
4.7939671574
 20
5.0906824262
 30
0.0
 10
4.7942569001
 20
5.0905155245
 30
0.0
 10
4.7945809963
 20
5.0903275601
 30
0.0
 10
4.794938017
 20
5.0901189235
 30
0.0
 10
4.7953265093
 20
5.0898900168
 30
0.0
 10
4.7959039471
 20
5.0895467596
 30
0.0
 10
4.7966934927
 20
5.0890704642
 30
0.0
 10
4.7977139251
 20
5.0884416348
 30
0.0
 10
4.7988249345
 20
5.0877409361
 30
0.0
 10
4.8000156759
 20
5.0869710965
 30
0.0
 10
4.8012760601
 20
5.0861343313
 30
0.0
 10
4.8030791486
 20
5.0849037624
 30
0.0
 10
4.8054481373
 20
5.0832131753
 30
0.0
 10
4.8083834235
 20
5.0809860053
 30
0.0
 10
4.8114274402
 20
5.0785232991
 30
0.0
 10
4.8145418258
 20
5.0758297975
 30
0.0
 10
4.8176943598
 20
5.0729077299
 30
0.0
 10
4.8208580814
 20
5.069758696
 30
0.0
 10
4.8240092369
 20
5.0663827513
 30
0.0
 10
4.8282250948
 20
5.0615092671
 30
0.0
 10
4.8333391565
 20
5.0548397008
 30
0.0
 10
4.8390204749
 20
5.0460306991
 30
0.0
 10
4.8441765057
 20
5.0363171273
 30
0.0
 10
4.8486468258
 20
5.0257389938
 30
0.0
 10
4.8522687653
 20
5.0143778275
 30
0.0
 10
4.8548869392
 20
5.0023709358
 30
0.0
 10
4.8563723018
 20
4.9899161673
 30
0.0
 10
4.8566440547
 20
4.9772649267
 30
0.0
 10
4.8560016197
 20
4.9688292258
 30
0.0
 10
4.8554773894
 20
4.964647496
 30
0.0
  0
SPLINE
  5
2AB
100
AcDbEntity
  8
0
100
AcDbSpline
 62
7
  6
CONTINUOUS
 70
0
 71
3
 72
48
 73
44
 74
0
 42
0.0000001
 43
0.0000001
 44
0.0000000001
 40
0.0
 40
0.0
 40
0.0
 40
0.0
 40
0.0892647699
 40
0.1766370475
 40
0.2616154483
 40
0.3438594179
 40
0.4231583402
 40
0.4993866711
 40
0.5724544983
 40
0.6422569855
 40
0.7086198434
 40
0.7404261554
 40
0.771240427
 40
0.8009883226
 40
0.8295704538
 40
0.8568565346
 40
0.8826837088
 40
0.906846093
 40
0.9182231109
 40
0.9290777102
 40
0.9393684785
 40
0.9490470712
 40
0.9580617641
 40
0.9663592768
 40
0.9738800487
 40
0.9805624817
 40
0.9863469128
 40
0.988884515
 40
0.9911761988
 40
0.9932153829
 40
0.9949964769
 40
0.9965139886
 40
0.9977624208
 40
0.9982841189
 40
0.9987370317
 40
0.9991209803
 40
0.9994357857
 40
0.9996812689
 40
0.999857251
 40
0.9999191233
 40
0.9999635533
 40
0.999990519
 40
1.0
 40
1.0
 40
1.0
 40
1.0
 10
4.8554773894
 20
4.964647496
 30
0.0
 10
4.8550432544
 20
4.9611844467
 30
0.0
 10
4.8539070532
 20
4.9543631904
 30
0.0
 10
4.8514223318
 20
4.9444301747
 30
0.0
 10
4.8482545012
 20
4.9349826429
 30
0.0
 10
4.8444976168
 20
4.9260963473
 30
0.0
 10
4.8402482839
 20
4.9178184026
 30
0.0
 10
4.8356016637
 20
4.9101746633
 30
0.0
 10
4.8306501919
 20
4.9031758815
 30
0.0
 10
4.825485425
 20
4.8968241401
 30
0.0
 10
4.8210203672
 20
4.8920015706
 30
0.0
 10
4.8174249148
 20
4.8884643365
 30
0.0
 10
4.8147756534
 20
4.8860090657
 30
0.0
 10
4.8121513273
 20
4.8837146185
 30
0.0
 10
4.8095702634
 20
4.8815823311
 30
0.0
 10
4.8070539654
 20
4.8796142135
 30
0.0
 10
4.80462719
 20
4.8778138161
 30
0.0
 10
4.8026659148
 20
4.8764312416
 30
0.0
 10
4.8011654084
 20
4.8754119182
 30
0.0
 10
4.8001059722
 20
4.8747086418
 30
0.0
 10
4.7990951124
 20
4.8740523825
 30
0.0
 10
4.7981387021
 20
4.8734444674
 30
0.0
 10
4.7972429872
 20
4.8728864313
 30
0.0
 10
4.796414544
 20
4.8723800402
 30
0.0
 10
4.7956603859
 20
4.8719270219
 30
0.0
 10
4.7949877361
 20
4.8715291721
 30
0.0
 10
4.7944810197
 20
4.8712335197
 30
0.0
 10
4.7941217262
 20
4.8710258641
 30
0.0
 10
4.7938888965
 20
4.8708920382
 30
0.0
 10
4.7936814577
 20
4.8707733941
 30
0.0
 10
4.7935000892
 20
4.8706701375
 30
0.0
 10
4.7933454349
 20
4.8705824487
 30
0.0
 10
4.7932335249
 20
4.8705192068
 30
0.0
 10
4.7931578246
 20
4.8704764953
 30
0.0
 10
4.7931115512
 20
4.8704504118
 30
0.0
 10
4.7930723121
 20
4.8704283252
 30
0.0
 10
4.7930401345
 20
4.8704102209
 30
0.0
 10
4.7930150218
 20
4.87039616
 30
0.0
 10
4.7929985512
 20
4.8703868678
 30
0.0
 10
4.7929888875
 20
4.8703815713
 30
0.0
 10
4.7929843739
 20
4.8703789075
 30
0.0
 10
4.792981531
 20
4.870377619
 30
0.0
 10
4.7929803571
 20
4.870376685
 30
0.0
 10
4.7929799905
 20
4.87037663
 30
0.0
  0
ENDSEC
  0
SECTION
  2
OBJECTS
  0
DICTIONARY
  5
C
100
AcDbDictionary
280
0
281
1
  3
ACAD_GROUP
350
D
  3
ACAD_MLINESTYLE
350
17
  3
ACAD_LAYOUT
350
1A
  3
ACAD_PLOTSETTINGS
350
19
  3
ACAD_PLOTSTYLENAME
350
E
  0
DICTIONARY
  5
D
102
{ACAD_REACTORS
330
C
102
}
100
AcDbDictionary
280
0
281
1
  0
ACDBDICTIONARYWDFLT
  5
E
102
{ACAD_REACTORS
330
C
102
}
100
AcDbDictionary
281
1
  3
Normal
350
F
100
AcDbDictionaryWithDefault
340
F
  0
DICTIONARY
  5
17
102
{ACAD_REACTORS
330
C
102
}
100
AcDbDictionary
280
0
281
1
  3
Standard
350
18
  0
DICTIONARY
  5
19
102
{ACAD_REACTORS
330
C
102
}
100
AcDbDictionary
281
1
  0
DICTIONARY
  5
1A
102
{ACAD_REACTORS
330
C
102
}
100
AcDbDictionary
281
1
  3
Model
350
2AC
  3
Layout1
350
2AD
  0
ACDBPLACEHOLDER
  5
F
102
{ACAD_REACTORS
330
E
102
}
  0
MLINESTYLE
  5
18
102
{ACAD_REACTORS
330
17
102
}
100
AcDbMlineStyle
  2
STANDARD
 70
0
  3

 62
256
 51
90.0
 52
90.0
 71
2
 49
0.5
 62
256
  6
BYLAYER
 49
-0.5
 62
256
  6
BYLAYER
  0
LAYOUT
  5
2AC
102
{ACAD_REACTORS
330
1A
102
}
100
AcDbPlotSettings
  1

  2
none_device
  4
ANSI_A_(11.00_x_8.50_Inches)
  6

 40
0.0
 41
0.0
 42
0.0
 43
0.0
 44
279.4
 45
215.9
 46
0.0
 47
0.0
 48
0.0
 49
0.0
140
0.0
141
0.0
142
1.0
143
1.0
 70
1024
 72
0
 73
0
 74
0
  7

 75
0
147
1.0
148
0.0
149
0.0
100
AcDbLayout
  1
Model
 70
0
 71
0
 10
0.0
 20
0.0
 11
11.0
 21
8.5
 12
0.0
 22
0.0
 32
0.0
 14
0.0
 24
0.0
 34
0.0
 15
0.0
 25
0.0
 35
0.0
146
0.0
 13
0.0
 23
0.0
 33
0.0
 16
1.0
 26
0.0
 36
0.0
 17
0.0
 27
1.0
 37
0.0
 76
0
330
202
345
0
346
0
  0
LAYOUT
  5
2AD
102
{ACAD_REACTORS
330
1A
102
}
100
AcDbPlotSettings
  1

  2
none_device
  4
ANSI_A_(11.00_x_8.50_Inches)
  6

 40
0.0
 41
0.0
 42
0.0
 43
0.0
 44
279.4
 45
215.9
 46
0.0
 47
0.0
 48
0.0
 49
0.0
140
0.0
141
0.0
142
1.0
143
1.0
 70
0
 72
0
 73
0
 74
0
  7

 75
0
147
1.0
148
0.0
149
0.0
100
AcDbLayout
  1
Layout1
 70
0
 71
1
 10
0.0
 20
0.0
 11
11.0
 21
8.5
 12
0.0
 22
0.0
 32
0.0
 14
0.0
 24
0.0
 34
0.0
 15
0.0
 25
0.0
 35
0.0
146
0.0
 13
0.0
 23
0.0
 33
0.0
 16
1.0
 26
0.0
 36
0.0
 17
0.0
 27
1.0
 37
0.0
 76
0
330
203
345
0
346
0
  0
ENDSEC
  0
EOF
