999
DXF file: E:\BT Custom\CADOUTPUT\_TOP.dxf
999
Pro/ENGINEER 2018400 by Parametric Technology Corporation
  0
SECTION
  2
HEADER
  9
$ACADVER
  1
AC1018
  9
$DWGCODEPAGE
  3
ANSI_1252
  9
$EXTMAX
 10
22.0
 20
17.0
 30
0.0
  9
$EXTMIN
 10
0.0
 20
0.0
 30
0.0
  9
$LIMMIN
 10
0.0
 20
0.0
  9
$LIMMAX
 10
22.0
 20
17.0
  9
$VIEWCTR
 10
11.0
 20
8.5
  9
$VIEWSIZE
 40
17.0
  9
$CLAYER
  8
0
  9
$LTSCALE
 40
1.21
  9
$CELTYPE
  6
BYLAYER
  9
$DIMSCALE
 40
1.0
  9
$DIMASZ
 40
0.1
  9
$DIMEXO
 40
0.0625
  9
$DIMDLI
 40
0.836
  9
$DIMEXE
 40
0.125
  9
$DIMCEN
 40
0.198
  9
$DIMLFAC
 40
1.0
  9
$DIMBLK
  1
_FILLED
  9
$DIMALT
 70
1
  9
$DIMALTD
 70
2
  9
$DIMALTTD
 70
2
  9
$DIMALTF
 40
25.4
  9
$DIMTXT
 40
0.08
  9
$DIMTOL
 70
1
  9
$DIMLIM
 70
0
  9
$DIMTFAC
 40
1.0
  9
$DIMTP
 40
0.001
  9
$DIMTM
 40
0.001
  9
$DIMGAP
 40
0.09
  9
$DIMDSEP
 70
46
  9
$AUNITS
 70
0
  9
$PDMODE
 70
3
  9
$PDSIZE
 40
0.06
  9
$HANDSEED
  5
44E
  9
$TILEMODE
 70
1
  9
$MEASUREMENT
 70
0
  9
$INSUNITS
 70
1
  0
ENDSEC
  0
SECTION
  2
CLASSES
  0
CLASS
  1
ACDBDICTIONARYWDFLT
  2
AcDbDictionaryWithDefault
  3
AutoCAD 2000
 90
0
 91
1
280
0
281
0
  0
CLASS
  1
ACDBPLACEHOLDER
  2
AcDbPlaceHolder
  3
AutoCAD 2000
 90
0
 91
1
280
0
281
0
  0
CLASS
  1
LAYOUT
  2
AcDbLayout
  3
AutoCAD 2000
 90
0
 91
0
280
0
281
0
  0
ENDSEC
  0
SECTION
  2
TABLES
  0
TABLE
  2
VPORT
  5
8
100
AcDbSymbolTable
 70
2
  0
VPORT
  5
1F4
100
AcDbSymbolTableRecord
100
AcDbViewportTableRecord
  2
*ACTIVE
 70
0
 10
0.0
 20
0.0
 11
1.0
 21
1.0
 12
11.0
 22
8.5
 13
0.0
 23
0.0
 14
1.0
 24
1.0
 15
0.0
 25
0.0
 16
0.0
 26
0.0
 36
1.0
 17
0.0
 27
0.0
 37
0.0
 40
17.0
 41
1.2941176471
 42
50.0
 43
0.0
 44
0.0
 50
0.0
 51
0.0
 71
0
 72
100
 73
1
 74
1
 75
0
 76
0
 77
0
 78
0
  0
ENDTAB
  0
TABLE
  2
LTYPE
  5
5
100
AcDbSymbolTable
 70
6
  0
LTYPE
  5
14
100
AcDbSymbolTableRecord
100
AcDbLinetypeTableRecord
  2
BYBLOCK
 70
0
  3

 72
65
 73
0
 40
0.0
  0
LTYPE
  5
15
100
AcDbSymbolTableRecord
100
AcDbLinetypeTableRecord
  2
BYLAYER
 70
0
  3

 72
65
 73
0
 40
0.0
  0
LTYPE
  5
16
100
AcDbSymbolTableRecord
100
AcDbLinetypeTableRecord
  2
CONTINUOUS
 70
64
  3
Solid line
 72
65
 73
0
 40
0.0
  0
LTYPE
  5
1F5
100
AcDbSymbolTableRecord
100
AcDbLinetypeTableRecord
  2
CENTER
 70
64
  3
____ _ ____ _ ____ _ ____ _ ____ _ ____ _ ____
 72
65
 73
4
 40
0.6
 49
0.375
 74
0
 49
-0.075
 74
0
 49
0.075
 74
0
 49
-0.075
 74
0
  0
LTYPE
  5
1F6
100
AcDbSymbolTableRecord
100
AcDbLinetypeTableRecord
  2
HIDDEN
 70
64
  3
- - - - - - - - - - - - - - - - - - - -
 72
65
 73
2
 40
0.2
 49
0.1
 74
0
 49
-0.1
 74
0
  0
LTYPE
  5
1F7
100
AcDbSymbolTableRecord
100
AcDbLinetypeTableRecord
  2
PHANTOM
 70
64
  3
_____ _ _ _____ _ _ _____ _ _ _____
 72
65
 73
6
 40
0.8
 49
0.45
 74
0
 49
-0.05
 74
0
 49
0.1
 74
0
 49
-0.05
 74
0
 49
0.1
 74
0
 49
-0.05
 74
0
  0
LTYPE
  5
1F8
100
AcDbSymbolTableRecord
100
AcDbLinetypeTableRecord
  2
DOT
 70
64
  3
. . . . . . . . . . . . . . . . . . . .
 72
65
 73
2
 40
0.2
 49
0.1
 74
0
 49
-0.1
 74
0
  0
LTYPE
  5
1F9
100
AcDbSymbolTableRecord
100
AcDbLinetypeTableRecord
  2
DASHED
 70
64
  3
- - - - - - - - - - - - - - - - - - - -
 72
65
 73
2
 40
0.2
 49
0.1
 74
0
 49
-0.1
 74
0
  0
ENDTAB
  0
TABLE
  2
LAYER
  5
2
100
AcDbSymbolTable
 70
36
  0
LAYER
  5
10
100
AcDbSymbolTableRecord
100
AcDbLayerTableRecord
  2
0
 70
0
 62
7
  6
CONTINUOUS
370
-3
390
F
  0
LAYER
  5
1FA
100
AcDbSymbolTableRecord
100
AcDbLayerTableRecord
  2
DEFAULT_1
 70
0
 62
7
  6
CENTER
370
-3
390
F
  0
LAYER
  5
1FB
100
AcDbSymbolTableRecord
100
AcDbLayerTableRecord
  2
DEFAULT_2
 70
0
 62
8
  6
HIDDEN
370
-3
390
F
  0
LAYER
  5
1FC
100
AcDbSymbolTableRecord
100
AcDbLayerTableRecord
  2
DEFAULT_3
 70
0
 62
7
  6
PHANTOM
370
-3
390
F
  0
LAYER
  5
1FD
100
AcDbSymbolTableRecord
100
AcDbLayerTableRecord
  2
ALL_FEATURES
 70
0
 62
7
  6
CONTINUOUS
370
-3
390
F
  0
LAYER
  5
1FE
100
AcDbSymbolTableRecord
100
AcDbLayerTableRecord
  2
AXES_FEATURES
 70
0
 62
7
  6
CONTINUOUS
370
-3
390
F
  0
LAYER
  5
1FF
100
AcDbSymbolTableRecord
100
AcDbLayerTableRecord
  2
DIMENSIONS
 70
0
 62
7
  6
CONTINUOUS
370
-3
390
F
  0
ENDTAB
  0
TABLE
  2
STYLE
  5
3
100
AcDbSymbolTable
 70
1
  0
STYLE
  5
11
100
AcDbSymbolTableRecord
100
AcDbTextStyleTableRecord
  2
STANDARD
 70
0
 40
0.0
 41
0.8
 50
0.0
 71
0
 42
0.2
  3
txt
  4

  0
STYLE
  5
200
100
AcDbSymbolTableRecord
100
AcDbTextStyleTableRecord
  2
TEXTSTYLE_1
 70
0
 40
0.0
 41
0.8
 50
0.0
 71
0
 42
0.2
  3
gdt
  4

  0
ENDTAB
  0
TABLE
  2
VIEW
  5
6
100
AcDbSymbolTable
 70
0
  0
ENDTAB
  0
TABLE
  2
UCS
  5
7
100
AcDbSymbolTable
 70
0
  0
ENDTAB
  0
TABLE
  2
APPID
  5
9
100
AcDbSymbolTable
 70
1
  0
APPID
  5
201
100
AcDbSymbolTableRecord
100
AcDbRegAppTableRecord
  2
ACAD
 70
0
  0
ENDTAB
  0
TABLE
  2
BLOCK_RECORD
  5
1
100
AcDbSymbolTable
 70
0
  0
BLOCK_RECORD
  5
202
100
AcDbSymbolTableRecord
100
AcDbBlockTableRecord
  2
*Model_Space
  0
BLOCK_RECORD
  5
203
100
AcDbSymbolTableRecord
100
AcDbBlockTableRecord
  2
*Paper_Space
  0
BLOCK_RECORD
  5
204
100
AcDbSymbolTableRecord
100
AcDbBlockTableRecord
  2
_FILLED
  0
ENDTAB
  0
TABLE
  2
DIMSTYLE
  5
A
100
AcDbSymbolTable
 70
1
100
AcDbDimStyleTable
 71
0
  0
DIMSTYLE
105
205
100
AcDbSymbolTableRecord
100
AcDbDimStyleTableRecord
  2
STANDARD
 70
0
  3

  4

 40
1.0
 41
0.1
 42
0.0625
 43
0.38
 44
0.125
 45
0.0
 46
0.0
 47
0.001
 48
0.001
140
0.08
141
0.09
142
0.0
143
25.4
144
1.0
145
0.0
146
1.0
147
0.09
 71
1.0
 72
0.0
 73
1
 74
1
 75
0
 76
0
 77
0
 78
4
 79
1
170
1
171
2
172
0
173
0
174
0
175
0
176
0
177
0
178
0
270
2
179
3
271
3
272
3
273
2
274
2
275
0
280
0
281
0
282
0
283
1
284
4
285
0
286
0
287
3
288
0
340
11
278
46
341
204
342
204
343
204
344
204
  0
ENDTAB
  0
ENDSEC
  0
SECTION
  2
BLOCKS
  0
BLOCK
  5
20
100
AcDbEntity
  8
0
100
AcDbBlockBegin
  2
*Model_Space
 70
0
 10
0.0
 20
0.0
 30
0.0
  3
*Model_Space
  1

  0
ENDBLK
  5
21
100
AcDbEntity
  8
0
100
AcDbBlockEnd
  0
BLOCK
  5
1C
100
AcDbEntity
  8
0
100
AcDbBlockBegin
  2
*Paper_Space
 70
0
 10
0.0
 20
0.0
 30
0.0
  3
*Paper_Space
  1

  0
ENDBLK
  5
1D
100
AcDbEntity
  8
0
100
AcDbBlockEnd
  0
BLOCK
  5
206
100
AcDbEntity
  8
0
100
AcDbBlockBegin
  2
_FILLED
 70
64
 10
0.0
 20
0.0
  3
_FILLED
  1

  0
SOLID
  5
207
100
AcDbEntity
  8
0
  6
BYBLOCK
 62
0
100
AcDbTrace
 10
0.0
 20
0.0
 11
-1.0
 21
0.2
 12
-1.0
 22
-0.2
 13
-1.0
 23
-0.2
  0
ENDBLK
  5
208
100
AcDbEntity
  8
0
  6
BYBLOCK
 62
0
100
AcDbBlockEnd
  0
ENDSEC
  0
SECTION
  2
ENTITIES
  0
LINE
  5
209
100
AcDbEntity
  8
0
100
AcDbLine
 62
7
  6
CONTINUOUS
 10
7.2735704768
 20
1.5243380636
 11
7.2718340485
 21
1.5244899767
  0
LINE
  5
20A
100
AcDbEntity
  8
0
100
AcDbLine
 62
7
  6
CONTINUOUS
 10
7.8339807234
 20
1.5751989099
 11
7.8342045578
 21
1.5751606682
  0
LINE
  5
20B
100
AcDbEntity
  8
0
100
AcDbLine
 62
7
  6
CONTINUOUS
 10
8.1865346307
 20
1.6898856781
 11
8.1873183367
 21
1.6897510832
  0
LINE
  5
20C
100
AcDbEntity
  8
0
100
AcDbLine
 62
7
  6
CONTINUOUS
 10
7.2718340485
 20
1.5244899767
 11
7.2232234389
 21
1.5330613387
  0
LINE
  5
20D
100
AcDbEntity
  8
0
100
AcDbLine
 62
7
  6
CONTINUOUS
 10
7.2066963993
 20
1.5603457404
 11
7.0332234092
 21
1.590933709
  0
LINE
  5
20E
100
AcDbEntity
  8
0
100
AcDbLine
 62
7
  6
CONTINUOUS
 10
7.0166963874
 20
1.6182181075
 11
6.8582234064
 21
1.6461611698
  0
LINE
  5
20F
100
AcDbEntity
  8
0
100
AcDbLine
 62
7
  6
CONTINUOUS
 10
6.8416963692
 20
1.673445571
 11
6.7944598888
 21
1.681774637
  0
LINE
  5
210
100
AcDbEntity
  8
0
100
AcDbLine
 62
7
  6
CONTINUOUS
 10
6.7484598888
 20
1.6898856781
 11
6.6632234062
 21
1.7049151697
  0
LINE
  5
211
100
AcDbEntity
  8
0
100
AcDbLine
 62
7
  6
CONTINUOUS
 10
8.1421020427
 20
1.681774637
 11
8.1413183367
 21
1.6819182712
  0
LINE
  5
212
100
AcDbEntity
  8
0
100
AcDbLine
 62
7
  6
CONTINUOUS
 10
8.014307415
 20
1.6308671877
 11
8.0143354652
 21
1.63086162
  0
LINE
  5
213
100
AcDbEntity
  8
0
100
AcDbLine
 62
7
  6
CONTINUOUS
 10
7.7884283922
 20
1.5670878688
 11
7.7882045578
 21
1.5671326022
  0
LINE
  5
214
100
AcDbEntity
  8
0
100
AcDbLine
 62
7
  6
CONTINUOUS
 10
7.9683635155
 20
1.6227561466
 11
7.9683354652
 21
1.6227625682
  0
LINE
  5
215
100
AcDbEntity
  8
0
100
AcDbLine
 62
7
  6
CONTINUOUS
 10
7.6863493007
 20
1.5243380636
 11
7.688085729
 21
1.5244899767
  0
LINE
  5
216
100
AcDbEntity
  8
0
100
AcDbLine
 62
7
  6
CONTINUOUS
 10
7.2735704768
 20
1.5243380636
 11
7.6863493007
 21
1.5243380636
  0
LINE
  5
217
100
AcDbEntity
  8
0
100
AcDbLine
 62
9
  6
CONTINUOUS
 10
7.2718340485
 20
1.5244899767
 11
7.688085729
 21
1.5244899767
  0
LINE
  5
218
100
AcDbEntity
  8
0
100
AcDbLine
 62
9
  6
CONTINUOUS
 10
7.7366963386
 20
1.5330613387
 11
7.2232234389
 21
1.5330613387
  0
LINE
  5
219
100
AcDbEntity
  8
0
100
AcDbLine
 62
9
  6
CONTINUOUS
 10
7.2149598888
 20
1.5429094219
 11
7.7449598888
 21
1.5429094219
  0
LINE
  5
21A
100
AcDbEntity
  8
0
100
AcDbLine
 62
9
  6
CONTINUOUS
 10
7.7449598888
 20
1.5504976679
 11
7.2149598888
 21
1.5504976679
  0
LINE
  5
21B
100
AcDbEntity
  8
0
100
AcDbLine
 62
9
  6
CONTINUOUS
 10
7.2066963993
 20
1.5603457404
 11
7.7532066784
 21
1.5603457404
  0
LINE
  5
21C
100
AcDbEntity
  8
0
100
AcDbLine
 62
9
  6
CONTINUOUS
 10
7.9266963683
 20
1.590933709
 11
7.0332234092
 21
1.590933709
  0
LINE
  5
21D
100
AcDbEntity
  8
0
100
AcDbLine
 62
9
  6
CONTINUOUS
 10
7.0249598888
 20
1.6007817869
 11
7.9349598888
 21
1.6007817869
  0
LINE
  5
21E
100
AcDbEntity
  8
0
100
AcDbLine
 62
9
  6
CONTINUOUS
 10
7.9349598888
 20
1.6083700329
 11
7.0249598888
 21
1.6083700329
  0
LINE
  5
21F
100
AcDbEntity
  8
0
100
AcDbLine
 62
9
  6
CONTINUOUS
 10
7.0166963874
 20
1.6182181075
 11
7.943210923
 21
1.6182181075
  0
LINE
  5
220
100
AcDbEntity
  8
0
100
AcDbLine
 62
9
  6
CONTINUOUS
 10
8.1016963711
 20
1.6461611698
 11
6.8582388757
 21
1.6461611698
  0
LINE
  5
221
100
AcDbEntity
  8
0
100
AcDbLine
 62
9
  6
CONTINUOUS
 10
6.8499598888
 20
1.6560092472
 11
8.1099598888
 21
1.6560092472
  0
LINE
  5
222
100
AcDbEntity
  8
0
100
AcDbLine
 62
9
  6
CONTINUOUS
 10
8.1099598888
 20
1.6635974932
 11
6.8499598888
 21
1.6635974932
  0
LINE
  5
223
100
AcDbEntity
  8
0
100
AcDbLine
 62
9
  6
CONTINUOUS
 10
6.8416963692
 20
1.673445571
 11
8.1182138568
 21
1.673445571
  0
LINE
  5
224
100
AcDbEntity
  8
0
100
AcDbLine
 62
9
  6
CONTINUOUS
 10
8.2966963714
 20
1.7049151697
 11
6.6632347062
 21
1.7049151697
  0
LINE
  5
225
100
AcDbEntity
  8
0
100
AcDbLine
 62
9
  6
CONTINUOUS
 10
6.6549598888
 20
1.7147632471
 11
8.3049598888
 21
1.7147632471
  0
LINE
  5
226
100
AcDbEntity
  8
0
100
AcDbLine
 62
9
  6
CONTINUOUS
 10
8.3049598888
 20
1.7201289738
 11
6.6549598888
 21
1.7201289738
  0
LINE
  5
227
100
AcDbEntity
  8
0
100
AcDbLine
 62
7
  6
CONTINUOUS
 10
6.5684598888
 20
1.7301289738
 11
8.3914598888
 21
1.7301289738
  0
LINE
  5
228
100
AcDbEntity
  8
0
100
AcDbLine
 62
7
  6
CONTINUOUS
 10
6.4399604642
 20
1.7321289738
 11
8.5199593133
 21
1.7321289738
  0
LINE
  5
229
100
AcDbEntity
  8
0
100
AcDbLine
 62
9
  6
CONTINUOUS
 10
8.5199598888
 20
1.8131533816
 11
6.4399598888
 21
1.8131533817
  0
LINE
  5
22A
100
AcDbEntity
  8
0
100
AcDbLine
 62
9
  6
CONTINUOUS
 10
8.5077492131
 20
1.8458942882
 11
6.4521705675
 21
1.8458942918
  0
LINE
  5
22B
100
AcDbEntity
  8
0
100
AcDbLine
 62
7
  6
CONTINUOUS
 10
7.1757695163
 20
1.5671849344
 11
7.1752669112
 21
1.5670878688
  0
LINE
  5
22C
100
AcDbEntity
  8
0
100
AcDbLine
 62
7
  6
CONTINUOUS
 10
7.688085729
 20
1.5244899767
 11
7.7366963386
 21
1.5330613387
  0
LINE
  5
22D
100
AcDbEntity
  8
0
100
AcDbLine
 62
7
  6
CONTINUOUS
 10
7.7532233783
 20
1.5603457404
 11
7.7883103679
 21
1.5665325233
  0
LINE
  5
22E
100
AcDbEntity
  8
0
100
AcDbLine
 62
7
  6
CONTINUOUS
 10
7.834085633
 20
1.5746039376
 11
7.9266963683
 21
1.590933709
  0
LINE
  5
22F
100
AcDbEntity
  8
0
100
AcDbLine
 62
7
  6
CONTINUOUS
 10
7.9432233902
 20
1.6182181075
 11
7.9683553921
 21
1.6226495575
  0
LINE
  5
230
100
AcDbEntity
  8
0
100
AcDbLine
 62
7
  6
CONTINUOUS
 10
8.0143270894
 20
1.6307556081
 11
8.1016963711
 21
1.6461611698
  0
LINE
  5
231
100
AcDbEntity
  8
0
100
AcDbLine
 62
7
  6
CONTINUOUS
 10
8.1182234084
 20
1.673445571
 11
8.1654598888
 21
1.681774637
  0
LINE
  5
232
100
AcDbEntity
  8
0
100
AcDbLine
 62
7
  6
CONTINUOUS
 10
8.2114598888
 20
1.6898856781
 11
8.2966963714
 21
1.7049151697
  0
LINE
  5
233
100
AcDbEntity
  8
0
100
AcDbLine
 62
7
  6
CONTINUOUS
 10
6.951503329
 20
1.6308160687
 11
6.9517972726
 21
1.6308671877
  0
LINE
  5
234
100
AcDbEntity
  8
0
100
AcDbLine
 62
7
  6
CONTINUOUS
 10
7.1297695163
 20
1.5751148125
 11
7.1302721215
 21
1.5751989099
  0
LINE
  5
235
100
AcDbEntity
  8
0
100
AcDbLine
 62
9
  6
CONTINUOUS
 10
6.6396664828
 20
2.2737553879
 11
8.3202373248
 21
2.2737553879
  0
LINE
  5
236
100
AcDbEntity
  8
0
100
AcDbLine
 62
7
  6
CONTINUOUS
 10
6.4399598888
 20
1.7321289738
 11
6.4399598888
 21
1.8131533816
  0
LINE
  5
237
100
AcDbEntity
  8
0
100
AcDbLine
 62
7
  6
CONTINUOUS
 10
6.997503329
 20
1.622812588
 11
6.9972093854
 21
1.6227561466
  0
LINE
  5
238
100
AcDbEntity
  8
0
100
AcDbLine
 62
7
  6
CONTINUOUS
 10
6.8186014409
 20
1.6819182949
 11
6.8178177349
 21
1.681774637
  0
LINE
  5
239
100
AcDbEntity
  8
0
100
AcDbLine
 62
7
  6
CONTINUOUS
 10
6.7726014409
 20
1.6897510613
 11
6.7733851469
 21
1.6898856781
  0
LINE
  5
23A
100
AcDbEntity
  8
0
100
AcDbLine
 62
9
  6
CONTINUOUS
 10
8.2722748617
 20
2.7000276715
 11
6.6876449159
 21
2.7000276715
  0
LINE
  5
23B
100
AcDbEntity
  8
0
100
AcDbLine
 62
7
  6
CONTINUOUS
 10
6.5684598888
 20
1.7301289738
 11
6.5684598888
 21
1.7321289738
  0
LINE
  5
23C
100
AcDbEntity
  8
0
100
AcDbLine
 62
7
  6
CONTINUOUS
 10
6.6549598888
 20
1.7147632471
 11
6.6549598888
 21
1.7201289738
  0
LINE
  5
23D
100
AcDbEntity
  8
0
100
AcDbLine
 62
7
  6
CONTINUOUS
 10
6.7389598888
 20
7.8664289738
 11
6.7389598888
 21
7.9284289738
  0
LINE
  5
23E
100
AcDbEntity
  8
0
100
AcDbLine
 62
7
  6
CONTINUOUS
 10
6.8399598888
 20
7.1594289738
 11
6.8399598888
 21
5.5294289738
  0
LINE
  5
23F
100
AcDbEntity
  8
0
100
AcDbLine
 62
7
  6
CONTINUOUS
 10
6.8499598888
 20
1.6560092472
 11
6.8499598888
 21
1.6635974932
  0
LINE
  5
240
100
AcDbEntity
  8
0
100
AcDbLine
 62
7
  6
CONTINUOUS
 10
6.8999598888
 20
4.6894289738
 11
6.8999598888
 21
4.7294289738
  0
LINE
  5
241
100
AcDbEntity
  8
0
100
AcDbLine
 62
7
  6
CONTINUOUS
 10
6.8999598888
 20
4.9794289738
 11
6.8999598888
 21
5.2744289738
  0
LINE
  5
242
100
AcDbEntity
  8
0
100
AcDbLine
 62
7
  6
CONTINUOUS
 10
6.9299598888
 20
5.2744289738
 11
6.9299598888
 21
5.4664291613
  0
LINE
  5
243
100
AcDbEntity
  8
0
100
AcDbLine
 62
7
  6
CONTINUOUS
 10
6.9999598888
 20
4.6094289738
 11
6.9999598888
 21
4.6894289738
  0
LINE
  5
244
100
AcDbEntity
  8
0
100
AcDbLine
 62
7
  6
CONTINUOUS
 10
7.0109598888
 20
7.8664289738
 11
7.0109598888
 21
5.6794289738
  0
LINE
  5
245
100
AcDbEntity
  8
0
100
AcDbLine
 62
7
  6
CONTINUOUS
 10
7.0249598888
 20
1.6007817869
 11
7.0249598888
 21
1.6083700329
  0
LINE
  5
246
100
AcDbEntity
  8
0
100
AcDbLine
 62
7
  6
CONTINUOUS
 10
7.509093747
 20
3.3821289738
 11
7.4508260305
 21
3.3821289738
  0
LINE
  5
247
100
AcDbEntity
  8
0
100
AcDbLine
 62
7
  6
CONTINUOUS
 10
7.0719106798
 20
4.944602313
 11
7.0719106798
 21
4.7642556347
  0
LINE
  5
248
100
AcDbEntity
  8
0
100
AcDbLine
 62
7
  6
CONTINUOUS
 10
7.1045172239
 20
4.944602313
 11
7.1045172239
 21
4.7642556347
  0
LINE
  5
249
100
AcDbEntity
  8
0
100
AcDbLine
 62
7
  6
CONTINUOUS
 10
7.1389528869
 20
4.944602313
 11
7.1389528869
 21
4.7642556347
  0
LINE
  5
24A
100
AcDbEntity
  8
0
100
AcDbLine
 62
7
  6
CONTINUOUS
 10
7.1750499017
 20
4.944602313
 11
7.1750499017
 21
4.7642556347
  0
LINE
  5
24B
100
AcDbEntity
  8
0
100
AcDbLine
 62
7
  6
CONTINUOUS
 10
7.2126324074
 20
4.944602313
 11
7.2126324074
 21
4.7642556347
  0
LINE
  5
24C
100
AcDbEntity
  8
0
100
AcDbLine
 62
7
  6
CONTINUOUS
 10
7.2149598888
 20
1.5429094219
 11
7.2149598888
 21
1.5504976679
  0
LINE
  5
24D
100
AcDbEntity
  8
0
100
AcDbLine
 62
7
  6
CONTINUOUS
 10
7.2515173057
 20
4.944602313
 11
7.2515173057
 21
4.7642556347
  0
LINE
  5
24E
100
AcDbEntity
  8
0
100
AcDbLine
 62
7
  6
CONTINUOUS
 10
7.2799598888
 20
3.9562717037
 11
7.2799598888
 21
4.5321289738
  0
LINE
  5
24F
100
AcDbEntity
  8
0
100
AcDbLine
 62
7
  6
CONTINUOUS
 10
7.2915151533
 20
4.944602313
 11
7.2915151533
 21
4.7642556347
  0
LINE
  5
250
100
AcDbEntity
  8
0
100
AcDbLine
 62
7
  6
CONTINUOUS
 10
7.3324310847
 20
4.944602313
 11
7.3324310847
 21
4.7642556347
  0
LINE
  5
251
100
AcDbEntity
  8
0
100
AcDbLine
 62
7
  6
CONTINUOUS
 10
7.3740657616
 20
4.944602313
 11
7.3740657616
 21
4.7642556347
  0
LINE
  5
252
100
AcDbEntity
  8
0
100
AcDbLine
 62
7
  6
CONTINUOUS
 10
7.416216344
 20
4.944602313
 11
7.416216344
 21
4.7642556347
  0
LINE
  5
253
100
AcDbEntity
  8
0
100
AcDbLine
 62
7
  6
CONTINUOUS
 10
7.4549598888
 20
1.5243380636
 11
7.4549598888
 21
1.5200553221
  0
LINE
  5
254
100
AcDbEntity
  8
0
100
AcDbLine
 62
7
  6
CONTINUOUS
 10
7.4586774786
 20
4.944602313
 11
7.4586774786
 21
4.7642556347
  0
LINE
  5
255
100
AcDbEntity
  8
0
100
AcDbLine
 62
7
  6
CONTINUOUS
 10
7.501242299
 20
4.944602313
 11
7.501242299
 21
4.7642556347
  0
LINE
  5
256
100
AcDbEntity
  8
0
100
AcDbLine
 62
7
  6
CONTINUOUS
 10
7.5049598888
 20
1.5200553221
 11
7.5049598888
 21
1.5243380636
  0
LINE
  5
257
100
AcDbEntity
  8
0
100
AcDbLine
 62
7
  6
CONTINUOUS
 10
7.5437034335
 20
4.944602313
 11
7.5437034335
 21
4.7642556347
  0
LINE
  5
258
100
AcDbEntity
  8
0
100
AcDbLine
 62
7
  6
CONTINUOUS
 10
6.6396664828
 20
2.2737553879
 11
6.6876449159
 21
2.7000276715
  0
LINE
  5
259
100
AcDbEntity
  8
0
100
AcDbLine
 62
9
  6
CONTINUOUS
 10
7.1227190557
 20
3.6924160229
 11
7.8372007219
 21
3.6924160229
  0
LINE
  5
25A
100
AcDbEntity
  8
0
100
AcDbLine
 62
9
  6
CONTINUOUS
 10
7.2799598888
 20
3.9562717037
 11
7.6799598888
 21
3.9562717037
  0
LINE
  5
25B
100
AcDbEntity
  8
0
100
AcDbLine
 62
7
  6
CONTINUOUS
 10
7.585854016
 20
4.944602313
 11
7.585854016
 21
4.7642556347
  0
LINE
  5
25C
100
AcDbEntity
  8
0
100
AcDbLine
 62
7
  6
CONTINUOUS
 10
7.6274886929
 20
4.944602313
 11
7.6274886929
 21
4.7642556347
  0
LINE
  5
25D
100
AcDbEntity
  8
0
100
AcDbLine
 62
7
  6
CONTINUOUS
 10
7.6684046243
 20
4.944602313
 11
7.6684046243
 21
4.7642556347
  0
LINE
  5
25E
100
AcDbEntity
  8
0
100
AcDbLine
 62
7
  6
CONTINUOUS
 10
7.6799598888
 20
3.9562717037
 11
7.6799598888
 21
4.5321289738
  0
LINE
  5
25F
100
AcDbEntity
  8
0
100
AcDbLine
 62
7
  6
CONTINUOUS
 10
7.7084024719
 20
4.944602313
 11
7.7084024719
 21
4.7642556347
  0
LINE
  5
260
100
AcDbEntity
  8
0
100
AcDbLine
 62
7
  6
CONTINUOUS
 10
7.7449598888
 20
1.5429094219
 11
7.7449598888
 21
1.5504976679
  0
LINE
  5
261
100
AcDbEntity
  8
0
100
AcDbLine
 62
7
  6
CONTINUOUS
 10
7.7472873702
 20
4.944602313
 11
7.7472873702
 21
4.7642556347
  0
LINE
  5
262
100
AcDbEntity
  8
0
100
AcDbLine
 62
7
  6
CONTINUOUS
 10
7.7848698758
 20
4.944602313
 11
7.7848698758
 21
4.7642556347
  0
LINE
  5
263
100
AcDbEntity
  8
0
100
AcDbLine
 62
7
  6
CONTINUOUS
 10
7.8209668907
 20
4.944602313
 11
7.8209668907
 21
4.7642556347
  0
LINE
  5
264
100
AcDbEntity
  8
0
100
AcDbLine
 62
7
  6
CONTINUOUS
 10
7.8554025537
 20
4.944602313
 11
7.8554025537
 21
4.7642556347
  0
LINE
  5
265
100
AcDbEntity
  8
0
100
AcDbLine
 62
7
  6
CONTINUOUS
 10
7.8880090978
 20
4.944602313
 11
7.8880090978
 21
4.7642556347
  0
LINE
  5
266
100
AcDbEntity
  8
0
100
AcDbLine
 62
7
  6
CONTINUOUS
 10
7.9349598888
 20
1.6007817869
 11
7.9349598888
 21
1.6083700329
  0
LINE
  5
267
100
AcDbEntity
  8
0
100
AcDbLine
 62
7
  6
CONTINUOUS
 10
7.9489598888
 20
7.8664289738
 11
7.9489598888
 21
5.6794289738
  0
LINE
  5
268
100
AcDbEntity
  8
0
100
AcDbLine
 62
7
  6
CONTINUOUS
 10
7.9599598888
 20
4.6094289738
 11
7.9599598888
 21
4.6894289738
  0
LINE
  5
269
100
AcDbEntity
  8
0
100
AcDbLine
 62
7
  6
CONTINUOUS
 10
8.0299598888
 20
5.2744289738
 11
8.0299598888
 21
5.4664291545
  0
LINE
  5
26A
100
AcDbEntity
  8
0
100
AcDbLine
 62
7
  6
CONTINUOUS
 10
8.0599598888
 20
4.6894289738
 11
8.0599598888
 21
4.7294289738
  0
LINE
  5
26B
100
AcDbEntity
  8
0
100
AcDbLine
 62
7
  6
CONTINUOUS
 10
8.0599598888
 20
4.9794289738
 11
8.0599598888
 21
5.2744289738
  0
LINE
  5
26C
100
AcDbEntity
  8
0
100
AcDbLine
 62
7
  6
CONTINUOUS
 10
8.3202533357
 20
2.2737550238
 11
8.2722748617
 21
2.7000276715
  0
LINE
  5
26D
100
AcDbEntity
  8
0
100
AcDbLine
 62
7
  6
CONTINUOUS
 10
8.1099598888
 20
1.6560092472
 11
8.1099598888
 21
1.6635974932
  0
LINE
  5
26E
100
AcDbEntity
  8
0
100
AcDbLine
 62
7
  6
CONTINUOUS
 10
8.2209598888
 20
7.8664289738
 11
8.2209598888
 21
7.9284289738
  0
LINE
  5
26F
100
AcDbEntity
  8
0
100
AcDbLine
 62
7
  6
CONTINUOUS
 10
8.3049598888
 20
1.7147632471
 11
8.3049598888
 21
1.7201289738
  0
LINE
  5
270
100
AcDbEntity
  8
0
100
AcDbLine
 62
7
  6
CONTINUOUS
 10
8.3914598888
 20
1.7301289738
 11
8.3914598888
 21
1.7321289738
  0
LINE
  5
271
100
AcDbEntity
  8
0
100
AcDbLine
 62
7
  6
CONTINUOUS
 10
8.4649598888
 20
5.5294289738
 11
8.4649598888
 21
7.1594289738
  0
LINE
  5
272
100
AcDbEntity
  8
0
100
AcDbLine
 62
7
  6
CONTINUOUS
 10
8.5199598888
 20
1.7321289738
 11
8.5199598888
 21
1.8131533816
  0
LINE
  5
273
100
AcDbEntity
  8
0
100
AcDbLine
 62
7
  6
CONTINUOUS
 10
7.2500143598
 20
4.5321289738
 11
7.7099052806
 21
4.5321289738
  0
LINE
  5
274
100
AcDbEntity
  8
0
100
AcDbLine
 62
7
  6
CONTINUOUS
 10
6.9999659778
 20
4.6094289738
 11
7.9599537998
 21
4.6094289738
  0
LINE
  5
275
100
AcDbEntity
  8
0
100
AcDbLine
 62
7
  6
CONTINUOUS
 10
6.8999602116
 20
4.6894289738
 11
8.059959566
 21
4.6894289738
  0
LINE
  5
276
100
AcDbEntity
  8
0
100
AcDbLine
 62
7
  6
CONTINUOUS
 10
6.8849650068
 20
4.7294289738
 11
8.0749547708
 21
4.7294289738
  0
LINE
  5
277
100
AcDbEntity
  8
0
100
AcDbLine
 62
7
  6
CONTINUOUS
 10
8.0749547708
 20
4.9794289738
 11
6.8849650068
 21
4.9794289738
  0
LINE
  5
278
100
AcDbEntity
  8
0
100
AcDbLine
 62
9
  6
CONTINUOUS
 10
9.0079088195
 20
5.5444289758
 11
9.0079088195
 21
5.6374782421
  0
LINE
  5
279
100
AcDbEntity
  8
0
100
AcDbLine
 62
9
  6
CONTINUOUS
 10
9.0079088195
 20
6.2513797075
 11
9.0079088195
 21
6.4374782401
  0
LINE
  5
27A
100
AcDbEntity
  8
0
100
AcDbLine
 62
9
  6
CONTINUOUS
 10
9.0079088195
 20
7.0513797056
 11
9.0079088195
 21
7.1444289719
  0
LINE
  5
27B
100
AcDbEntity
  8
0
100
AcDbLine
 62
7
  6
CONTINUOUS
 10
8.059959566
 20
5.2744289738
 11
6.8999602116
 21
5.2744289738
  0
LINE
  5
27C
100
AcDbEntity
  8
0
100
AcDbLine
 62
7
  6
CONTINUOUS
 10
7.2104523575
 20
5.6028331606
 11
7.0485215947
 21
5.6155268418
  0
LINE
  5
27D
100
AcDbEntity
  8
0
100
AcDbLine
 62
9
  6
CONTINUOUS
 10
9.1939598888
 20
7.0584289738
 11
9.1939598888
 21
5.6304289738
  0
LINE
  5
27E
100
AcDbEntity
  8
0
100
AcDbLine
 62
7
  6
CONTINUOUS
 10
7.7494674201
 20
5.6028331606
 11
7.9113981829
 21
5.6155268418
  0
LINE
  5
27F
100
AcDbEntity
  8
0
100
AcDbLine
 62
7
  6
CONTINUOUS
 10
6.8399598888
 20
5.5294289738
 11
6.8669598888
 21
5.5294289738
  0
LINE
  5
280
100
AcDbEntity
  8
0
100
AcDbLine
 62
7
  6
CONTINUOUS
 10
8.0929598888
 20
5.5294289738
 11
8.4649598888
 21
5.5294289738
  0
LINE
  5
281
100
AcDbEntity
  8
0
100
AcDbLine
 62
7
  6
CONTINUOUS
 10
8.4649598888
 20
5.5444289738
 11
9.1581586163
 21
5.5444289738
  0
LINE
  5
282
100
AcDbEntity
  8
0
100
AcDbLine
 62
7
  6
CONTINUOUS
 10
7.2495272646
 20
5.6013039738
 11
7.710392513
 21
5.6013039738
  0
LINE
  5
283
100
AcDbEntity
  8
0
100
AcDbLine
 62
9
  6
CONTINUOUS
 10
7.2104523575
 20
5.6028331606
 11
7.7494674201
 21
5.6028331606
  0
LINE
  5
284
100
AcDbEntity
  8
0
100
AcDbLine
 62
9
  6
CONTINUOUS
 10
7.9113981829
 20
5.6155268418
 11
7.0485215947
 21
5.6155268418
  0
LINE
  5
285
100
AcDbEntity
  8
0
100
AcDbLine
 62
7
  6
CONTINUOUS
 10
8.4649598888
 20
5.6374782449
 11
9.0079087857
 21
5.6374782358
  0
LINE
  5
286
100
AcDbEntity
  8
0
100
AcDbLine
 62
7
  6
CONTINUOUS
 10
7.0109598888
 20
5.6794289738
 11
7.9489598888
 21
5.6794289738
  0
LINE
  5
287
100
AcDbEntity
  8
0
100
AcDbLine
 62
7
  6
CONTINUOUS
 10
8.4649598888
 20
6.2513797028
 11
9.0079087894
 21
6.2513797119
  0
LINE
  5
288
100
AcDbEntity
  8
0
100
AcDbLine
 62
7
  6
CONTINUOUS
 10
8.4649598888
 20
6.4374782449
 11
9.0079087826
 21
6.4374782358
  0
LINE
  5
289
100
AcDbEntity
  8
0
100
AcDbLine
 62
7
  6
CONTINUOUS
 10
10.3304510983
 20
7.3874139371
 11
10.1679323015
 21
8.3034289738
  0
LINE
  5
28A
100
AcDbEntity
  8
0
100
AcDbLine
 62
7
  6
CONTINUOUS
 10
10.7429323015
 20
8.6834289738
 11
10.7429323015
 21
8.3034289738
  0
LINE
  5
28B
100
AcDbEntity
  8
0
100
AcDbLine
 62
7
  6
CONTINUOUS
 10
15.2950871284
 20
13.3383660145
 11
15.2504423171
 21
13.282034298
  0
LINE
  5
28C
100
AcDbEntity
  8
0
100
AcDbLine
 62
7
  6
CONTINUOUS
 10
15.2650288451
 20
13.300428107
 11
15.0655389402
 21
13.0488566408
  0
LWPOLYLINE
  5
28D
100
AcDbEntity
  8
0
100
AcDbPolyline
 62
7
  6
CONTINUOUS
 90
3
 70
0
 10
15.0655389402
 20
13.0488566408
 10
14.9183765905
 20
12.863274033
 10
14.7477210353
 20
12.648070341
  0
LINE
  5
28E
100
AcDbEntity
  8
0
100
AcDbLine
 62
7
  6
CONTINUOUS
 10
7.7276905253
 20
3.7951861338
 11
9.1147811281
 21
5.5444289738
  0
LINE
  5
28F
100
AcDbEntity
  8
0
100
AcDbLine
 62
7
  6
CONTINUOUS
 10
9.1959180359
 20
5.6467497269
 11
10.54265777
 21
7.3451065844
  0
LINE
  5
290
100
AcDbEntity
  8
0
100
AcDbLine
 62
7
  6
CONTINUOUS
 10
14.7477210353
 20
12.648070341
 11
11.605644035
 21
8.6856302523
  0
LINE
  5
291
100
AcDbEntity
  8
0
100
AcDbLine
 62
9
  6
CONTINUOUS
 10
11.6729323015
 20
8.3198347349
 11
15.6886454029
 21
13.3840009662
  0
LINE
  5
292
100
AcDbEntity
  8
0
100
AcDbLine
 62
7
  6
CONTINUOUS
 10
8.4649598888
 20
7.0513797028
 11
9.0079087892
 21
7.0513797119
  0
LINE
  5
293
100
AcDbEntity
  8
0
100
AcDbLine
 62
7
  6
CONTINUOUS
 10
8.4649598888
 20
7.1444289738
 11
9.1581586163
 21
7.1444289738
  0
LINE
  5
294
100
AcDbEntity
  8
0
100
AcDbLine
 62
7
  6
CONTINUOUS
 10
6.8399598888
 20
7.1594289738
 11
7.0109598888
 21
7.1594289738
  0
LINE
  5
295
100
AcDbEntity
  8
0
100
AcDbLine
 62
7
  6
CONTINUOUS
 10
7.9489598888
 20
7.1594289738
 11
8.4649598888
 21
7.1594289738
  0
LINE
  5
296
100
AcDbEntity
  8
0
100
AcDbLine
 62
7
  6
CONTINUOUS
 10
11.197975653
 20
7.3034289738
 11
11.21788895
 21
7.3034289738
  0
LINE
  5
297
100
AcDbEntity
  8
0
100
AcDbLine
 62
9
  6
CONTINUOUS
 10
10.3469800276
 20
7.3711595487
 11
12.0688845754
 21
7.3711595487
  0
LINE
  5
298
100
AcDbEntity
  8
0
100
AcDbLine
 62
9
  6
CONTINUOUS
 10
10.3304510983
 20
7.3874139371
 11
12.0854135047
 21
7.3874139371
  0
LINE
  5
299
100
AcDbEntity
  8
0
100
AcDbLine
 62
7
  6
CONTINUOUS
 10
11.3413577762
 20
7.2577887288
 11
10.9967565956
 21
7.3087563177
  0
LINE
  5
29A
100
AcDbEntity
  8
0
100
AcDbLine
 62
7
  6
CONTINUOUS
 10
8.1307356251
 20
3.4021671116
 11
11.204199779
 21
7.2780748242
  0
LWPOLYLINE
  5
29B
100
AcDbEntity
  8
0
100
AcDbPolyline
 62
7
  6
CONTINUOUS
 90
3
 70
0
 10
12.0172733974
 20
8.3034289738
 10
15.504331605
 20
12.7009175658
 10
15.7038160772
 20
12.9524877622
  0
LINE
  5
29C
100
AcDbEntity
  8
0
100
AcDbLine
 62
7
  6
CONTINUOUS
 10
11.4473597975
 20
7.3095042936
 11
11.4360651289
 21
7.2952607264
  0
LINE
  5
29D
100
AcDbEntity
  8
0
100
AcDbLine
 62
7
  6
CONTINUOUS
 10
15.7038160772
 20
12.9524877622
 11
15.7338997771
 21
12.990394178
  0
LINE
  5
29E
100
AcDbEntity
  8
0
100
AcDbLine
 62
7
  6
CONTINUOUS
 10
6.7389598888
 20
7.8664289738
 11
8.2209598888
 21
7.8664289738
  0
LINE
  5
29F
100
AcDbEntity
  8
0
100
AcDbLine
 62
7
  6
CONTINUOUS
 10
6.666957215
 20
7.9284289738
 11
8.2929625626
 21
7.9284289738
  0
LINE
  5
2A0
100
AcDbEntity
  8
0
100
AcDbLine
 62
7
  6
CONTINUOUS
 10
11.6729323015
 20
8.6834289738
 11
11.6729323015
 21
8.3034289738
  0
LINE
  5
2A1
100
AcDbEntity
  8
0
100
AcDbLine
 62
7
  6
CONTINUOUS
 10
12.0854135047
 20
7.3874139371
 11
12.2479323015
 21
8.3034289738
  0
LINE
  5
2A2
100
AcDbEntity
  8
0
100
AcDbLine
 62
7
  6
CONTINUOUS
 10
8.4799598888
 20
8.1164289738
 11
6.4799598888
 21
8.1164289738
  0
LINE
  5
2A3
100
AcDbEntity
  8
0
100
AcDbLine
 62
7
  6
CONTINUOUS
 10
12.2479323015
 20
8.3034289738
 11
10.1679323015
 21
8.3034289738
  0
LINE
  5
2A4
100
AcDbEntity
  8
0
100
AcDbLine
 62
7
  6
CONTINUOUS
 10
8.6599598888
 20
8.3034289738
 11
6.2999598888
 21
8.3034289738
  0
LWPOLYLINE
  5
2A5
100
AcDbEntity
  8
0
100
AcDbPolyline
 62
7
  6
CONTINUOUS
 90
7
 70
0
 10
15.7338997771
 20
12.990394178
 10
15.7726961181
 20
13.0558405012
 10
15.7924388506
 20
13.1292629296
 10
15.7917126474
 20
13.2052316407
 10
15.7704575105
 20
13.2785138995
 10
15.730425543
 20
13.3430755607
 10
15.6886454029
 20
13.3840009662
  0
LINE
  5
2A6
100
AcDbEntity
  8
0
100
AcDbLine
 62
7
  6
CONTINUOUS
 10
11.6729323015
 20
8.6834289738
 11
10.7429323015
 21
8.6834289738
  0
LWPOLYLINE
  5
2A7
100
AcDbEntity
  8
0
100
AcDbPolyline
 62
7
  6
CONTINUOUS
 90
37
 70
0
 10
15.6886454029
 20
13.3840009662
 10
15.6782924239
 20
13.3918266901
 10
15.6650321358
 20
13.4008107933
 10
15.6514342071
 20
13.4089356286
 10
15.6375777826
 20
13.4161910484
 10
15.6235342496
 20
13.4225786429
 10
15.6093655887
 20
13.4281093441
 10
15.5951234397
 20
13.4328008515
 10
15.5808488492
 20
13.4366750605
 10
15.5665726228
 20
13.4397556414
 10
15.5523161808
 20
13.4420658758
 10
15.5380928788
 20
13.4436268155
 10
15.523956803
 20
13.4444542668
 10
15.5099816833
 20
13.4445691949
 10
15.4962105879
 20
13.4439994853
 10
15.4826816201
 20
13.4427756215
 10
15.4694280429
 20
13.4409299281
 10
15.4564785096
 20
13.4384959054
 10
15.4438573728
 20
13.4355076667
 10
15.4315850447
 20
13.4319994792
 10
15.4196783855
 20
13.4280054059
 10
15.408151884
 20
13.4235593665
 10
15.3970291099
 20
13.4187002864
 10
15.3863350281
 20
13.4134709806
 10
15.3760897609
 20
13.4079155666
 10
15.3663093912
 20
13.4020792951
 10
15.357006118
 20
13.3960081745
 10
15.3481884904
 20
13.3897486698
 10
15.3398674535
 20
13.3833520829
 10
15.3320614209
 20
13.3768802595
 10
15.3247848554
 20
13.3703980502
 10
15.3180487209
 20
13.3639732275
 10
15.3118860385
 20
13.3577027635
 10
15.3063481548
 20
13.3517160318
 10
15.3015202789
 20
13.3461983522
 10
15.2978946048
 20
13.3418554527
 10
15.2962722641
 20
13.3398531637
  0
ARC
  5
2A8
100
AcDbEntity
  8
0
100
AcDbCircle
 62
7
  6
CONTINUOUS
 10
-2.7375729028
 20
4.8530966988
 40
10.6565708989
100
AcDbArc
 50
359.5223344324
 51
0.0071630674
  0
ARC
  5
2A9
100
AcDbEntity
  8
0
100
AcDbCircle
 62
7
  6
CONTINUOUS
 10
-2.737571497
 20
4.8557612546
 40
10.6565694931
100
AcDbArc
 50
359.9928369006
 51
0.4776655996
  0
ARC
  5
2AA
100
AcDbEntity
  8
0
100
AcDbCircle
 62
7
  6
CONTINUOUS
 10
6.0112419481
 20
-2.6284243008
 40
4.3807865226
100
AcDbArc
 50
80.0057405644
 51
80.2545775442
  0
ARC
  5
2AB
100
AcDbEntity
  8
0
100
AcDbCircle
 62
7
  6
CONTINUOUS
 10
6.0731354294
 20
-2.2777931827
 40
4.024734376
100
AcDbArc
 50
79.7086868709
 51
79.9033033592
  0
ARC
  5
2AC
100
AcDbEntity
  8
0
100
AcDbCircle
 62
7
  6
CONTINUOUS
 10
3.5185289544
 20
4.8557567529
 40
3.554492259
100
AcDbArc
 50
359.9785971854
 51
1.4322737138
  0
ARC
  5
2AD
100
AcDbEntity
  8
0
100
AcDbCircle
 62
7
  6
CONTINUOUS
 10
3.5185295346
 20
4.8531011876
 40
3.5544916788
100
AcDbArc
 50
358.5677261676
 51
0.0214029332
  0
ARC
  5
2AE
100
AcDbEntity
  8
0
100
AcDbCircle
 62
7
  6
CONTINUOUS
 10
5.85661086
 20
2.3618910308
 40
0.788
100
AcDbArc
 50
319.0941338575
 51
353.5781868591
  0
ARC
  5
2AF
100
AcDbEntity
  8
0
100
AcDbCircle
 62
7
  6
CONTINUOUS
 10
7.4508260305
 20
2.6141289738
 40
0.768
100
AcDbArc
 50
90.0
 51
173.5781868591
  0
ARC
  5
2B0
100
AcDbEntity
  8
0
100
AcDbCircle
 62
7
  6
CONTINUOUS
 10
7.4799598888
 20
3.0321289738
 40
0.7507329752
100
AcDbArc
 50
118.4152481218
 51
189.7586332304
  0
ARC
  5
2B1
100
AcDbEntity
  8
0
100
AcDbCircle
 62
7
  6
CONTINUOUS
 10
7.4799598888
 20
3.0321289738
 40
0.7507329752
100
AcDbArc
 50
350.2414012016
 51
61.5847518782
  0
ARC
  5
2B2
100
AcDbEntity
  8
0
100
AcDbCircle
 62
9
  6
CONTINUOUS
 10
7.4799598888
 20
3.0321289738
 40
0.5691464314
100
AcDbArc
 50
15.1378990758
 51
164.8419769285
  0
ARC
  5
2B3
100
AcDbEntity
  8
0
100
AcDbCircle
 62
9
  6
CONTINUOUS
 10
7.4799598888
 20
3.0321289738
 40
0.5464028015
100
AcDbArc
 50
18.53087981
 51
161.5002642115
  0
ARC
  5
2B4
100
AcDbEntity
  8
0
100
AcDbCircle
 62
7
  6
CONTINUOUS
 10
7.4799598888
 20
3.0321289738
 40
0.54
100
AcDbArc
 50
19.3491560783
 51
160.6509371628
  0
ARC
  5
2B5
100
AcDbEntity
  8
0
100
AcDbCircle
 62
7
  6
CONTINUOUS
 10
7.4799598888
 20
3.0321289738
 40
0.45
100
AcDbArc
 50
38.1888040183
 51
141.7228412311
  0
ARC
  5
2B6
100
AcDbEntity
  8
0
100
AcDbCircle
 62
9
  6
CONTINUOUS
 10
7.4799598888
 20
3.0321289738
 40
0.4362499972
100
AcDbArc
 50
41.4099196766
 51
138.5557467977
  0
ARC
  5
2B7
100
AcDbEntity
  8
0
100
AcDbCircle
 62
7
  6
CONTINUOUS
 10
7.4528560792
 20
1.782503233
 40
0.2675867579
100
AcDbArc
 50
282.3618457984
 51
285.2377842885
  0
ARC
  5
2B8
100
AcDbEntity
  8
0
100
AcDbCircle
 62
7
  6
CONTINUOUS
 10
7.4638775017
 20
1.7330840325
 40
0.2169538983
100
AcDbArc
 50
280.9154360604
 51
282.3127281295
  0
ARC
  5
2B9
100
AcDbEntity
  8
0
100
AcDbCircle
 62
7
  6
CONTINUOUS
 10
6.4899598888
 20
1.8131533816
 40
0.05
100
AcDbArc
 50
139.0941338575
 51
180.0
  0
ARC
  5
2BA
100
AcDbEntity
  8
0
100
AcDbCircle
 62
7
  6
CONTINUOUS
 10
7.2249598888
 20
1.5429094219
 40
0.01
100
AcDbArc
 50
180.0
 51
260.0001857534
  0
ARC
  5
2BB
100
AcDbEntity
  8
0
100
AcDbCircle
 62
7
  6
CONTINUOUS
 10
7.2049598888
 20
1.5504976679
 40
0.01
100
AcDbArc
 50
0.0
 51
79.9998328345
  0
ARC
  5
2BC
100
AcDbEntity
  8
0
100
AcDbCircle
 62
7
  6
CONTINUOUS
 10
7.0349598888
 20
1.6007817869
 40
0.01
100
AcDbArc
 50
180.0
 51
260.0000128599
  0
ARC
  5
2BD
100
AcDbEntity
  8
0
100
AcDbCircle
 62
7
  6
CONTINUOUS
 10
6.6649598888
 20
1.7147632471
 40
0.01
100
AcDbArc
 50
180.0
 51
259.9999951331
  0
ARC
  5
2BE
100
AcDbEntity
  8
0
100
AcDbCircle
 62
7
  6
CONTINUOUS
 10
6.8599598888
 20
1.6560092472
 40
0.01
100
AcDbArc
 50
180.0
 51
259.999996662
  0
ARC
  5
2BF
100
AcDbEntity
  8
0
100
AcDbCircle
 62
7
  6
CONTINUOUS
 10
6.8399598888
 20
1.6635974932
 40
0.01
100
AcDbArc
 50
0.0
 51
80.0000080117
  0
ARC
  5
2C0
100
AcDbEntity
  8
0
100
AcDbCircle
 62
7
  6
CONTINUOUS
 10
7.0149598888
 20
1.6083700329
 40
0.01
100
AcDbArc
 50
0.0
 51
79.9999022528
  0
ARC
  5
2C1
100
AcDbEntity
  8
0
100
AcDbCircle
 62
7
  6
CONTINUOUS
 10
6.6449598888
 20
1.7201289738
 40
0.01
100
AcDbArc
 50
0.0
 51
90.0000075877
  0
ARC
  5
2C2
100
AcDbEntity
  8
0
100
AcDbCircle
 62
7
  6
CONTINUOUS
 10
7.4799598888
 20
4.8471289738
 40
0.39
100
AcDbArc
 50
306.1289274719
 51
322.4320693888
  0
ARC
  5
2C3
100
AcDbEntity
  8
0
100
AcDbCircle
 62
7
  6
CONTINUOUS
 10
7.4799412791
 20
4.8471073829
 40
0.3899712589
100
AcDbArc
 50
217.6935901241
 51
233.8714109645
  0
ARC
  5
2C4
100
AcDbEntity
  8
0
100
AcDbCircle
 62
7
  6
CONTINUOUS
 10
6.9799598888
 20
3.9562717037
 40
0.3
100
AcDbArc
 50
298.4152481218
 51
360.0
  0
ARC
  5
2C5
100
AcDbEntity
  8
0
100
AcDbCircle
 62
7
  6
CONTINUOUS
 10
7.1367691635
 20
4.8544073008
 40
0.2816303715
100
AcDbArc
 50
173.8057106415
 51
179.9955907606
  0
ARC
  5
2C6
100
AcDbEntity
  8
0
100
AcDbCircle
 62
7
  6
CONTINUOUS
 10
7.1367691544
 20
4.8544506413
 40
0.281630362
100
AcDbArc
 50
180.0044080938
 51
186.1942891589
  0
ARC
  5
2C7
100
AcDbEntity
  8
0
100
AcDbCircle
 62
7
  6
CONTINUOUS
 10
7.1367242542
 20
4.8544097334
 40
0.2815854616
100
AcDbArc
 50
173.8052167467
 51
179.9960850358
  0
ARC
  5
2C8
100
AcDbEntity
  8
0
100
AcDbCircle
 62
7
  6
CONTINUOUS
 10
7.1367241882
 20
4.8544482164
 40
0.281585396
100
AcDbArc
 50
180.0039153991
 51
186.1947858623
  0
ARC
  5
2C9
100
AcDbEntity
  8
0
100
AcDbCircle
 62
7
  6
CONTINUOUS
 10
7.1340514663
 20
4.8541680277
 40
0.2788980459
100
AcDbArc
 50
186.1968110039
 51
189.3840706357
  0
ARC
  5
2CA
100
AcDbEntity
  8
0
100
AcDbCircle
 62
7
  6
CONTINUOUS
 10
7.1336349662
 20
4.8547468801
 40
0.2784778318
100
AcDbArc
 50
170.6109155097
 51
173.8055905029
  0
ARC
  5
2CB
100
AcDbEntity
  8
0
100
AcDbCircle
 62
7
  6
CONTINUOUS
 10
7.1303765554
 20
4.8544289738
 40
0.2754166667
100
AcDbArc
 50
153.0085334384
 51
160.8885348968
  0
ARC
  5
2CC
100
AcDbEntity
  8
0
100
AcDbCircle
 62
7
  6
CONTINUOUS
 10
7.1303765554
 20
4.8544289738
 40
0.2754166667
100
AcDbArc
 50
199.1114651032
 51
206.9914665616
  0
ARC
  5
2CD
100
AcDbEntity
  8
0
100
AcDbCircle
 62
7
  6
CONTINUOUS
 10
7.1302804217
 20
4.853552152
 40
0.2750770478
100
AcDbArc
 50
189.3855789521
 51
192.5224220553
  0
ARC
  5
2CE
100
AcDbEntity
  8
0
100
AcDbCircle
 62
7
  6
CONTINUOUS
 10
7.1302779975
 20
4.8553062702
 40
0.2750745783
100
AcDbArc
 50
167.4775648373
 51
170.6118000735
  0
ARC
  5
2CF
100
AcDbEntity
  8
0
100
AcDbCircle
 62
7
  6
CONTINUOUS
 10
7.1293613964
 20
4.8533743058
 40
0.2741413234
100
AcDbArc
 50
189.3802299924
 51
192.527782659
  0
ARC
  5
2D0
100
AcDbEntity
  8
0
100
AcDbCircle
 62
7
  6
CONTINUOUS
 10
7.1293594726
 20
4.8554840495
 40
0.2741393571
100
AcDbArc
 50
167.4722131777
 51
170.617143411
  0
ARC
  5
2D1
100
AcDbEntity
  8
0
100
AcDbCircle
 62
7
  6
CONTINUOUS
 10
7.124827943
 20
4.8565044979
 40
0.2694943724
100
AcDbArc
 50
160.9192507081
 51
167.4750204277
  0
ARC
  5
2D2
100
AcDbEntity
  8
0
100
AcDbCircle
 62
7
  6
CONTINUOUS
 10
7.1248279051
 20
4.8523534398
 40
0.2694943333
100
AcDbArc
 50
192.5249791143
 51
199.080749904
  0
ARC
  5
2D3
100
AcDbEntity
  8
0
100
AcDbCircle
 62
7
  6
CONTINUOUS
 10
7.123397514
 20
4.8569093608
 40
0.2680101965
100
AcDbArc
 50
160.9010816849
 51
167.4931957199
  0
ARC
  5
2D4
100
AcDbEntity
  8
0
100
AcDbCircle
 62
7
  6
CONTINUOUS
 10
7.3610757204
 20
4.8545360387
 40
0.2421542428
100
AcDbArc
 50
359.9746677514
 51
21.835451527
  0
ARC
  5
2D5
100
AcDbEntity
  8
0
100
AcDbCircle
 62
7
  6
CONTINUOUS
 10
7.1029058753
 20
4.854388244
 40
0.2372308112
100
AcDbArc
 50
179.9901630197
 51
202.3298839843
  0
ARC
  5
2D6
100
AcDbEntity
  8
0
100
AcDbCircle
 62
7
  6
CONTINUOUS
 10
7.1027818451
 20
4.8544937227
 40
0.2371054996
100
AcDbArc
 50
157.6640975701
 51
180.0156461943
  0
ARC
  5
2D7
100
AcDbEntity
  8
0
100
AcDbCircle
 62
7
  6
CONTINUOUS
 10
7.4128858454
 20
4.8544054495
 40
0.2327870144
100
AcDbArc
 50
0.0057900319
 51
22.7968536219
  0
ARC
  5
2D8
100
AcDbEntity
  8
0
100
AcDbCircle
 62
7
  6
CONTINUOUS
 10
7.4129085625
 20
4.8544479824
 40
0.2327640434
100
AcDbArc
 50
337.2020044684
 51
359.9953209831
  0
ARC
  5
2D9
100
AcDbEntity
  8
0
100
AcDbCircle
 62
7
  6
CONTINUOUS
 10
7.10398736
 20
4.8545150234
 40
0.2287796993
100
AcDbArc
 50
180.0215504025
 51
203.2361956194
  0
ARC
  5
2DA
100
AcDbEntity
  8
0
100
AcDbCircle
 62
7
  6
CONTINUOUS
 10
7.103987341
 20
4.8543429593
 40
0.2287796743
100
AcDbArc
 50
156.7638105421
 51
179.9784583496
  0
ARC
  5
2DB
100
AcDbEntity
  8
0
100
AcDbCircle
 62
7
  6
CONTINUOUS
 10
7.4621377693
 20
4.8545749095
 40
0.2251714338
100
AcDbArc
 50
336.3525497328
 51
359.9628657291
  0
ARC
  5
2DC
100
AcDbEntity
  8
0
100
AcDbCircle
 62
7
  6
CONTINUOUS
 10
7.2073716539
 20
4.8496238342
 40
0.2165060774
100
AcDbArc
 50
153.9798407091
 51
154.3010436037
  0
ARC
  5
2DD
100
AcDbEntity
  8
0
100
AcDbCircle
 62
7
  6
CONTINUOUS
 10
4.2452020648
 20
6.3444289738
 40
5.0
100
AcDbArc
 50
351.7900972579
 51
8.2099027421
  0
ARC
  5
2DE
100
AcDbEntity
  8
0
100
AcDbCircle
 62
7
  6
CONTINUOUS
 10
7.2495272647
 20
6.1013039739
 40
0.5
100
AcDbArc
 50
265.5177750878
 51
269.9999999835
  0
ARC
  5
2DF
100
AcDbEntity
  8
0
100
AcDbCircle
 62
7
  6
CONTINUOUS
 10
6.4870959999
 20
8.3034289738
 40
0.1871361111
100
AcDbArc
 50
180.0
 51
267.8145949287
  0
ARC
  5
2E0
100
AcDbEntity
  8
0
100
AcDbCircle
 62
7
  6
CONTINUOUS
 10
6.666957215
 20
8.1154289738
 40
0.187
100
AcDbArc
 50
179.6936039968
 51
270.0
  0
CIRCLE
  5
2E1
100
AcDbEntity
  8
0
100
AcDbCircle
 62
7
  6
CONTINUOUS
 10
7.4799598888
 20
6.3444289738
 40
0.0625
  0
ARC
  5
2E2
100
AcDbEntity
  8
0
100
AcDbCircle
 62
7
  6
CONTINUOUS
 10
7.0510223888
 20
5.6474289738
 40
0.032
100
AcDbArc
 50
90.0
 51
265.5177750604
  0
ARC
  5
2E3
100
AcDbEntity
  8
0
100
AcDbCircle
 62
7
  6
CONTINUOUS
 10
8.9414301083
 20
-2.5867622874
 40
4.3384988859
100
AcDbArc
 50
99.7442342004
 51
99.9938563
  0
ARC
  5
2E4
100
AcDbEntity
  8
0
100
AcDbCircle
 62
7
  6
CONTINUOUS
 10
8.8814008363
 20
-2.2478674063
 40
3.9943282649
100
AcDbArc
 50
100.0945225346
 51
100.2920398309
  0
ARC
  5
2E5
100
AcDbEntity
  8
0
100
AcDbCircle
 62
7
  6
CONTINUOUS
 10
9.1033089176
 20
2.3618910308
 40
0.788
100
AcDbArc
 50
186.4218131409
 51
220.9058664485
  0
ARC
  5
2E6
100
AcDbEntity
  8
0
100
AcDbCircle
 62
7
  6
CONTINUOUS
 10
7.509093747
 20
2.6141289738
 40
0.768
100
AcDbArc
 50
6.4218131408
 51
90.0
  0
ARC
  5
2E7
100
AcDbEntity
  8
0
100
AcDbCircle
 62
7
  6
CONTINUOUS
 10
7.5070659818
 20
1.7825127008
 40
0.2675964951
100
AcDbArc
 50
254.7615088063
 51
257.6381102135
  0
ARC
  5
2E8
100
AcDbEntity
  8
0
100
AcDbCircle
 62
7
  6
CONTINUOUS
 10
7.4960394372
 20
1.7330702402
 40
0.216939818
100
AcDbArc
 50
257.687227068
 51
259.0846103217
  0
ARC
  5
2E9
100
AcDbEntity
  8
0
100
AcDbCircle
 62
7
  6
CONTINUOUS
 10
8.4699598888
 20
1.8131533816
 40
0.05
100
AcDbArc
 50
0.0
 51
40.905868978
  0
ARC
  5
2EA
100
AcDbEntity
  8
0
100
AcDbCircle
 62
7
  6
CONTINUOUS
 10
7.7349598888
 20
1.5429094219
 40
0.01
100
AcDbArc
 50
279.9998142466
 51
360.0
  0
ARC
  5
2EB
100
AcDbEntity
  8
0
100
AcDbCircle
 62
7
  6
CONTINUOUS
 10
7.7549598888
 20
1.5504976679
 40
0.01
100
AcDbArc
 50
100.0001671655
 51
180.0
  0
ARC
  5
2EC
100
AcDbEntity
  8
0
100
AcDbCircle
 62
7
  6
CONTINUOUS
 10
7.9249598888
 20
1.6007817869
 40
0.01
100
AcDbArc
 50
279.9999871401
 51
360.0
  0
ARC
  5
2ED
100
AcDbEntity
  8
0
100
AcDbCircle
 62
7
  6
CONTINUOUS
 10
8.2949598888
 20
1.7147632471
 40
0.01
100
AcDbArc
 50
280.0000048669
 51
360.0
  0
ARC
  5
2EE
100
AcDbEntity
  8
0
100
AcDbCircle
 62
7
  6
CONTINUOUS
 10
8.1199598888
 20
1.6635974932
 40
0.01
100
AcDbArc
 50
99.9999919883
 51
180.0
  0
ARC
  5
2EF
100
AcDbEntity
  8
0
100
AcDbCircle
 62
7
  6
CONTINUOUS
 10
8.0999598888
 20
1.6560092472
 40
0.01
100
AcDbArc
 50
280.000003338
 51
360.0
  0
ARC
  5
2F0
100
AcDbEntity
  8
0
100
AcDbCircle
 62
7
  6
CONTINUOUS
 10
7.9449598888
 20
1.6083700329
 40
0.01
100
AcDbArc
 50
100.0000977472
 51
180.0
  0
ARC
  5
2F1
100
AcDbEntity
  8
0
100
AcDbCircle
 62
7
  6
CONTINUOUS
 10
8.3149598888
 20
1.7201289738
 40
0.01
100
AcDbArc
 50
89.9999924123
 51
180.0
  0
ARC
  5
2F2
100
AcDbEntity
  8
0
100
AcDbCircle
 62
7
  6
CONTINUOUS
 10
7.9799598888
 20
3.9562717037
 40
0.3
100
AcDbArc
 50
180.0
 51
241.5847518782
  0
ARC
  5
2F3
100
AcDbEntity
  8
0
100
AcDbCircle
 62
7
  6
CONTINUOUS
 10
7.8231506168
 20
4.8544073021
 40
0.2816303686
100
AcDbArc
 50
0.0044089744
 51
6.1942893787
  0
ARC
  5
2F4
100
AcDbEntity
  8
0
100
AcDbCircle
 62
7
  6
CONTINUOUS
 10
7.8231506181
 20
4.8544506435
 40
0.2816303672
100
AcDbArc
 50
353.8057108296
 51
359.9955914506
  0
ARC
  5
2F5
100
AcDbEntity
  8
0
100
AcDbCircle
 62
7
  6
CONTINUOUS
 10
7.823195546
 20
4.8544097326
 40
0.2815854391
100
AcDbArc
 50
0.0039151141
 51
6.1947841183
  0
ARC
  5
2F6
100
AcDbEntity
  8
0
100
AcDbCircle
 62
7
  6
CONTINUOUS
 10
7.823195576
 20
4.854448216
 40
0.2815854093
100
AcDbArc
 50
353.8052148454
 51
359.9960846887
  0
ARC
  5
2F7
100
AcDbEntity
  8
0
100
AcDbCircle
 62
7
  6
CONTINUOUS
 10
7.8258689807
 20
4.8546900002
 40
0.278897372
100
AcDbArc
 50
6.1968089487
 51
9.385771
  0
ARC
  5
2F8
100
AcDbEntity
  8
0
100
AcDbCircle
 62
7
  6
CONTINUOUS
 10
7.8262839399
 20
4.8541111834
 40
0.2784787107
100
AcDbArc
 50
350.6126086481
 51
353.8055857313
  0
ARC
  5
2F9
100
AcDbEntity
  8
0
100
AcDbCircle
 62
7
  6
CONTINUOUS
 10
7.8295432221
 20
4.8544289738
 40
0.2754166667
100
AcDbArc
 50
19.1114651032
 51
26.9914665616
  0
ARC
  5
2FA
100
AcDbEntity
  8
0
100
AcDbCircle
 62
7
  6
CONTINUOUS
 10
7.8295432221
 20
4.8544289738
 40
0.2754166667
100
AcDbArc
 50
333.0085334384
 51
340.8885348968
  0
ARC
  5
2FB
100
AcDbEntity
  8
0
100
AcDbCircle
 62
7
  6
CONTINUOUS
 10
7.8296402127
 20
4.8535519837
 40
0.2750761749
100
AcDbArc
 50
347.4775733657
 51
350.6134987116
  0
ARC
  5
2FC
100
AcDbEntity
  8
0
100
AcDbCircle
 62
7
  6
CONTINUOUS
 10
7.8296409353
 20
4.8553061048
 40
0.2750754388
100
AcDbArc
 50
9.3872868117
 51
12.5224306147
  0
ARC
  5
2FD
100
AcDbEntity
  8
0
100
AcDbCircle
 62
7
  6
CONTINUOUS
 10
7.8305590623
 20
4.8533741613
 40
0.2741406273
100
AcDbArc
 50
347.4722158277
 51
350.6188456129
  0
ARC
  5
2FE
100
AcDbEntity
  8
0
100
AcDbCircle
 62
7
  6
CONTINUOUS
 10
7.8305596381
 20
4.8554839085
 40
0.2741400387
100
AcDbArc
 50
9.3819414172
 51
12.5277853342
  0
ARC
  5
2FF
100
AcDbEntity
  8
0
100
AcDbCircle
 62
7
  6
CONTINUOUS
 10
7.8350918478
 20
4.8565045014
 40
0.2694943588
100
AcDbArc
 50
12.5249794293
 51
19.0807495051
  0
ARC
  5
300
100
AcDbEntity
  8
0
100
AcDbCircle
 62
7
  6
CONTINUOUS
 10
7.8350918649
 20
4.8523534418
 40
0.2694943411
100
AcDbArc
 50
340.9192502179
 51
347.475020692
  0
ARC
  5
301
100
AcDbEntity
  8
0
100
AcDbCircle
 62
7
  6
CONTINUOUS
 10
7.8365222602
 20
4.8519485876
 40
0.2680102
100
AcDbArc
 50
340.9010817747
 51
347.4931957194
  0
ARC
  5
302
100
AcDbEntity
  8
0
100
AcDbCircle
 62
7
  6
CONTINUOUS
 10
7.5988440531
 20
4.8543219064
 40
0.2421542388
100
AcDbArc
 50
179.9746671316
 51
201.8354513122
  0
ARC
  5
303
100
AcDbEntity
  8
0
100
AcDbCircle
 62
7
  6
CONTINUOUS
 10
7.8570139016
 20
4.8544696904
 40
0.2372308151
100
AcDbArc
 50
359.9901662157
 51
22.3298868767
  0
ARC
  5
304
100
AcDbEntity
  8
0
100
AcDbCircle
 62
7
  6
CONTINUOUS
 10
7.8571379345
 20
4.8543642462
 40
0.2371055023
100
AcDbArc
 50
337.6640926461
 51
0.0156410672
  0
ARC
  5
305
100
AcDbEntity
  8
0
100
AcDbCircle
 62
7
  6
CONTINUOUS
 10
7.5470339327
 20
4.8544524744
 40
0.2327870106
100
AcDbArc
 50
180.0057841718
 51
202.796848166
  0
ARC
  5
306
100
AcDbEntity
  8
0
100
AcDbCircle
 62
7
  6
CONTINUOUS
 10
7.5470112169
 20
4.8544099891
 40
0.2327640407
100
AcDbArc
 50
157.2020100384
 51
179.9953268329
  0
ARC
  5
307
100
AcDbEntity
  8
0
100
AcDbCircle
 62
7
  6
CONTINUOUS
 10
7.8559324083
 20
4.8543429489
 40
0.2287797031
100
AcDbArc
 50
0.0215442524
 51
23.236189059
  0
ARC
  5
308
100
AcDbEntity
  8
0
100
AcDbCircle
 62
7
  6
CONTINUOUS
 10
7.8559324461
 20
4.8545150173
 40
0.2287796706
100
AcDbArc
 50
336.7638029431
 51
359.9784511061
  0
ARC
  5
309
100
AcDbEntity
  8
0
100
AcDbCircle
 62
7
  6
CONTINUOUS
 10
7.4977820115
 20
4.8542830368
 40
0.2251714375
100
AcDbArc
 50
156.3525497284
 51
179.9628653715
  0
ARC
  5
30A
100
AcDbEntity
  8
0
100
AcDbCircle
 62
7
  6
CONTINUOUS
 10
7.7525494021
 20
4.8496244584
 40
0.2165046547
100
AcDbArc
 50
25.6989693697
 51
26.0201592684
  0
ARC
  5
30B
100
AcDbEntity
  8
0
100
AcDbCircle
 62
7
  6
CONTINUOUS
 10
11.4413907669
 20
4.8531011941
 40
3.5544922028
100
AcDbArc
 50
179.9785971739
 51
181.4322737252
  0
ARC
  5
30C
100
AcDbEntity
  8
0
100
AcDbCircle
 62
7
  6
CONTINUOUS
 10
11.4413902983
 20
4.8557567594
 40
3.5544917342
100
AcDbArc
 50
178.5677261789
 51
180.0214029219
  0
ARC
  5
30D
100
AcDbEntity
  8
0
100
AcDbCircle
 62
7
  6
CONTINUOUS
 10
17.697492849
 20
4.8557612482
 40
10.6565710675
100
AcDbArc
 50
179.5223344362
 51
180.0071630636
  0
ARC
  5
30E
100
AcDbEntity
  8
0
100
AcDbCircle
 62
7
  6
CONTINUOUS
 10
17.6974911085
 20
4.8530966924
 40
10.656569327
100
AcDbArc
 50
179.9928368968
 51
180.4776656034
  0
ARC
  5
30F
100
AcDbEntity
  8
0
100
AcDbCircle
 62
7
  6
CONTINUOUS
 10
11.21788895
 20
12.6834289738
 40
5.38
100
AcDbArc
 50
270.0
 51
279.1011348932
  0
ARC
  5
310
100
AcDbEntity
  8
0
100
AcDbCircle
 62
7
  6
CONTINUOUS
 10
11.197975653
 20
12.6834289738
 40
5.38
100
AcDbArc
 50
260.8988651068
 51
270.0
  0
ARC
  5
311
100
AcDbEntity
  8
0
100
AcDbCircle
 62
7
  6
CONTINUOUS
 10
7.7103925129
 20
6.1013039739
 40
0.5
100
AcDbArc
 50
270.0000000165
 51
274.4822249122
  0
ARC
  5
312
100
AcDbEntity
  8
0
100
AcDbCircle
 62
7
  6
CONTINUOUS
 10
11.2079323015
 20
7.7334289738
 40
0.494
100
AcDbArc
 50
285.669744673
 51
297.5037936621
  0
ARC
  5
313
100
AcDbEntity
  8
0
100
AcDbCircle
 62
7
  6
CONTINUOUS
 10
11.2079323015
 20
7.7334289738
 40
0.4369756475
100
AcDbArc
 50
260.9623922534
 51
281.3783059213
  0
ARC
  5
314
100
AcDbEntity
  8
0
100
AcDbCircle
 62
7
  6
CONTINUOUS
 10
9.0079088195
 20
7.0314289808
 40
0.188
100
AcDbArc
 50
8.2572000152
 51
36.9461242516
  0
ARC
  5
315
100
AcDbEntity
  8
0
100
AcDbCircle
 62
7
  6
CONTINUOUS
 10
9.0079088195
 20
5.6574289669
 40
0.188
100
AcDbArc
 50
323.0538757484
 51
351.7427999848
  0
ARC
  5
316
100
AcDbEntity
  8
0
100
AcDbCircle
 62
7
  6
CONTINUOUS
 10
8.4728237777
 20
8.3034289738
 40
0.1871361111
100
AcDbArc
 50
272.1854050713
 51
360.0
  0
ARC
  5
317
100
AcDbEntity
  8
0
100
AcDbCircle
 62
7
  6
CONTINUOUS
 10
8.2929625626
 20
8.1154289738
 40
0.187
100
AcDbArc
 50
270.0
 51
0.3063960032
  0
ARC
  5
318
100
AcDbEntity
  8
0
100
AcDbCircle
 62
7
  6
CONTINUOUS
 10
7.9088973888
 20
5.6474289738
 40
0.032
100
AcDbArc
 50
274.4822249396
 51
90.0
  0
ARC
  5
319
100
AcDbEntity
  8
0
100
AcDbCircle
 62
7
  6
CONTINUOUS
 10
10.3501435631
 20
7.3909077649
 40
0.02
100
AcDbArc
 50
190.0606992806
 51
260.8989144854
  0
ARC
  5
31A
100
AcDbEntity
  8
0
100
AcDbCircle
 62
7
  6
CONTINUOUS
 10
12.0657210399
 20
7.3909077649
 40
0.02
100
AcDbArc
 50
279.1010855146
 51
349.9393007194
  0
SPLINE
  5
31B
100
AcDbEntity
  8
0
100
AcDbSpline
 62
7
  6
CONTINUOUS
 70
0
 71
3
 72
37
 73
33
 74
0
 42
0.0000001
 43
0.0000001
 44
0.0000000001
 40
0.0
 40
0.0
 40
0.0
 40
0.0
 40
0.0003618588
 40
0.0009268907
 40
0.0028163023
 40
0.0057819077
 40
0.009842807
 40
0.0149975813
 40
0.0212302768
 40
0.0285225765
 40
0.0368554111
 40
0.0565644549
 40
0.0801878773
 40
0.1074865753
 40
0.1381963739
 40
0.172050876
 40
0.2087476204
 40
0.2479510497
 40
0.2893242716
 40
0.3771659143
 40
0.4692916535
 40
0.5626215764
 40
0.6540000963
 40
0.7403093582
 40
0.8185140104
 40
0.8858194186
 40
0.9145865239
 40
0.9397476392
 40
0.9610524543
 40
0.9782894147
 40
0.9913152651
 40
1.0
 40
1.0
 40
1.0
 40
1.0
 10
7.7882058865
 20
1.5671305002
 30
0.0
 10
7.7882059338
 20
1.5671361126
 30
0.0
 10
7.788213507
 20
1.567149701
 30
0.0
 10
7.7882472202
 20
1.5671772621
 30
0.0
 10
7.7883231862
 20
1.5672153869
 30
0.0
 10
7.78845144
 20
1.5672662589
 30
0.0
 10
7.7886306362
 20
1.567326837
 30
0.0
 10
7.7888597648
 20
1.5673967774
 30
0.0
 10
7.7891385755
 20
1.5674757171
 30
0.0
 10
7.7894660845
 20
1.5675633321
 30
0.0
 10
7.7899970713
 20
1.5676990699
 30
0.0
 10
7.7907761054
 20
1.5678870113
 30
0.0
 10
7.7918439956
 20
1.5681315815
 30
0.0
 10
7.7930806371
 20
1.5684034032
 30
0.0
 10
7.7944743713
 20
1.56869954
 30
0.0
 10
7.7960126095
 20
1.5690168013
 30
0.0
 10
7.7976816236
 20
1.5693520617
 30
0.0
 10
7.7994665842
 20
1.5697021678
 30
0.0
 10
7.8020320872
 20
1.5701941694
 30
0.0
 10
7.8054075736
 20
1.5708206589
 30
0.0
 10
7.8095806185
 20
1.5715655224
 30
0.0
 10
7.8138124948
 20
1.5722924695
 30
0.0
 10
7.8179598615
 20
1.5729779915
 30
0.0
 10
7.8218798105
 20
1.5736003303
 30
0.0
 10
7.8254347892
 20
1.5741396391
 30
0.0
 10
7.828110466
 20
1.5745241818
 30
0.0
 10
7.8299739187
 20
1.574776057
 30
0.0
 10
7.8311313371
 20
1.574924663
 30
0.0
 10
7.8321124178
 20
1.57504185
 30
0.0
 10
7.8329077768
 20
1.5751272412
 30
0.0
 10
7.8335095079
 20
1.5751796284
 30
0.0
 10
7.833846019
 20
1.5751989099
 30
0.0
 10
7.8339807234
 20
1.5751989099
 30
0.0
  0
SPLINE
  5
31C
100
AcDbEntity
  8
0
100
AcDbSpline
 62
7
  6
CONTINUOUS
 70
0
 71
3
 72
18
 73
14
 74
0
 42
0.0000001
 43
0.0000001
 44
0.0000000001
 40
0.0
 40
0.0
 40
0.0
 40
0.0
 40
0.0386720872
 40
0.0657023211
 40
0.0989868468
 40
0.1389030021
 40
0.1855745101
 40
0.2389810025
 40
0.2990444914
 40
0.4386673726
 40
0.60328028
 40
0.7910718333
 40
1.0
 40
1.0
 40
1.0
 40
1.0
 10
7.7132022393
 20
1.5680973905
 30
0.0
 10
7.7132025392
 20
1.5682137439
 30
0.0
 10
7.713310401
 20
1.5684028364
 30
0.0
 10
7.7135235549
 20
1.5686062922
 30
0.0
 10
7.7137678647
 20
1.5687862453
 30
0.0
 10
7.7140773357
 20
1.5689713437
 30
0.0
 10
7.7144525272
 20
1.5691635619
 30
0.0
 10
7.7148919178
 20
1.5693615404
 30
0.0
 10
7.7155980057
 20
1.5696471186
 30
0.0
 10
7.7166333868
 20
1.5700085533
 30
0.0
 10
7.718050856
 20
1.5704364774
 30
0.0
 10
7.7196827545
 20
1.5708724541
 30
0.0
 10
7.720843534
 20
1.5711510446
 30
0.0
 10
7.7214562544
 20
1.5712914797
 30
0.0
  0
SPLINE
  5
31D
100
AcDbEntity
  8
0
100
AcDbSpline
 62
7
  6
CONTINUOUS
 70
0
 71
3
 72
15
 73
11
 74
0
 42
0.0000001
 43
0.0000001
 44
0.0000000001
 40
0.0
 40
0.0
 40
0.0
 40
0.0
 40
0.1155501276
 40
0.243587874
 40
0.3795482464
 40
0.5184479735
 40
0.6550490029
 40
0.7841147481
 40
0.9007075452
 40
1.0
 40
1.0
 40
1.0
 40
1.0
 10
7.7214562544
 20
1.5712914797
 30
0.0
 10
7.7226820117
 20
1.5715724225
 30
0.0
 10
7.7252779077
 20
1.5721129735
 30
0.0
 10
7.7293446866
 20
1.5728389061
 30
0.0
 10
7.7336792062
 20
1.5735035518
 30
0.0
 10
7.7381198085
 20
1.5740835245
 30
0.0
 10
7.7424973177
 20
1.574559159
 30
0.0
 10
7.7466427524
 20
1.5749141598
 30
0.0
 10
7.750390707
 20
1.575136136
 30
0.0
 10
7.7527401696
 20
1.5751989099
 30
0.0
 10
7.7538207772
 20
1.5751989099
 30
0.0
  0
SPLINE
  5
31E
100
AcDbEntity
  8
0
100
AcDbSpline
 62
7
  6
CONTINUOUS
 70
0
 71
3
 72
22
 73
18
 74
0
 42
0.0000001
 43
0.0000001
 44
0.0000000001
 40
0.0
 40
0.0
 40
0.0
 40
0.0
 40
0.0362831996
 40
0.0498616318
 40
0.0655021981
 40
0.0832458546
 40
0.1030887031
 40
0.1250076616
 40
0.1489678974
 40
0.2028234567
 40
0.2641093299
 40
0.3321032359
 40
0.4060208526
 40
0.4848869852
 40
0.6532370553
 40
0.8282910602
 40
1.0
 40
1.0
 40
1.0
 40
1.0
 10
7.5603260745
 20
1.5700187567
 30
0.0
 10
7.5603261371
 20
1.570395375
 30
0.0
 10
7.5607629942
 20
1.5708434883
 30
0.0
 10
7.5613167923
 20
1.5712104607
 30
0.0
 10
7.5617470923
 20
1.571447575
 30
0.0
 10
7.5622473069
 20
1.5716803608
 30
0.0
 10
7.562820416
 20
1.5719121841
 30
0.0
 10
7.563463153
 20
1.572141016
 30
0.0
 10
7.5644501901
 20
1.5724539398
 30
0.0
 10
7.5658458134
 20
1.572826841
 30
0.0
 10
7.5677023619
 20
1.5732371887
 30
0.0
 10
7.569776759
 20
1.5736206712
 30
0.0
 10
7.5720416964
 20
1.5739714488
 30
0.0
 10
7.5753477065
 20
1.5743996646
 30
0.0
 10
7.5797123795
 20
1.5748165565
 30
0.0
 10
7.5850514503
 20
1.575123739
 30
0.0
 10
7.5886511318
 20
1.5751989099
 30
0.0
 10
7.5904334643
 20
1.5751989099
 30
0.0
  0
SPLINE
  5
31F
100
AcDbEntity
  8
0
100
AcDbSpline
 62
7
  6
CONTINUOUS
 70
0
 71
3
 72
20
 73
16
 74
0
 42
0.0000001
 43
0.0000001
 44
0.0000000001
 40
0.0
 40
0.0
 40
0.0
 40
0.0
 40
0.0087514159
 40
0.0178955422
 40
0.0389691735
 40
0.0656647708
 40
0.0990549867
 40
0.1396085522
 40
0.187454726
 40
0.2424558078
 40
0.3043833893
 40
0.4478178258
 40
0.6145609815
 40
0.800544792
 40
1.0
 40
1.0
 40
1.0
 40
1.0
 10
7.3760373131
 20
1.5722534978
 30
0.0
 10
7.3760372391
 20
1.5723064885
 30
0.0
 10
7.3760506832
 20
1.5724153221
 30
0.0
 10
7.3761360505
 20
1.5726374579
 30
0.0
 10
7.3763612315
 20
1.5729084237
 30
0.0
 10
7.3767631477
 20
1.5731952559
 30
0.0
 10
7.3773099424
 20
1.5734683645
 30
0.0
 10
7.3780018216
 20
1.5737260917
 30
0.0
 10
7.3788364917
 20
1.5739675946
 30
0.0
 10
7.3798091301
 20
1.5741916305
 30
0.0
 10
7.3813596377
 20
1.574478955
 30
0.0
 10
7.383595371
 20
1.5747700751
 30
0.0
 10
7.3865902277
 20
1.5750171161
 30
0.0
 10
7.3899310658
 20
1.5751665745
 30
0.0
 10
7.39226509
 20
1.5751989099
 30
0.0
 10
7.3934728111
 20
1.5751989099
 30
0.0
  0
SPLINE
  5
320
100
AcDbEntity
  8
0
100
AcDbSpline
 62
7
  6
CONTINUOUS
 70
0
 71
3
 72
18
 73
14
 74
0
 42
0.0000001
 43
0.0000001
 44
0.0000000001
 40
0.0
 40
0.0
 40
0.0
 40
0.0
 40
0.0189040844
 40
0.0399179752
 40
0.0653676323
 40
0.0966076902
 40
0.1343172074
 40
0.1788285944
 40
0.2887854082
 40
0.4269537099
 40
0.5927345357
 40
0.7844015417
 40
1.0
 40
1.0
 40
1.0
 40
1.0
 10
7.2163415402
 20
1.5741247502
 30
0.0
 10
7.2163415257
 20
1.5741672716
 30
0.0
 10
7.2163612574
 20
1.5742580295
 30
0.0
 10
7.2164478465
 20
1.5743802286
 30
0.0
 10
7.2165848436
 20
1.5744909445
 30
0.0
 10
7.2167718562
 20
1.5745930429
 30
0.0
 10
7.2170093306
 20
1.5746876571
 30
0.0
 10
7.2174234854
 20
1.5748127766
 30
0.0
 10
7.2180703483
 20
1.5749411865
 30
0.0
 10
7.21899453
 20
1.5750565413
 30
0.0
 10
7.2201066461
 20
1.5751392386
 30
0.0
 10
7.2213948245
 20
1.575189017
 30
0.0
 10
7.2223109599
 20
1.5751989099
 30
0.0
 10
7.2227959102
 20
1.5751989099
 30
0.0
  0
SPLINE
  5
321
100
AcDbEntity
  8
0
100
AcDbSpline
 62
7
  6
CONTINUOUS
 70
0
 71
3
 72
16
 73
12
 74
0
 42
0.0000001
 43
0.0000001
 44
0.0000000001
 40
0.0
 40
0.0
 40
0.0
 40
0.0
 40
0.0100440063
 40
0.0257984009
 40
0.0786470624
 40
0.1612141267
 40
0.2733497715
 40
0.4144960729
 40
0.5835659315
 40
0.7791962397
 40
1.0
 40
1.0
 40
1.0
 40
1.0
 10
8.1413189185
 20
1.6819174576
 30
0.0
 10
8.1413186957
 20
1.6819352725
 30
0.0
 10
8.1413426135
 20
1.6819789059
 30
0.0
 10
8.141451336
 20
1.6820657047
 30
0.0
 10
8.141695076
 20
1.6821843639
 30
0.0
 10
8.14210446
 20
1.6823404721
 30
0.0
 10
8.1426720457
 20
1.6825236928
 30
0.0
 10
8.1433916302
 20
1.6827316929
 30
0.0
 10
8.1442588604
 20
1.6829624284
 30
0.0
 10
8.1452665505
 20
1.6832138503
 30
0.0
 10
8.1459854
 20
1.6833839521
 30
0.0
 10
8.1463669596
 20
1.6834723489
 30
0.0
  0
SPLINE
  5
322
100
AcDbEntity
  8
0
100
AcDbSpline
 62
7
  6
CONTINUOUS
 70
0
 71
3
 72
15
 73
11
 74
0
 42
0.0000001
 43
0.0000001
 44
0.0000000001
 40
0.0
 40
0.0
 40
0.0
 40
0.0
 40
0.1046852637
 40
0.2297756955
 40
0.3684586544
 40
0.5133097696
 40
0.6565383921
 40
0.7902944034
 40
0.9070341757
 40
1.0
 40
1.0
 40
1.0
 40
1.0
 10
8.1463669596
 20
1.6834723489
 30
0.0
 10
8.1476525288
 20
1.6837701797
 30
0.0
 10
8.1504838978
 20
1.6843821271
 30
0.0
 10
8.1550398072
 20
1.6852862512
 30
0.0
 10
8.1601054814
 20
1.6862204532
 30
0.0
 10
8.1654071044
 20
1.6871336977
 30
0.0
 10
8.170657412
 20
1.6879769311
 30
0.0
 10
8.1755668862
 20
1.6887058076
 30
0.0
 10
8.1798580721
 20
1.6892814351
 30
0.0
 10
8.1824844297
 20
1.6895849733
 30
0.0
 10
8.1836509032
 20
1.6896974905
 30
0.0
  0
LINE
  5
323
100
AcDbEntity
  8
0
100
AcDbLine
 62
7
  6
CONTINUOUS
 10
8.1836509032
 20
1.6896974905
 11
8.1865346307
 21
1.6898856781
  0
SPLINE
  5
324
100
AcDbEntity
  8
0
100
AcDbSpline
 62
7
  6
CONTINUOUS
 70
0
 71
3
 72
17
 73
13
 74
0
 42
0.0000001
 43
0.0000001
 44
0.0000000001
 40
0.0
 40
0.0
 40
0.0
 40
0.0
 40
0.0355313079
 40
0.0614263227
 40
0.093771867
 40
0.1328465958
 40
0.178755063
 40
0.2910884722
 40
0.4305028841
 40
0.5960721914
 40
0.7863975315
 40
1.0
 40
1.0
 40
1.0
 40
1.0
 10
8.0705389571
 20
1.6823348408
 30
0.0
 10
8.0705389058
 20
1.6824107399
 30
0.0
 10
8.0706173498
 20
1.6825340526
 30
0.0
 10
8.0707643864
 20
1.6826657091
 30
0.0
 10
8.0709357795
 20
1.6827858923
 30
0.0
 10
8.0711525897
 20
1.6829112784
 30
0.0
 10
8.0715296376
 20
1.6831004309
 30
0.0
 10
8.0721169235
 20
1.6833454789
 30
0.0
 10
8.0729567467
 20
1.6836451018
 30
0.0
 10
8.0739660261
 20
1.6839632322
 30
0.0
 10
8.0751358908
 20
1.6842972642
 30
0.0
 10
8.0759705313
 20
1.6845162986
 30
0.0
 10
8.0764128216
 20
1.6846284194
 30
0.0
  0
SPLINE
  5
325
100
AcDbEntity
  8
0
100
AcDbSpline
 62
7
  6
CONTINUOUS
 70
0
 71
3
 72
16
 73
12
 74
0
 42
0.0000001
 43
0.0000001
 44
0.0000000001
 40
0.0
 40
0.0
 40
0.0
 40
0.0
 40
0.110548723
 40
0.2397958672
 40
0.380983422
 40
0.5266820067
 40
0.6690438793
 40
0.8001535094
 40
0.9126672571
 40
0.9598626699
 40
1.0
 40
1.0
 40
1.0
 40
1.0
 10
8.0764128216
 20
1.6846284194
 30
0.0
 10
8.0777513356
 20
1.6849677334
 30
0.0
 10
8.0806723999
 20
1.6856340396
 30
0.0
 10
8.0853412748
 20
1.6865569737
 30
0.0
 10
8.0904632487
 20
1.6874447132
 30
0.0
 10
8.0957645125
 20
1.6882497876
 30
0.0
 10
8.1009564543
 20
1.6889294512
 30
0.0
 10
8.1057501534
 20
1.6894479921
 30
0.0
 10
8.1093717673
 20
1.6897409333
 30
0.0
 10
8.1118652597
 20
1.6898621345
 30
0.0
 10
8.1129561205
 20
1.6898856781
 30
0.0
 10
8.1134574717
 20
1.6898856781
 30
0.0
  0
SPLINE
  5
326
100
AcDbEntity
  8
0
100
AcDbSpline
 62
7
  6
CONTINUOUS
 70
0
 71
3
 72
19
 73
15
 74
0
 42
0.0000001
 43
0.0000001
 44
0.0000000001
 40
0.0
 40
0.0
 40
0.0
 40
0.0
 40
0.0357891411
 40
0.0482717489
 40
0.0624094886
 40
0.0958446715
 40
0.1363227209
 40
0.1838604399
 40
0.2383864356
 40
0.2997452413
 40
0.4418747233
 40
0.6079161725
 40
0.7950795154
 40
1.0
 40
1.0
 40
1.0
 40
1.0
 10
7.9579458508
 20
1.6829961307
 30
0.0
 10
7.9579457999
 20
1.6831582042
 30
0.0
 10
7.958088566
 20
1.6833629749
 30
0.0
 10
7.9582939075
 20
1.6835516305
 30
0.0
 10
7.9585096575
 20
1.6837193115
 30
0.0
 10
7.958848586
 20
1.6839299534
 30
0.0
 10
7.9593387919
 20
1.6841806268
 30
0.0
 10
7.9599305484
 20
1.6844391257
 30
0.0
 10
7.9606216523
 20
1.6847044351
 30
0.0
 10
7.961726921
 20
1.6850839735
 30
0.0
 10
7.9633326057
 20
1.6855579263
 30
0.0
 10
7.9655073643
 20
1.6861090891
 30
0.0
 10
7.9679754213
 20
1.6866555363
 30
0.0
 10
7.9697180359
 20
1.6869969673
 30
0.0
 10
7.9706305038
 20
1.6871660213
 30
0.0
  0
SPLINE
  5
327
100
AcDbEntity
  8
0
100
AcDbSpline
 62
7
  6
CONTINUOUS
 70
0
 71
3
 72
13
 73
9
 74
0
 42
0.0000001
 43
0.0000001
 44
0.0000000001
 40
0.0
 40
0.0
 40
0.0
 40
0.0
 40
0.2567688421
 40
0.5260120695
 40
0.6572941767
 40
0.7821293497
 40
0.8974151941
 40
1.0
 40
1.0
 40
1.0
 40
1.0
 10
7.9706305038
 20
1.6871660213
 30
0.0
 10
7.9728813953
 20
1.6875830468
 30
0.0
 10
7.9775137
 20
1.6883242787
 30
0.0
 10
7.9833321523
 20
1.689032619
 30
0.0
 10
7.9879963012
 20
1.6894641695
 30
0.0
 10
7.9912993315
 20
1.6897008247
 30
0.0
 10
7.9943514772
 20
1.689846882
 30
0.0
 10
7.9962939146
 20
1.6898856781
 30
0.0
 10
7.9972084992
 20
1.6898856781
 30
0.0
  0
SPLINE
  5
328
100
AcDbEntity
  8
0
100
AcDbSpline
 62
7
  6
CONTINUOUS
 70
0
 71
3
 72
19
 73
15
 74
0
 42
0.0000001
 43
0.0000001
 44
0.0000000001
 40
0.0
 40
0.0
 40
0.0
 40
0.0
 40
0.0202440699
 40
0.0437389081
 40
0.0721771219
 40
0.1064925334
 40
0.1471265043
 40
0.1942401808
 40
0.2478650087
 40
0.3079607658
 40
0.4471367042
 40
0.6102754825
 40
0.7953406124
 40
1.0
 40
1.0
 40
1.0
 40
1.0
 10
7.8112102616
 20
1.6838524707
 30
0.0
 10
7.8112103467
 20
1.6839283671
 30
0.0
 10
7.8112459224
 20
1.6840930128
 30
0.0
 10
7.811387326
 20
1.6843272779
 30
0.0
 10
7.8116116588
 20
1.6845625166
 30
0.0
 10
7.8119188456
 20
1.6848004873
 30
0.0
 10
7.8123083152
 20
1.685041866
 30
0.0
 10
7.8127790863
 20
1.6852861863
 30
0.0
 10
7.813329693
 20
1.6855326242
 30
0.0
 10
7.8142121952
 20
1.6858799385
 30
0.0
 10
7.8155040011
 20
1.686304292
 30
0.0
 10
7.8172668508
 20
1.686786819
 30
0.0
 10
7.8192861126
 20
1.6872564526
 30
0.0
 10
7.8207191016
 20
1.6875428345
 30
0.0
 10
7.8214733188
 20
1.687683829
 30
0.0
  0
SPLINE
  5
329
100
AcDbEntity
  8
0
100
AcDbSpline
 62
7
  6
CONTINUOUS
 70
0
 71
3
 72
11
 73
7
 74
0
 42
0.0000001
 43
0.0000001
 44
0.0000000001
 40
0.0
 40
0.0
 40
0.0
 40
0.0
 40
0.2370407918
 40
0.4956417708
 40
0.756696742
 40
1.0
 40
1.0
 40
1.0
 40
1.0
 10
7.8214733188
 20
1.687683829
 30
0.0
 10
7.8233656674
 20
1.6880375875
 30
0.0
 10
7.8273453037
 20
1.6886562837
 30
0.0
 10
7.8334548679
 20
1.6893344946
 30
0.0
 10
7.8396375113
 20
1.6897697882
 30
0.0
 10
7.8437338973
 20
1.6898856781
 30
0.0
 10
7.8457098888
 20
1.6898856781
 30
0.0
  0
SPLINE
  5
32A
100
AcDbEntity
  8
0
100
AcDbSpline
 62
7
  6
CONTINUOUS
 70
0
 71
3
 72
23
 73
19
 74
0
 42
0.0000001
 43
0.0000001
 44
0.0000000001
 40
0.0
 40
0.0
 40
0.0
 40
0.0
 40
0.0076385327
 40
0.0161087512
 40
0.0259469136
 40
0.0374899094
 40
0.0509381941
 40
0.0663980267
 40
0.1034577958
 40
0.1486793551
 40
0.2018052759
 40
0.2623076916
 40
0.3295458039
 40
0.4027901589
 40
0.4811211651
 40
0.6491372594
 40
0.8252946813
 40
1.0
 40
1.0
 40
1.0
 40
1.0
 10
7.6403333654
 20
1.6848423516
 30
0.0
 10
7.6403334672
 20
1.6849187655
 30
0.0
 10
7.6403621211
 20
1.6850806839
 30
0.0
 10
7.6404817264
 20
1.6853141013
 30
0.0
 10
7.6406737795
 20
1.6855450418
 30
0.0
 10
7.6409370808
 20
1.6857748175
 30
0.0
 10
7.6412714299
 20
1.6860039733
 30
0.0
 10
7.6418469912
 20
1.686328092
 30
0.0
 10
7.6427460267
 20
1.6867181017
 30
0.0
 10
7.644029562
 20
1.6871535104
 30
0.0
 10
7.6455630709
 20
1.6875731204
 30
0.0
 10
7.6473282477
 20
1.6879724169
 30
0.0
 10
7.6493042739
 20
1.6883456592
 30
0.0
 10
7.6514666693
 20
1.6886874028
 30
0.0
 10
7.6546365665
 20
1.6891057889
 30
0.0
 10
7.6588449232
 20
1.6895133743
 30
0.0
 10
7.6640280536
 20
1.6898133019
 30
0.0
 10
7.6675383117
 20
1.6898856781
 30
0.0
 10
7.6692860203
 20
1.6898856781
 30
0.0
  0
SPLINE
  5
32B
100
AcDbEntity
  8
0
100
AcDbSpline
 62
7
  6
CONTINUOUS
 70
0
 71
3
 72
22
 73
18
 74
0
 42
0.0000001
 43
0.0000001
 44
0.0000000001
 40
0.0
 40
0.0
 40
0.0
 40
0.0
 40
0.0083215359
 40
0.0172193731
 40
0.027171213
 40
0.0385133193
 40
0.0661379433
 40
0.1011062539
 40
0.1436586267
 40
0.1937055354
 40
0.2510335069
 40
0.3152525247
 40
0.3858144272
 40
0.4621425493
 40
0.6294347068
 40
0.8112214536
 40
1.0
 40
1.0
 40
1.0
 40
1.0
 10
7.4569598892
 20
1.6858959516
 30
0.0
 10
7.4569598829
 20
1.6859623178
 30
0.0
 10
7.4569797855
 20
1.6861002825
 30
0.0
 10
7.457066493
 20
1.6863010148
 30
0.0
 10
7.4572074677
 20
1.6864979854
 30
0.0
 10
7.4574846755
 20
1.686774371
 30
0.0
 10
7.4579787661
 20
1.6871043962
 30
0.0
 10
7.4587372513
 20
1.6874648774
 30
0.0
 10
7.4596950339
 20
1.6878117291
 30
0.0
 10
7.4608449131
 20
1.6881417594
 30
0.0
 10
7.4621785009
 20
1.6884510926
 30
0.0
 10
7.4636840816
 20
1.6887367179
 30
0.0
 10
7.465347861
 20
1.6889962659
 30
0.0
 10
7.4678336855
 20
1.6893131014
 30
0.0
 10
7.4712139595
 20
1.6896173709
 30
0.0
 10
7.4754987257
 20
1.6898362274
 30
0.0
 10
7.4784543361
 20
1.6898856781
 30
0.0
 10
7.4799598888
 20
1.6898856781
 30
0.0
  0
SPLINE
  5
32C
100
AcDbEntity
  8
0
100
AcDbSpline
 62
7
  6
CONTINUOUS
 70
0
 71
3
 72
20
 73
16
 74
0
 42
0.0000001
 43
0.0000001
 44
0.0000000001
 40
0.0
 40
0.0
 40
0.0
 40
0.0
 40
0.008868683
 40
0.0181243726
 40
0.0393658387
 40
0.0661365384
 40
0.0995246424
 40
0.140019688
 40
0.1877518243
 40
0.2425991947
 40
0.3043556033
 40
0.4474641326
 40
0.6140108424
 40
0.8000687634
 40
1.0
 40
1.0
 40
1.0
 40
1.0
 10
7.2735867991
 20
1.6869407332
 30
0.0
 10
7.2735867268
 20
1.6869933071
 30
0.0
 10
7.2735998198
 20
1.6871012063
 30
0.0
 10
7.2736828635
 20
1.6873213476
 30
0.0
 10
7.2739015441
 20
1.6875906618
 30
0.0
 10
7.274293083
 20
1.6878767746
 30
0.0
 10
7.2748258806
 20
1.6881493872
 30
0.0
 10
7.2755002213
 20
1.6884068786
 30
0.0
 10
7.2763138421
 20
1.6886485525
 30
0.0
 10
7.2772622172
 20
1.6888730285
 30
0.0
 10
7.2787749759
 20
1.6891612811
 30
0.0
 10
7.2809587221
 20
1.6894538898
 30
0.0
 10
7.2838875435
 20
1.6897026052
 30
0.0
 10
7.2871602322
 20
1.6898531459
 30
0.0
 10
7.2894485546
 20
1.6898856781
 30
0.0
 10
7.2906337573
 20
1.6898856781
 30
0.0
  0
SPLINE
  5
32D
100
AcDbEntity
  8
0
100
AcDbSpline
 62
7
  6
CONTINUOUS
 70
0
 71
3
 72
19
 73
15
 74
0
 42
0.0000001
 43
0.0000001
 44
0.0000000001
 40
0.0
 40
0.0
 40
0.0
 40
0.0
 40
0.0187436888
 40
0.0400453525
 40
0.0662377295
 40
0.0985257093
 40
0.1374790701
 40
0.1833606942
 40
0.2362774175
 40
0.2961919748
 40
0.43635523
 40
0.6023112738
 40
0.7914714937
 40
1.0
 40
1.0
 40
1.0
 40
1.0
 10
7.102710273
 20
1.6879065432
 30
0.0
 10
7.1027101891
 20
1.6879816674
 30
0.0
 10
7.1027478819
 20
1.6881438231
 30
0.0
 10
7.1029092196
 20
1.6883607874
 30
0.0
 10
7.1031626352
 20
1.6885594273
 30
0.0
 10
7.1035074869
 20
1.6887452639
 30
0.0
 10
7.1039442429
 20
1.6889192323
 30
0.0
 10
7.1044725937
 20
1.6890809761
 30
0.0
 10
7.105091407
 20
1.6892296402
 30
0.0
 10
7.1060877675
 20
1.689419467
 30
0.0
 10
7.1075434463
 20
1.6896104446
 30
0.0
 10
7.109522601
 20
1.6897699407
 30
0.0
 10
7.1117800835
 20
1.689865785
 30
0.0
 10
7.1133741116
 20
1.6898856781
 30
0.0
 10
7.1142098888
 20
1.6898856781
 30
0.0
  0
LINE
  5
32E
100
AcDbEntity
  8
0
100
AcDbLine
 62
7
  6
CONTINUOUS
 10
8.1654598888
 20
1.681774637
 11
8.1677520954
 21
1.6821915961
  0
LINE
  5
32F
100
AcDbEntity
  8
0
100
AcDbLine
 62
7
  6
CONTINUOUS
 10
8.1813045082
 20
1.6846284194
 11
8.1885158274
 21
1.6859058097
  0
LINE
  5
330
100
AcDbEntity
  8
0
100
AcDbLine
 62
7
  6
CONTINUOUS
 10
8.2071377648
 20
1.6891454919
 11
8.2114598888
 21
1.6898856781
  0
SPLINE
  5
331
100
AcDbEntity
  8
0
100
AcDbSpline
 62
7
  6
CONTINUOUS
 70
0
 71
3
 72
18
 73
14
 74
0
 42
0.0000001
 43
0.0000001
 44
0.0000000001
 40
0.0
 40
0.0
 40
0.0
 40
0.0
 40
0.01931755
 40
0.0406897427
 40
0.0664102799
 40
0.0978435002
 40
0.1356955752
 40
0.1803065829
 40
0.290338039
 40
0.4284050385
 40
0.5939324763
 40
0.7851465295
 40
1.0
 40
1.0
 40
1.0
 40
1.0
 10
6.9559755426
 20
1.6887300134
 30
0.0
 10
6.9559755611
 20
1.6887754445
 30
0.0
 10
6.9559961302
 20
1.6888721277
 30
0.0
 10
6.9560864449
 20
1.6890030004
 30
0.0
 10
6.9562296182
 20
1.6891219459
 30
0.0
 10
6.956425114
 20
1.6892317588
 30
0.0
 10
6.9566733699
 20
1.6893335637
 30
0.0
 10
6.9571060044
 20
1.689468252
 30
0.0
 10
6.9577817128
 20
1.6896068105
 30
0.0
 10
6.9587468421
 20
1.6897315423
 30
0.0
 10
6.9599075233
 20
1.6898210157
 30
0.0
 10
6.9612509192
 20
1.6898749312
 30
0.0
 10
6.9622059842
 20
1.6898856781
 30
0.0
 10
6.9627112783
 20
1.6898856781
 30
0.0
  0
SPLINE
  5
332
100
AcDbEntity
  8
0
100
AcDbSpline
 62
7
  6
CONTINUOUS
 70
0
 71
3
 72
17
 73
13
 74
0
 42
0.0000001
 43
0.0000001
 44
0.0000000001
 40
0.0
 40
0.0
 40
0.0
 40
0.0
 40
0.019718342
 40
0.0411823191
 40
0.0666624461
 40
0.0975588759
 40
0.1783542936
 40
0.286844637
 40
0.4236710873
 40
0.5885386142
 40
0.7808796727
 40
1.0
 40
1.0
 40
1.0
 40
1.0
 10
6.8433809545
 20
1.6893584098
 30
0.0
 10
6.8433809701
 20
1.6893796471
 30
0.0
 10
6.8433899746
 20
1.6894244652
 30
0.0
 10
6.8434302515
 20
1.6894854474
 30
0.0
 10
6.843494339
 20
1.6895405817
 30
0.0
 10
6.8436228209
 20
1.6896146372
 30
0.0
 10
6.8438491619
 20
1.6896908267
 30
0.0
 10
6.8441933607
 20
1.6897615853
 30
0.0
 10
6.8446320436
 20
1.6898171263
 30
0.0
 10
6.8451627397
 20
1.6898571405
 30
0.0
 10
6.8457831239
 20
1.6898810249
 30
0.0
 10
6.8462263057
 20
1.6898856781
 30
0.0
 10
6.8464623059
 20
1.6898856781
 30
0.0
  0
SPLINE
  5
333
100
AcDbEntity
  8
0
100
AcDbSpline
 62
7
  6
CONTINUOUS
 70
0
 71
3
 72
43
 73
39
 74
0
 42
0.0000001
 43
0.0000001
 44
0.0000000001
 40
0.0
 40
0.0
 40
0.0
 40
0.0
 40
0.0002048427
 40
0.0006874684
 40
0.0014606934
 40
0.0025261884
 40
0.0038839847
 40
0.0055336365
 40
0.0097058478
 40
0.0150369346
 40
0.0215196253
 40
0.0291357138
 40
0.0378592231
 40
0.0476639596
 40
0.0585237011
 40
0.0833032033
 40
0.1119639443
 40
0.1442007459
 40
0.1796950736
 40
0.2181213738
 40
0.2591096896
 40
0.3022727154
 40
0.3935523192
 40
0.4886702576
 40
0.5842413661
 40
0.6768445124
 40
0.7631308959
 40
0.8398837247
 40
0.873767948
 40
0.904195152
 40
0.9308625269
 40
0.9535234222
 40
0.9719351773
 40
0.9858934618
 40
0.9911652936
 40
0.9952816696
 40
0.9982301579
 40
1.0
 40
1.0
 40
1.0
 40
1.0
 10
7.9683358239
 20
1.6227613945
 30
0.0
 10
7.9683360038
 20
1.6227645775
 30
0.0
 10
7.968348103
 20
1.622770253
 30
0.0
 10
7.9683669002
 20
1.6227785096
 30
0.0
 10
7.9684025463
 20
1.6227897033
 30
0.0
 10
7.9684498258
 20
1.6228033938
 30
0.0
 10
7.9685113072
 20
1.6228196548
 30
0.0
 10
7.968619595
 20
1.6228468273
 30
0.0
 10
7.9687886399
 20
1.622886541
 30
0.0
 10
7.9690313889
 20
1.6229409379
 30
0.0
 10
7.9693269461
 20
1.6230049284
 30
0.0
 10
7.9696744686
 20
1.6230783221
 30
0.0
 10
7.970072905
 20
1.6231608532
 30
0.0
 10
7.9705210552
 20
1.6232522473
 30
0.0
 10
7.971214407
 20
1.6233918153
 30
0.0
 10
7.9721960989
 20
1.6235860513
 30
0.0
 10
7.9735049827
 20
1.6238406725
 30
0.0
 10
7.9749783052
 20
1.6241232585
 30
0.0
 10
7.9766015977
 20
1.6244307665
 30
0.0
 10
7.9783594027
 20
1.6247599614
 30
0.0
 10
7.9802351785
 20
1.6251075834
 30
0.0
 10
7.9829206296
 20
1.6256003515
 30
0.0
 10
7.9864363646
 20
1.6262359624
 30
0.0
 10
7.9907571493
 20
1.6270031828
 30
0.0
 10
7.9951005672
 20
1.627760642
 30
0.0
 10
7.999310752
 20
1.6284819229
 30
0.0
 10
8.003234298
 20
1.6291417852
 30
0.0
 10
8.006258259
 20
1.6296403649
 30
0.0
 10
8.0084254773
 20
1.6299911753
 30
0.0
 10
8.0098237003
 20
1.6302144203
 30
0.0
 10
8.0110499346
 20
1.6304069685
 30
0.0
 10
8.0120919546
 20
1.6305671799
 30
0.0
 10
8.0129390438
 20
1.6306935219
 30
0.0
 10
8.0135190266
 20
1.6307762682
 30
0.0
 10
8.0138792363
 20
1.6308238185
 30
0.0
 10
8.0140698399
 20
1.6308472404
 30
0.0
 10
8.0142065535
 20
1.6308613363
 30
0.0
 10
8.0142798704
 20
1.6308671877
 30
0.0
 10
8.014307415
 20
1.6308671877
 30
0.0
  0
SPLINE
  5
334
100
AcDbEntity
  8
0
100
AcDbSpline
 62
7
  6
CONTINUOUS
 70
0
 71
3
 72
19
 73
15
 74
0
 42
0.0000001
 43
0.0000001
 44
0.0000000001
 40
0.0
 40
0.0
 40
0.0
 40
0.0
 40
0.0123943207
 40
0.0299448307
 40
0.0541355604
 40
0.0854821726
 40
0.1241611552
 40
0.1701517532
 40
0.2233607072
 40
0.2836659354
 40
0.4249984386
 40
0.5928135389
 40
0.7851762598
 40
1.0
 40
1.0
 40
1.0
 40
1.0
 10
7.9253109527
 20
1.6231173298
 30
0.0
 10
7.9253110095
 20
1.6231508537
 30
0.0
 10
7.9253446366
 20
1.6232300681
 30
0.0
 10
7.9254493252
 20
1.6233334807
 30
0.0
 10
7.9256116676
 20
1.6234475014
 30
0.0
 10
7.9258351706
 20
1.6235704525
 30
0.0
 10
7.9261196837
 20
1.6237032027
 30
0.0
 10
7.9264647642
 20
1.623844867
 30
0.0
 10
7.926869279
 20
1.6239950365
 30
0.0
 10
7.9275216699
 20
1.6242177756
 30
0.0
 10
7.9284775607
 20
1.6245098817
 30
0.0
 10
7.9297855089
 20
1.6248698676
 30
0.0
 10
7.9312934022
 20
1.6252511392
 30
0.0
 10
7.9323655185
 20
1.6255034205
 30
0.0
 10
7.9329319899
 20
1.6256327728
 30
0.0
  0
SPLINE
  5
335
100
AcDbEntity
  8
0
100
AcDbSpline
 62
7
  6
CONTINUOUS
 70
0
 71
3
 72
13
 73
9
 74
0
 42
0.0000001
 43
0.0000001
 44
0.0000000001
 40
0.0
 40
0.0
 40
0.0
 40
0.0
 40
0.1125656
 40
0.2385214334
 40
0.5117297147
 40
0.7792340681
 40
0.8978593882
 40
1.0
 40
1.0
 40
1.0
 40
1.0
 10
7.9329319899
 20
1.6256327728
 30
0.0
 10
7.9341383803
 20
1.6259082487
 30
0.0
 10
7.9367026804
 20
1.626456997
 30
0.0
 10
7.94222558
 20
1.6275276644
 30
0.0
 10
7.9494537578
 20
1.6287444437
 30
0.0
 10
7.9566324225
 20
1.6297542232
 30
0.0
 10
7.9619651774
 20
1.6303667685
 30
0.0
 10
7.9643817248
 20
1.6305941051
 30
0.0
 10
7.9655011859
 20
1.6306811492
 30
0.0
  0
LINE
  5
336
100
AcDbEntity
  8
0
100
AcDbLine
 62
7
  6
CONTINUOUS
 10
7.9655011859
 20
1.6306811492
 11
7.9693502007
 21
1.6308671877
  0
SPLINE
  5
337
100
AcDbEntity
  8
0
100
AcDbSpline
 62
7
  6
CONTINUOUS
 70
0
 71
3
 72
19
 73
15
 74
0
 42
0.0000001
 43
0.0000001
 44
0.0000000001
 40
0.0
 40
0.0
 40
0.0
 40
0.0
 40
0.0358919692
 40
0.0483940687
 40
0.062549617
 40
0.0960161375
 40
0.1365201661
 40
0.1840780618
 40
0.2386176055
 40
0.2999843179
 40
0.4421113367
 40
0.608118389
 40
0.7952073607
 40
1.0
 40
1.0
 40
1.0
 40
1.0
 10
7.8200719627
 20
1.6239822085
 30
0.0
 10
7.82007193
 20
1.6241455249
 30
0.0
 10
7.8202152444
 20
1.6243519593
 30
0.0
 10
7.8204217717
 20
1.6245422717
 30
0.0
 10
7.8206385738
 20
1.6247112287
 30
0.0
 10
7.8209791973
 20
1.6249234252
 30
0.0
 10
7.8214718725
 20
1.6251758307
 30
0.0
 10
7.8220665827
 20
1.6254359701
 30
0.0
 10
7.8227611003
 20
1.6257027992
 30
0.0
 10
7.8238717247
 20
1.6260842227
 30
0.0
 10
7.8254850909
 20
1.6265600023
 30
0.0
 10
7.827670063
 20
1.6271125003
 30
0.0
 10
7.8301493046
 20
1.6276593907
 30
0.0
 10
7.8318996778
 20
1.6280006109
 30
0.0
 10
7.8328161098
 20
1.6281694331
 30
0.0
  0
SPLINE
  5
338
100
AcDbEntity
  8
0
100
AcDbSpline
 62
7
  6
CONTINUOUS
 70
0
 71
3
 72
13
 73
9
 74
0
 42
0.0000001
 43
0.0000001
 44
0.0000000001
 40
0.0
 40
0.0
 40
0.0
 40
0.0
 40
0.2571240732
 40
0.5264977556
 40
0.6577507814
 40
0.7824934221
 40
0.8976251714
 40
1.0
 40
1.0
 40
1.0
 40
1.0
 10
7.8328161098
 20
1.6281694331
 30
0.0
 10
7.8350693726
 20
1.6285845218
 30
0.0
 10
7.8397043716
 20
1.6293209714
 30
0.0
 10
7.8455245892
 20
1.6300232245
 30
0.0
 10
7.8501867767
 20
1.6304504338
 30
0.0
 10
7.8534858068
 20
1.6306844542
 30
0.0
 10
7.8565323689
 20
1.6308288277
 30
0.0
 10
7.858470555
 20
1.6308671877
 30
0.0
 10
7.8593827949
 20
1.6308671877
 30
0.0
  0
SPLINE
  5
339
100
AcDbEntity
  8
0
100
AcDbSpline
 62
7
  6
CONTINUOUS
 70
0
 71
3
 72
19
 73
15
 74
0
 42
0.0000001
 43
0.0000001
 44
0.0000000001
 40
0.0
 40
0.0
 40
0.0
 40
0.0
 40
0.0201910912
 40
0.0436159695
 40
0.0720540867
 40
0.1064149553
 40
0.147133096
 40
0.1944016428
 40
0.2482825264
 40
0.3087006596
 40
0.4484021117
 40
0.6118216988
 40
0.7966597561
 40
1.0
 40
1.0
 40
1.0
 40
1.0
 10
7.666596324
 20
1.6252282559
 30
0.0
 10
7.666596242
 20
1.6253139398
 30
0.0
 10
7.6666367524
 20
1.6254999855
 30
0.0
 10
7.6668002636
 20
1.6257627434
 30
0.0
 10
7.6670592451
 20
1.626024011
 30
0.0
 10
7.6674127862
 20
1.6262866186
 30
0.0
 10
7.6678604064
 20
1.6265510232
 30
0.0
 10
7.6684012694
 20
1.6268164531
 30
0.0
 10
7.6690338525
 20
1.6270817123
 30
0.0
 10
7.6700465106
 20
1.6274518602
 30
0.0
 10
7.6715246623
 20
1.6278976191
 30
0.0
 10
7.6735357726
 20
1.6283933375
 30
0.0
 10
7.6758294367
 20
1.628863173
 30
0.0
 10
7.6774531465
 20
1.6291424738
 30
0.0
 10
7.6783054131
 20
1.6292775559
 30
0.0
  0
SPLINE
  5
33A
100
AcDbEntity
  8
0
100
AcDbSpline
 62
7
  6
CONTINUOUS
 70
0
 71
3
 72
11
 73
7
 74
0
 42
0.0000001
 43
0.0000001
 44
0.0000000001
 40
0.0
 40
0.0
 40
0.0
 40
0.0
 40
0.2391793028
 40
0.4946229842
 40
0.7530764098
 40
1.0
 40
1.0
 40
1.0
 40
1.0
 10
7.6783054131
 20
1.6292775559
 30
0.0
 10
7.6799422409
 20
1.6295369888
 30
0.0
 10
7.683340662
 20
1.6299898816
 30
0.0
 10
7.688536594
 20
1.6304810097
 30
0.0
 10
7.6938003045
 20
1.630789423
 30
0.0
 10
7.6973022541
 20
1.6308671877
 30
0.0
 10
7.6990131739
 20
1.6308671877
 30
0.0
  0
SPLINE
  5
33B
100
AcDbEntity
  8
0
100
AcDbSpline
 62
7
  6
CONTINUOUS
 70
0
 71
3
 72
22
 73
18
 74
0
 42
0.0000001
 43
0.0000001
 44
0.0000000001
 40
0.0
 40
0.0
 40
0.0
 40
0.0
 40
0.0081879915
 40
0.0169948502
 40
0.0269162888
 40
0.0382891364
 40
0.0661276174
 40
0.1014564698
 40
0.1445101083
 40
0.1951382746
 40
0.2530592767
 40
0.3178679281
 40
0.388960778
 40
0.4656874476
 40
0.6331632525
 40
0.8139105642
 40
1.0
 40
1.0
 40
1.0
 40
1.0
 10
7.4852730252
 20
1.6266783522
 30
0.0
 10
7.4852729353
 20
1.626747201
 30
0.0
 10
7.4852941201
 20
1.6268908356
 30
0.0
 10
7.4853872125
 20
1.6270994957
 30
0.0
 10
7.4855384863
 20
1.6273043132
 30
0.0
 10
7.4858362612
 20
1.6275926526
 30
0.0
 10
7.4863654501
 20
1.627937076
 30
0.0
 10
7.4871762085
 20
1.6283146754
 30
0.0
 10
7.4881996187
 20
1.6286783422
 30
0.0
 10
7.4894268916
 20
1.6290251917
 30
0.0
 10
7.490848196
 20
1.6293510693
 30
0.0
 10
7.4924502379
 20
1.6296521519
 30
0.0
 10
7.4942172888
 20
1.6299260358
 30
0.0
 10
7.4968475508
 20
1.6302604016
 30
0.0
 10
7.5004075113
 20
1.6305819293
 30
0.0
 10
7.5048951351
 20
1.6308141195
 30
0.0
 10
7.5079799644
 20
1.6308671877
 30
0.0
 10
7.5095447013
 20
1.6308671877
 30
0.0
  0
SPLINE
  5
33C
100
AcDbEntity
  8
0
100
AcDbSpline
 62
7
  6
CONTINUOUS
 70
0
 71
3
 72
19
 73
15
 74
0
 42
0.0000001
 43
0.0000001
 44
0.0000000001
 40
0.0
 40
0.0
 40
0.0
 40
0.0
 40
0.0180907659
 40
0.0392782558
 40
0.0658596462
 40
0.0989746396
 40
0.1391476494
 40
0.1864945164
 40
0.2409347359
 40
0.302310387
 40
0.4448616305
 40
0.6113534302
 40
0.7981685898
 40
1.0
 40
1.0
 40
1.0
 40
1.0
 10
7.3001886725
 20
1.6281348948
 30
0.0
 10
7.3001886316
 20
1.6282352756
 30
0.0
 10
7.300246286
 20
1.6284550236
 30
0.0
 10
7.3004799978
 20
1.6287443853
 30
0.0
 10
7.3008429534
 20
1.6290129573
 30
0.0
 10
7.3013374478
 20
1.6292666639
 30
0.0
 10
7.3019635893
 20
1.6295057608
 30
0.0
 10
7.3027193651
 20
1.6297297079
 30
0.0
 10
7.3036009915
 20
1.6299372146
 30
0.0
 10
7.3050100837
 20
1.6302031968
 30
0.0
 10
7.3070491827
 20
1.6304722498
 30
0.0
 10
7.3097917953
 20
1.6307001638
 30
0.0
 10
7.3128696628
 20
1.6308377029
 30
0.0
 10
7.3150262997
 20
1.6308671877
 30
0.0
 10
7.3161462075
 20
1.6308671877
 30
0.0
  0
SPLINE
  5
33D
100
AcDbEntity
  8
0
100
AcDbSpline
 62
7
  6
CONTINUOUS
 70
0
 71
3
 72
19
 73
15
 74
0
 42
0.0000001
 43
0.0000001
 44
0.0000000001
 40
0.0
 40
0.0
 40
0.0
 40
0.0
 40
0.0189745232
 40
0.0402313581
 40
0.0660489675
 40
0.0977154925
 40
0.1359147156
 40
0.180993078
 40
0.2330601392
 40
0.292120809
 40
0.4309832938
 40
0.5967769254
 40
0.7873700509
 40
1.0
 40
1.0
 40
1.0
 40
1.0
 10
7.1359300598
 20
1.6294083504
 30
0.0
 10
7.1359301891
 20
1.6294651059
 30
0.0
 10
7.1359576674
 20
1.6295865984
 30
0.0
 10
7.1360751701
 20
1.6297498372
 30
0.0
 10
7.1362599299
 20
1.6298986942
 30
0.0
 10
7.1365116544
 20
1.6300368965
 30
0.0
 10
7.1368311646
 20
1.6301653737
 30
0.0
 10
7.1372185914
 20
1.6302840111
 30
0.0
 10
7.1376732418
 20
1.6303927095
 30
0.0
 10
7.1384082573
 20
1.6305313538
 30
0.0
 10
7.1394881787
 20
1.6306698645
 30
0.0
 10
7.1409654674
 20
1.630784411
 30
0.0
 10
7.1426664021
 20
1.6308532391
 30
0.0
 10
7.1438725755
 20
1.6308671877
 30
0.0
 10
7.1445085833
 20
1.6308671877
 30
0.0
  0
SPLINE
  5
33E
100
AcDbEntity
  8
0
100
AcDbSpline
 62
7
  6
CONTINUOUS
 70
0
 71
3
 72
17
 73
13
 74
0
 42
0.0000001
 43
0.0000001
 44
0.0000000001
 40
0.0
 40
0.0
 40
0.0
 40
0.0
 40
0.0195306006
 40
0.0408466939
 40
0.0662270376
 40
0.0970641716
 40
0.177826412
 40
0.2863572594
 40
0.4232790577
 40
0.5882724959
 40
0.7807500398
 40
1.0
 40
1.0
 40
1.0
 40
1.0
 10
7.0143164599
 20
1.6303400261
 30
0.0
 10
7.0143164766
 20
1.6303612778
 30
0.0
 10
7.0143256211
 20
1.6304061922
 30
0.0
 10
7.0143664102
 20
1.6304671729
 30
0.0
 10
7.0144312234
 20
1.6305222704
 30
0.0
 10
7.0145612145
 20
1.6305963266
 30
0.0
 10
7.0147900774
 20
1.6306724571
 30
0.0
 10
7.0151380815
 20
1.6307431846
 30
0.0
 10
7.0155816373
 20
1.6307986858
 30
0.0
 10
7.0161182161
 20
1.6308386735
 30
0.0
 10
7.0167454211
 20
1.630862538
 30
0.0
 10
7.0171934539
 20
1.6308671877
 30
0.0
 10
7.0174320245
 20
1.6308671877
 30
0.0
  0
SPLINE
  5
33F
100
AcDbEntity
  8
0
100
AcDbSpline
 62
7
  6
CONTINUOUS
 70
0
 71
3
 72
16
 73
12
 74
0
 42
0.0000001
 43
0.0000001
 44
0.0000000001
 40
0.0
 40
0.0
 40
0.0
 40
0.0
 40
0.0403336278
 40
0.0877262286
 40
0.2006114613
 40
0.3320207137
 40
0.4745628997
 40
0.6202757143
 40
0.7612716816
 40
0.8900993207
 40
1.0
 40
1.0
 40
1.0
 40
1.0
 10
7.0174320245
 20
1.6308671877
 30
0.0
 10
7.0179368972
 20
1.6308671877
 30
0.0
 10
7.0190350001
 20
1.6308438426
 30
0.0
 10
7.021543427
 20
1.6307235642
 30
0.0
 10
7.0251838425
 20
1.6304327512
 30
0.0
 10
7.0299988873
 20
1.6299172449
 30
0.0
 10
7.0352086753
 20
1.6292405697
 30
0.0
 10
7.0405218224
 20
1.6284375957
 30
0.0
 10
7.0456475456
 20
1.6275504614
 30
0.0
 10
7.0503104499
 20
1.6266263784
 30
0.0
 10
7.0532237364
 20
1.6259571934
 30
0.0
 10
7.0545563707
 20
1.6256157842
 30
0.0
  0
SPLINE
  5
340
100
AcDbEntity
  8
0
100
AcDbSpline
 62
7
  6
CONTINUOUS
 70
0
 71
3
 72
16
 73
12
 74
0
 42
0.0000001
 43
0.0000001
 44
0.0000000001
 40
0.0
 40
0.0
 40
0.0
 40
0.0
 40
0.213350806
 40
0.4034123
 40
0.5687475883
 40
0.7080005912
 40
0.8202779301
 40
0.9053130445
 40
0.9377820241
 40
0.9638665853
 40
1.0
 40
1.0
 40
1.0
 40
1.0
 10
7.0545563707
 20
1.6256157842
 30
0.0
 10
7.0549904657
 20
1.6255045728
 30
0.0
 10
7.0558094875
 20
1.6252871991
 30
0.0
 10
7.0569571724
 20
1.6249553642
 30
0.0
 10
7.0579468846
 20
1.6246387573
 30
0.0
 10
7.0587704647
 20
1.6243406966
 30
0.0
 10
7.0594211528
 20
1.6240630052
 30
0.0
 10
7.0598487806
 20
1.6238377888
 30
0.0
 10
7.0600956555
 20
1.6236613088
 30
0.0
 10
7.060240279
 20
1.6235287277
 30
0.0
 10
7.0603163944
 20
1.6234052694
 30
0.0
 10
7.0603163413
 20
1.6233293761
 30
0.0
  0
SPLINE
  5
341
100
AcDbEntity
  8
0
100
AcDbSpline
 62
7
  6
CONTINUOUS
 70
0
 71
3
 72
13
 73
9
 74
0
 42
0.0000001
 43
0.0000001
 44
0.0000000001
 40
0.0
 40
0.0
 40
0.0
 40
0.0
 40
0.1101807666
 40
0.2310749455
 40
0.4917583683
 40
0.7564493569
 40
0.8823394415
 40
1.0
 40
1.0
 40
1.0
 40
1.0
 10
7.1445085833
 20
1.6308671877
 30
0.0
 10
7.145505651
 20
1.6308671877
 30
0.0
 10
7.1475967948
 20
1.6308298671
 30
0.0
 10
7.1520428544
 20
1.630631475
 30
0.0
 10
7.1578743534
 20
1.6301628212
 30
0.0
 10
7.1637272214
 20
1.6294560793
 30
0.0
 10
7.1682723672
 20
1.6287502442
 30
0.0
 10
7.1704414348
 20
1.6283575882
 30
0.0
 10
7.171486082
 20
1.6281516371
 30
0.0
  0
SPLINE
  5
342
100
AcDbEntity
  8
0
100
AcDbSpline
 62
7
  6
CONTINUOUS
 70
0
 71
3
 72
19
 73
15
 74
0
 42
0.0000001
 43
0.0000001
 44
0.0000000001
 40
0.0
 40
0.0
 40
0.0
 40
0.0
 40
0.2055831919
 40
0.391751579
 40
0.5558914141
 40
0.6958419148
 40
0.7562565745
 40
0.8100692289
 40
0.8571639936
 40
0.8975559038
 40
0.9314044253
 40
0.9590800597
 40
0.9813875379
 40
1.0
 40
1.0
 40
1.0
 40
1.0
 10
7.171486082
 20
1.6281516371
 30
0.0
 10
7.1722511111
 20
1.6280008124
 30
0.0
 10
7.1737057023
 20
1.6276966334
 30
0.0
 10
7.1757569365
 20
1.6272073143
 30
0.0
 10
7.1775498026
 20
1.6267124529
 30
0.0
 10
7.1788650211
 20
1.6262835951
 30
0.0
 10
7.1797651298
 20
1.6259376973
 30
0.0
 10
7.1803268343
 20
1.6256944818
 30
0.0
 10
7.1808068667
 20
1.6254554243
 30
0.0
 10
7.1812037282
 20
1.6252214314
 30
0.0
 10
7.1815168928
 20
1.6249933695
 30
0.0
 10
7.1817460813
 20
1.6247708402
 30
0.0
 10
7.1818920098
 20
1.624551901
 30
0.0
 10
7.1819298044
 20
1.6243961584
 30
0.0
 10
7.1819296557
 20
1.6243255635
 30
0.0
  0
SPLINE
  5
343
100
AcDbEntity
  8
0
100
AcDbSpline
 62
7
  6
CONTINUOUS
 70
0
 71
3
 72
21
 73
17
 74
0
 42
0.0000001
 43
0.0000001
 44
0.0000000001
 40
0.0
 40
0.0
 40
0.0
 40
0.0
 40
0.171888126
 40
0.34701504
 40
0.5153550964
 40
0.6680749464
 40
0.7360401487
 40
0.7972996538
 40
0.8511372199
 40
0.8750895751
 40
0.8970013348
 40
0.9168381804
 40
0.9345773293
 40
0.9502145729
 40
0.9637872805
 40
1.0
 40
1.0
 40
1.0
 40
1.0
 10
7.3161462075
 20
1.6308671877
 30
0.0
 10
7.3179268994
 20
1.6308671877
 30
0.0
 10
7.3215221118
 20
1.6307905204
 30
0.0
 10
7.3268530306
 20
1.6304777807
 30
0.0
 10
7.3319703316
 20
1.6299788629
 30
0.0
 10
7.335962686
 20
1.6294141819
 30
0.0
 10
7.3388340981
 20
1.62887653
 30
0.0
 10
7.3406852419
 20
1.6284625231
 30
0.0
 10
7.3420767223
 20
1.6280872347
 30
0.0
 10
7.3430608047
 20
1.6277728575
 30
0.0
 10
7.343701598
 20
1.6275432193
 30
0.0
 10
7.3442729797
 20
1.6273108523
 30
0.0
 10
7.3447716991
 20
1.6270777841
 30
0.0
 10
7.3452007853
 20
1.6268407357
 30
0.0
 10
7.3457524357
 20
1.6264744766
 30
0.0
 10
7.3461884926
 20
1.6260286073
 30
0.0
 10
7.3461886555
 20
1.6256534582
 30
0.0
  0
SPLINE
  5
344
100
AcDbEntity
  8
0
100
AcDbSpline
 62
7
  6
CONTINUOUS
 70
0
 71
3
 72
22
 73
18
 74
0
 42
0.0000001
 43
0.0000001
 44
0.0000000001
 40
0.0
 40
0.0
 40
0.0
 40
0.0
 40
0.1913979323
 40
0.3742279344
 40
0.54139135
 40
0.6173603415
 40
0.6874272463
 40
0.7510829746
 40
0.8078453612
 40
0.8573295745
 40
0.899372407
 40
0.9339579761
 40
0.9613487707
 40
0.9726397183
 40
0.9825974052
 40
0.9915617452
 40
1.0
 40
1.0
 40
1.0
 40
1.0
 10
7.5095447013
 20
1.6308671877
 30
0.0
 10
7.5109872932
 20
1.6308671877
 30
0.0
 10
7.513808144
 20
1.6308223062
 30
0.0
 10
7.5178844768
 20
1.6306213542
 30
0.0
 10
7.5210838469
 20
1.6303404037
 30
0.0
 10
7.5234264055
 20
1.6300469097
 30
0.0
 10
7.5249886826
 20
1.6298061224
 30
0.0
 10
7.5263998979
 20
1.6295403741
 30
0.0
 10
7.5276480709
 20
1.6292520017
 30
0.0
 10
7.5287228406
 20
1.6289431266
 30
0.0
 10
7.5296170048
 20
1.6286170397
 30
0.0
 10
7.5303247709
 20
1.628277001
 30
0.0
 10
7.5307853114
 20
1.6279643396
 30
0.0
 10
7.5310428462
 20
1.6277016455
 30
0.0
 10
7.5311738015
 20
1.6275136857
 30
0.0
 10
7.5312541345
 20
1.6273217931
 30
0.0
 10
7.5312725407
 20
1.6271900634
 30
0.0
 10
7.5312726259
 20
1.6271264632
 30
0.0
  0
SPLINE
  5
345
100
AcDbEntity
  8
0
100
AcDbSpline
 62
7
  6
CONTINUOUS
 70
0
 71
3
 72
19
 73
15
 74
0
 42
0.0000001
 43
0.0000001
 44
0.0000000001
 40
0.0
 40
0.0
 40
0.0
 40
0.0
 40
0.2055641728
 40
0.3937396861
 40
0.5599755068
 40
0.701253146
 40
0.7618321328
 40
0.8154207228
 40
0.8619571517
 40
0.9014654022
 40
0.9341200978
 40
0.9604267945
 40
0.9816095823
 40
1.0
 40
1.0
 40
1.0
 40
1.0
 10
7.6990131739
 20
1.6308671877
 30
0.0
 10
7.6999849682
 20
1.6308671877
 30
0.0
 10
7.7018464711
 20
1.6308431276
 30
0.0
 10
7.7044917872
 20
1.6307289767
 30
0.0
 10
7.7068280169
 20
1.6305391717
 30
0.0
 10
7.708554703
 20
1.6303134375
 30
0.0
 10
7.709741706
 20
1.630089557
 30
0.0
 10
7.7104812861
 20
1.629914329
 30
0.0
 10
7.7111140219
 20
1.6297244513
 30
0.0
 10
7.711637767
 20
1.6295208937
 30
0.0
 10
7.7120514546
 20
1.6293043478
 30
0.0
 10
7.7123548819
 20
1.6290732661
 30
0.0
 10
7.7125487806
 20
1.628822348
 30
0.0
 10
7.7125954273
 20
1.6286335839
 30
0.0
 10
7.7125955152
 20
1.6285466441
 30
0.0
  0
SPLINE
  5
346
100
AcDbEntity
  8
0
100
AcDbSpline
 62
7
  6
CONTINUOUS
 70
0
 71
3
 72
18
 73
14
 74
0
 42
0.0000001
 43
0.0000001
 44
0.0000000001
 40
0.0
 40
0.0
 40
0.0
 40
0.0
 40
0.2150456361
 40
0.4063961253
 40
0.5720186716
 40
0.7101408954
 40
0.8201733685
 40
0.8647628875
 40
0.9025766312
 40
0.9339505753
 40
0.9595808717
 40
0.9808290018
 40
1.0
 40
1.0
 40
1.0
 40
1.0
 10
7.8593827949
 20
1.6308671877
 30
0.0
 10
7.8598845853
 20
1.6308671877
 30
0.0
 10
7.8608329454
 20
1.6308566569
 30
0.0
 10
7.8621668439
 20
1.6308037894
 30
0.0
 10
7.8633191865
 20
1.6307160297
 30
0.0
 10
7.8642772924
 20
1.6305936613
 30
0.0
 10
7.8649480729
 20
1.6304576465
 30
0.0
 10
7.8653775836
 20
1.6303253344
 30
0.0
 10
7.8656239934
 20
1.6302253148
 30
0.0
 10
7.8658180398
 20
1.6301174188
 30
0.0
 10
7.8659601613
 20
1.6300005068
 30
0.0
 10
7.8660498793
 20
1.6298717446
 30
0.0
 10
7.8660703229
 20
1.6297764416
 30
0.0
 10
7.866070331
 20
1.6297317077
 30
0.0
  0
SPLINE
  5
347
100
AcDbEntity
  8
0
100
AcDbSpline
 62
7
  6
CONTINUOUS
 70
0
 71
3
 72
17
 73
13
 74
0
 42
0.0000001
 43
0.0000001
 44
0.0000000001
 40
0.0
 40
0.0
 40
0.0
 40
0.0
 40
0.220486393
 40
0.4131913571
 40
0.5778030649
 40
0.7141347197
 40
0.8222613106
 40
0.9028961298
 40
0.9336734029
 40
0.9590130613
 40
0.9803527315
 40
1.0
 40
1.0
 40
1.0
 40
1.0
 10
7.9693502007
 20
1.6308671877
 30
0.0
 10
7.969501244
 20
1.6308671877
 30
0.0
 10
7.9697843132
 20
1.6308643126
 30
0.0
 10
7.9701799288
 20
1.6308494338
 30
0.0
 10
7.9705172421
 20
1.6308244464
 30
0.0
 10
7.9707955706
 20
1.6307897007
 30
0.0
 10
7.9710138987
 20
1.6307453407
 30
0.0
 10
7.9711576632
 20
1.6306977016
 30
0.0
 10
7.9712393262
 20
1.6306510692
 30
0.0
 10
7.9712799753
 20
1.6306162611
 30
0.0
 10
7.9713054444
 20
1.6305776358
 30
0.0
 10
7.9713110486
 20
1.6305492414
 30
0.0
 10
7.971311024
 20
1.6305357821
 30
0.0
  0
LINE
  5
348
100
AcDbEntity
  8
0
100
AcDbLine
 62
7
  6
CONTINUOUS
 10
6.9517972726
 20
1.6308671877
 11
6.9540128145
 21
1.6306803137
  0
SPLINE
  5
349
100
AcDbEntity
  8
0
100
AcDbSpline
 62
7
  6
CONTINUOUS
 70
0
 71
3
 72
17
 73
13
 74
0
 42
0.0000001
 43
0.0000001
 44
0.0000000001
 40
0.0
 40
0.0
 40
0.0
 40
0.0
 40
0.0398099165
 40
0.0883839113
 40
0.2078417703
 40
0.3489664679
 40
0.5010257808
 40
0.6528049078
 40
0.7932490922
 40
0.9120055338
 40
0.9603374757
 40
1.0
 40
1.0
 40
1.0
 40
1.0
 10
6.9540128145
 20
1.6306803137
 30
0.0
 10
6.9545627412
 20
1.6306176142
 30
0.0
 10
6.9557823111
 20
1.630466631
 30
0.0
 10
6.9586460944
 20
1.6300803646
 30
0.0
 10
6.962898417
 20
1.6294523059
 30
0.0
 10
6.9685648228
 20
1.6285540726
 30
0.0
 10
6.974665664
 20
1.6275278433
 30
0.0
 10
6.980747531
 20
1.6264473672
 30
0.0
 10
6.9863631653
 20
1.6253913689
 30
0.0
 10
6.9905558288
 20
1.6245517045
 30
0.0
 10
6.9933660942
 20
1.6239471484
 30
0.0
 10
6.9945589818
 20
1.6236752738
 30
0.0
 10
6.995095298
 20
1.6235470115
 30
0.0
  0
LINE
  5
34A
100
AcDbEntity
  8
0
100
AcDbLine
 62
7
  6
CONTINUOUS
 10
6.995095298
 20
1.6235470115
 11
6.9975019475
 21
1.6228106527
  0
LINE
  5
34B
100
AcDbEntity
  8
0
100
AcDbLine
 62
7
  6
CONTINUOUS
 10
6.7484598888
 20
1.6898856781
 11
6.75278103
 21
1.6891456577
  0
LINE
  5
34C
100
AcDbEntity
  8
0
100
AcDbLine
 62
7
  6
CONTINUOUS
 10
6.7715252902
 20
1.6858844267
 11
6.7787114711
 21
1.6846112952
  0
LINE
  5
34D
100
AcDbEntity
  8
0
100
AcDbLine
 62
7
  6
CONTINUOUS
 10
6.7921664682
 20
1.6821918125
 11
6.7944598888
 21
1.681774637
  0
SPLINE
  5
34E
100
AcDbEntity
  8
0
100
AcDbSpline
 62
7
  6
CONTINUOUS
 70
0
 71
3
 72
16
 73
12
 74
0
 42
0.0000001
 43
0.0000001
 44
0.0000000001
 40
0.0
 40
0.0
 40
0.0
 40
0.0
 40
0.0401650319
 40
0.0874068526
 40
0.2000532222
 40
0.3313153358
 40
0.473807589
 40
0.6195716737
 40
0.7607192748
 40
0.8897886704
 40
1.0
 40
1.0
 40
1.0
 40
1.0
 10
6.8464623059
 20
1.6898856781
 30
0.0
 10
6.8469649347
 20
1.6898856781
 30
0.0
 10
6.8480587481
 20
1.6898620137
 30
0.0
 10
6.8505594439
 20
1.6897402359
 30
0.0
 10
6.854191883
 20
1.6894459565
 30
0.0
 10
6.8589995766
 20
1.6889251858
 30
0.0
 10
6.8642053641
 20
1.6882427844
 30
0.0
 10
6.8695182272
 20
1.6874347724
 30
0.0
 10
6.8746475905
 20
1.6865442775
 30
0.0
 10
6.8793179631
 20
1.6856191646
 30
0.0
 10
6.8822377925
 20
1.6849513555
 30
0.0
 10
6.883574406
 20
1.6846112952
 30
0.0
  0
SPLINE
  5
34F
100
AcDbEntity
  8
0
100
AcDbSpline
 62
7
  6
CONTINUOUS
 70
0
 71
3
 72
17
 73
13
 74
0
 42
0.0000001
 43
0.0000001
 44
0.0000000001
 40
0.0
 40
0.0
 40
0.0
 40
0.0
 40
0.2136107013
 40
0.4039040658
 40
0.5694210765
 40
0.7087828581
 40
0.821079266
 40
0.8669800822
 40
0.9060574797
 40
0.9384189138
 40
0.964346503
 40
1.0
 40
1.0
 40
1.0
 40
1.0
 10
6.883574406
 20
1.6846112952
 30
0.0
 10
6.8840118198
 20
1.6845000087
 30
0.0
 10
6.8848371662
 20
1.6842826296
 30
0.0
 10
6.885993867
 20
1.6839511443
 30
0.0
 10
6.8869915835
 20
1.6836354708
 30
0.0
 10
6.8878216471
 20
1.6833381672
 30
0.0
 10
6.8884020199
 20
1.6830949946
 30
0.0
 10
6.8887745657
 20
1.6829072733
 30
0.0
 10
6.8889887999
 20
1.682782801
 30
0.0
 10
6.8891581398
 20
1.6826634786
 30
0.0
 10
6.8893035471
 20
1.6825326056
 30
0.0
 10
6.8893808776
 20
1.6824101699
 30
0.0
 10
6.8893808269
 20
1.6823348359
 30
0.0
  0
SPLINE
  5
350
100
AcDbEntity
  8
0
100
AcDbSpline
 62
7
  6
CONTINUOUS
 70
0
 71
3
 72
13
 73
9
 74
0
 42
0.0000001
 43
0.0000001
 44
0.0000000001
 40
0.0
 40
0.0
 40
0.0
 40
0.0
 40
0.1026202158
 40
0.2179800519
 40
0.3429039399
 40
0.4742644456
 40
0.7435327797
 40
1.0
 40
1.0
 40
1.0
 40
1.0
 10
6.9627112783
 20
1.6898856781
 30
0.0
 10
6.9636294964
 20
1.6898856781
 30
0.0
 10
6.9655799563
 20
1.6898465736
 30
0.0
 10
6.96864492
 20
1.6896994397
 30
0.0
 10
6.9719620316
 20
1.689461075
 30
0.0
 10
6.9766446946
 20
1.6890265737
 30
0.0
 10
6.9824822499
 20
1.6883138803
 30
0.0
 10
6.9871285522
 20
1.6875679878
 30
0.0
 10
6.989384651
 20
1.6871483172
 30
0.0
  0
SPLINE
  5
351
100
AcDbEntity
  8
0
100
AcDbSpline
 62
7
  6
CONTINUOUS
 70
0
 71
3
 72
19
 73
15
 74
0
 42
0.0000001
 43
0.0000001
 44
0.0000000001
 40
0.0
 40
0.0
 40
0.0
 40
0.0
 40
0.2050258395
 40
0.3922112093
 40
0.5582206796
 40
0.7002879448
 40
0.7616144403
 40
0.8161115629
 40
0.8636244352
 40
0.9040850498
 40
0.9375140237
 40
0.9516541769
 40
0.9641434891
 40
1.0
 40
1.0
 40
1.0
 40
1.0
 10
6.989384651
 20
1.6871483172
 30
0.0
 10
6.9902909569
 20
1.6869797298
 30
0.0
 10
6.9920214626
 20
1.6866393735
 30
0.0
 10
6.9944719315
 20
1.6860948865
 30
0.0
 10
6.9966304308
 20
1.6855460056
 30
0.0
 10
6.9982236987
 20
1.6850741547
 30
0.0
 10
6.9993201789
 20
1.6846963884
 30
0.0
 10
7.000005704
 20
1.6844323544
 30
0.0
 10
7.0005926313
 20
1.6841750977
 30
0.0
 10
7.0010787962
 20
1.6839256255
 30
0.0
 10
7.0014148948
 20
1.6837159862
 30
0.0
 10
7.0016288132
 20
1.6835491164
 30
0.0
 10
7.0018326269
 20
1.6833611853
 30
0.0
 10
7.0019740007
 20
1.6831573507
 30
0.0
 10
7.0019739371
 20
1.68299613
 30
0.0
  0
SPLINE
  5
352
100
AcDbEntity
  8
0
100
AcDbSpline
 62
7
  6
CONTINUOUS
 70
0
 71
3
 72
11
 73
7
 74
0
 42
0.0000001
 43
0.0000001
 44
0.0000000001
 40
0.0
 40
0.0
 40
0.0
 40
0.0
 40
0.2433133114
 40
0.504382932
 40
0.7629834389
 40
1.0
 40
1.0
 40
1.0
 40
1.0
 10
7.1142098888
 20
1.6898856781
 30
0.0
 10
7.1161865415
 20
1.6898856781
 30
0.0
 10
7.1202843296
 20
1.6897697066
 30
0.0
 10
7.1264689754
 20
1.6893341512
 30
0.0
 10
7.1325802278
 20
1.6886555421
 30
0.0
 10
7.1365608048
 20
1.6880364936
 30
0.0
 10
7.1384534861
 20
1.687682513
 30
0.0
  0
SPLINE
  5
353
100
AcDbEntity
  8
0
100
AcDbSpline
 62
7
  6
CONTINUOUS
 70
0
 71
3
 72
19
 73
15
 74
0
 42
0.0000001
 43
0.0000001
 44
0.0000000001
 40
0.0
 40
0.0
 40
0.0
 40
0.0
 40
0.2046711222
 40
0.3897407074
 40
0.5528733993
 40
0.6920464431
 40
0.7521386611
 40
0.8057581589
 40
0.8528669126
 40
0.8934984429
 40
0.9278152617
 40
0.9562551426
 40
0.9797521498
 40
1.0
 40
1.0
 40
1.0
 40
1.0
 10
7.1384534861
 20
1.687682513
 30
0.0
 10
7.1392072563
 20
1.6875415384
 30
0.0
 10
7.140639372
 20
1.6872552108
 30
0.0
 10
7.1426573536
 20
1.6867857105
 30
0.0
 10
7.1444190141
 20
1.686303297
 30
0.0
 10
7.1457099171
 20
1.6858791099
 30
0.0
 10
7.146591778
 20
1.685531929
 30
0.0
 10
7.1471419512
 20
1.6852855857
 30
0.0
 10
7.14761234
 20
1.685041362
 30
0.0
 10
7.1480014974
 20
1.684800075
 30
0.0
 10
7.1483084627
 20
1.6845622181
 30
0.0
 10
7.1485326319
 20
1.6843270792
 30
0.0
 10
7.1486739093
 20
1.6840929057
 30
0.0
 10
7.1487094357
 20
1.6839283383
 30
0.0
 10
7.1487095152
 20
1.6838524759
 30
0.0
  0
SPLINE
  5
354
100
AcDbEntity
  8
0
100
AcDbSpline
 62
7
  6
CONTINUOUS
 70
0
 71
3
 72
23
 73
19
 74
0
 42
0.0000001
 43
0.0000001
 44
0.0000000001
 40
0.0
 40
0.0
 40
0.0
 40
0.0
 40
0.1747036568
 40
0.3508632933
 40
0.5188811336
 40
0.5972122349
 40
0.6704577082
 40
0.7376971156
 40
0.7981992722
 40
0.8513262572
 40
0.8965470991
 40
0.9336046072
 40
0.949064168
 40
0.9625128529
 40
0.9740553307
 40
0.9838925265
 40
0.9923619193
 40
1.0
 40
1.0
 40
1.0
 40
1.0
 10
7.2906337573
 20
1.6898856781
 30
0.0
 10
7.292381449
 20
1.6898856781
 30
0.0
 10
7.295891712
 20
1.689813298
 30
0.0
 10
7.3010748642
 20
1.6895133678
 30
0.0
 10
7.3052832617
 20
1.689105787
 30
0.0
 10
7.3084531864
 20
1.688687386
 30
0.0
 10
7.3106156058
 20
1.6883456372
 30
0.0
 10
7.312591655
 20
1.6879724004
 30
0.0
 10
7.3143568462
 20
1.6875730736
 30
0.0
 10
7.3158903578
 20
1.687153473
 30
0.0
 10
7.3171738753
 20
1.6867180686
 30
0.0
 10
7.3180728661
 20
1.6863280371
 30
0.0
 10
7.3186484033
 20
1.686003922
 30
0.0
 10
7.3189827647
 20
1.6857747912
 30
0.0
 10
7.3192460576
 20
1.6855450208
 30
0.0
 10
7.3194380808
 20
1.6853140841
 30
0.0
 10
7.3195576481
 20
1.6850806722
 30
0.0
 10
7.3195862868
 20
1.6849187666
 30
0.0
 10
7.3195863894
 20
1.6848423572
 30
0.0
  0
SPLINE
  5
355
100
AcDbEntity
  8
0
100
AcDbSpline
 62
7
  6
CONTINUOUS
 70
0
 71
3
 72
22
 73
18
 74
0
 42
0.0000001
 43
0.0000001
 44
0.0000000001
 40
0.0
 40
0.0
 40
0.0
 40
0.0
 40
0.188775154
 40
0.3705629397
 40
0.5378564174
 40
0.6141849557
 40
0.6847464108
 40
0.7489657735
 40
0.806295653
 40
0.8563424039
 40
0.8988943917
 40
0.9338643206
 40
0.9614883882
 40
0.9728296842
 40
0.9827809302
 40
0.9916785584
 40
1.0
 40
1.0
 40
1.0
 40
1.0
 10
7.4799598888
 20
1.6898856781
 30
0.0
 10
7.4814654135
 20
1.6898856781
 30
0.0
 10
7.4844210032
 20
1.6898362234
 30
0.0
 10
7.488705759
 20
1.6896173738
 30
0.0
 10
7.4920860526
 20
1.6893130988
 30
0.0
 10
7.4945718871
 20
1.6889962721
 30
0.0
 10
7.4962356673
 20
1.6887367187
 30
0.0
 10
7.4977412599
 20
1.688451085
 30
0.0
 10
7.4990748674
 20
1.6881417673
 30
0.0
 10
7.5002247558
 20
1.6878117284
 30
0.0
 10
7.5011825361
 20
1.6874648498
 30
0.0
 10
7.501941039
 20
1.6871043975
 30
0.0
 10
7.5024351342
 20
1.6867743698
 30
0.0
 10
7.502712311
 20
1.6864979748
 30
0.0
 10
7.5028532618
 20
1.6863010034
 30
0.0
 10
7.5029399594
 20
1.6861002765
 30
0.0
 10
7.5029598785
 20
1.6859623197
 30
0.0
 10
7.5029598878
 20
1.6858959544
 30
0.0
  0
SPLINE
  5
356
100
AcDbEntity
  8
0
100
AcDbSpline
 62
7
  6
CONTINUOUS
 70
0
 71
3
 72
20
 73
16
 74
0
 42
0.0000001
 43
0.0000001
 44
0.0000000001
 40
0.0
 40
0.0
 40
0.0
 40
0.0
 40
0.1999266354
 40
0.385984561
 40
0.5525324638
 40
0.6956424085
 40
0.7573984252
 40
0.8122451741
 40
0.8599780023
 40
0.9004751824
 40
0.9338631473
 40
0.9606331759
 40
0.9818751377
 40
0.9911313024
 40
1.0
 40
1.0
 40
1.0
 40
1.0
 10
7.6692860203
 20
1.6898856781
 30
0.0
 10
7.6704711952
 20
1.6898856781
 30
0.0
 10
7.6727594892
 20
1.6898531429
 30
0.0
 10
7.6760321566
 20
1.6897026085
 30
0.0
 10
7.6789609917
 20
1.6894538889
 30
0.0
 10
7.6811447517
 20
1.689161291
 30
0.0
 10
7.682657512
 20
1.6888730381
 30
0.0
 10
7.683605884
 20
1.6886485578
 30
0.0
 10
7.6844195154
 20
1.688406878
 30
0.0
 10
7.6850938809
 20
1.6881494064
 30
0.0
 10
7.6856266832
 20
1.687876786
 30
0.0
 10
7.6860182122
 20
1.6875906569
 30
0.0
 10
7.68623688
 20
1.6873213416
 30
0.0
 10
7.6863199716
 20
1.6871012133
 30
0.0
 10
7.6863330745
 20
1.6869933107
 30
0.0
 10
7.6863330033
 20
1.6869407367
 30
0.0
  0
LINE
  5
357
100
AcDbEntity
  8
0
100
AcDbLine
 62
7
  6
CONTINUOUS
 10
7.1302721215
 20
1.5751989099
 11
7.1328210539
 21
1.5750159891
  0
SPLINE
  5
358
100
AcDbEntity
  8
0
100
AcDbSpline
 62
7
  6
CONTINUOUS
 70
0
 71
3
 72
15
 73
11
 74
0
 42
0.0000001
 43
0.0000001
 44
0.0000000001
 40
0.0
 40
0.0
 40
0.0
 40
0.0
 40
0.08751177
 40
0.2002044593
 40
0.331516251
 40
0.4739978649
 40
0.6197886101
 40
0.7610098614
 40
0.8900882958
 40
1.0
 40
1.0
 40
1.0
 40
1.0
 10
7.1328210539
 20
1.5750159891
 30
0.0
 10
7.1339149912
 20
1.5749045753
 30
0.0
 10
7.1364130869
 20
1.5746058632
 30
0.0
 10
7.1405407571
 20
1.5740449952
 30
0.0
 10
7.1453443252
 20
1.573330753
 30
0.0
 10
7.1505505411
 20
1.5724991354
 30
0.0
 10
7.1558704741
 20
1.5715918616
 30
0.0
 10
7.1610144568
 20
1.5706563841
 30
0.0
 10
7.165703961
 20
1.5697435829
 30
0.0
 10
7.1686429062
 20
1.5691259215
 30
0.0
 10
7.1699909558
 20
1.5688258001
 30
0.0
  0
SPLINE
  5
359
100
AcDbEntity
  8
0
100
AcDbSpline
 62
7
  6
CONTINUOUS
 70
0
 71
3
 72
17
 73
13
 74
0
 42
0.0000001
 43
0.0000001
 44
0.0000000001
 40
0.0
 40
0.0
 40
0.0
 40
0.0
 40
0.2211326984
 40
0.4174997487
 40
0.5874553863
 40
0.7293862568
 40
0.8420766303
 40
0.9247135474
 40
0.9545761057
 40
0.976777304
 40
0.991541739
 40
1.0
 40
1.0
 40
1.0
 40
1.0
 10
7.1699909558
 20
1.5688258001
 30
0.0
 10
7.1704253609
 20
1.5687290868
 30
0.0
 10
7.171244782
 20
1.5685431562
 30
0.0
 10
7.1723950519
 20
1.5682697362
 30
0.0
 10
7.1733870805
 20
1.5680203723
 30
0.0
 10
7.1742122053
 20
1.5677977301
 30
0.0
 10
7.1748626734
 20
1.5676043308
 30
0.0
 10
7.1752923176
 20
1.5674579046
 30
0.0
 10
7.1755422503
 20
1.5673538848
 30
0.0
 10
7.1756628098
 20
1.5672916855
 30
0.0
 10
7.1757375688
 20
1.5672422455
 30
0.0
 10
7.1757684861
 20
1.5672001949
 30
0.0
 10
7.1757683242
 20
1.567183173
 30
0.0
  0
SPLINE
  5
35A
100
AcDbEntity
  8
0
100
AcDbSpline
 62
7
  6
CONTINUOUS
 70
0
 71
3
 72
19
 73
15
 74
0
 42
0.0000001
 43
0.0000001
 44
0.0000000001
 40
0.0
 40
0.0
 40
0.0
 40
0.0
 40
0.2085236106
 40
0.3976826406
 40
0.5636409986
 40
0.703805272
 40
0.7637206842
 40
0.816638602
 40
0.8625199182
 40
0.901472306
 40
0.9337598472
 40
0.9599532057
 40
0.981256203
 40
1.0
 40
1.0
 40
1.0
 40
1.0
 10
7.8457098888
 20
1.6898856781
 30
0.0
 10
7.846545646
 20
1.6898856781
 30
0.0
 10
7.8481396491
 20
1.6898657842
 30
0.0
 10
7.8503971154
 20
1.6897699386
 30
0.0
 10
7.8523762785
 20
1.6896104485
 30
0.0
 10
7.8538319732
 20
1.6894194671
 30
0.0
 10
7.8548283457
 20
1.6892296403
 30
0.0
 10
7.8554471677
 20
1.689080984
 30
0.0
 10
7.8559755181
 20
1.6889192397
 30
0.0
 10
7.8564122648
 20
1.6887452679
 30
0.0
 10
7.8567571126
 20
1.6885594256
 30
0.0
 10
7.8570105321
 20
1.6883607855
 30
0.0
 10
7.8571719101
 20
1.6881438367
 30
0.0
 10
7.8572095981
 20
1.6879816693
 30
0.0
 10
7.8572095082
 20
1.6879065447
 30
0.0
  0
SPLINE
  5
35B
100
AcDbEntity
  8
0
100
AcDbSpline
 62
7
  6
CONTINUOUS
 70
0
 71
3
 72
18
 73
14
 74
0
 42
0.0000001
 43
0.0000001
 44
0.0000000001
 40
0.0
 40
0.0
 40
0.0
 40
0.0
 40
0.2148485739
 40
0.4060602886
 40
0.5715891601
 40
0.7096591542
 40
0.8196913559
 40
0.8643027824
 40
0.9021557413
 40
0.9335903565
 40
0.9593110253
 40
0.9806826102
 40
1.0
 40
1.0
 40
1.0
 40
1.0
 10
7.9972084992
 20
1.6898856781
 30
0.0
 10
7.997713782
 20
1.6898856781
 30
0.0
 10
7.9986688301
 20
1.6898749308
 30
0.0
 10
8.0000122125
 20
1.689821014
 30
0.0
 10
8.0011728987
 20
1.6897315408
 30
0.0
 10
8.002138041
 20
1.6896068127
 30
0.0
 10
8.0028137586
 20
1.6894682499
 30
0.0
 10
8.003246398
 20
1.6893335605
 30
0.0
 10
8.0034946599
 20
1.6892317543
 30
0.0
 10
8.0036901655
 20
1.6891219475
 30
0.0
 10
8.0038333434
 20
1.689003003
 30
0.0
 10
8.0039236509
 20
1.6888721253
 30
0.0
 10
8.0039442084
 20
1.6887754413
 30
0.0
 10
8.0039442224
 20
1.6887300105
 30
0.0
  0
SPLINE
  5
35C
100
AcDbEntity
  8
0
100
AcDbSpline
 62
7
  6
CONTINUOUS
 70
0
 71
3
 72
17
 73
13
 74
0
 42
0.0000001
 43
0.0000001
 44
0.0000000001
 40
0.0
 40
0.0
 40
0.0
 40
0.0
 40
0.2191156026
 40
0.4114533583
 40
0.5763196874
 40
0.7131477004
 40
0.8216426539
 40
0.9024405851
 40
0.9333372789
 40
0.9588174266
 40
0.9802814624
 40
1.0
 40
1.0
 40
1.0
 40
1.0
 10
8.1134574717
 20
1.6898856781
 30
0.0
 10
8.1136934665
 20
1.6898856781
 30
0.0
 10
8.1141366392
 20
1.6898810247
 30
0.0
 10
8.1147570127
 20
1.6898571397
 30
0.0
 10
8.1152877049
 20
1.689817125
 30
0.0
 10
8.1157263925
 20
1.6897615827
 30
0.0
 10
8.1160706008
 20
1.6896908267
 30
0.0
 10
8.1162969503
 20
1.6896146376
 30
0.0
 10
8.1164254345
 20
1.6895405802
 30
0.0
 10
8.1164895214
 20
1.6894854446
 30
0.0
 10
8.116529797
 20
1.6894244613
 30
0.0
 10
8.1165388008
 20
1.6893796429
 30
0.0
 10
8.1165388163
 20
1.6893584054
 30
0.0
  0
SPLINE
  5
35D
100
AcDbEntity
  8
0
100
AcDbSpline
 62
7
  6
CONTINUOUS
 70
0
 71
3
 72
18
 73
14
 74
0
 42
0.0000001
 43
0.0000001
 44
0.0000000001
 40
0.0
 40
0.0
 40
0.0
 40
0.0
 40
0.2169036051
 40
0.4089488847
 40
0.5745880598
 40
0.7124110312
 40
0.8218172274
 40
0.8660485943
 40
0.9035214282
 40
0.9346029666
 40
0.959988178
 40
0.9810078228
 40
1.0
 40
1.0
 40
1.0
 40
1.0
 10
7.7538207772
 20
1.5751989099
 30
0.0
 10
7.7542276079
 20
1.5751989099
 30
0.0
 10
7.7549946972
 20
1.5751907972
 30
0.0
 10
7.756071772
 20
1.5751496908
 30
0.0
 10
7.7569989577
 20
1.5750812558
 30
0.0
 10
7.7577677399
 20
1.5749859002
 30
0.0
 10
7.7583050006
 20
1.5748792836
 30
0.0
 10
7.7586483191
 20
1.5747751402
 30
0.0
 10
7.7588450122
 20
1.5746963111
 30
0.0
 10
7.7589999319
 20
1.5746111085
 30
0.0
 10
7.7591135796
 20
1.5745186948
 30
0.0
 10
7.7591853153
 20
1.5744163605
 30
0.0
 10
7.7592013703
 20
1.5743404345
 30
0.0
 10
7.7592012641
 20
1.5743048124
 30
0.0
  0
SPLINE
  5
35E
100
AcDbEntity
  8
0
100
AcDbSpline
 62
7
  6
CONTINUOUS
 70
0
 71
3
 72
19
 73
15
 74
0
 42
0.0000001
 43
0.0000001
 44
0.0000000001
 40
0.0
 40
0.0
 40
0.0
 40
0.0
 40
0.2020707651
 40
0.389053452
 40
0.5556496922
 40
0.6982436004
 40
0.7596160988
 40
0.8140350858
 40
0.8613441847
 40
0.9014636469
 40
0.9345014509
 40
0.9609787273
 40
0.9820403196
 40
1.0
 40
1.0
 40
1.0
 40
1.0
 10
7.5904334643
 20
1.5751989099
 30
0.0
 10
7.5915492305
 20
1.5751989099
 30
0.0
 10
7.5936975871
 20
1.5751702552
 30
0.0
 10
7.5967633745
 20
1.5750364126
 30
0.0
 10
7.5994947178
 20
1.5748144081
 30
0.0
 10
7.6015253155
 20
1.5745519126
 30
0.0
 10
7.6029285079
 20
1.5742919342
 30
0.0
 10
7.6038062798
 20
1.5740888957
 30
0.0
 10
7.6045587272
 20
1.5738694982
 30
0.0
 10
7.6051821038
 20
1.5736349995
 30
0.0
 10
7.6056743999
 20
1.5733858272
 30
0.0
 10
7.6060357152
 20
1.5731216443
 30
0.0
 10
7.6062685556
 20
1.5728364377
 30
0.0
 10
7.6063260801
 20
1.5726191958
 30
0.0
 10
7.6063260732
 20
1.5725200285
 30
0.0
  0
LINE
  5
35F
100
AcDbEntity
  8
0
100
AcDbLine
 62
7
  6
CONTINUOUS
 10
6.7733851469
 20
1.6898856781
 11
6.7762773312
 21
1.6896966713
  0
SPLINE
  5
360
100
AcDbEntity
  8
0
100
AcDbSpline
 62
7
  6
CONTINUOUS
 70
0
 71
3
 72
15
 73
11
 74
0
 42
0.0000001
 43
0.0000001
 44
0.0000000001
 40
0.0
 40
0.0
 40
0.0
 40
0.0
 40
0.0930822357
 40
0.2099468464
 40
0.3438153787
 40
0.4871215907
 40
0.6319914652
 40
0.7706159789
 40
0.8955584016
 40
1.0
 40
1.0
 40
1.0
 40
1.0
 10
6.7762773312
 20
1.6896966713
 30
0.0
 10
6.7774462558
 20
1.6895837965
 30
0.0
 10
6.7800778647
 20
1.6892794281
 30
0.0
 10
6.7843771137
 20
1.688702397
 30
0.0
 10
6.7892946782
 20
1.6879719573
 30
0.0
 10
6.7945520268
 20
1.6871271728
 30
0.0
 10
6.7998585868
 20
1.6862125802
 30
0.0
 10
6.8049261764
 20
1.6852774483
 30
0.0
 10
6.8094802895
 20
1.6843729732
 30
0.0
 10
6.8123091269
 20
1.6837609249
 30
0.0
 10
6.8135927052
 20
1.6834631051
 30
0.0
  0
SPLINE
  5
361
100
AcDbEntity
  8
0
100
AcDbSpline
 62
7
  6
CONTINUOUS
 70
0
 71
3
 72
16
 73
12
 74
0
 42
0.0000001
 43
0.0000001
 44
0.0000000001
 40
0.0
 40
0.0
 40
0.0
 40
0.0
 40
0.2208332323
 40
0.4164640104
 40
0.5855161199
 40
0.7266373567
 40
0.8387500478
 40
0.9213037835
 40
0.9741583572
 40
0.9899284167
 40
1.0
 40
1.0
 40
1.0
 40
1.0
 10
6.8135927052
 20
1.6834631051
 30
0.0
 10
6.8139713516
 20
1.6833752504
 30
0.0
 10
6.8146846661
 20
1.6832061996
 30
0.0
 10
6.8156845334
 20
1.6829563289
 30
0.0
 10
6.816544925
 20
1.6827270221
 30
0.0
 10
6.8172587631
 20
1.6825203002
 30
0.0
 10
6.8178217722
 20
1.6823381882
 30
0.0
 10
6.8182278418
 20
1.6821829767
 30
0.0
 10
6.8184695924
 20
1.6820649719
 30
0.0
 10
6.8185774126
 20
1.6819785802
 30
0.0
 10
6.8186010887
 20
1.6819351798
 30
0.0
 10
6.8186008677
 20
1.6819174535
 30
0.0
  0
SPLINE
  5
362
100
AcDbEntity
  8
0
100
AcDbSpline
 62
7
  6
CONTINUOUS
 70
0
 71
3
 72
23
 73
19
 74
0
 42
0.0000001
 43
0.0000001
 44
0.0000000001
 40
0.0
 40
0.0
 40
0.0
 40
0.0
 40
0.1757663869
 40
0.3523770623
 40
0.5203730621
 40
0.5985641506
 40
0.6716134222
 40
0.7386182515
 40
0.7988600827
 40
0.851729402
 40
0.8967111734
 40
0.933570173
 40
0.9489589477
 40
0.9623629427
 40
0.9738878515
 40
0.9837411709
 40
0.9922668377
 40
1.0
 40
1.0
 40
1.0
 40
1.0
 10
7.3934728111
 20
1.5751989099
 30
0.0
 10
7.3952073936
 20
1.5751989099
 30
0.0
 10
7.3986851849
 20
1.5751307471
 30
0.0
 10
7.4038136877
 20
1.574846341
 30
0.0
 10
7.407969396
 20
1.5744580437
 30
0.0
 10
7.4110945359
 20
1.5740574415
 30
0.0
 10
7.4132234692
 20
1.5737293672
 30
0.0
 10
7.4151675193
 20
1.5733698148
 30
0.0
 10
7.4169029845
 20
1.5729835078
 30
0.0
 10
7.4184097987
 20
1.5725759376
 30
0.0
 10
7.4196703299
 20
1.572151018
 30
0.0
 10
7.4205527349
 20
1.571768418
 30
0.0
 10
7.4211172737
 20
1.5714492309
 30
0.0
 10
7.4214453716
 20
1.5712229317
 30
0.0
 10
7.4217036565
 20
1.5709952514
 30
0.0
 10
7.4218918824
 20
1.5707656915
 30
0.0
 10
7.4220088173
 20
1.5705330554
 30
0.0
 10
7.4220366135
 20
1.5703718231
 30
0.0
 10
7.4220367138
 20
1.5702955071
 30
0.0
  0
SPLINE
  5
363
100
AcDbEntity
  8
0
100
AcDbSpline
 62
7
  6
CONTINUOUS
 70
0
 71
3
 72
15
 73
11
 74
0
 42
0.0000001
 43
0.0000001
 44
0.0000000001
 40
0.0
 40
0.0
 40
0.0
 40
0.0
 40
0.1054977688
 40
0.2267539782
 40
0.3587115273
 40
0.4963102389
 40
0.6342687259
 40
0.7673725942
 40
0.8907449519
 40
1.0
 40
1.0
 40
1.0
 40
1.0
 10
7.2227959102
 20
1.5751989099
 30
0.0
 10
7.2239516855
 20
1.5751989099
 30
0.0
 10
7.2264358867
 20
1.5751374644
 30
0.0
 10
7.230359855
 20
1.5749147442
 30
0.0
 10
7.2346269794
 20
1.574558069
 30
0.0
 10
7.2390662213
 20
1.5740800542
 30
0.0
 10
7.2435056263
 20
1.5734973978
 30
0.0
 10
7.2477755171
 20
1.5728300915
 30
0.0
 10
7.251716064
 20
1.5721019652
 30
0.0
 10
7.2542061375
 20
1.5715553981
 30
0.0
 10
7.2553686006
 20
1.5712701962
 30
0.0
  0
SPLINE
  5
364
100
AcDbEntity
  8
0
100
AcDbSpline
 62
7
  6
CONTINUOUS
 70
0
 71
3
 72
17
 73
13
 74
0
 42
0.0000001
 43
0.0000001
 44
0.0000000001
 40
0.0
 40
0.0
 40
0.0
 40
0.0
 40
0.2079193371
 40
0.3941192803
 40
0.5570022172
 40
0.6951345402
 40
0.8076989493
 40
0.8944930657
 40
0.9285092605
 40
0.9567356867
 40
0.980044295
 40
1.0
 40
1.0
 40
1.0
 40
1.0
 10
7.2553686006
 20
1.5712701962
 30
0.0
 10
7.2558911282
 20
1.5711419978
 30
0.0
 10
7.2568789021
 20
1.5708877348
 30
0.0
 10
7.2582641019
 20
1.5704884874
 30
0.0
 10
7.2594623877
 20
1.5700956461
 30
0.0
 10
7.2604626988
 20
1.5697130996
 30
0.0
 10
7.2612552765
 20
1.5693452465
 30
0.0
 10
7.261776435
 20
1.5690347809
 30
0.0
 10
7.2620738591
 20
1.5687878853
 30
0.0
 10
7.2622226904
 20
1.568622538
 30
0.0
 10
7.2623162059
 20
1.5684607634
 30
0.0
 10
7.2623399191
 20
1.5683484259
 30
0.0
 10
7.2623399334
 20
1.5682967873
 30
0.0
  0
SPLINE
  5
365
100
AcDbEntity
  8
0
100
AcDbSpline
 62
7
  6
CONTINUOUS
 70
0
 71
3
 72
37
 73
33
 74
0
 42
0.0000001
 43
0.0000001
 44
0.0000000001
 40
0.0
 40
0.0
 40
0.0
 40
0.0
 40
0.000323244
 40
0.0008566352
 40
0.0026938283
 40
0.0056121846
 40
0.0096273437
 40
0.0147371239
 40
0.0209256327
 40
0.0281748829
 40
0.0364662814
 40
0.0560995988
 40
0.0796609307
 40
0.1069138796
 40
0.137595135
 40
0.1714391747
 40
0.2081424539
 40
0.2473654776
 40
0.2887672377
 40
0.3766774378
 40
0.4688633446
 40
0.5622310885
 40
0.6536333149
 40
0.7399717315
 40
0.8182324981
 40
0.8856229277
 40
0.9144392405
 40
0.9396481303
 40
0.9609947546
 40
0.9782635025
 40
0.9913086176
 40
1.0
 40
1.0
 40
1.0
 40
1.0
 10
7.8342032498
 20
1.5751617795
 30
0.0
 10
7.8342032018
 20
1.5751567683
 30
0.0
 10
7.8341951687
 20
1.5751445732
 30
0.0
 10
7.8341613428
 20
1.575120737
 30
0.0
 10
7.834085364
 20
1.5750873472
 30
0.0
 10
7.8339572631
 20
1.5750429264
 30
0.0
 10
7.8337780308
 20
1.5749897615
 30
0.0
 10
7.8335487776
 20
1.5749282829
 30
0.0
 10
7.8332697324
 20
1.5748586896
 30
0.0
 10
7.8329418817
 20
1.5747812246
 30
0.0
 10
7.8324100167
 20
1.5746607687
 30
0.0
 10
7.8316295876
 20
1.5744930834
 30
0.0
 10
7.8305597355
 20
1.5742732523
 30
0.0
 10
7.8293205142
 20
1.5740268278
 30
0.0
 10
7.8279236559
 20
1.5737558356
 30
0.0
 10
7.8263818926
 20
1.5734625247
 30
0.0
 10
7.8247091329
 20
1.5731492434
 30
0.0
 10
7.8229204399
 20
1.5728184974
 30
0.0
 10
7.8203501885
 20
1.5723482813
 30
0.0
 10
7.8169707314
 20
1.571738493
 30
0.0
 10
7.8127965828
 20
1.5709958803
 30
0.0
 10
7.8085674762
 20
1.5702531489
 30
0.0
 10
7.8044259618
 20
1.5695358371
 30
0.0
 10
7.8005132769
 20
1.5688698108
 30
0.0
 10
7.7969651941
 20
1.5682804716
 30
0.0
 10
7.7942943103
 20
1.5678527214
 30
0.0
 10
7.792433371
 20
1.5675693463
 30
0.0
 10
7.7912769944
 20
1.5674010357
 30
0.0
 10
7.7902965307
 20
1.5672676356
 30
0.0
 10
7.7895014453
 20
1.5671701046
 30
0.0
 10
7.7888998286
 20
1.5671100714
 30
0.0
 10
7.7885631404
 20
1.5670878688
 30
0.0
 10
7.7884283922
 20
1.5670878688
 30
0.0
  0
SPLINE
  5
366
100
AcDbEntity
  8
0
100
AcDbSpline
 62
7
  6
CONTINUOUS
 70
0
 71
3
 72
19
 73
15
 74
0
 42
0.0000001
 43
0.0000001
 44
0.0000000001
 40
0.0
 40
0.0
 40
0.0
 40
0.0
 40
0.018562665
 40
0.0401940428
 40
0.0671259188
 40
0.1004893138
 40
0.1408158678
 40
0.1882335968
 40
0.2426730429
 40
0.3039861312
 40
0.4462642823
 40
0.6123488503
 40
0.798685321
 40
1.0
 40
1.0
 40
1.0
 40
1.0
 10
7.3461886555
 20
1.6256534582
 30
0.0
 10
7.3461887004
 20
1.6255501309
 30
0.0
 10
7.3461314304
 20
1.6253246188
 30
0.0
 10
7.3458986938
 20
1.6250241999
 30
0.0
 10
7.3455359458
 20
1.6247432008
 30
0.0
 10
7.3450416418
 20
1.6244762705
 30
0.0
 10
7.3444157639
 20
1.6242233311
 30
0.0
 10
7.3436603617
 20
1.6239852028
 30
0.0
 10
7.3427791535
 20
1.6237634754
 30
0.0
 10
7.3413710891
 20
1.6234780345
 30
0.0
 10
7.3393323995
 20
1.6231870327
 30
0.0
 10
7.3365891018
 20
1.6229388637
 30
0.0
 10
7.3335097145
 20
1.6227885259
 30
0.0
 10
7.3313517211
 20
1.6227561466
 30
0.0
 10
7.3302311221
 20
1.6227561466
 30
0.0
  0
SPLINE
  5
367
100
AcDbEntity
  8
0
100
AcDbSpline
 62
7
  6
CONTINUOUS
 70
0
 71
3
 72
19
 73
15
 74
0
 42
0.0000001
 43
0.0000001
 44
0.0000000001
 40
0.0
 40
0.0
 40
0.0
 40
0.0
 40
0.0199541325
 40
0.042032002
 40
0.0684430624
 40
0.1004947193
 40
0.138907755
 40
0.1840619149
 40
0.2360935662
 40
0.2950275136
 40
0.4334190475
 40
0.5985322675
 40
0.7883001798
 40
1.0
 40
1.0
 40
1.0
 40
1.0
 10
7.1819296557
 20
1.6243255635
 30
0.0
 10
7.1819295294
 20
1.6242655873
 30
0.0
 10
7.1819025431
 20
1.6241381001
 30
0.0
 10
7.1817859011
 20
1.6239644105
 30
0.0
 10
7.1816012591
 20
1.6238049946
 30
0.0
 10
7.1813495196
 20
1.6236566178
 30
0.0
 10
7.1810300175
 20
1.6235183531
 30
0.0
 10
7.1806426529
 20
1.6233903718
 30
0.0
 10
7.180188097
 20
1.6232728244
 30
0.0
 10
7.1794535572
 20
1.6231225962
 30
0.0
 10
7.1783736807
 20
1.6229718096
 30
0.0
 10
7.1768958979
 20
1.6228467822
 30
0.0
 10
7.1751942167
 20
1.6227714622
 30
0.0
 10
7.1739874336
 20
1.6227561466
 30
0.0
 10
7.1733511255
 20
1.6227561466
 30
0.0
  0
SPLINE
  5
368
100
AcDbEntity
  8
0
100
AcDbSpline
 62
7
  6
CONTINUOUS
 70
0
 71
3
 72
16
 73
12
 74
0
 42
0.0000001
 43
0.0000001
 44
0.0000000001
 40
0.0
 40
0.0
 40
0.0
 40
0.0
 40
0.0209284991
 40
0.043378323
 40
0.0695570737
 40
0.1008977938
 40
0.1820095874
 40
0.290311505
 40
0.4266199997
 40
0.5907197711
 40
1.0
 40
1.0
 40
1.0
 40
1.0
 10
7.0603163413
 20
1.6233293761
 30
0.0
 10
7.0603163253
 20
1.6233064641
 30
0.0
 10
7.0603074068
 20
1.623258514
 30
0.0
 10
7.0602669993
 20
1.6231924705
 30
0.0
 10
7.0602022126
 20
1.6231324613
 30
0.0
 10
7.0600727146
 20
1.6230521435
 30
0.0
 10
7.0598437988
 20
1.6229689585
 30
0.0
 10
7.0594954312
 20
1.6228917805
 30
0.0
 10
7.0590516569
 20
1.6228310941
 30
0.0
 10
7.0582770777
 20
1.6227681869
 30
0.0
 10
7.0576488455
 20
1.6227561466
 30
0.0
 10
7.0572007754
 20
1.6227561466
 30
0.0
  0
SPLINE
  5
369
100
AcDbEntity
  8
0
100
AcDbSpline
 62
7
  6
CONTINUOUS
 70
0
 71
3
 72
16
 73
12
 74
0
 42
0.0000001
 43
0.0000001
 44
0.0000000001
 40
0.0
 40
0.0
 40
0.0
 40
0.0
 40
0.0095617197
 40
0.0249563582
 40
0.0773456198
 40
0.1596782845
 40
0.2717673627
 40
0.4130487895
 40
0.5824315769
 40
0.7785459586
 40
1.0
 40
1.0
 40
1.0
 40
1.0
 10
8.1873177563
 20
1.6897516933
 30
0.0
 10
8.1873179796
 20
1.6897347753
 30
0.0
 10
8.1872933188
 20
1.6896931503
 30
0.0
 10
8.187184171
 20
1.6896118264
 30
0.0
 10
8.1869399897
 20
1.6894998299
 30
0.0
 10
8.186530019
 20
1.6893524622
 30
0.0
 10
8.1859612388
 20
1.6891787024
 30
0.0
 10
8.1852399732
 20
1.6889808516
 30
0.0
 10
8.1843705854
 20
1.688760558
 30
0.0
 10
8.1833603145
 20
1.6885195925
 30
0.0
 10
8.182639761
 20
1.6883559191
 30
0.0
 10
8.1822572799
 20
1.6882706816
 30
0.0
  0
SPLINE
  5
36A
100
AcDbEntity
  8
0
100
AcDbSpline
 62
7
  6
CONTINUOUS
 70
0
 71
3
 72
15
 73
11
 74
0
 42
0.0000001
 43
0.0000001
 44
0.0000000001
 40
0.0
 40
0.0
 40
0.0
 40
0.0
 40
0.1046956377
 40
0.2298246749
 40
0.3685355992
 40
0.5133808515
 40
0.6565775177
 40
0.7903031261
 40
0.9070321777
 40
1.0
 40
1.0
 40
1.0
 40
1.0
 10
8.1822572799
 20
1.6882706816
 30
0.0
 10
8.1809692131
 20
1.6879836306
 30
0.0
 10
8.1781336313
 20
1.687389788
 30
0.0
 10
8.1735741368
 20
1.6865006633
 30
0.0
 10
8.1685076512
 20
1.6855687638
 30
0.0
 10
8.1632084628
 20
1.6846444625
 30
0.0
 10
8.1579630373
 20
1.6837789378
 30
0.0
 10
8.1530592159
 20
1.6830211689
 30
0.0
 10
8.1487728708
 20
1.6824161839
 30
0.0
 10
8.1461489353
 20
1.6820944391
 30
0.0
 10
8.1449832132
 20
1.6819748712
 30
0.0
  0
LINE
  5
36B
100
AcDbEntity
  8
0
100
AcDbLine
 62
7
  6
CONTINUOUS
 10
8.1449832132
 20
1.6819748712
 11
8.1421020427
 21
1.681774637
  0
SPLINE
  5
36C
100
AcDbEntity
  8
0
100
AcDbSpline
 62
7
  6
CONTINUOUS
 70
0
 71
3
 72
18
 73
14
 74
0
 42
0.0000001
 43
0.0000001
 44
0.0000000001
 40
0.0
 40
0.0
 40
0.0
 40
0.0
 40
0.0206458043
 40
0.0430997074
 40
0.0695760574
 40
0.1014702937
 40
0.1395369281
 40
0.184170808
 40
0.2938335953
 40
0.4311920914
 40
0.5958028206
 40
0.7860355789
 40
1.0
 40
1.0
 40
1.0
 40
1.0
 10
7.2623399334
 20
1.5682967873
 30
0.0
 10
7.2623399463
 20
1.5682499657
 30
0.0
 10
7.262320824
 20
1.5681512742
 30
0.0
 10
7.2622353235
 20
1.568015517
 30
0.0
 10
7.262098457
 20
1.56789132
 30
0.0
 10
7.2619113417
 20
1.567776497
 30
0.0
 10
7.2616737976
 20
1.5676698601
 30
0.0
 10
7.2612605202
 20
1.5675287684
 30
0.0
 10
7.2606138219
 20
1.567382794
 30
0.0
 10
7.2596891684
 20
1.5672511343
 30
0.0
 10
7.2585764567
 20
1.5671564585
 30
0.0
 10
7.2572875225
 20
1.5670992834
 30
0.0
 10
7.2563707801
 20
1.5670878688
 30
0.0
 10
7.255885541
 20
1.5670878688
 30
0.0
  0
SPLINE
  5
36D
100
AcDbEntity
  8
0
100
AcDbSpline
 62
7
  6
CONTINUOUS
 70
0
 71
3
 72
16
 73
12
 74
0
 42
0.0000001
 43
0.0000001
 44
0.0000000001
 40
0.0
 40
0.0
 40
0.0
 40
0.0
 40
0.0341766938
 40
0.0596095553
 40
0.0916182564
 40
0.130462341
 40
0.17623322
 40
0.2885403768
 40
0.4282266065
 40
0.5943364041
 40
1.0
 40
1.0
 40
1.0
 40
1.0
 10
8.1165388163
 20
1.6893584054
 30
0.0
 10
8.1165388696
 20
1.6892857297
 30
0.0
 10
8.1164586249
 20
1.6891681343
 30
0.0
 10
8.1163126148
 20
1.6890442778
 30
0.0
 10
8.1161409264
 20
1.6889298752
 30
0.0
 10
8.1159238869
 20
1.688810387
 30
0.0
 10
8.1155458668
 20
1.6886294342
 30
0.0
 10
8.1149574399
 20
1.6883943843
 30
0.0
 10
8.1141163145
 20
1.6881056647
 30
0.0
 10
8.1126688506
 20
1.6876648097
 30
0.0
 10
8.1114923241
 20
1.6873562125
 30
0.0
 10
8.1106551182
 20
1.6871483172
 30
0.0
  0
SPLINE
  5
36E
100
AcDbEntity
  8
0
100
AcDbSpline
 62
7
  6
CONTINUOUS
 70
0
 71
3
 72
16
 73
12
 74
0
 42
0.0000001
 43
0.0000001
 44
0.0000000001
 40
0.0
 40
0.0
 40
0.0
 40
0.0
 40
0.1105668536
 40
0.2398454845
 40
0.3810420532
 40
0.5267233986
 40
0.6690629584
 40
0.8001621448
 40
0.9126735807
 40
0.959866931
 40
1.0
 40
1.0
 40
1.0
 40
1.0
 10
8.1106551182
 20
1.6871483172
 30
0.0
 10
8.1093146252
 20
1.6868154455
 30
0.0
 10
8.1063911163
 20
1.6861565989
 30
0.0
 10
8.1017216846
 20
1.6852309342
 30
0.0
 10
8.0966017299
 20
1.6843277092
 30
0.0
 10
8.0913043261
 20
1.683497266
 30
0.0
 10
8.086116589
 20
1.6827874633
 30
0.0
 10
8.0813260642
 20
1.6822404134
 30
0.0
 10
8.0777057582
 20
1.6819289772
 30
0.0
 10
8.0752125255
 20
1.6817997969
 30
0.0
 10
8.0741216465
 20
1.681774637
 30
0.0
 10
8.0736203031
 20
1.681774637
 30
0.0
  0
SPLINE
  5
36F
100
AcDbEntity
  8
0
100
AcDbSpline
 62
7
  6
CONTINUOUS
 70
0
 71
3
 72
18
 73
14
 74
0
 42
0.0000001
 43
0.0000001
 44
0.0000000001
 40
0.0
 40
0.0
 40
0.0
 40
0.0
 40
0.0359305109
 40
0.0620518847
 40
0.094697397
 40
0.1342048411
 40
0.1806666307
 40
0.2340356677
 40
0.2942139254
 40
0.4344661515
 40
0.6001578166
 40
0.7893802112
 40
1.0
 40
1.0
 40
1.0
 40
1.0
 10
7.7592012641
 20
1.5743048124
 30
0.0
 10
7.7592009442
 20
1.5741975292
 30
0.0
 10
7.7590882232
 20
1.5740240152
 30
0.0
 10
7.7588777707
 20
1.573841525
 30
0.0
 10
7.7586328005
 20
1.5736762081
 30
0.0
 10
7.7583228382
 20
1.5735053602
 30
0.0
 10
7.7579467606
 20
1.5733265864
 30
0.0
 10
7.7575063235
 20
1.5731412794
 30
0.0
 10
7.7567978484
 20
1.5728719229
 30
0.0
 10
7.7557598409
 20
1.5725275862
 30
0.0
 10
7.7543400637
 20
1.5721143072
 30
0.0
 10
7.7527061507
 20
1.5716873325
 30
0.0
 10
7.7515446925
 20
1.5714106425
 30
0.0
 10
7.7509316937
 20
1.5712701962
 30
0.0
  0
SPLINE
  5
370
100
AcDbEntity
  8
0
100
AcDbSpline
 62
7
  6
CONTINUOUS
 70
0
 71
3
 72
15
 73
11
 74
0
 42
0.0000001
 43
0.0000001
 44
0.0000000001
 40
0.0
 40
0.0
 40
0.0
 40
0.0
 40
0.1156090982
 40
0.2436847846
 40
0.3796399492
 40
0.5185097565
 40
0.6550814328
 40
0.784134744
 40
0.9007218662
 40
1.0
 40
1.0
 40
1.0
 40
1.0
 10
7.7509316937
 20
1.5712701962
 30
0.0
 10
7.7497046081
 20
1.5709890541
 30
0.0
 10
7.7471080393
 20
1.5704402207
 30
0.0
 10
7.743043422
 20
1.5696846395
 30
0.0
 10
7.7387134928
 20
1.568975828
 30
0.0
 10
7.7342782822
 20
1.5683434428
 30
0.0
 10
7.7299051979
 20
1.5678146598
 30
0.0
 10
7.7257620886
 20
1.5674136266
 30
0.0
 10
7.7220143113
 20
1.5671601184
 30
0.0
 10
7.7196637835
 20
1.5670878688
 30
0.0
 10
7.7185827328
 20
1.5670878688
 30
0.0
  0
SPLINE
  5
371
100
AcDbEntity
  8
0
100
AcDbSpline
 62
7
  6
CONTINUOUS
 70
0
 71
3
 72
16
 73
12
 74
0
 42
0.0000001
 43
0.0000001
 44
0.0000000001
 40
0.0
 40
0.0
 40
0.0
 40
0.0
 40
0.0403296254
 40
0.0877224113
 40
0.2006129417
 40
0.3320176745
 40
0.4745376576
 40
0.620232162
 40
0.7612395457
 40
0.8900993363
 40
1.0
 40
1.0
 40
1.0
 40
1.0
 10
7.0572007754
 20
1.6227561466
 30
0.0
 10
7.0566958198
 20
1.6227561466
 30
0.0
 10
7.0555974776
 20
1.6227817485
 30
0.0
 10
7.0530888976
 20
1.6229131679
 30
0.0
 10
7.0494495317
 20
1.6232297946
 30
0.0
 10
7.0446379004
 20
1.6237850562
 30
0.0
 10
7.0394329348
 20
1.6245037035
 30
0.0
 10
7.0341242432
 20
1.6253419367
 30
0.0
 10
7.0290006846
 20
1.6262505207
 30
0.0
 10
7.024336801
 20
1.6271782737
 30
0.0
 10
7.0214201434
 20
1.6278370166
 30
0.0
 10
7.0200848643
 20
1.6281694331
 30
0.0
  0
SPLINE
  5
372
100
AcDbEntity
  8
0
100
AcDbSpline
 62
7
  6
CONTINUOUS
 70
0
 71
3
 72
16
 73
12
 74
0
 42
0.0000001
 43
0.0000001
 44
0.0000000001
 40
0.0
 40
0.0
 40
0.0
 40
0.0
 40
0.4058370124
 40
0.5719179837
 40
0.7115408036
 40
0.8237707995
 40
0.8695068365
 40
0.9083240546
 40
0.9403185415
 40
0.9657550815
 40
1.0
 40
1.0
 40
1.0
 40
1.0
 10
7.0200848643
 20
1.6281694331
 30
0.0
 10
7.0192636044
 20
1.6283738849
 30
0.0
 10
7.0181096648
 20
1.6286771392
 30
0.0
 10
7.0166901753
 20
1.629110081
 30
0.0
 10
7.0158657442
 20
1.6293934199
 30
0.0
 10
7.0152891295
 20
1.6296240618
 30
0.0
 10
7.0149187939
 20
1.6298016389
 30
0.0
 10
7.0147061801
 20
1.6299189248
 30
0.0
 10
7.0145380113
 20
1.6300312579
 30
0.0
 10
7.0143948606
 20
1.6301530141
 30
0.0
 10
7.0143164037
 20
1.6302686123
 30
0.0
 10
7.0143164599
 20
1.6303400261
 30
0.0
  0
SPLINE
  5
373
100
AcDbEntity
  8
0
100
AcDbSpline
 62
7
  6
CONTINUOUS
 70
0
 71
3
 72
19
 73
15
 74
0
 42
0.0000001
 43
0.0000001
 44
0.0000000001
 40
0.0
 40
0.0
 40
0.0
 40
0.0
 40
0.0347134118
 40
0.0470201105
 40
0.0610145942
 40
0.0942470326
 40
0.1346134484
 40
0.1821142672
 40
0.2366665816
 40
0.2981055887
 40
0.4405210194
 40
0.6069620031
 40
0.7945885802
 40
1.0
 40
1.0
 40
1.0
 40
1.0
 10
8.0039442224
 20
1.6887300105
 30
0.0
 10
8.0039442708
 20
1.6885731121
 30
0.0
 10
8.0037989431
 20
1.6883764335
 30
0.0
 10
8.0035953966
 20
1.6881964919
 30
0.0
 10
8.0033789129
 20
1.6880343961
 30
0.0
 10
8.0030393438
 20
1.6878304772
 30
0.0
 10
8.002548522
 20
1.6875869346
 30
0.0
 10
8.0019560329
 20
1.6873347711
 30
0.0
 10
8.0012640898
 20
1.6870748579
 30
0.0
 10
8.0001573039
 20
1.6867013392
 30
0.0
 10
7.9985501511
 20
1.6862318635
 30
0.0
 10
7.9963743989
 20
1.6856813086
 30
0.0
 10
7.9939060444
 20
1.6851306681
 30
0.0
 10
7.9921636327
 20
1.6847837422
 30
0.0
 10
7.9912513653
 20
1.6846112952
 30
0.0
  0
SPLINE
  5
374
100
AcDbEntity
  8
0
100
AcDbSpline
 62
7
  6
CONTINUOUS
 70
0
 71
3
 72
13
 73
9
 74
0
 42
0.0000001
 43
0.0000001
 44
0.0000000001
 40
0.0
 40
0.0
 40
0.0
 40
0.0
 40
0.2567972307
 40
0.526024576
 40
0.6573010737
 40
0.7821339394
 40
0.8974191929
 40
1.0
 40
1.0
 40
1.0
 40
1.0
 10
7.9912513653
 20
1.6846112952
 30
0.0
 10
7.989001314
 20
1.6841859654
 30
0.0
 10
7.9843718781
 20
1.6834215898
 30
0.0
 10
7.978556424
 20
1.6826792057
 30
0.0
 10
7.9738938842
 20
1.6822231177
 30
0.0
 10
7.9705913405
 20
1.6819717126
 30
0.0
 10
7.9675390951
 20
1.6818161062
 30
0.0
 10
7.9655963154
 20
1.681774637
 30
0.0
 10
7.9646815873
 20
1.681774637
 30
0.0
  0
SPLINE
  5
375
100
AcDbEntity
  8
0
100
AcDbSpline
 62
7
  6
CONTINUOUS
 70
0
 71
3
 72
13
 73
9
 74
0
 42
0.0000001
 43
0.0000001
 44
0.0000000001
 40
0.0
 40
0.0
 40
0.0
 40
0.0
 40
0.110166441
 40
0.2310461284
 40
0.4916882054
 40
0.7563583919
 40
0.8822758686
 40
1.0
 40
1.0
 40
1.0
 40
1.0
 10
7.1733511255
 20
1.6227561466
 30
0.0
 10
7.1723541303
 20
1.6227561466
 30
0.0
 10
7.1702631187
 20
1.6227970498
 30
0.0
 10
7.1658182155
 20
1.6230135254
 30
0.0
 10
7.1599901437
 20
1.6235220767
 30
0.0
 10
7.1541431908
 20
1.6242760681
 30
0.0
 10
7.1496024371
 20
1.6250150849
 30
0.0
 10
7.1474349344
 20
1.6254212802
 30
0.0
 10
7.1463907457
 20
1.6256327728
 30
0.0
  0
SPLINE
  5
376
100
AcDbEntity
  8
0
100
AcDbSpline
 62
7
  6
CONTINUOUS
 70
0
 71
3
 72
19
 73
15
 74
0
 42
0.0000001
 43
0.0000001
 44
0.0000000001
 40
0.0
 40
0.0
 40
0.0
 40
0.0
 40
0.2063160096
 40
0.3931704572
 40
0.5578958311
 40
0.698261369
 40
0.7587915498
 40
0.812641021
 40
0.859676747
 40
0.8998951936
 40
0.9334327427
 40
0.9606288452
 40
0.9822557164
 40
1.0
 40
1.0
 40
1.0
 40
1.0
 10
7.1463907457
 20
1.6256327728
 30
0.0
 10
7.1456253525
 20
1.6257877973
 30
0.0
 10
7.1441698737
 20
1.6260989487
 30
0.0
 10
7.1421167693
 20
1.6265943217
 30
0.0
 10
7.140321504
 20
1.6270899791
 30
0.0
 10
7.1390036833
 20
1.6275149938
 30
0.0
 10
7.1381011865
 20
1.627855042
 30
0.0
 10
7.1375381474
 20
1.6280927866
 30
0.0
 10
7.1370569386
 20
1.628325198
 30
0.0
 10
7.1366591213
 20
1.6285514549
 30
0.0
 10
7.1363452216
 20
1.6287707368
 30
0.0
 10
7.136115522
 20
1.6289835336
 30
0.0
 10
7.1359686758
 20
1.6291917836
 30
0.0
 10
7.1359299069
 20
1.629341186
 30
0.0
 10
7.1359300598
 20
1.6294083504
 30
0.0
  0
SPLINE
  5
377
100
AcDbEntity
  8
0
100
AcDbSpline
 62
7
  6
CONTINUOUS
 70
0
 71
3
 72
23
 73
19
 74
0
 42
0.0000001
 43
0.0000001
 44
0.0000000001
 40
0.0
 40
0.0
 40
0.0
 40
0.0
 40
0.1716866798
 40
0.3466032378
 40
0.5147497689
 40
0.5935156181
 40
0.6673522972
 40
0.735291552
 40
0.7965521925
 40
0.8504127178
 40
0.8963026034
 40
0.9338853497
 40
0.9495162639
 40
0.9630640446
 40
0.9746268647
 40
0.9843851613
 40
0.9926608655
 40
1.0
 40
1.0
 40
1.0
 40
1.0
 10
7.3302311221
 20
1.6227561466
 30
0.0
 10
7.3284496668
 20
1.6227561466
 30
0.0
 10
7.3248528823
 20
1.6228401635
 30
0.0
 10
7.3195213794
 20
1.6231814077
 30
0.0
 10
7.3151668243
 20
1.623638998
 30
0.0
 10
7.3118707968
 20
1.6241023578
 30
0.0
 10
7.3096132101
 20
1.6244782683
 30
0.0
 10
7.3075457179
 20
1.6248849149
 30
0.0
 10
7.3056952229
 20
1.6253153149
 30
0.0
 10
7.3040848458
 20
1.6257629312
 30
0.0
 10
7.3027349626
 20
1.6262217419
 30
0.0
 10
7.3017878771
 20
1.6266276207
 30
0.0
 10
7.3011804685
 20
1.6269619108
 30
0.0
 10
7.3008279295
 20
1.6271963645
 30
0.0
 10
7.3005500206
 20
1.6274295853
 30
0.0
 10
7.3003469481
 20
1.6276622358
 30
0.0
 10
7.300219724
 20
1.627895948
 30
0.0
 10
7.3001887035
 20
1.6280587425
 30
0.0
 10
7.3001886725
 20
1.6281348948
 30
0.0
  0
SPLINE
  5
378
100
AcDbEntity
  8
0
100
AcDbSpline
 62
7
  6
CONTINUOUS
 70
0
 71
3
 72
23
 73
19
 74
0
 42
0.0000001
 43
0.0000001
 44
0.0000000001
 40
0.0
 40
0.0
 40
0.0
 40
0.0
 40
0.0072759857
 40
0.0155063015
 40
0.0252378479
 40
0.0367892137
 40
0.0503368335
 40
0.0659762638
 40
0.1036010568
 40
0.149550402
 40
0.2034738093
 40
0.2647989503
 40
0.332795809
 40
0.4066787144
 40
0.4854789396
 40
0.6536415947
 40
0.8284879185
 40
1.0
 40
1.0
 40
1.0
 40
1.0
 10
7.6063260732
 20
1.5725200285
 30
0.0
 10
7.6063260679
 20
1.5724443673
 30
0.0
 10
7.6062948057
 20
1.5722823515
 30
0.0
 10
7.6061669562
 20
1.5720499328
 30
0.0
 10
7.6059630882
 20
1.5718182713
 30
0.0
 10
7.6056841671
 20
1.5715856794
 30
0.0
 10
7.6053304102
 20
1.5713514799
 30
0.0
 10
7.6047208369
 20
1.5710169369
 30
0.0
 10
7.6037706142
 20
1.5706098993
 30
0.0
 10
7.6024165803
 20
1.5701484281
 30
0.0
 10
7.6008015471
 20
1.5696968112
 30
0.0
 10
7.5989460267
 20
1.5692613488
 30
0.0
 10
7.5968732651
 20
1.56884875
 30
0.0
 10
7.5946102822
 20
1.5684662633
 30
0.0
 10
7.5913072409
 20
1.5679936827
 30
0.0
 10
7.5869444603
 20
1.5675251207
 30
0.0
 10
7.5816042637
 20
1.5671744517
 30
0.0
 10
7.5780021937
 20
1.5670878688
 30
0.0
 10
7.5762186825
 20
1.5670878688
 30
0.0
  0
SPLINE
  5
379
100
AcDbEntity
  8
0
100
AcDbSpline
 62
7
  6
CONTINUOUS
 70
0
 71
3
 72
19
 73
15
 74
0
 42
0.0000001
 43
0.0000001
 44
0.0000000001
 40
0.0
 40
0.0
 40
0.0
 40
0.0
 40
0.0197084919
 40
0.0427902181
 40
0.0709456167
 40
0.1050890927
 40
0.1456396999
 40
0.1927391429
 40
0.2464041386
 40
0.3065830008
 40
0.4460202353
 40
0.6095007319
 40
0.7949464174
 40
1.0
 40
1.0
 40
1.0
 40
1.0
 10
7.8572095082
 20
1.6879065447
 30
0.0
 10
7.85720942
 20
1.6878328486
 30
0.0
 10
7.8571733903
 20
1.6876722485
 30
0.0
 10
7.8570316913
 20
1.6874444464
 30
0.0
 10
7.8568074514
 20
1.6872148976
 30
0.0
 10
7.8565004492
 20
1.6869817272
 30
0.0
 10
7.8561112112
 20
1.6867442384
 30
0.0
 10
7.8556407192
 20
1.6865029082
 30
0.0
 10
7.8550904808
 20
1.6862585438
 30
0.0
 10
7.8542085092
 20
1.685912751
 30
0.0
 10
7.8529180689
 20
1.6854876032
 30
0.0
 10
7.8511576297
 20
1.6850005193
 30
0.0
 10
7.849141541
 20
1.6845228515
 30
0.0
 10
7.8477109413
 20
1.6842293077
 30
0.0
 10
7.8469580123
 20
1.6840843371
 30
0.0
  0
SPLINE
  5
37A
100
AcDbEntity
  8
0
100
AcDbSpline
 62
7
  6
CONTINUOUS
 70
0
 71
3
 72
12
 73
8
 74
0
 42
0.0000001
 43
0.0000001
 44
0.0000000001
 40
0.0
 40
0.0
 40
0.0
 40
0.0
 40
0.2370185012
 40
0.495601772
 40
0.756663859
 40
0.8819202982
 40
1.0
 40
1.0
 40
1.0
 40
1.0
 10
7.8469580123
 20
1.6840843371
 30
0.0
 10
7.8450659349
 20
1.6837200325
 30
0.0
 10
7.8410865769
 20
1.6830766482
 30
0.0
 10
7.8349754373
 20
1.6823622433
 30
0.0
 10
7.8297455369
 20
1.6819696826
 30
0.0
 10
7.8256480722
 20
1.6818047757
 30
0.0
 10
7.8236698119
 20
1.681774637
 30
0.0
 10
7.8227098888
 20
1.681774637
 30
0.0
  0
SPLINE
  5
37B
100
AcDbEntity
  8
0
100
AcDbSpline
 62
7
  6
CONTINUOUS
 70
0
 71
3
 72
22
 73
18
 74
0
 42
0.0000001
 43
0.0000001
 44
0.0000000001
 40
0.0
 40
0.0
 40
0.0
 40
0.0
 40
0.1911366245
 40
0.3737121751
 40
0.5406574458
 40
0.6165475786
 40
0.6865651673
 40
0.7502077229
 40
0.8069985055
 40
0.8565575841
 40
0.8987208695
 40
0.9334668743
 40
0.9610456623
 40
0.9724322289
 40
0.9824786603
 40
0.9915156457
 40
1.0
 40
1.0
 40
1.0
 40
1.0
 10
7.5070009604
 20
1.6227561466
 30
0.0
 10
7.5055575066
 20
1.6227561466
 30
0.0
 10
7.5027349631
 20
1.6228054079
 30
0.0
 10
7.4986569663
 20
1.6230248867
 30
0.0
 10
7.4954574934
 20
1.623329895
 30
0.0
 10
7.4931157865
 20
1.623645808
 30
0.0
 10
7.4915541406
 20
1.6239036132
 30
0.0
 10
7.4901436194
 20
1.6241864676
 30
0.0
 10
7.4888960899
 20
1.6244914438
 30
0.0
 10
7.4878218209
 20
1.6248158304
 30
0.0
 10
7.4869279898
 20
1.6251558759
 30
0.0
 10
7.4862204133
 20
1.6255079067
 30
0.0
 10
7.4857602809
 20
1.6258288634
 30
0.0
 10
7.4855029057
 20
1.626096598
 30
0.0
 10
7.4853719651
 20
1.6262874359
 30
0.0
 10
7.4852916103
 20
1.6264814125
 30
0.0
 10
7.4852731088
 20
1.6266142788
 30
0.0
 10
7.4852730252
 20
1.6266783522
 30
0.0
  0
SPLINE
  5
37C
100
AcDbEntity
  8
0
100
AcDbSpline
 62
7
  6
CONTINUOUS
 70
0
 71
3
 72
19
 73
15
 74
0
 42
0.0000001
 43
0.0000001
 44
0.0000000001
 40
0.0
 40
0.0
 40
0.0
 40
0.0
 40
0.2049256584
 40
0.3925178414
 40
0.5582613584
 40
0.6992038025
 40
0.7596992902
 40
0.8132760989
 40
0.859885028
 40
0.8995645778
 40
0.9325071497
 40
0.9592376165
 40
0.9809806048
 40
1.0
 40
1.0
 40
1.0
 40
1.0
 10
7.6801786858
 20
1.6227561466
 30
0.0
 10
7.6792063138
 20
1.6227561466
 30
0.0
 10
7.6773436756
 20
1.622782572
 30
0.0
 10
7.6746970516
 20
1.6229073803
 30
0.0
 10
7.6723601526
 20
1.6231142588
 30
0.0
 10
7.6706337274
 20
1.6233589466
 30
0.0
 10
7.6694475613
 20
1.6235999797
 30
0.0
 10
7.6687082852
 20
1.6237879602
 30
0.0
 10
7.6680758196
 20
1.6239908227
 30
0.0
 10
7.6675522601
 20
1.6242073773
 30
0.0
 10
7.667138703
 20
1.6244367562
 30
0.0
 10
7.6668354798
 20
1.6246803675
 30
0.0
 10
7.6666425821
 20
1.6249429221
 30
0.0
 10
7.6665964104
 20
1.6251380089
 30
0.0
 10
7.666596324
 20
1.6252282559
 30
0.0
  0
SPLINE
  5
37D
100
AcDbEntity
  8
0
100
AcDbSpline
 62
7
  6
CONTINUOUS
 70
0
 71
3
 72
21
 73
17
 74
0
 42
0.0000001
 43
0.0000001
 44
0.0000000001
 40
0.0
 40
0.0
 40
0.0
 40
0.0
 40
0.0361427819
 40
0.0496081033
 40
0.0651005448
 40
0.0826534626
 40
0.1022690525
 40
0.1476067924
 40
0.2008535406
 40
0.2614731042
 40
0.3288203189
 40
0.4021646498
 40
0.4805884312
 40
0.6487803148
 40
0.8251152422
 40
1.0
 40
1.0
 40
1.0
 40
1.0
 10
7.6863330033
 20
1.6869407367
 30
0.0
 10
7.6863325133
 20
1.6865794239
 30
0.0
 10
7.6859218332
 20
1.6861468323
 30
0.0
 10
7.6853955283
 20
1.6857888703
 30
0.0
 10
7.6849880417
 20
1.6855577149
 30
0.0
 10
7.6845142754
 20
1.6853297508
 30
0.0
 10
7.6837529935
 20
1.6850105877
 30
0.0
 10
7.6826348089
 20
1.684625736
 30
0.0
 10
7.6811017293
 20
1.6841959686
 30
0.0
 10
7.679337011
 20
1.6837846053
 30
0.0
 10
7.6773617472
 20
1.6833975892
 30
0.0
 10
7.6752001995
 20
1.6830411114
 30
0.0
 10
7.6720315701
 20
1.6826023268
 30
0.0
 10
7.6678239056
 20
1.6821713382
 30
0.0
 10
7.6626400717
 20
1.6818520063
 30
0.0
 10
7.6591286366
 20
1.681774637
 30
0.0
 10
7.6573803442
 20
1.681774637
 30
0.0
  0
SPLINE
  5
37E
100
AcDbEntity
  8
0
100
AcDbSpline
 62
7
  6
CONTINUOUS
 70
0
 71
3
 72
18
 73
14
 74
0
 42
0.0000001
 43
0.0000001
 44
0.0000000001
 40
0.0
 40
0.0
 40
0.0
 40
0.0
 40
0.2139952444
 40
0.4044221298
 40
0.56928933
 40
0.706887937
 40
0.8167305101
 40
0.8613990945
 40
0.8994432449
 40
0.9312392322
 40
0.9575318154
 40
0.9797079504
 40
1.0
 40
1.0
 40
1.0
 40
1.0
 10
7.826759517
 20
1.6227561466
 30
0.0
 10
7.8262575246
 20
1.6227561466
 30
0.0
 10
7.8253087437
 20
1.6227677082
 30
0.0
 10
7.8239743252
 20
1.6228255769
 30
0.0
 10
7.8228215817
 20
1.6229214323
 30
0.0
 10
7.8218631693
 20
1.6230548168
 30
0.0
 10
7.8211925087
 20
1.6232026642
 30
0.0
 10
7.8207635917
 20
1.6233457186
 30
0.0
 10
7.820517139
 20
1.6234538124
 30
0.0
 10
7.8203230304
 20
1.6235702456
 30
0.0
 10
7.8201809983
 20
1.623696184
 30
0.0
 10
7.8200920084
 20
1.6238340098
 30
0.0
 10
7.8200719722
 20
1.6239346071
 30
0.0
 10
7.8200719627
 20
1.6239822085
 30
0.0
  0
SPLINE
  5
37F
100
AcDbEntity
  8
0
100
AcDbSpline
 62
7
  6
CONTINUOUS
 70
0
 71
3
 72
22
 73
18
 74
0
 42
0.0000001
 43
0.0000001
 44
0.0000000001
 40
0.0
 40
0.0
 40
0.0
 40
0.0
 40
0.0083274774
 40
0.0172534959
 40
0.0272489621
 40
0.0386434971
 40
0.0663809862
 40
0.1014525726
 40
0.1440867804
 40
0.1941885728
 40
0.2515420952
 40
0.3157590243
 40
0.3862948976
 40
0.4625775751
 40
0.6297399151
 40
0.8113753099
 40
1.0
 40
1.0
 40
1.0
 40
1.0
 10
7.5029598878
 20
1.6858959544
 30
0.0
 10
7.5029598972
 20
1.6858294586
 30
0.0
 10
7.5029399056
 20
1.6856910649
 30
0.0
 10
7.502853152
 20
1.6854894152
 30
0.0
 10
7.5027121623
 20
1.6852908996
 30
0.0
 10
7.5024349758
 20
1.6850114859
 30
0.0
 10
7.5019410841
 20
1.6846761416
 30
0.0
 10
7.5011827271
 20
1.6843075114
 30
0.0
 10
7.5002251846
 20
1.6839508022
 30
0.0
 10
7.4990756761
 20
1.6836095659
 30
0.0
 10
7.4977425807
 20
1.6832880342
 30
0.0
 10
7.4962375503
 20
1.6829896582
 30
0.0
 10
7.4945742905
 20
1.6827172935
 30
0.0
 10
7.492089169
 20
1.6823834478
 30
0.0
 10
7.4887088956
 20
1.6820607462
 30
0.0
 10
7.4844229424
 20
1.6818275234
 30
0.0
 10
7.4814660767
 20
1.681774637
 30
0.0
 10
7.4799598888
 20
1.681774637
 30
0.0
  0
SPLINE
  5
380
100
AcDbEntity
  8
0
100
AcDbSpline
 62
7
  6
CONTINUOUS
 70
0
 71
3
 72
17
 73
13
 74
0
 42
0.0000001
 43
0.0000001
 44
0.0000000001
 40
0.0
 40
0.0
 40
0.0
 40
0.0
 40
0.2191060681
 40
0.4106248671
 40
0.5742863968
 40
0.7099665622
 40
0.8178450518
 40
0.8988323951
 40
0.9301340672
 40
0.9563152103
 40
0.9788589355
 40
1.0
 40
1.0
 40
1.0
 40
1.0
 10
7.9272717814
 20
1.6227561466
 30
0.0
 10
7.9271207169
 20
1.6227561466
 30
0.0
 10
7.9268375905
 20
1.6227593006
 30
0.0
 10
7.9264418931
 20
1.6227756032
 30
0.0
 10
7.9261044881
 20
1.6228029435
 30
0.0
 10
7.9258260152
 20
1.6228409561
 30
0.0
 10
7.925607439
 20
1.6228894233
 30
0.0
 10
7.9254636007
 20
1.6229415762
 30
0.0
 10
7.9253822439
 20
1.6229922888
 30
0.0
 10
7.9253416054
 20
1.6230303361
 30
0.0
 10
7.9253163856
 20
1.6230723263
 30
0.0
 10
7.925310928
 20
1.6231027539
 30
0.0
 10
7.9253109527
 20
1.6231173298
 30
0.0
  0
SPLINE
  5
381
100
AcDbEntity
  8
0
100
AcDbSpline
 62
7
  6
CONTINUOUS
 70
0
 71
3
 72
20
 73
16
 74
0
 42
0.0000001
 43
0.0000001
 44
0.0000000001
 40
0.0
 40
0.0
 40
0.0
 40
0.0
 40
0.0090078538
 40
0.0184118995
 40
0.0399372282
 40
0.0669378799
 40
0.1004930505
 40
0.1410942847
 40
0.1888777234
 40
0.2437284254
 40
0.3054465652
 40
0.4483782555
 40
0.6146581997
 40
0.8004035665
 40
1.0
 40
1.0
 40
1.0
 40
1.0
 10
7.3195863894
 20
1.6848423572
 30
0.0
 10
7.3195864612
 20
1.6847888446
 30
0.0
 10
7.3195733523
 20
1.6846790219
 30
0.0
 10
7.3194905109
 20
1.6844547067
 30
0.0
 10
7.3192725311
 20
1.6841790115
 30
0.0
 10
7.3188811613
 20
1.6838840583
 30
0.0
 10
7.3183485088
 20
1.6836018926
 30
0.0
 10
7.317674381
 20
1.683334223
 30
0.0
 10
7.3168610572
 20
1.6830819881
 30
0.0
 10
7.3159130208
 20
1.6828468118
 30
0.0
 10
7.314401067
 20
1.6825437996
 30
0.0
 10
7.3122176793
 20
1.6822343637
 30
0.0
 10
7.3092883735
 20
1.6819699657
 30
0.0
 10
7.3060145345
 20
1.6818094434
 30
0.0
 10
7.3037251684
 20
1.681774637
 30
0.0
 10
7.3025394334
 20
1.681774637
 30
0.0
  0
LINE
  5
382
100
AcDbEntity
  8
0
100
AcDbLine
 62
7
  6
CONTINUOUS
 10
6.9972093854
 20
1.6227561466
 11
6.994998843
 21
1.6229595266
  0
SPLINE
  5
383
100
AcDbEntity
  8
0
100
AcDbSpline
 62
7
  6
CONTINUOUS
 70
0
 71
3
 72
17
 73
13
 74
0
 42
0.0000001
 43
0.0000001
 44
0.0000000001
 40
0.0
 40
0.0
 40
0.0
 40
0.0
 40
0.0398145824
 40
0.0883973583
 40
0.2078531698
 40
0.3489455782
 40
0.5009847822
 40
0.6527937592
 40
0.7932975223
 40
0.9120745982
 40
0.9603830136
 40
1.0
 40
1.0
 40
1.0
 40
1.0
 10
6.994998843
 20
1.6229595266
 30
0.0
 10
6.9944495135
 20
1.6230277073
 30
0.0
 10
6.9932314402
 20
1.6231916022
 30
0.0
 10
6.9903718405
 20
1.6236084319
 30
0.0
 10
6.986126456
 20
1.6242788417
 30
0.0
 10
6.9804679276
 20
1.6252199156
 30
0.0
 10
6.9743719952
 20
1.6262720968
 30
0.0
 10
6.9682896801
 20
1.6273545404
 30
0.0
 10
6.9626684962
 20
1.6283881682
 30
0.0
 10
6.9584682874
 20
1.6291925085
 30
0.0
 10
6.9556516304
 20
1.6297628269
 30
0.0
 10
6.9544559008
 20
1.6300171481
 30
0.0
 10
6.9539182221
 20
1.6301366437
 30
0.0
  0
LINE
  5
384
100
AcDbEntity
  8
0
100
AcDbLine
 62
7
  6
CONTINUOUS
 10
6.9539182221
 20
1.6301366437
 11
6.9515046935
 21
1.6308173667
  0
SPLINE
  5
385
100
AcDbEntity
  8
0
100
AcDbSpline
 62
7
  6
CONTINUOUS
 70
0
 71
3
 72
19
 73
15
 74
0
 42
0.0000001
 43
0.0000001
 44
0.0000000001
 40
0.0
 40
0.0
 40
0.0
 40
0.0
 40
0.0193009957
 40
0.0410837668
 40
0.0676310823
 40
0.1001551405
 40
0.1392447744
 40
0.1851797691
 40
0.2380804142
 40
0.297921567
 40
0.437802226
 40
0.6033475748
 40
0.7920165606
 40
1.0
 40
1.0
 40
1.0
 40
1.0
 10
7.1487095152
 20
1.6838524759
 30
0.0
 10
7.1487095966
 20
1.6837748842
 30
0.0
 10
7.1486722673
 20
1.6836080842
 30
0.0
 10
7.1485116595
 20
1.6833827584
 30
0.0
 10
7.148258365
 20
1.6831753792
 30
0.0
 10
7.1479135643
 20
1.6829808557
 30
0.0
 10
7.1474768883
 20
1.6827982876
 30
0.0
 10
7.1469486705
 20
1.6826281227
 30
0.0
 10
7.1463300074
 20
1.6824713292
 30
0.0
 10
7.145334138
 20
1.682270708
 30
0.0
 10
7.1438785701
 20
1.6820679971
 30
0.0
 10
7.1418989648
 20
1.6818981761
 30
0.0
 10
7.1396406949
 20
1.6817959241
 30
0.0
 10
7.1380460009
 20
1.681774637
 30
0.0
 10
7.1372098888
 20
1.681774637
 30
0.0
  0
SPLINE
  5
386
100
AcDbEntity
  8
0
100
AcDbSpline
 62
7
  6
CONTINUOUS
 70
0
 71
3
 72
16
 73
12
 74
0
 42
0.0000001
 43
0.0000001
 44
0.0000000001
 40
0.0
 40
0.0
 40
0.0
 40
0.0
 40
0.0401621693
 40
0.0874041792
 40
0.200054588
 40
0.3313136694
 40
0.4737899695
 40
0.6195406749
 40
0.7606962409
 40
0.8897886425
 40
1.0
 40
1.0
 40
1.0
 40
1.0
 10
6.8862994745
 20
1.681774637
 30
0.0
 10
6.8857967858
 20
1.681774637
 30
0.0
 10
6.884702799
 20
1.6817999326
 30
0.0
 10
6.8822019909
 20
1.6819297588
 30
0.0
 10
6.8785703073
 20
1.6822426868
 30
0.0
 10
6.8737650765
 20
1.6827921804
 30
0.0
 10
6.8685627745
 20
1.6835049231
 30
0.0
 10
6.8632531381
 20
1.6843384367
 30
0.0
 10
6.8581253474
 20
1.6852444489
 30
0.0
 10
6.8534542703
 20
1.686172214
 30
0.0
 10
6.8505320042
 20
1.6868324641
 30
0.0
 10
6.8491934818
 20
1.6871660213
 30
0.0
  0
SPLINE
  5
387
100
AcDbEntity
  8
0
100
AcDbSpline
 62
7
  6
CONTINUOUS
 70
0
 71
3
 72
16
 73
12
 74
0
 42
0.0000001
 43
0.0000001
 44
0.0000000001
 40
0.0
 40
0.0
 40
0.0
 40
0.0
 40
0.4056525247
 40
0.5717105266
 40
0.7113425391
 40
0.8236091315
 40
0.8693701963
 40
0.9082147774
 40
0.9402374069
 40
0.9657013948
 40
1.0
 40
1.0
 40
1.0
 40
1.0
 10
6.8491934818
 20
1.6871660213
 30
0.0
 10
6.8483660836
 20
1.6873722074
 30
0.0
 10
6.8472034585
 20
1.6876782385
 30
0.0
 10
6.8457733129
 20
1.6881154725
 30
0.0
 10
6.8449424883
 20
1.6884017949
 30
0.0
 10
6.8443613603
 20
1.688634924
 30
0.0
 10
6.8439880977
 20
1.6888144201
 30
0.0
 10
6.8437737771
 20
1.6889329825
 30
0.0
 10
6.8436042593
 20
1.6890465152
 30
0.0
 10
6.8434599464
 20
1.6891695926
 30
0.0
 10
6.8433809017
 20
1.6892863124
 30
0.0
 10
6.8433809545
 20
1.6893584098
 30
0.0
  0
SPLINE
  5
388
100
AcDbEntity
  8
0
100
AcDbSpline
 62
7
  6
CONTINUOUS
 70
0
 71
3
 72
13
 73
9
 74
0
 42
0.0000001
 43
0.0000001
 44
0.0000000001
 40
0.0
 40
0.0
 40
0.0
 40
0.0
 40
0.1026140996
 40
0.2179690027
 40
0.3428854574
 40
0.4742358746
 40
0.7434868434
 40
1.0
 40
1.0
 40
1.0
 40
1.0
 10
6.9952381903
 20
1.681774637
 30
0.0
 10
6.9943200167
 20
1.681774637
 30
0.0
 10
6.9923696311
 20
1.6818164185
 30
0.0
 10
6.9893052385
 20
1.681973111
 30
0.0
 10
6.9859893553
 20
1.6822262293
 30
0.0
 10
6.9813092747
 20
1.682685242
 30
0.0
 10
6.9754757017
 20
1.6834318632
 30
0.0
 10
6.9708329737
 20
1.6842006412
 30
0.0
 10
6.9685779536
 20
1.6846284194
 30
0.0
  0
SPLINE
  5
389
100
AcDbEntity
  8
0
100
AcDbSpline
 62
7
  6
CONTINUOUS
 70
0
 71
3
 72
19
 73
15
 74
0
 42
0.0000001
 43
0.0000001
 44
0.0000000001
 40
0.0
 40
0.0
 40
0.0
 40
0.0
 40
0.2055163283
 40
0.3931676341
 40
0.5595804835
 40
0.7019371227
 40
0.7633452363
 40
0.8178696239
 40
0.8653456304
 40
0.9056938323
 40
0.9389185646
 40
0.952914468
 40
0.965226709
 40
1.0
 40
1.0
 40
1.0
 40
1.0
 10
6.9685779536
 20
1.6846284194
 30
0.0
 10
6.9676715199
 20
1.6848003702
 30
0.0
 10
6.9659405744
 20
1.6851461742
 30
0.0
 10
6.9634888774
 20
1.6856948201
 30
0.0
 10
6.9613285374
 20
1.6862431127
 30
0.0
 10
6.9597331624
 20
1.6867105422
 30
0.0
 10
6.9586347189
 20
1.6870823606
 30
0.0
 10
6.9579480745
 20
1.6873410604
 30
0.0
 10
6.9573601756
 20
1.6875920515
 30
0.0
 10
6.9568731978
 20
1.687834468
 30
0.0
 10
6.9565363199
 20
1.6880374541
 30
0.0
 10
6.9563215798
 20
1.6881987991
 30
0.0
 10
6.9561194652
 20
1.6883780758
 30
0.0
 10
6.9559754789
 20
1.6885739099
 30
0.0
 10
6.9559755426
 20
1.6887300134
 30
0.0
  0
SPLINE
  5
38A
100
AcDbEntity
  8
0
100
AcDbSpline
 62
7
  6
CONTINUOUS
 70
0
 71
3
 72
18
 73
14
 74
0
 42
0.0000001
 43
0.0000001
 44
0.0000000001
 40
0.0
 40
0.0
 40
0.0
 40
0.0
 40
0.0201252845
 40
0.0421661455
 40
0.0683640414
 40
0.1001016177
 40
0.1381197245
 40
0.1827875827
 40
0.2926819704
 40
0.4303720418
 40
0.5953554634
 40
0.7859038183
 40
1.0
 40
1.0
 40
1.0
 40
1.0
 10
7.0019739371
 20
1.68299613
 30
0.0
 10
7.0019739183
 20
1.682948618
 30
0.0
 10
7.0019536475
 20
1.6828480922
 30
0.0
 10
7.001863863
 20
1.6827106375
 30
0.0
 10
7.0017207547
 20
1.6825851366
 30
0.0
 10
7.001525214
 20
1.6824691219
 30
0.0
 10
7.0012769274
 20
1.6823614497
 30
0.0
 10
7.0008447252
 20
1.6822189537
 30
0.0
 10
7.0001691037
 20
1.6820717927
 30
0.0
 10
6.9992037503
 20
1.6819390491
 30
0.0
 10
6.9980427755
 20
1.6818436873
 30
0.0
 10
6.996699001
 20
1.6817861339
 30
0.0
 10
6.9957436306
 20
1.681774637
 30
0.0
 10
6.9952381903
 20
1.681774637
 30
0.0
  0
SPLINE
  5
38B
100
AcDbEntity
  8
0
100
AcDbSpline
 62
7
  6
CONTINUOUS
 70
0
 71
3
 72
12
 73
8
 74
0
 42
0.0000001
 43
0.0000001
 44
0.0000000001
 40
0.0
 40
0.0
 40
0.0
 40
0.0
 40
0.1180827346
 40
0.2433451464
 40
0.5044204404
 40
0.7630032977
 40
1.0
 40
1.0
 40
1.0
 40
1.0
 10
7.1372098888
 20
1.681774637
 30
0.0
 10
7.1362496776
 20
1.681774637
 30
0.0
 10
7.1342708011
 20
1.6818047961
 30
0.0
 10
7.1301720332
 20
1.6819698029
 30
0.0
 10
7.1249405518
 20
1.6823625851
 30
0.0
 10
7.1188278299
 20
1.6830773704
 30
0.0
 10
7.1148475856
 20
1.6837210893
 30
0.0
 10
7.1129551901
 20
1.6840856006
 30
0.0
  0
SPLINE
  5
38C
100
AcDbEntity
  8
0
100
AcDbSpline
 62
7
  6
CONTINUOUS
 70
0
 71
3
 72
19
 73
15
 74
0
 42
0.0000001
 43
0.0000001
 44
0.0000000001
 40
0.0
 40
0.0
 40
0.0
 40
0.0
 40
0.205065244
 40
0.3905154935
 40
0.5539906508
 40
0.6934256296
 40
0.7536010244
 40
0.8072606675
 40
0.8543551351
 40
0.8949032941
 40
0.9290482438
 40
0.9572050063
 40
0.9802883274
 40
1.0
 40
1.0
 40
1.0
 40
1.0
 10
7.1129551901
 20
1.6840856006
 30
0.0
 10
7.1122026776
 20
1.6842305489
 30
0.0
 10
7.1107728925
 20
1.684524035
 30
0.0
 10
7.108757999
 20
1.6850015723
 30
0.0
 10
7.1069986686
 20
1.6854885397
 30
0.0
 10
7.1057090721
 20
1.68591353
 30
0.0
 10
7.1048277015
 20
1.6862591972
 30
0.0
 10
7.1042778719
 20
1.6865034716
 30
0.0
 10
7.1038077401
 20
1.6867447102
 30
0.0
 10
7.1034187949
 20
1.6869821134
 30
0.0
 10
7.1031119989
 20
1.6872151771
 30
0.0
 10
7.1028879125
 20
1.6874446338
 30
0.0
 10
7.102746335
 20
1.6876723525
 30
0.0
 10
7.1027103554
 20
1.6878328792
 30
0.0
 10
7.102710273
 20
1.6879065432
 30
0.0
  0
SPLINE
  5
38D
100
AcDbEntity
  8
0
100
AcDbSpline
 62
7
  6
CONTINUOUS
 70
0
 71
3
 72
21
 73
17
 74
0
 42
0.0000001
 43
0.0000001
 44
0.0000000001
 40
0.0
 40
0.0
 40
0.0
 40
0.0
 40
0.1748824983
 40
0.3512186245
 40
0.5194117257
 40
0.5978355487
 40
0.6711809661
 40
0.7385295864
 40
0.7991493446
 40
0.8523975427
 40
0.8977349265
 40
0.9173494979
 40
0.9349016075
 40
0.9503939779
 40
0.9638598625
 40
1.0
 40
1.0
 40
1.0
 40
1.0
 10
7.3025394334
 20
1.681774637
 30
0.0
 10
7.3007911639
 20
1.681774637
 30
0.0
 10
7.2972797404
 20
1.6818520096
 30
0.0
 10
7.2920959065
 20
1.6821713424
 30
0.0
 10
7.2878882173
 20
1.6826023226
 30
0.0
 10
7.2847195661
 20
1.6830411159
 30
0.0
 10
7.282557994
 20
1.6833975966
 30
0.0
 10
7.2805827021
 20
1.6837846076
 30
0.0
 10
7.278817959
 20
1.684195997
 30
0.0
 10
7.2772848653
 20
1.6846257588
 30
0.0
 10
7.2761666799
 20
1.6850106125
 30
0.0
 10
7.2754054271
 20
1.6853297877
 30
0.0
 10
7.274931683
 20
1.6855577552
 30
0.0
 10
7.2745242045
 20
1.6857889139
 30
0.0
 10
7.2739978854
 20
1.6861468259
 30
0.0
 10
7.273587296
 20
1.6865794469
 30
0.0
 10
7.2735867991
 20
1.6869407332
 30
0.0
  0
SPLINE
  5
38E
100
AcDbEntity
  8
0
100
AcDbSpline
 62
7
  6
CONTINUOUS
 70
0
 71
3
 72
22
 73
18
 74
0
 42
0.0000001
 43
0.0000001
 44
0.0000000001
 40
0.0
 40
0.0
 40
0.0
 40
0.0
 40
0.1886209082
 40
0.3702563972
 40
0.5374195799
 40
0.6137025705
 40
0.6842380809
 40
0.7484554424
 40
0.8058108565
 40
0.8559128243
 40
0.8985471049
 40
0.9336205662
 40
0.9613577246
 40
0.9727515703
 40
0.982746555
 40
0.9916724758
 40
1.0
 40
1.0
 40
1.0
 40
1.0
 10
7.4799598888
 20
1.681774637
 30
0.0
 10
7.4784537318
 20
1.681774637
 30
0.0
 10
7.4754968973
 20
1.6818275269
 30
0.0
 10
7.4712109686
 20
1.6820607423
 30
0.0
 10
7.4678306873
 20
1.6823834465
 30
0.0
 10
7.4653455591
 20
1.6827172805
 30
0.0
 10
7.4636822973
 20
1.6829896475
 30
0.0
 10
7.462177253
 20
1.6832880287
 30
0.0
 10
7.4608441347
 20
1.6836095465
 30
0.0
 10
7.4596946102
 20
1.6839507901
 30
0.0
 10
7.4587370602
 20
1.6843075237
 30
0.0
 10
7.4579786791
 20
1.6846761304
 30
0.0
 10
7.4574847792
 20
1.68501148
 30
0.0
 10
7.4572076193
 20
1.6852909038
 30
0.0
 10
7.4570666503
 20
1.6854894212
 30
0.0
 10
7.4569799042
 20
1.6856910676
 30
0.0
 10
7.4569598955
 20
1.6858294555
 30
0.0
 10
7.4569598892
 20
1.6858959516
 30
0.0
  0
SPLINE
  5
38F
100
AcDbEntity
  8
0
100
AcDbSpline
 62
7
  6
CONTINUOUS
 70
0
 71
3
 72
17
 73
13
 74
0
 42
0.0000001
 43
0.0000001
 44
0.0000000001
 40
0.0
 40
0.0
 40
0.0
 40
0.0
 40
0.0207295791
 40
0.0430132692
 40
0.0690700777
 40
0.1003295348
 40
0.181374468
 40
0.2896950992
 40
0.4260729851
 40
0.590288188
 40
0.7818183699
 40
1.0
 40
1.0
 40
1.0
 40
1.0
 10
6.8893808269
 20
1.6823348359
 30
0.0
 10
6.8893808118
 20
1.68231241
 30
0.0
 10
6.8893719691
 20
1.6822654192
 30
0.0
 10
6.8893319653
 20
1.682200814
 30
0.0
 10
6.8892678964
 20
1.6821421656
 30
0.0
 10
6.8891397666
 20
1.6820636321
 30
0.0
 10
6.8889133863
 20
1.6819824013
 30
0.0
 10
6.8885689267
 20
1.6819070317
 30
0.0
 10
6.8881300875
 20
1.6818478071
 30
0.0
 10
6.8875992773
 20
1.6818051224
 30
0.0
 10
6.8869787771
 20
1.6817796129
 30
0.0
 10
6.8865355103
 20
1.681774637
 30
0.0
 10
6.8862994745
 20
1.681774637
 30
0.0
  0
LINE
  5
390
100
AcDbEntity
  8
0
100
AcDbLine
 62
7
  6
CONTINUOUS
 10
7.1752669112
 20
1.5670878688
 11
7.1727264086
 21
1.5672961072
  0
SPLINE
  5
391
100
AcDbEntity
  8
0
100
AcDbSpline
 62
7
  6
CONTINUOUS
 70
0
 71
3
 72
15
 73
11
 74
0
 42
0.0000001
 43
0.0000001
 44
0.0000000001
 40
0.0
 40
0.0
 40
0.0
 40
0.0
 40
0.0875141543
 40
0.2002014047
 40
0.3314720734
 40
0.4739048721
 40
0.6196910912
 40
0.7609653005
 40
0.8901041812
 40
1.0
 40
1.0
 40
1.0
 40
1.0
 10
7.1727264086
 20
1.5672961072
 30
0.0
 10
7.1716338197
 20
1.5674228125
 30
0.0
 10
7.1691400645
 20
1.5677607315
 30
0.0
 10
7.1650208589
 20
1.5683839059
 30
0.0
 10
7.1602267972
 20
1.5691594944
 30
0.0
 10
7.1550282452
 20
1.5700384301
 30
0.0
 10
7.1497110335
 20
1.5709692105
 30
0.0
 10
7.1445635067
 20
1.5718998999
 30
0.0
 10
7.1398655085
 20
1.5727809219
 30
0.0
 10
7.1369175596
 20
1.5733604283
 30
0.0
 10
7.1355645218
 20
1.5736379836
 30
0.0
  0
SPLINE
  5
392
100
AcDbEntity
  8
0
100
AcDbSpline
 62
7
  6
CONTINUOUS
 70
0
 71
3
 72
18
 73
14
 74
0
 42
0.0000001
 43
0.0000001
 44
0.0000000001
 40
0.0
 40
0.0
 40
0.0
 40
0.0
 40
0.2222131289
 40
0.419364918
 40
0.5898062585
 40
0.7319198116
 40
0.8445001967
 40
0.8894621518
 40
0.9267516256
 40
0.9563017351
 40
0.9780956997
 40
0.992315445
 40
1.0
 40
1.0
 40
1.0
 40
1.0
 10
7.1355645218
 20
1.5736379836
 30
0.0
 10
7.1351288428
 20
1.5737273566
 30
0.0
 10
7.1343070915
 20
1.5738983426
 30
0.0
 10
7.1331532115
 20
1.5741475489
 30
0.0
 10
7.1321582
 20
1.5743728331
 30
0.0
 10
7.1313310632
 20
1.5745724856
 30
0.0
 10
7.1307509653
 20
1.5747253828
 30
0.0
 10
7.1303769959
 20
1.5748356476
 30
0.0
 10
7.1301639712
 20
1.574904934
 30
0.0
 10
7.1299978216
 20
1.5749656656
 30
0.0
 10
7.1298768967
 20
1.5750205345
 30
0.0
 10
7.1298033612
 20
1.5750627107
 30
0.0
 10
7.1297705233
 20
1.5751003935
 30
0.0
 10
7.1297706869
 20
1.5751157729
 30
0.0
  0
SPLINE
  5
393
100
AcDbEntity
  8
0
100
AcDbSpline
 62
7
  6
CONTINUOUS
 70
0
 71
3
 72
20
 73
16
 74
0
 42
0.0000001
 43
0.0000001
 44
0.0000000001
 40
0.0
 40
0.0
 40
0.0
 40
0.0
 40
0.1995917981
 40
0.3853364767
 40
0.5516171712
 40
0.6945501498
 40
0.7562680339
 40
0.8111183384
 40
0.858902569
 40
0.8995058473
 40
0.9330610902
 40
0.9600613928
 40
0.9815874345
 40
0.9909920421
 40
1.0
 40
1.0
 40
1.0
 40
1.0
 10
7.6573803442
 20
1.681774637
 30
0.0
 10
7.6561946372
 20
1.681774637
 30
0.0
 10
7.6539053038
 20
1.6818094462
 30
0.0
 10
7.6506314929
 20
1.6819699621
 30
0.0
 10
7.6477021807
 20
1.682234363
 30
0.0
 10
7.6455187815
 20
1.6825437866
 30
0.0
 10
7.6440068239
 20
1.6828467962
 30
0.0
 10
7.6430587873
 20
1.6830819747
 30
0.0
 10
7.6422454508
 20
1.6833342137
 30
0.0
 10
7.6415712974
 20
1.6836018659
 30
0.0
 10
7.6410386369
 20
1.6838840388
 30
0.0
 10
7.6406472716
 20
1.6841790073
 30
0.0
 10
7.6404292989
 20
1.684454705
 30
0.0
 10
7.6403464118
 20
1.6846790111
 30
0.0
 10
7.6403332942
 20
1.6847888384
 30
0.0
 10
7.6403333654
 20
1.6848423516
 30
0.0
  0
SPLINE
  5
394
100
AcDbEntity
  8
0
100
AcDbSpline
 62
7
  6
CONTINUOUS
 70
0
 71
3
 72
19
 73
15
 74
0
 42
0.0000001
 43
0.0000001
 44
0.0000000001
 40
0.0
 40
0.0
 40
0.0
 40
0.0
 40
0.2079789435
 40
0.3966465461
 40
0.5621936211
 40
0.7020752927
 40
0.7619173156
 40
0.8148190991
 40
0.8607539423
 40
0.8998428649
 40
0.9323666655
 40
0.9589149187
 40
0.9806988682
 40
1.0
 40
1.0
 40
1.0
 40
1.0
 10
7.8227098888
 20
1.681774637
 30
0.0
 10
7.8218737953
 20
1.681774637
 30
0.0
 10
7.8202791259
 20
1.6817959248
 30
0.0
 10
7.8180208742
 20
1.6818981781
 30
0.0
 10
7.8160412642
 20
1.6820679934
 30
0.0
 10
7.814585683
 20
1.6822707074
 30
0.0
 10
7.8135898018
 20
1.6824713275
 30
0.0
 10
7.8129711294
 20
1.6826281131
 30
0.0
 10
7.8124429103
 20
1.6827982775
 30
0.0
 10
7.8120062405
 20
1.6829808476
 30
0.0
 10
7.8116614418
 20
1.6831753755
 30
0.0
 10
7.8114081421
 20
1.6833827543
 30
0.0
 10
7.8112474988
 20
1.683608068
 30
0.0
 10
7.8112101746
 20
1.6837748785
 30
0.0
 10
7.8112102616
 20
1.6838524707
 30
0.0
  0
SPLINE
  5
395
100
AcDbEntity
  8
0
100
AcDbSpline
 62
7
  6
CONTINUOUS
 70
0
 71
3
 72
17
 73
13
 74
0
 42
0.0000001
 43
0.0000001
 44
0.0000000001
 40
0.0
 40
0.0
 40
0.0
 40
0.0
 40
0.2151809084
 40
0.4057216206
 40
0.570139152
 40
0.7071186835
 40
0.8162212039
 40
0.8983387874
 40
0.9301123717
 40
0.956584584
 40
0.9791381199
 40
1.0
 40
1.0
 40
1.0
 40
1.0
 10
7.7185827328
 20
1.5670878688
 30
0.0
 10
7.7181756888
 20
1.5670878688
 30
0.0
 10
7.7174081567
 20
1.5670972361
 30
0.0
 10
7.7163304458
 20
1.5671444307
 30
0.0
 10
7.7154029452
 20
1.5672229195
 30
0.0
 10
7.714633246
 20
1.5673315886
 30
0.0
 10
7.7140275092
 20
1.5674695372
 30
0.0
 10
7.7136286114
 20
1.5676161204
 30
0.0
 10
7.7134019758
 20
1.5677564092
 30
0.0
 10
7.7132884383
 20
1.5678606537
 30
0.0
 10
7.7132176595
 20
1.5679749505
 30
0.0
 10
7.7132021376
 20
1.5680579275
 30
0.0
 10
7.7132022393
 20
1.5680973905
 30
0.0
  0
SPLINE
  5
396
100
AcDbEntity
  8
0
100
AcDbSpline
 62
7
  6
CONTINUOUS
 70
0
 71
3
 72
18
 73
14
 74
0
 42
0.0000001
 43
0.0000001
 44
0.0000000001
 40
0.0
 40
0.0
 40
0.0
 40
0.0
 40
0.2140919679
 40
0.404638221
 40
0.5696226812
 40
0.7073151907
 40
0.8172103946
 40
0.8618787421
 40
0.8998977152
 40
0.9316365215
 40
0.9578345323
 40
0.979874875
 40
1.0
 40
1.0
 40
1.0
 40
1.0
 10
7.9646815873
 20
1.681774637
 30
0.0
 10
7.9641761569
 20
1.681774637
 30
0.0
 10
7.9632208016
 20
1.6817861344
 30
0.0
 10
7.9618770397
 20
1.681843689
 30
0.0
 10
7.9607160619
 20
1.6819390508
 30
0.0
 10
7.9597506978
 20
1.6820717912
 30
0.0
 10
7.9590750683
 20
1.682218956
 30
0.0
 10
7.9586428609
 20
1.6823614529
 30
0.0
 10
7.9583945684
 20
1.6824691259
 30
0.0
 10
7.9581990183
 20
1.6825851347
 30
0.0
 10
7.9580559055
 20
1.6827106345
 30
0.0
 10
7.957966127
 20
1.6828480928
 30
0.0
 10
7.9579458657
 20
1.6829486191
 30
0.0
 10
7.9579458508
 20
1.6829961307
 30
0.0
  0
SPLINE
  5
397
100
AcDbEntity
  8
0
100
AcDbSpline
 62
7
  6
CONTINUOUS
 70
0
 71
3
 72
17
 73
13
 74
0
 42
0.0000001
 43
0.0000001
 44
0.0000000001
 40
0.0
 40
0.0
 40
0.0
 40
0.0
 40
0.218177728
 40
0.4097051921
 40
0.5739193996
 40
0.7102985237
 40
0.8186228264
 40
0.8996697886
 40
0.9309295068
 40
0.9569864042
 40
0.9792702174
 40
1.0
 40
1.0
 40
1.0
 40
1.0
 10
8.0736203031
 20
1.681774637
 30
0.0
 10
8.0733842718
 20
1.681774637
 30
0.0
 10
8.0729410126
 20
1.681779613
 30
0.0
 10
8.0723205214
 20
1.6818051233
 30
0.0
 10
8.0717897146
 20
1.6818478085
 30
0.0
 10
8.0713508718
 20
1.6819070344
 30
0.0
 10
8.0710064046
 20
1.6819824018
 30
0.0
 10
8.0707800175
 20
1.6820636325
 30
0.0
 10
8.0706518859
 20
1.6821421679
 30
0.0
 10
8.0705878174
 20
1.6822008174
 30
0.0
 10
8.0705478146
 20
1.6822654236
 30
0.0
 10
8.0705389723
 20
1.6823124147
 30
0.0
 10
8.0705389571
 20
1.6823348408
 30
0.0
  0
SPLINE
  5
398
100
AcDbEntity
  8
0
100
AcDbSpline
 62
7
  6
CONTINUOUS
 70
0
 71
3
 72
19
 73
15
 74
0
 42
0.0000001
 43
0.0000001
 44
0.0000000001
 40
0.0
 40
0.0
 40
0.0
 40
0.0
 40
0.201276384
 40
0.3875222122
 40
0.5534921049
 40
0.6956667436
 40
0.7569434515
 40
0.8113618042
 40
0.8587800154
 40
0.8991348065
 40
0.9325536145
 40
0.9595693558
 40
0.981313464
 40
1.0
 40
1.0
 40
1.0
 40
1.0
 10
7.5762186825
 20
1.5670878688
 30
0.0
 10
7.5751018627
 20
1.5670878688
 30
0.0
 10
7.572951445
 20
1.5671209442
 30
0.0
 10
7.5698833536
 20
1.5672743319
 30
0.0
 10
7.5671509801
 20
1.56752726
 30
0.0
 10
7.5651210139
 20
1.5678232564
 30
0.0
 10
7.5637193845
 20
1.5681129242
 30
0.0
 10
7.562842241
 20
1.5683376588
 30
0.0
 10
7.5620903552
 20
1.5685786942
 30
0.0
 10
7.5614673762
 20
1.5688343252
 30
0.0
 10
7.5609753664
 20
1.569103695
 30
0.0
 10
7.5606143563
 20
1.5693868657
 30
0.0
 10
7.5603829905
 20
1.569688992
 30
0.0
 10
7.5603260573
 20
1.5699150709
 30
0.0
 10
7.5603260745
 20
1.5700187567
 30
0.0
  0
SPLINE
  5
399
100
AcDbEntity
  8
0
100
AcDbSpline
 62
7
  6
CONTINUOUS
 70
0
 71
3
 72
21
 73
17
 74
0
 42
0.0000001
 43
0.0000001
 44
0.0000000001
 40
0.0
 40
0.0
 40
0.0
 40
0.0
 40
0.1759072718
 40
0.3526512826
 40
0.5207894072
 40
0.59907036
 40
0.6722318874
 40
0.7393769689
 40
0.7997868465
 40
0.852843061
 40
0.8980146261
 40
0.9175573803
 40
0.9350480695
 40
0.9504913836
 40
0.9639212662
 40
1.0
 40
1.0
 40
1.0
 40
1.0
 10
7.4046012183
 20
1.5670878688
 30
0.0
 10
7.4028653962
 20
1.5670878688
 30
0.0
 10
7.3993851184
 20
1.5671663957
 30
0.0
 10
7.3942550808
 20
1.5674912631
 30
0.0
 10
7.3901007641
 20
1.5679284876
 30
0.0
 10
7.3869782293
 20
1.5683718326
 30
0.0
 10
7.3848510435
 20
1.5687308633
 30
0.0
 10
7.3829085456
 20
1.5691194456
 30
0.0
 10
7.3811740937
 20
1.5695314103
 30
0.0
 10
7.3796679857
 20
1.5699605016
 30
0.0
 10
7.3785698391
 20
1.5703436267
 30
0.0
 10
7.3778224672
 20
1.5706606933
 30
0.0
 10
7.3773573843
 20
1.5708868822
 30
0.0
 10
7.376957379
 20
1.5711159358
 30
0.0
 10
7.3764402042
 20
1.5714704166
 30
0.0
 10
7.3760378104
 20
1.5718974795
 30
0.0
 10
7.3760373131
 20
1.5722534978
 30
0.0
  0
LINE
  5
39A
100
AcDbEntity
  8
0
100
AcDbLine
 62
7
  6
CONTINUOUS
 10
6.8178177349
 20
1.681774637
 11
6.8149298567
 21
1.6819755631
  0
SPLINE
  5
39B
100
AcDbEntity
  8
0
100
AcDbSpline
 62
7
  6
CONTINUOUS
 70
0
 71
3
 72
15
 73
11
 74
0
 42
0.0000001
 43
0.0000001
 44
0.0000000001
 40
0.0
 40
0.0
 40
0.0
 40
0.0
 40
0.0930783521
 40
0.2099361084
 40
0.3437845391
 40
0.4870715243
 40
0.6319459427
 40
0.770601252
 40
0.8955730055
 40
1.0
 40
1.0
 40
1.0
 40
1.0
 10
6.8149298567
 20
1.6819755631
 30
0.0
 10
6.8137615431
 20
1.6820954981
 30
0.0
 10
6.8111319029
 20
1.6824181496
 30
0.0
 10
6.8068366101
 20
1.6830246952
 30
0.0
 10
6.8019234666
 20
1.6837842324
 30
0.0
 10
6.7966696189
 20
1.6846515145
 30
0.0
 10
6.7913641874
 20
1.6855773268
 30
0.0
 10
6.7862947916
 20
1.6865102586
 30
0.0
 10
6.7817366288
 20
1.6873997513
 30
0.0
 10
6.7789034718
 20
1.6879936913
 30
0.0
 10
6.7776174653
 20
1.6882807238
 30
0.0
  0
SPLINE
  5
39C
100
AcDbEntity
  8
0
100
AcDbSpline
 62
7
  6
CONTINUOUS
 70
0
 71
3
 72
16
 73
12
 74
0
 42
0.0000001
 43
0.0000001
 44
0.0000000001
 40
0.0
 40
0.0
 40
0.0
 40
0.0
 40
0.2214909795
 40
0.4176080831
 40
0.5869719857
 40
0.728225626
 40
0.840288505
 40
0.9226048942
 40
0.9749984708
 40
0.990409058
 40
1.0
 40
1.0
 40
1.0
 40
1.0
 10
6.7776174653
 20
1.6882807238
 30
0.0
 10
6.7772382713
 20
1.6883653587
 30
0.0
 10
6.7765239648
 20
1.6885278685
 30
0.0
 10
6.7755225254
 20
1.6887671298
 30
0.0
 10
6.7746608599
 20
1.688985865
 30
0.0
 10
6.7739460828
 20
1.6891823314
 30
0.0
 10
6.773382471
 20
1.6893548962
 30
0.0
 10
6.7729762389
 20
1.6895013069
 30
0.0
 10
6.7727343063
 20
1.689612601
 30
0.0
 10
6.7726261696
 20
1.6896934998
 30
0.0
 10
6.7726017891
 20
1.6897348749
 30
0.0
 10
6.7726020101
 20
1.6897516972
 30
0.0
  0
SPLINE
  5
39D
100
AcDbEntity
  8
0
100
AcDbSpline
 62
7
  6
CONTINUOUS
 70
0
 71
3
 72
15
 73
11
 74
0
 42
0.0000001
 43
0.0000001
 44
0.0000000001
 40
0.0
 40
0.0
 40
0.0
 40
0.0
 40
0.1054769567
 40
0.2267164842
 40
0.3586493384
 40
0.496210744
 40
0.634139859
 40
0.7672492664
 40
0.8906749416
 40
1.0
 40
1.0
 40
1.0
 40
1.0
 10
7.255885541
 20
1.5670878688
 30
0.0
 10
7.2547293164
 20
1.5670878688
 30
0.0
 10
7.2522440752
 20
1.5671585909
 30
0.0
 10
7.2483203007
 20
1.5674129642
 30
0.0
 10
7.244055557
 20
1.5678158873
 30
0.0
 10
7.2396207483
 20
1.5683472717
 30
0.0
 10
7.2351866099
 20
1.5689824746
 30
0.0
 10
7.2309210466
 20
1.5696939325
 30
0.0
 10
7.2269823407
 20
1.5704515281
 30
0.0
 10
7.2244913633
 20
1.5710062503
 30
0.0
 10
7.2233273945
 20
1.5712914797
 30
0.0
  0
SPLINE
  5
39E
100
AcDbEntity
  8
0
100
AcDbSpline
 62
7
  6
CONTINUOUS
 70
0
 71
3
 72
18
 73
14
 74
0
 42
0.0000001
 43
0.0000001
 44
0.0000000001
 40
0.0
 40
0.0
 40
0.0
 40
0.0
 40
0.2097802178
 40
0.3975362543
 40
0.5615802209
 40
0.7003738363
 40
0.8129917568
 40
0.859367601
 40
0.8991347525
 40
0.932433441
 40
0.9596493143
 40
0.9816298615
 40
1.0
 40
1.0
 40
1.0
 40
1.0
 10
7.2233273945
 20
1.5712914797
 30
0.0
 10
7.2228045201
 20
1.5714196096
 30
0.0
 10
7.2218159871
 20
1.5716721245
 30
0.0
 10
7.2204288666
 20
1.5720636086
 30
0.0
 10
7.219228329
 20
1.5724438117
 30
0.0
 10
7.2182265122
 20
1.5728094869
 30
0.0
 10
7.2175249717
 20
1.5731150019
 30
0.0
 10
7.2170746734
 20
1.5733551956
 30
0.0
 10
7.2168144977
 20
1.573517842
 30
0.0
 10
7.2166097291
 20
1.5736746136
 30
0.0
 10
7.2164605026
 20
1.5738261573
 30
0.0
 10
7.2163661132
 20
1.5739737893
 30
0.0
 10
7.2163415562
 20
1.5740776082
 30
0.0
 10
7.2163415402
 20
1.5741247502
 30
0.0
  0
SPLINE
  5
39F
100
AcDbEntity
  8
0
100
AcDbSpline
 62
7
  6
CONTINUOUS
 70
0
 71
3
 72
43
 73
39
 74
0
 42
0.0000001
 43
0.0000001
 44
0.0000000001
 40
0.0
 40
0.0
 40
0.0
 40
0.0
 40
0.0001970266
 40
0.000673369
 40
0.0014402813
 40
0.0024991087
 40
0.0038497855
 40
0.0054918385
 40
0.0096474379
 40
0.01496015
 40
0.0214229679
 40
0.0290181929
 40
0.03772033
 40
0.0475036601
 40
0.0583424375
 40
0.0830832574
 40
0.1117126819
 40
0.1439269064
 40
0.1794079533
 40
0.2178306697
 40
0.2588235278
 40
0.3019964957
 40
0.3933017669
 40
0.4884390428
 40
0.5840135761
 40
0.6766124509
 40
0.7629022885
 40
0.8396836305
 40
0.8735925049
 40
0.9040505395
 40
0.9307526541
 40
0.9534484739
 40
0.9718916364
 40
0.9858743035
 40
0.9911549038
 40
0.9952774369
 40
0.9982293242
 40
1.0
 40
1.0
 40
1.0
 40
1.0
 10
8.0143351105
 20
1.6308623987
 30
0.0
 10
8.0143349231
 20
1.6308593383
 30
0.0
 10
8.0143225714
 20
1.6308543701
 30
0.0
 10
8.0143040804
 20
1.6308466857
 30
0.0
 10
8.0142683144
 20
1.6308365494
 30
0.0
 10
8.0142211059
 20
1.6308239913
 30
0.0
 10
8.0141596003
 20
1.6308091257
 30
0.0
 10
8.0140512886
 20
1.6307842322
 30
0.0
 10
8.013882189
 20
1.6307478359
 30
0.0
 10
8.0136393793
 20
1.6306979231
 30
0.0
 10
8.0133437103
 20
1.6306391442
 30
0.0
 10
8.0129960201
 20
1.6305716301
 30
0.0
 10
8.0125973476
 20
1.6304955747
 30
0.0
 10
8.0121488836
 20
1.6304111813
 30
0.0
 10
8.0114548782
 20
1.6302820008
 30
0.0
 10
8.0104721033
 20
1.6301015508
 30
0.0
 10
8.0091616577
 20
1.6298637784
 30
0.0
 10
8.0076863693
 20
1.6295983351
 30
0.0
 10
8.0060607823
 20
1.6293076152
 30
0.0
 10
8.0043004777
 20
1.6289941938
 30
0.0
 10
8.0024221425
 20
1.6286608282
 30
0.0
 10
7.9997333375
 20
1.6281847195
 30
0.0
 10
7.9962146174
 20
1.6275630639
 30
0.0
 10
7.9918926871
 20
1.6268006011
 30
0.0
 10
7.9875508418
 20
1.6260351535
 30
0.0
 10
7.9833444302
 20
1.625294499
 30
0.0
 10
7.9794257282
 20
1.6246063449
 30
0.0
 10
7.9764060714
 20
1.6240790478
 30
0.0
 10
7.974241739
 20
1.6237044538
 30
0.0
 10
7.9728449723
 20
1.6234647145
 30
0.0
 10
7.971619775
 20
1.6232569046
 30
0.0
 10
7.9705784293
 20
1.6230832258
 30
0.0
 10
7.9697317315
 20
1.6229457752
 30
0.0
 10
7.9691519045
 20
1.6228555518
 30
0.0
 10
7.9687917245
 20
1.6228036093
 30
0.0
 10
7.9686011277
 20
1.622777995
 30
0.0
 10
7.9684644218
 20
1.6227625653
 30
0.0
 10
7.9683910703
 20
1.6227561466
 30
0.0
 10
7.9683635155
 20
1.6227561466
 30
0.0
  0
SPLINE
  5
3A0
100
AcDbEntity
  8
0
100
AcDbSpline
 62
7
  6
CONTINUOUS
 70
0
 71
3
 72
19
 73
15
 74
0
 42
0.0000001
 43
0.0000001
 44
0.0000000001
 40
0.0
 40
0.0
 40
0.0
 40
0.0
 40
0.0115904205
 40
0.0285167146
 40
0.0522450494
 40
0.0832543996
 40
0.1217007559
 40
0.167550838
 40
0.2207032107
 40
0.2810307167
 40
0.4226333633
 40
0.5910020549
 40
0.7841660698
 40
1.0
 40
1.0
 40
1.0
 40
1.0
 10
7.971311024
 20
1.6305357821
 30
0.0
 10
7.9713109668
 20
1.6305045737
 30
0.0
 10
7.9712760726
 20
1.6304301358
 30
0.0
 10
7.9711714142
 20
1.6303355173
 30
0.0
 10
7.9710090898
 20
1.6302298757
 30
0.0
 10
7.9707854018
 20
1.6301157869
 30
0.0
 10
7.9705004943
 20
1.6299920414
 30
0.0
 10
7.9701548267
 20
1.6298595902
 30
0.0
 10
7.9697495509
 20
1.6297186989
 30
0.0
 10
7.9690954904
 20
1.6295088869
 30
0.0
 10
7.9681373689
 20
1.6292322404
 30
0.0
 10
7.9668267959
 20
1.6288887898
 30
0.0
 10
7.965315953
 20
1.6285221424
 30
0.0
 10
7.9642421472
 20
1.6282775675
 30
0.0
 10
7.9636747977
 20
1.6281516371
 30
0.0
  0
SPLINE
  5
3A1
100
AcDbEntity
  8
0
100
AcDbSpline
 62
7
  6
CONTINUOUS
 70
0
 71
3
 72
14
 73
10
 74
0
 42
0.0000001
 43
0.0000001
 44
0.0000000001
 40
0.0
 40
0.0
 40
0.0
 40
0.0
 40
0.112592859
 40
0.2385879217
 40
0.5118029075
 40
0.6488573642
 40
0.7792574296
 40
0.8978689283
 40
1.0
 40
1.0
 40
1.0
 40
1.0
 10
7.9636747977
 20
1.6281516371
 30
0.0
 10
7.9624661789
 20
1.6278833689
 30
0.0
 10
7.9598985554
 20
1.6273441883
 30
0.0
 10
7.9543733111
 20
1.626275015
 30
0.0
 10
7.9485621627
 20
1.6252702977
 30
0.0
 10
7.942686603
 20
1.6243634929
 30
0.0
 10
7.9384824981
 20
1.6237739661
 30
0.0
 10
7.934650439
 20
1.62330043
 30
0.0
 10
7.9322354535
 20
1.6230535857
 30
0.0
 10
7.9311164557
 20
1.6229588692
 30
0.0
  0
LINE
  5
3A2
100
AcDbEntity
  8
0
100
AcDbLine
 62
7
  6
CONTINUOUS
 10
7.9311164557
 20
1.6229588692
 11
7.9272717814
 21
1.6227561466
  0
SPLINE
  5
3A3
100
AcDbEntity
  8
0
100
AcDbSpline
 62
7
  6
CONTINUOUS
 70
0
 71
3
 72
19
 73
15
 74
0
 42
0.0000001
 43
0.0000001
 44
0.0000000001
 40
0.0
 40
0.0
 40
0.0
 40
0.0
 40
0.0344067335
 40
0.0466661535
 40
0.0606241301
 40
0.0938111775
 40
0.1341614525
 40
0.1816686643
 40
0.2362446809
 40
0.2977221915
 40
0.440244025
 40
0.6068024716
 40
0.7945304411
 40
1.0
 40
1.0
 40
1.0
 40
1.0
 10
7.866070331
 20
1.6297317077
 30
0.0
 10
7.8660703595
 20
1.6295755667
 30
0.0
 10
7.8659234741
 20
1.6293803878
 30
0.0
 10
7.865719455
 20
1.6292021648
 30
0.0
 10
7.865501633
 20
1.6290409709
 30
0.0
 10
7.8651601231
 20
1.6288381188
 30
0.0
 10
7.8646665917
 20
1.6285956275
 30
0.0
 10
7.8640708637
 20
1.6283443016
 30
0.0
 10
7.8633751791
 20
1.6280849857
 30
0.0
 10
7.8622624475
 20
1.6277119509
 30
0.0
 10
7.8606470419
 20
1.627242424
 30
0.0
 10
7.8584606893
 20
1.6266908137
 30
0.0
 10
7.8559810368
 20
1.6261381391
 30
0.0
 10
7.8542309491
 20
1.6257893089
 30
0.0
 10
7.8533147977
 20
1.6256157842
 30
0.0
  0
SPLINE
  5
3A4
100
AcDbEntity
  8
0
100
AcDbSpline
 62
7
  6
CONTINUOUS
 70
0
 71
3
 72
13
 73
9
 74
0
 42
0.0000001
 43
0.0000001
 44
0.0000000001
 40
0.0
 40
0.0
 40
0.0
 40
0.0
 40
0.2571627337
 40
0.5265144313
 40
0.6577598702
 40
0.7824995205
 40
0.8976306129
 40
1.0
 40
1.0
 40
1.0
 40
1.0
 10
7.8533147977
 20
1.6256157842
 30
0.0
 10
7.8510626987
 20
1.6251892228
 30
0.0
 10
7.8464316665
 20
1.6244207985
 30
0.0
 10
7.8406156125
 20
1.6236714395
 30
0.0
 10
7.8359556611
 20
1.6232102571
 30
0.0
 10
7.8326573089
 20
1.6229558129
 30
0.0
 10
7.8296106129
 20
1.6227982131
 30
0.0
 10
7.8276719546
 20
1.6227561466
 30
0.0
 10
7.826759517
 20
1.6227561466
 30
0.0
  0
SPLINE
  5
3A5
100
AcDbEntity
  8
0
100
AcDbSpline
 62
7
  6
CONTINUOUS
 70
0
 71
3
 72
20
 73
16
 74
0
 42
0.0000001
 43
0.0000001
 44
0.0000000001
 40
0.0
 40
0.0
 40
0.0
 40
0.0
 40
0.0090251767
 40
0.0184642058
 40
0.040108565
 40
0.0672715852
 40
0.1010049304
 40
0.141779434
 40
0.1897345618
 40
0.2447462072
 40
0.30659872
 40
0.4496757787
 40
0.615876062
 40
0.8012240753
 40
1.0
 40
1.0
 40
1.0
 40
1.0
 10
7.4220367138
 20
1.5702955071
 30
0.0
 10
7.422036786
 20
1.5702406199
 30
0.0
 10
7.4220232992
 20
1.5701278818
 30
0.0
 10
7.4219383226
 20
1.5698972086
 30
0.0
 10
7.421714577
 20
1.5696130381
 30
0.0
 10
7.4213130159
 20
1.5693077354
 30
0.0
 10
7.4207665324
 20
1.5690144935
 30
0.0
 10
7.4200751135
 20
1.5687351752
 30
0.0
 10
7.4192410899
 20
1.5684711352
 30
0.0
 10
7.4182691945
 20
1.5682241623
 30
0.0
 10
7.4167204392
 20
1.567905082
 30
0.0
 10
7.4144855277
 20
1.5675775586
 30
0.0
 10
7.4114896694
 20
1.5672964246
 30
0.0
 10
7.4081463673
 20
1.5671251853
 30
0.0
 10
7.4058100887
 20
1.5670878688
 30
0.0
 10
7.4046012183
 20
1.5670878688
 30
0.0
  0
SPLINE
  5
3A6
100
AcDbEntity
  8
0
100
AcDbSpline
 62
7
  6
CONTINUOUS
 70
0
 71
3
 72
19
 73
15
 74
0
 42
0.0000001
 43
0.0000001
 44
0.0000000001
 40
0.0
 40
0.0
 40
0.0
 40
0.0
 40
0.0195698328
 40
0.0425469622
 40
0.0707092867
 40
0.1049290856
 40
0.145606764
 40
0.1929095291
 40
0.2468795532
 40
0.3074255636
 40
0.4474502827
 40
0.6112180471
 40
0.7963800332
 40
1.0
 40
1.0
 40
1.0
 40
1.0
 10
7.7125955152
 20
1.6285466441
 30
0.0
 10
7.7125955992
 20
1.6284635653
 30
0.0
 10
7.7125542714
 20
1.628282096
 30
0.0
 10
7.7123898634
 20
1.6280266228
 30
0.0
 10
7.7121302623
 20
1.6277711338
 30
0.0
 10
7.7117759027
 20
1.627512741
 30
0.0
 10
7.7113272749
 20
1.6272509996
 30
0.0
 10
7.710785253
 20
1.6269866969
 30
0.0
 10
7.710151447
 20
1.6267209922
 30
0.0
 10
7.7091369743
 20
1.6263480167
 30
0.0
 10
7.7076570232
 20
1.6258948181
 30
0.0
 10
7.7056442566
 20
1.6253852324
 30
0.0
 10
7.7033494383
 20
1.6248969612
 30
0.0
 10
7.7017249489
 20
1.6246037642
 30
0.0
 10
7.7008723403
 20
1.6244613638
 30
0.0
  0
SPLINE
  5
3A7
100
AcDbEntity
  8
0
100
AcDbSpline
 62
7
  6
CONTINUOUS
 70
0
 71
3
 72
11
 73
7
 74
0
 42
0.0000001
 43
0.0000001
 44
0.0000000001
 40
0.0
 40
0.0
 40
0.0
 40
0.0
 40
0.2392492918
 40
0.4946826218
 40
0.7531041953
 40
1.0
 40
1.0
 40
1.0
 40
1.0
 10
7.7008723403
 20
1.6244613638
 30
0.0
 10
7.6992374646
 20
1.6241883112
 30
0.0
 10
7.6958430351
 20
1.623706662
 30
0.0
 10
7.6906512707
 20
1.6231771568
 30
0.0
 10
7.6853902851
 20
1.6228413025
 30
0.0
 10
7.681889182
 20
1.6227561466
 30
0.0
 10
7.6801786858
 20
1.6227561466
 30
0.0
  0
SPLINE
  5
3A8
100
AcDbEntity
  8
0
100
AcDbSpline
 62
7
  6
CONTINUOUS
 70
0
 71
3
 72
22
 73
18
 74
0
 42
0.0000001
 43
0.0000001
 44
0.0000000001
 40
0.0
 40
0.0
 40
0.0
 40
0.0
 40
0.0081592197
 40
0.0169720473
 40
0.0269263039
 40
0.0383494532
 40
0.0663134636
 40
0.1017689775
 40
0.1449295969
 40
0.1956350095
 40
0.2535984929
 40
0.3184148668
 40
0.3894850916
 40
0.466164529
 40
0.6334977433
 40
0.8140778775
 40
1.0
 40
1.0
 40
1.0
 40
1.0
 10
7.5312726259
 20
1.6271264632
 30
0.0
 10
7.5312727178
 20
1.6270577558
 30
0.0
 10
7.5312513704
 20
1.6269141245
 30
0.0
 10
7.5311581579
 20
1.6267051056
 30
0.0
 10
7.5310068225
 20
1.626498987
 30
0.0
 10
7.530708931
 20
1.6262074334
 30
0.0
 10
7.5301798758
 20
1.6258567109
 30
0.0
 10
7.5293692361
 20
1.625468761
 30
0.0
 10
7.5283461276
 20
1.6250919451
 30
0.0
 10
7.5271193576
 20
1.6247297336
 30
0.0
 10
7.5256987594
 20
1.6243868195
 30
0.0
 10
7.5240975404
 20
1.6240676457
 30
0.0
 10
7.5223312996
 20
1.6237753649
 30
0.0
 10
7.5197021525
 20
1.6234163777
 30
0.0
 10
7.5161423452
 20
1.6230678711
 30
0.0
 10
7.5116531566
 20
1.6228143776
 30
0.0
 10
7.5085665791
 20
1.6227561466
 30
0.0
 10
7.5070009604
 20
1.6227561466
 30
0.0
  0
SPLINE
  5
3A9
100
AcDbEntity
  8
0
100
AcDbSpline
 62
7
  6
CONTINUOUS
 70
0
 71
3
 72
11
 73
7
 74
0
 42
0.0000001
 43
0.0000001
 44
0.0000000001
 40
0.0
 40
0.0
 40
0.0
 40
0.0
 40
0.2436051954
 40
0.492582943
 40
0.7453362139
 40
1.0
 40
1.0
 40
1.0
 40
1.0
 10
6.8716254055
 20
4.944602313
 30
0.0
 10
6.8693492724
 20
4.9375223656
 30
0.0
 10
6.8653197712
 20
4.9230155587
 30
0.0
 10
6.8609596319
 20
4.9006608038
 30
0.0
 10
6.8583046843
 20
4.8777003788
 30
0.0
 10
6.8577073842
 20
4.8622034026
 30
0.0
 10
6.8577073842
 20
4.8544289738
 30
0.0
  0
SPLINE
  5
3AA
100
AcDbEntity
  8
0
100
AcDbSpline
 62
7
  6
CONTINUOUS
 70
0
 71
3
 72
11
 73
7
 74
0
 42
0.0000001
 43
0.0000001
 44
0.0000000001
 40
0.0
 40
0.0
 40
0.0
 40
0.0
 40
0.2546638948
 40
0.5074172935
 40
0.7563949118
 40
1.0
 40
1.0
 40
1.0
 40
1.0
 10
6.8577073842
 20
4.8544289738
 30
0.0
 10
6.8577073842
 20
4.8466545417
 30
0.0
 10
6.8583046862
 20
4.8311575583
 30
0.0
 10
6.8609596338
 20
4.8081971302
 30
0.0
 10
6.8653197705
 20
4.7858423779
 30
0.0
 10
6.8693492734
 20
4.771335579
 30
0.0
 10
6.8716254055
 20
4.7642556347
 30
0.0
  0
SPLINE
  5
3AB
100
AcDbEntity
  8
0
100
AcDbSpline
 62
7
  6
CONTINUOUS
 70
0
 71
3
 72
10
 73
6
 74
0
 42
0.0000001
 43
0.0000001
 44
0.0000000001
 40
0.0
 40
0.0
 40
0.0
 40
0.0
 40
0.4914869468
 40
0.7446673137
 40
1.0
 40
1.0
 40
1.0
 40
1.0
 10
6.8760746408
 20
4.944602313
 30
0.0
 10
6.871842094
 20
4.9302502597
 30
0.0
 10
6.8670654453
 20
4.9079804499
 30
0.0
 10
6.8638550346
 20
4.8776911371
 30
0.0
 10
6.8633073836
 20
4.8622024896
 30
0.0
 10
6.8633073836
 20
4.8544289738
 30
0.0
  0
SPLINE
  5
3AC
100
AcDbEntity
  8
0
100
AcDbSpline
 62
7
  6
CONTINUOUS
 70
0
 71
3
 72
10
 73
6
 74
0
 42
0.0000001
 43
0.0000001
 44
0.0000000001
 40
0.0
 40
0.0
 40
0.0
 40
0.0
 40
0.2553327955
 40
0.5085132907
 40
1.0
 40
1.0
 40
1.0
 40
1.0
 10
6.8633073836
 20
4.8544289738
 30
0.0
 10
6.8633073836
 20
4.8466554547
 30
0.0
 10
6.8638550366
 20
4.8311668001
 30
0.0
 10
6.8670654456
 20
4.8008774871
 30
0.0
 10
6.871842096
 20
4.7786076811
 30
0.0
 10
6.8760746408
 20
4.7642556347
 30
0.0
  0
SPLINE
  5
3AD
100
AcDbEntity
  8
0
100
AcDbSpline
 62
7
  6
CONTINUOUS
 70
0
 71
3
 72
11
 73
7
 74
0
 42
0.0000001
 43
0.0000001
 44
0.0000000001
 40
0.0
 40
0.0
 40
0.0
 40
0.0
 40
0.2420171798
 40
0.4907472357
 40
0.7441812975
 40
1.0
 40
1.0
 40
1.0
 40
1.0
 10
6.8834659443
 20
4.944602313
 30
0.0
 10
6.881569787
 20
4.9374976925
 30
0.0
 10
6.8782196625
 20
4.9229548664
 30
0.0
 10
6.8746064754
 20
4.9006189788
 30
0.0
 10
6.8724064641
 20
4.877678881
 30
0.0
 10
6.8719116521
 20
4.8622016124
 30
0.0
 10
6.8719116521
 20
4.8544289738
 30
0.0
  0
SPLINE
  5
3AE
100
AcDbEntity
  8
0
100
AcDbSpline
 62
7
  6
CONTINUOUS
 70
0
 71
3
 72
11
 73
7
 74
0
 42
0.0000001
 43
0.0000001
 44
0.0000000001
 40
0.0
 40
0.0
 40
0.0
 40
0.0
 40
0.2558188117
 40
0.5092530018
 40
0.7579829288
 40
1.0
 40
1.0
 40
1.0
 40
1.0
 10
6.8719116521
 20
4.8544289738
 30
0.0
 10
6.8719116521
 20
4.8466563319
 30
0.0
 10
6.8724064657
 20
4.8311790562
 30
0.0
 10
6.874606477
 20
4.8082389551
 30
0.0
 10
6.8782196618
 20
4.7859030703
 30
0.0
 10
6.8815697879
 20
4.771360252
 30
0.0
 10
6.8834659443
 20
4.7642556347
 30
0.0
  0
SPLINE
  5
3AF
100
AcDbEntity
  8
0
100
AcDbSpline
 62
7
  6
CONTINUOUS
 70
0
 71
3
 72
11
 73
7
 74
0
 42
0.0000001
 43
0.0000001
 44
0.0000000001
 40
0.0
 40
0.0
 40
0.0
 40
0.0
 40
0.2412737173
 40
0.4898895656
 40
0.7436423623
 40
1.0
 40
1.0
 40
1.0
 40
1.0
 10
6.8937633063
 20
4.944602313
 30
0.0
 10
6.8920726335
 20
4.9374858594
 30
0.0
 10
6.8890885074
 20
4.9229262845
 30
0.0
 10
6.8858749618
 20
4.9005995362
 30
0.0
 10
6.8839182982
 20
4.8776689708
 30
0.0
 10
6.8834782704
 20
4.8622007881
 30
0.0
 10
6.8834782704
 20
4.8544289738
 30
0.0
  0
SPLINE
  5
3B0
100
AcDbEntity
  8
0
100
AcDbSpline
 62
7
  6
CONTINUOUS
 70
0
 71
3
 72
11
 73
7
 74
0
 42
0.0000001
 43
0.0000001
 44
0.0000000001
 40
0.0
 40
0.0
 40
0.0
 40
0.0
 40
0.256357747
 40
0.5101106723
 40
0.7587263919
 40
1.0
 40
1.0
 40
1.0
 40
1.0
 10
6.8834782704
 20
4.8544289738
 30
0.0
 10
6.8834782704
 20
4.8466571563
 30
0.0
 10
6.8839182996
 20
4.8311889664
 30
0.0
 10
6.8858749633
 20
4.8082583977
 30
0.0
 10
6.8890885068
 20
4.7859316523
 30
0.0
 10
6.8920726343
 20
4.771372085
 30
0.0
 10
6.8937633063
 20
4.7642556347
 30
0.0
  0
SPLINE
  5
3B1
100
AcDbEntity
  8
0
100
AcDbSpline
 62
7
  6
CONTINUOUS
 70
0
 71
3
 72
11
 73
7
 74
0
 42
0.0000001
 43
0.0000001
 44
0.0000000001
 40
0.0
 40
0.0
 40
0.0
 40
0.0
 40
0.2405854861
 40
0.4890966081
 40
0.7431444623
 40
1.0
 40
1.0
 40
1.0
 40
1.0
 10
6.9069165591
 20
4.944602313
 30
0.0
 10
6.9054404631
 20
4.9374747404
 30
0.0
 10
6.9028375387
 20
4.9228997329
 30
0.0
 10
6.9000384445
 20
4.9005816169
 30
0.0
 10
6.8983341264
 20
4.8776598833
 30
0.0
 10
6.8979508873
 20
4.8622000327
 30
0.0
 10
6.8979508873
 20
4.8544289738
 30
0.0
  0
SPLINE
  5
3B2
100
AcDbEntity
  8
0
100
AcDbSpline
 62
7
  6
CONTINUOUS
 70
0
 71
3
 72
11
 73
7
 74
0
 42
0.0000001
 43
0.0000001
 44
0.0000000001
 40
0.0
 40
0.0
 40
0.0
 40
0.0
 40
0.2568556473
 40
0.5109036302
 40
0.7594146237
 40
1.0
 40
1.0
 40
1.0
 40
1.0
 10
6.8979508873
 20
4.8544289738
 30
0.0
 10
6.8979508873
 20
4.8466579116
 30
0.0
 10
6.8983341276
 20
4.8311980538
 30
0.0
 10
6.9000384457
 20
4.808276317
 30
0.0
 10
6.9028375382
 20
4.785958204
 30
0.0
 10
6.9054404638
 20
4.771383204
 30
0.0
 10
6.9069165591
 20
4.7642556347
 30
0.0
  0
SPLINE
  5
3B3
100
AcDbEntity
  8
0
100
AcDbSpline
 62
7
  6
CONTINUOUS
 70
0
 71
3
 72
11
 73
7
 74
0
 42
0.0000001
 43
0.0000001
 44
0.0000000001
 40
0.0
 40
0.0
 40
0.0
 40
0.0
 40
0.2399678064
 40
0.4883857536
 40
0.7426984175
 40
1.0
 40
1.0
 40
1.0
 40
1.0
 10
6.9228616215
 20
4.944602313
 30
0.0
 10
6.9216081585
 20
4.9374646235
 30
0.0
 10
6.9193997546
 20
4.9228758282
 30
0.0
 10
6.9170279037
 20
4.9005655992
 30
0.0
 10
6.9155837116
 20
4.8776517977
 30
0.0
 10
6.9152589934
 20
4.862199361
 30
0.0
 10
6.9152589934
 20
4.8544289738
 30
0.0
  0
SPLINE
  5
3B4
100
AcDbEntity
  8
0
100
AcDbSpline
 62
7
  6
CONTINUOUS
 70
0
 71
3
 72
11
 73
7
 74
0
 42
0.0000001
 43
0.0000001
 44
0.0000000001
 40
0.0
 40
0.0
 40
0.0
 40
0.0
 40
0.2573016923
 40
0.511614485
 40
0.760032304
 40
1.0
 40
1.0
 40
1.0
 40
1.0
 10
6.9152589934
 20
4.8544289738
 30
0.0
 10
6.9152589934
 20
4.8466585833
 30
0.0
 10
6.9155837127
 20
4.8312061395
 30
0.0
 10
6.9170279048
 20
4.8082923347
 30
0.0
 10
6.9193997541
 20
4.7859821088
 30
0.0
 10
6.9216081591
 20
4.7713933209
 30
0.0
 10
6.9228616215
 20
4.7642556347
 30
0.0
  0
SPLINE
  5
3B5
100
AcDbEntity
  8
0
100
AcDbSpline
 62
7
  6
CONTINUOUS
 70
0
 71
3
 72
11
 73
7
 74
0
 42
0.0000001
 43
0.0000001
 44
0.0000000001
 40
0.0
 40
0.0
 40
0.0
 40
0.0
 40
0.2394347967
 40
0.4877729615
 40
0.7423141334
 40
1.0
 40
1.0
 40
1.0
 40
1.0
 10
6.9415208106
 20
4.944602313
 30
0.0
 10
6.9404969165
 20
4.9374557867
 30
0.0
 10
6.9386943748
 20
4.9228551443
 30
0.0
 10
6.936760522
 20
4.9005518263
 30
0.0
 10
6.9355830048
 20
4.8776448732
 30
0.0
 10
6.9353182656
 20
4.8621987861
 30
0.0
 10
6.9353182656
 20
4.8544289738
 30
0.0
  0
SPLINE
  5
3B6
100
AcDbEntity
  8
0
100
AcDbSpline
 62
7
  6
CONTINUOUS
 70
0
 71
3
 72
11
 73
7
 74
0
 42
0.0000001
 43
0.0000001
 44
0.0000000001
 40
0.0
 40
0.0
 40
0.0
 40
0.0
 40
0.2576859765
 40
0.5122272774
 40
0.7605653142
 40
1.0
 40
1.0
 40
1.0
 40
1.0
 10
6.9353182656
 20
4.8544289738
 30
0.0
 10
6.9353182656
 20
4.8466591583
 30
0.0
 10
6.9355830057
 20
4.8312130639
 30
0.0
 10
6.9367605229
 20
4.8083061075
 30
0.0
 10
6.9386943744
 20
4.7860027927
 30
0.0
 10
6.940496917
 20
4.7714021577
 30
0.0
 10
6.9415208106
 20
4.7642556347
 30
0.0
  0
SPLINE
  5
3B7
100
AcDbEntity
  8
0
100
AcDbSpline
 62
7
  6
CONTINUOUS
 70
0
 71
3
 72
11
 73
7
 74
0
 42
0.0000001
 43
0.0000001
 44
0.0000000001
 40
0.0
 40
0.0
 40
0.0
 40
0.0
 40
0.2389989247
 40
0.487272274
 40
0.7420003073
 40
1.0
 40
1.0
 40
1.0
 40
1.0
 10
6.9628032208
 20
4.944602313
 30
0.0
 10
6.9620146309
 20
4.9374484858
 30
0.0
 10
6.9606272366
 20
4.9228381919
 30
0.0
 10
6.9591400891
 20
4.9005405973
 30
0.0
 10
6.9582345555
 20
4.8776392469
 30
0.0
 10
6.9580309771
 20
4.8621983191
 30
0.0
 10
6.9580309771
 20
4.8544289738
 30
0.0
  0
SPLINE
  5
3B8
100
AcDbEntity
  8
0
100
AcDbSpline
 62
7
  6
CONTINUOUS
 70
0
 71
3
 72
11
 73
7
 74
0
 42
0.0000001
 43
0.0000001
 44
0.0000000001
 40
0.0
 40
0.0
 40
0.0
 40
0.0
 40
0.2579998027
 40
0.5127279652
 40
0.7610011866
 40
1.0
 40
1.0
 40
1.0
 40
1.0
 10
6.9580309771
 20
4.8544289738
 30
0.0
 10
6.9580309771
 20
4.8466596252
 30
0.0
 10
6.9582345562
 20
4.8312186903
 30
0.0
 10
6.9591400898
 20
4.8083173365
 30
0.0
 10
6.9606272363
 20
4.7860197451
 30
0.0
 10
6.9620146313
 20
4.7714094586
 30
0.0
 10
6.9628032208
 20
4.7642556347
 30
0.0
  0
SPLINE
  5
3B9
100
AcDbEntity
  8
0
100
AcDbSpline
 62
7
  6
CONTINUOUS
 70
0
 71
3
 72
11
 73
7
 74
0
 42
0.0000001
 43
0.0000001
 44
0.0000000001
 40
0.0
 40
0.0
 40
0.0
 40
0.0
 40
0.2386705844
 40
0.4868953622
 40
0.7417641555
 40
1.0
 40
1.0
 40
1.0
 40
1.0
 10
6.9866051662
 20
4.944602313
 30
0.0
 10
6.9860563435
 20
4.9374429411
 30
0.0
 10
6.9850912598
 20
4.9228253995
 30
0.0
 10
6.9840574743
 20
4.9005321586
 30
0.0
 10
6.9834279869
 20
4.87763503
 30
0.0
 10
6.9832864737
 20
4.8621979693
 30
0.0
 10
6.9832864737
 20
4.8544289738
 30
0.0
  0
SPLINE
  5
3BA
100
AcDbEntity
  8
0
100
AcDbSpline
 62
7
  6
CONTINUOUS
 70
0
 71
3
 72
11
 73
7
 74
0
 42
0.0000001
 43
0.0000001
 44
0.0000000001
 40
0.0
 40
0.0
 40
0.0
 40
0.0
 40
0.2582359546
 40
0.5131048772
 40
0.7613295272
 40
1.0
 40
1.0
 40
1.0
 40
1.0
 10
6.9832864737
 20
4.8544289738
 30
0.0
 10
6.9832864737
 20
4.8466599751
 30
0.0
 10
6.9834279874
 20
4.8312229072
 30
0.0
 10
6.9840574748
 20
4.8083257752
 30
0.0
 10
6.9850912596
 20
4.7860325376
 30
0.0
 10
6.9860563438
 20
4.7714150032
 30
0.0
 10
6.9866051662
 20
4.7642556347
 30
0.0
  0
LINE
  5
3BB
100
AcDbEntity
  8
0
100
AcDbLine
 62
7
  6
CONTINUOUS
 10
7.0128106863
 20
4.944602313
 11
7.0127994773
 21
4.9443394129
  0
SPLINE
  5
3BC
100
AcDbEntity
  8
0
100
AcDbSpline
 62
7
  6
CONTINUOUS
 70
0
 71
3
 72
11
 73
7
 74
0
 42
0.0000001
 43
0.0000001
 44
0.0000000001
 40
0.0
 40
0.0
 40
0.0
 40
0.0
 40
0.2385299618
 40
0.4867343029
 40
0.7416642765
 40
1.0
 40
1.0
 40
1.0
 40
1.0
 10
7.0127994773
 20
4.9443394129
 30
0.0
 10
7.012495395
 20
4.9371951141
 30
0.0
 10
7.0119608527
 20
4.9226129879
 30
0.0
 10
7.0113885267
 20
4.9003859799
 30
0.0
 10
7.0110400491
 20
4.8775605293
 30
0.0
 10
7.0109617133
 20
4.8621734878
 30
0.0
 10
7.0109617133
 20
4.8544289738
 30
0.0
  0
SPLINE
  5
3BD
100
AcDbEntity
  8
0
100
AcDbSpline
 62
7
  6
CONTINUOUS
 70
0
 71
3
 72
11
 73
7
 74
0
 42
0.0000001
 43
0.0000001
 44
0.0000000001
 40
0.0
 40
0.0
 40
0.0
 40
0.0
 40
0.258388934
 40
0.513349109
 40
0.7615423871
 40
1.0
 40
1.0
 40
1.0
 40
1.0
 10
7.0109617133
 20
4.8544289738
 30
0.0
 10
7.0109617133
 20
4.8466602011
 30
0.0
 10
7.0110405351
 20
4.8312256312
 30
0.0
 10
7.0113911624
 20
4.8083312367
 30
0.0
 10
7.0119669794
 20
4.786040841
 30
0.0
 10
7.0125047615
 20
4.7714186185
 30
0.0
 10
7.0128106863
 20
4.7642556347
 30
0.0
  0
SPLINE
  5
3BE
100
AcDbEntity
  8
0
100
AcDbSpline
 62
7
  6
CONTINUOUS
 70
0
 71
3
 72
11
 73
7
 74
0
 42
0.0000001
 43
0.0000001
 44
0.0000000001
 40
0.0
 40
0.0
 40
0.0
 40
0.0
 40
0.2583358314
 40
0.5132659349
 40
0.7614701501
 40
1.0
 40
1.0
 40
1.0
 40
1.0
 10
7.9489580643
 20
4.8544289738
 30
0.0
 10
7.9489580643
 20
4.8621734902
 30
0.0
 10
7.9488797282
 20
4.8775605374
 30
0.0
 10
7.9485312507
 20
4.9003859892
 30
0.0
 10
7.9479589252
 20
4.9226129918
 30
0.0
 10
7.9474243828
 20
4.9371951095
 30
0.0
 10
7.9471203006
 20
4.9443394043
 30
0.0
  0
LINE
  5
3BF
100
AcDbEntity
  8
0
100
AcDbLine
 62
7
  6
CONTINUOUS
 10
7.9471203006
 20
4.9443394043
 11
7.9471090912
 21
4.944602313
  0
SPLINE
  5
3C0
100
AcDbEntity
  8
0
100
AcDbSpline
 62
7
  6
CONTINUOUS
 70
0
 71
3
 72
11
 73
7
 74
0
 42
0.0000001
 43
0.0000001
 44
0.0000000001
 40
0.0
 40
0.0
 40
0.0
 40
0.0
 40
0.2384577251
 40
0.4866511307
 40
0.7416111759
 40
1.0
 40
1.0
 40
1.0
 40
1.0
 10
7.9471090912
 20
4.7642556347
 30
0.0
 10
7.9474150162
 20
4.7714186219
 30
0.0
 10
7.947952798
 20
4.7860408516
 30
0.0
 10
7.9485286155
 20
4.8083312505
 30
0.0
 10
7.9488792428
 20
4.8312256417
 30
0.0
 10
7.9489580643
 20
4.8466602044
 30
0.0
 10
7.9489580643
 20
4.8544289738
 30
0.0
  0
SPLINE
  5
3C1
100
AcDbEntity
  8
0
100
AcDbSpline
 62
7
  6
CONTINUOUS
 70
0
 71
3
 72
11
 73
7
 74
0
 42
0.0000001
 43
0.0000001
 44
0.0000000001
 40
0.0
 40
0.0
 40
0.0
 40
0.0
 40
0.2582359543
 40
0.5131048773
 40
0.7613295276
 40
1.0
 40
1.0
 40
1.0
 40
1.0
 10
7.9766333039
 20
4.8544289738
 30
0.0
 10
7.9766333039
 20
4.8621979726
 30
0.0
 10
7.9764917901
 20
4.8776350405
 30
0.0
 10
7.9758623028
 20
4.9005321725
 30
0.0
 10
7.974828518
 20
4.9228254101
 30
0.0
 10
7.9738634338
 20
4.9374429445
 30
0.0
 10
7.9733146113
 20
4.944602313
 30
0.0
  0
SPLINE
  5
3C2
100
AcDbEntity
  8
0
100
AcDbSpline
 62
7
  6
CONTINUOUS
 70
0
 71
3
 72
11
 73
7
 74
0
 42
0.0000001
 43
0.0000001
 44
0.0000000001
 40
0.0
 40
0.0
 40
0.0
 40
0.0
 40
0.2386705848
 40
0.4868953623
 40
0.7417641552
 40
1.0
 40
1.0
 40
1.0
 40
1.0
 10
7.9733146113
 20
4.7642556347
 30
0.0
 10
7.973863434
 20
4.7714150066
 30
0.0
 10
7.9748285177
 20
4.7860325482
 30
0.0
 10
7.9758623033
 20
4.8083257891
 30
0.0
 10
7.9764917907
 20
4.8312229177
 30
0.0
 10
7.9766333039
 20
4.8466599784
 30
0.0
 10
7.9766333039
 20
4.8544289738
 30
0.0
  0
SPLINE
  5
3C3
100
AcDbEntity
  8
0
100
AcDbSpline
 62
7
  6
CONTINUOUS
 70
0
 71
3
 72
11
 73
7
 74
0
 42
0.0000001
 43
0.0000001
 44
0.0000000001
 40
0.0
 40
0.0
 40
0.0
 40
0.0
 40
0.2579998024
 40
0.5127279653
 40
0.761001187
 40
1.0
 40
1.0
 40
1.0
 40
1.0
 10
8.0018888005
 20
4.8544289738
 30
0.0
 10
8.0018888005
 20
4.8621983224
 30
0.0
 10
8.0016852213
 20
4.8776392574
 30
0.0
 10
8.0007796877
 20
4.9005406111
 30
0.0
 10
7.9992925414
 20
4.9228382026
 30
0.0
 10
7.9979051463
 20
4.9374484891
 30
0.0
 10
7.9971165568
 20
4.944602313
 30
0.0
  0
SPLINE
  5
3C4
100
AcDbEntity
  8
0
100
AcDbSpline
 62
7
  6
CONTINUOUS
 70
0
 71
3
 72
11
 73
7
 74
0
 42
0.0000001
 43
0.0000001
 44
0.0000000001
 40
0.0
 40
0.0
 40
0.0
 40
0.0
 40
0.2389989251
 40
0.4872722741
 40
0.742000307
 40
1.0
 40
1.0
 40
1.0
 40
1.0
 10
7.9971165568
 20
4.7642556347
 30
0.0
 10
7.9979051466
 20
4.7714094619
 30
0.0
 10
7.999292541
 20
4.7860197558
 30
0.0
 10
8.0007796885
 20
4.8083173504
 30
0.0
 10
8.0016852221
 20
4.8312187008
 30
0.0
 10
8.0018888005
 20
4.8466596285
 30
0.0
 10
8.0018888005
 20
4.8544289738
 30
0.0
  0
SPLINE
  5
3C5
100
AcDbEntity
  8
0
100
AcDbSpline
 62
7
  6
CONTINUOUS
 70
0
 71
3
 72
11
 73
7
 74
0
 42
0.0000001
 43
0.0000001
 44
0.0000000001
 40
0.0
 40
0.0
 40
0.0
 40
0.0
 40
0.2576859762
 40
0.5122272775
 40
0.7605653146
 40
1.0
 40
1.0
 40
1.0
 40
1.0
 10
8.0246015119
 20
4.8544289738
 30
0.0
 10
8.0246015119
 20
4.8621987894
 30
0.0
 10
8.0243367718
 20
4.8776448837
 30
0.0
 10
8.0231592547
 20
4.9005518401
 30
0.0
 10
8.0212254032
 20
4.922855155
 30
0.0
 10
8.0194228606
 20
4.93745579
 30
0.0
 10
8.018398967
 20
4.944602313
 30
0.0
  0
SPLINE
  5
3C6
100
AcDbEntity
  8
0
100
AcDbSpline
 62
7
  6
CONTINUOUS
 70
0
 71
3
 72
11
 73
7
 74
0
 42
0.0000001
 43
0.0000001
 44
0.0000000001
 40
0.0
 40
0.0
 40
0.0
 40
0.0
 40
0.2394347971
 40
0.4877729616
 40
0.7423141331
 40
1.0
 40
1.0
 40
1.0
 40
1.0
 10
8.018398967
 20
4.7642556347
 30
0.0
 10
8.0194228611
 20
4.771402161
 30
0.0
 10
8.0212254027
 20
4.7860028034
 30
0.0
 10
8.0231592556
 20
4.8083061214
 30
0.0
 10
8.0243367728
 20
4.8312130744
 30
0.0
 10
8.0246015119
 20
4.8466591616
 30
0.0
 10
8.0246015119
 20
4.8544289738
 30
0.0
  0
SPLINE
  5
3C7
100
AcDbEntity
  8
0
100
AcDbSpline
 62
7
  6
CONTINUOUS
 70
0
 71
3
 72
11
 73
7
 74
0
 42
0.0000001
 43
0.0000001
 44
0.0000000001
 40
0.0
 40
0.0
 40
0.0
 40
0.0
 40
0.257301692
 40
0.5116144851
 40
0.7600323044
 40
1.0
 40
1.0
 40
1.0
 40
1.0
 10
8.0446607841
 20
4.8544289738
 30
0.0
 10
8.0446607841
 20
4.8621993643
 30
0.0
 10
8.0443360648
 20
4.8776518082
 30
0.0
 10
8.0428918727
 20
4.900565613
 30
0.0
 10
8.0405200235
 20
4.9228758389
 30
0.0
 10
8.0383116185
 20
4.9374646268
 30
0.0
 10
8.0370581561
 20
4.944602313
 30
0.0
  0
SPLINE
  5
3C8
100
AcDbEntity
  8
0
100
AcDbSpline
 62
7
  6
CONTINUOUS
 70
0
 71
3
 72
11
 73
7
 74
0
 42
0.0000001
 43
0.0000001
 44
0.0000000001
 40
0.0
 40
0.0
 40
0.0
 40
0.0
 40
0.2399678068
 40
0.4883857537
 40
0.7426984172
 40
1.0
 40
1.0
 40
1.0
 40
1.0
 10
8.0370581561
 20
4.7642556347
 30
0.0
 10
8.0383116191
 20
4.7713933242
 30
0.0
 10
8.0405200229
 20
4.7859821195
 30
0.0
 10
8.0428918739
 20
4.8082923485
 30
0.0
 10
8.044336066
 20
4.83120615
 30
0.0
 10
8.0446607841
 20
4.8466585866
 30
0.0
 10
8.0446607841
 20
4.8544289738
 30
0.0
  0
SPLINE
  5
3C9
100
AcDbEntity
  8
0
100
AcDbSpline
 62
7
  6
CONTINUOUS
 70
0
 71
3
 72
11
 73
7
 74
0
 42
0.0000001
 43
0.0000001
 44
0.0000000001
 40
0.0
 40
0.0
 40
0.0
 40
0.0
 40
0.256855647
 40
0.5109036303
 40
0.7594146241
 40
1.0
 40
1.0
 40
1.0
 40
1.0
 10
8.0619688903
 20
4.8544289738
 30
0.0
 10
8.0619688903
 20
4.862200036
 30
0.0
 10
8.0615856498
 20
4.8776598939
 30
0.0
 10
8.0598813318
 20
4.9005816307
 30
0.0
 10
8.0570822395
 20
4.9228997437
 30
0.0
 10
8.0544793138
 20
4.9374747437
 30
0.0
 10
8.0530032184
 20
4.944602313
 30
0.0
  0
SPLINE
  5
3CA
100
AcDbEntity
  8
0
100
AcDbSpline
 62
7
  6
CONTINUOUS
 70
0
 71
3
 72
11
 73
7
 74
0
 42
0.0000001
 43
0.0000001
 44
0.0000000001
 40
0.0
 40
0.0
 40
0.0
 40
0.0
 40
0.2405854865
 40
0.4890966082
 40
0.743144462
 40
1.0
 40
1.0
 40
1.0
 40
1.0
 10
8.0530032184
 20
4.7642556347
 30
0.0
 10
8.0544793145
 20
4.7713832073
 30
0.0
 10
8.0570822388
 20
4.7859582148
 30
0.0
 10
8.0598813331
 20
4.8082763308
 30
0.0
 10
8.0615856513
 20
4.8311980643
 30
0.0
 10
8.0619688903
 20
4.8466579149
 30
0.0
 10
8.0619688903
 20
4.8544289738
 30
0.0
  0
SPLINE
  5
3CB
100
AcDbEntity
  8
0
100
AcDbSpline
 62
7
  6
CONTINUOUS
 70
0
 71
3
 72
11
 73
7
 74
0
 42
0.0000001
 43
0.0000001
 44
0.0000000001
 40
0.0
 40
0.0
 40
0.0
 40
0.0
 40
0.2563577468
 40
0.5101106724
 40
0.7587263922
 40
1.0
 40
1.0
 40
1.0
 40
1.0
 10
8.0764415071
 20
4.8544289738
 30
0.0
 10
8.0764415071
 20
4.8622007914
 30
0.0
 10
8.0760014779
 20
4.8776689813
 30
0.0
 10
8.0740448142
 20
4.90059955
 30
0.0
 10
8.0708312709
 20
4.9229262954
 30
0.0
 10
8.0678471433
 20
4.9374858627
 30
0.0
 10
8.0661564713
 20
4.944602313
 30
0.0
  0
SPLINE
  5
3CC
100
AcDbEntity
  8
0
100
AcDbSpline
 62
7
  6
CONTINUOUS
 70
0
 71
3
 72
11
 73
7
 74
0
 42
0.0000001
 43
0.0000001
 44
0.0000000001
 40
0.0
 40
0.0
 40
0.0
 40
0.0
 40
0.2412737176
 40
0.4898895657
 40
0.743642362
 40
1.0
 40
1.0
 40
1.0
 40
1.0
 10
8.0661564713
 20
4.7642556347
 30
0.0
 10
8.067847144
 20
4.7713720882
 30
0.0
 10
8.0708312701
 20
4.7859316632
 30
0.0
 10
8.0740448158
 20
4.8082584115
 30
0.0
 10
8.0760014795
 20
4.8311889769
 30
0.0
 10
8.0764415071
 20
4.8466571596
 30
0.0
 10
8.0764415071
 20
4.8544289738
 30
0.0
  0
SPLINE
  5
3CD
100
AcDbEntity
  8
0
100
AcDbSpline
 62
7
  6
CONTINUOUS
 70
0
 71
3
 72
11
 73
7
 74
0
 42
0.0000001
 43
0.0000001
 44
0.0000000001
 40
0.0
 40
0.0
 40
0.0
 40
0.0
 40
0.2558188114
 40
0.5092530019
 40
0.7579829291
 40
1.0
 40
1.0
 40
1.0
 40
1.0
 10
8.0880081255
 20
4.8544289738
 30
0.0
 10
8.0880081255
 20
4.8622016157
 30
0.0
 10
8.0875133117
 20
4.8776788915
 30
0.0
 10
8.0853133005
 20
4.9006189925
 30
0.0
 10
8.0817001159
 20
4.9229548774
 30
0.0
 10
8.0783499897
 20
4.9374976957
 30
0.0
 10
8.0764538333
 20
4.944602313
 30
0.0
  0
SPLINE
  5
3CE
100
AcDbEntity
  8
0
100
AcDbSpline
 62
7
  6
CONTINUOUS
 70
0
 71
3
 72
11
 73
7
 74
0
 42
0.0000001
 43
0.0000001
 44
0.0000000001
 40
0.0
 40
0.0
 40
0.0
 40
0.0
 40
0.24201718
 40
0.4907472358
 40
0.7441812972
 40
1.0
 40
1.0
 40
1.0
 40
1.0
 10
8.0764538333
 20
4.7642556347
 30
0.0
 10
8.0783499906
 20
4.7713602551
 30
0.0
 10
8.081700115
 20
4.7859030813
 30
0.0
 10
8.0853133022
 20
4.8082389689
 30
0.0
 10
8.0875133136
 20
4.8311790667
 30
0.0
 10
8.0880081255
 20
4.8466563353
 30
0.0
 10
8.0880081255
 20
4.8544289738
 30
0.0
  0
SPLINE
  5
3CF
100
AcDbEntity
  8
0
100
AcDbSpline
 62
7
  6
CONTINUOUS
 70
0
 71
3
 72
10
 73
6
 74
0
 42
0.0000001
 43
0.0000001
 44
0.0000000001
 40
0.0
 40
0.0
 40
0.0
 40
0.0
 40
0.2553327953
 40
0.5085132909
 40
1.0
 40
1.0
 40
1.0
 40
1.0
 10
8.096612394
 20
4.8544289738
 30
0.0
 10
8.096612394
 20
4.8622024929
 30
0.0
 10
8.0960647408
 20
4.8776911476
 30
0.0
 10
8.0928543319
 20
4.9079804606
 30
0.0
 10
8.0880776815
 20
4.9302502666
 30
0.0
 10
8.0838451368
 20
4.944602313
 30
0.0
  0
SPLINE
  5
3D0
100
AcDbEntity
  8
0
100
AcDbSpline
 62
7
  6
CONTINUOUS
 70
0
 71
3
 72
10
 73
6
 74
0
 42
0.0000001
 43
0.0000001
 44
0.0000000001
 40
0.0
 40
0.0
 40
0.0
 40
0.0
 40
0.4914869469
 40
0.7446673134
 40
1.0
 40
1.0
 40
1.0
 40
1.0
 10
8.0838451368
 20
4.7642556347
 30
0.0
 10
8.0880776836
 20
4.778607688
 30
0.0
 10
8.0928543322
 20
4.8008774977
 30
0.0
 10
8.0960647431
 20
4.8311668106
 30
0.0
 10
8.096612394
 20
4.8466554581
 30
0.0
 10
8.096612394
 20
4.8544289738
 30
0.0
  0
SPLINE
  5
3D1
100
AcDbEntity
  8
0
100
AcDbSpline
 62
7
  6
CONTINUOUS
 70
0
 71
3
 72
11
 73
7
 74
0
 42
0.0000001
 43
0.0000001
 44
0.0000000001
 40
0.0
 40
0.0
 40
0.0
 40
0.0
 40
0.2546638945
 40
0.5074172936
 40
0.756394912
 40
1.0
 40
1.0
 40
1.0
 40
1.0
 10
8.1022123934
 20
4.8544289738
 30
0.0
 10
8.1022123934
 20
4.8622034059
 30
0.0
 10
8.1016150912
 20
4.8777003893
 30
0.0
 10
8.0989601437
 20
4.9006608175
 30
0.0
 10
8.0946000072
 20
4.9230155698
 30
0.0
 10
8.0905705042
 20
4.9375223687
 30
0.0
 10
8.088294372
 20
4.944602313
 30
0.0
  0
SPLINE
  5
3D2
100
AcDbEntity
  8
0
100
AcDbSpline
 62
7
  6
CONTINUOUS
 70
0
 71
3
 72
11
 73
7
 74
0
 42
0.0000001
 43
0.0000001
 44
0.0000000001
 40
0.0
 40
0.0
 40
0.0
 40
0.0
 40
0.2436051956
 40
0.4925829431
 40
0.7453362137
 40
1.0
 40
1.0
 40
1.0
 40
1.0
 10
8.088294372
 20
4.7642556347
 30
0.0
 10
8.0905705052
 20
4.7713355821
 30
0.0
 10
8.0946000062
 20
4.785842389
 30
0.0
 10
8.0989601458
 20
4.8081971439
 30
0.0
 10
8.1016150934
 20
4.8311575689
 30
0.0
 10
8.1022123934
 20
4.8466545451
 30
0.0
 10
8.1022123934
 20
4.8544289738
 30
0.0
  0
SPLINE
  5
3D3
100
AcDbEntity
  8
0
100
AcDbSpline
 62
7
  6
CONTINUOUS
 70
0
 71
3
 72
12
 73
8
 74
0
 42
0.0000001
 43
0.0000001
 44
0.0000000001
 40
0.0
 40
0.0
 40
0.0
 40
0.0
 40
0.2537618806
 40
0.5059796872
 40
0.6310401842
 40
0.7551939279
 40
1.0
 40
1.0
 40
1.0
 40
1.0
 10
7.5167576658
 20
4.8544289738
 30
0.0
 10
7.5167576658
 20
4.8466531442
 30
0.0
 10
7.5160909598
 20
4.8311411952
 30
0.0
 10
7.5136132656
 20
4.8119395348
 30
0.0
 10
7.5106668337
 20
4.7968551049
 30
0.0
 10
7.5071243848
 20
4.7821341869
 30
0.0
 10
7.5037730839
 20
4.7713172341
 30
0.0
 10
7.501242299
 20
4.7642556347
 30
0.0
  0
SPLINE
  5
3D4
100
AcDbEntity
  8
0
100
AcDbSpline
 62
7
  6
CONTINUOUS
 70
0
 71
3
 72
12
 73
8
 74
0
 42
0.0000001
 43
0.0000001
 44
0.0000000001
 40
0.0
 40
0.0
 40
0.0
 40
0.0
 40
0.2448061782
 40
0.3689600086
 40
0.4940205486
 40
0.7462382278
 40
1.0
 40
1.0
 40
1.0
 40
1.0
 10
7.501242299
 20
4.944602313
 30
0.0
 10
7.503773085
 20
4.9375407106
 30
0.0
 10
7.507124384
 20
4.926723751
 30
0.0
 10
7.5106668364
 20
4.9120028265
 30
0.0
 10
7.5136132674
 20
4.8969183964
 30
0.0
 10
7.5160909621
 20
4.877716742
 30
0.0
 10
7.5167576658
 20
4.8622048002
 30
0.0
 10
7.5167576658
 20
4.8544289738
 30
0.0
  0
SPLINE
  5
3D5
100
AcDbEntity
  8
0
100
AcDbSpline
 62
7
  6
CONTINUOUS
 70
0
 71
3
 72
12
 73
8
 74
0
 42
0.0000001
 43
0.0000001
 44
0.0000000001
 40
0.0
 40
0.0
 40
0.0
 40
0.0
 40
0.2543547047
 40
0.5069210935
 40
0.6319877022
 40
0.7560012579
 40
1.0
 40
1.0
 40
1.0
 40
1.0
 10
7.4867739854
 20
4.8544289738
 30
0.0
 10
7.4867739854
 20
4.8622038703
 30
0.0
 10
7.4873950276
 20
4.87770561
 30
0.0
 10
7.4897042639
 20
4.8969065777
 30
0.0
 10
7.4924524363
 20
4.9119962301
 30
0.0
 10
7.4957528158
 20
4.9267053614
 30
0.0
 10
7.4988782388
 20
4.9375285503
 30
0.0
 10
7.501242299
 20
4.944602313
 30
0.0
  0
SPLINE
  5
3D6
100
AcDbEntity
  8
0
100
AcDbSpline
 62
7
  6
CONTINUOUS
 70
0
 71
3
 72
12
 73
8
 74
0
 42
0.0000001
 43
0.0000001
 44
0.0000000001
 40
0.0
 40
0.0
 40
0.0
 40
0.0
 40
0.2439988493
 40
0.3680124916
 40
0.493079143
 40
0.7456454034
 40
1.0
 40
1.0
 40
1.0
 40
1.0
 10
7.501242299
 20
4.7642556347
 30
0.0
 10
7.4988782378
 20
4.7713294005
 30
0.0
 10
7.4957528167
 20
4.7821525961
 30
0.0
 10
7.4924524339
 20
4.796861734
 30
0.0
 10
7.4897042619
 20
4.8119513864
 30
0.0
 10
7.4873950251
 20
4.8311523482
 30
0.0
 10
7.4867739854
 20
4.8466540807
 30
0.0
 10
7.4867739854
 20
4.8544289738
 30
0.0
  0
SPLINE
  5
3D7
100
AcDbEntity
  8
0
100
AcDbSpline
 62
7
  6
CONTINUOUS
 70
0
 71
3
 72
12
 73
8
 74
0
 42
0.0000001
 43
0.0000001
 44
0.0000000001
 40
0.0
 40
0.0
 40
0.0
 40
0.0
 40
0.2531803206
 40
0.5050569613
 40
0.6301120334
 40
0.7544036664
 40
1.0
 40
1.0
 40
1.0
 40
1.0
 10
7.5601902642
 20
4.8544289738
 30
0.0
 10
7.5601902642
 20
4.8466522201
 30
0.0
 10
7.5594810548
 20
4.8311301702
 30
0.0
 10
7.5568468279
 20
4.8119278954
 30
0.0
 10
7.5537165709
 20
4.7968486341
 30
0.0
 10
7.549948983
 20
4.7821162669
 30
0.0
 10
7.5463882175
 20
4.77130552
 30
0.0
 10
7.5437034335
 20
4.7642556347
 30
0.0
  0
SPLINE
  5
3D8
100
AcDbEntity
  8
0
100
AcDbSpline
 62
7
  6
CONTINUOUS
 70
0
 71
3
 72
12
 73
8
 74
0
 42
0.0000001
 43
0.0000001
 44
0.0000000001
 40
0.0
 40
0.0
 40
0.0
 40
0.0
 40
0.245596439
 40
0.369888159
 40
0.4949432741
 40
0.7468197876
 40
1.0
 40
1.0
 40
1.0
 40
1.0
 10
7.5437034335
 20
4.944602313
 30
0.0
 10
7.5463882187
 20
4.9375524247
 30
0.0
 10
7.5499489821
 20
4.926741671
 30
0.0
 10
7.5537165737
 20
4.9120092973
 30
0.0
 10
7.5568468299
 20
4.8969300357
 30
0.0
 10
7.5594810573
 20
4.877727767
 30
0.0
 10
7.5601902642
 20
4.8622057242
 30
0.0
 10
7.5601902642
 20
4.8544289738
 30
0.0
  0
SPLINE
  5
3D9
100
AcDbEntity
  8
0
100
AcDbSpline
 62
7
  6
CONTINUOUS
 70
0
 71
3
 72
10
 73
6
 74
0
 42
0.0000001
 43
0.0000001
 44
0.0000000001
 40
0.0
 40
0.0
 40
0.0
 40
0.0
 40
0.255048036
 40
0.5080635974
 40
1.0
 40
1.0
 40
1.0
 40
1.0
 10
7.5303526613
 20
4.8544289738
 30
0.0
 10
7.5303526613
 20
4.8622029461
 30
0.0
 10
7.5309257142
 20
4.8776967051
 30
0.0
 10
7.5342857221
 20
4.9080073076
 30
0.0
 10
7.5392846875
 20
4.9302737536
 30
0.0
 10
7.5437034335
 20
4.944602313
 30
0.0
  0
SPLINE
  5
3DA
100
AcDbEntity
  8
0
100
AcDbSpline
 62
7
  6
CONTINUOUS
 70
0
 71
3
 72
10
 73
6
 74
0
 42
0.0000001
 43
0.0000001
 44
0.0000000001
 40
0.0
 40
0.0
 40
0.0
 40
0.0
 40
0.4919366402
 40
0.7449520726
 40
1.0
 40
1.0
 40
1.0
 40
1.0
 10
7.5437034335
 20
4.7642556347
 30
0.0
 10
7.5392846854
 20
4.778584201
 30
0.0
 10
7.5342857218
 20
4.8008506508
 30
0.0
 10
7.5309257118
 20
4.831161253
 30
0.0
 10
7.5303526613
 20
4.8466550049
 30
0.0
 10
7.5303526613
 20
4.8544289738
 30
0.0
  0
SPLINE
  5
3DB
100
AcDbEntity
  8
0
100
AcDbSpline
 62
7
  6
CONTINUOUS
 70
0
 71
3
 72
12
 73
8
 74
0
 42
0.0000001
 43
0.0000001
 44
0.0000000001
 40
0.0
 40
0.0
 40
0.0
 40
0.0
 40
0.2526209339
 40
0.5041701584
 40
0.6292205434
 40
0.7536451453
 40
1.0
 40
1.0
 40
1.0
 40
1.0
 10
7.6032319884
 20
4.8544289738
 30
0.0
 10
7.6032319884
 20
4.8466513233
 30
0.0
 10
7.6024836671
 20
4.8311194766
 30
0.0
 10
7.599705641
 20
4.8119166732
 30
0.0
 10
7.5964068678
 20
4.7968424253
 30
0.0
 10
7.5924322798
 20
4.7820991512
 30
0.0
 10
7.5886794741
 20
4.7712944513
 30
0.0
 10
7.585854016
 20
4.7642556347
 30
0.0
  0
SPLINE
  5
3DC
100
AcDbEntity
  8
0
100
AcDbSpline
 62
7
  6
CONTINUOUS
 70
0
 71
3
 72
10
 73
6
 74
0
 42
0.0000001
 43
0.0000001
 44
0.0000000001
 40
0.0
 40
0.0
 40
0.0
 40
0.0
 40
0.2556131097
 40
0.5089561256
 40
1.0
 40
1.0
 40
1.0
 40
1.0
 10
7.5736858288
 20
4.8544289738
 30
0.0
 10
7.5736858288
 20
4.8622020488
 30
0.0
 10
7.5742074519
 20
4.8776856916
 30
0.0
 10
7.5772646617
 20
4.9079540746
 30
0.0
 10
7.5818135158
 20
4.9302269399
 30
0.0
 10
7.585854016
 20
4.944602313
 30
0.0
  0
SPLINE
  5
3DD
100
AcDbEntity
  8
0
100
AcDbSpline
 62
7
  6
CONTINUOUS
 70
0
 71
3
 72
10
 73
6
 74
0
 42
0.0000001
 43
0.0000001
 44
0.0000000001
 40
0.0
 40
0.0
 40
0.0
 40
0.0
 40
0.4910441124
 40
0.7443869991
 40
1.0
 40
1.0
 40
1.0
 40
1.0
 10
7.585854016
 20
4.7642556347
 30
0.0
 10
7.5818135138
 20
4.7786310148
 30
0.0
 10
7.5772646615
 20
4.8009038837
 30
0.0
 10
7.5742074496
 20
4.8311722666
 30
0.0
 10
7.5736858288
 20
4.8466559022
 30
0.0
 10
7.5736858288
 20
4.8544289738
 30
0.0
  0
SPLINE
  5
3DE
100
AcDbEntity
  8
0
100
AcDbSpline
 62
7
  6
CONTINUOUS
 70
0
 71
3
 72
11
 73
7
 74
0
 42
0.0000001
 43
0.0000001
 44
0.0000000001
 40
0.0
 40
0.0
 40
0.0
 40
0.0
 40
0.2560927047
 40
0.5096887969
 40
0.7583605725
 40
1.0
 40
1.0
 40
1.0
 40
1.0
 10
7.6165623728
 20
4.8544289738
 30
0.0
 10
7.6165623728
 20
4.8622011959
 30
0.0
 10
7.6170300618
 20
4.8776738454
 30
0.0
 10
7.6191095993
 20
4.9006091056
 30
0.0
 10
7.6225249396
 20
4.9229403723
 30
0.0
 10
7.6256940808
 20
4.937491708
 30
0.0
 10
7.6274886929
 20
4.944602313
 30
0.0
  0
SPLINE
  5
3DF
100
AcDbEntity
  8
0
100
AcDbSpline
 62
7
  6
CONTINUOUS
 70
0
 71
3
 72
11
 73
7
 74
0
 42
0.0000001
 43
0.0000001
 44
0.0000000001
 40
0.0
 40
0.0
 40
0.0
 40
0.0
 40
0.241639537
 40
0.4903114409
 40
0.743907404
 40
1.0
 40
1.0
 40
1.0
 40
1.0
 10
7.6274886929
 20
4.7642556347
 30
0.0
 10
7.62569408
 20
4.7713662429
 30
0.0
 10
7.6225249404
 20
4.7859175864
 30
0.0
 10
7.6191095977
 20
4.8082488559
 30
0.0
 10
7.61703006
 20
4.8311841128
 30
0.0
 10
7.6165623728
 20
4.8466567551
 30
0.0
 10
7.6165623728
 20
4.8544289738
 30
0.0
  0
SPLINE
  5
3E0
100
AcDbEntity
  8
0
100
AcDbSpline
 62
7
  6
CONTINUOUS
 70
0
 71
3
 72
13
 73
9
 74
0
 42
0.0000001
 43
0.0000001
 44
0.0000000001
 40
0.0
 40
0.0
 40
0.0
 40
0.0
 40
0.2477026919
 40
0.3723583148
 40
0.4973910319
 40
0.622755969
 40
0.7484126645
 40
1.0
 40
1.0
 40
1.0
 40
1.0
 10
7.6684046243
 20
4.944602313
 30
0.0
 10
7.6714693917
 20
4.9375830432
 30
0.0
 10
7.6755504067
 20
4.9267893709
 30
0.0
 10
7.6798802099
 20
4.9120268497
 30
0.0
 10
7.6825672012
 20
4.9007398569
 30
0.0
 10
7.6846745223
 20
4.889298856
 30
0.0
 10
7.6866938354
 20
4.8738848308
 30
0.0
 10
7.6873069598
 20
4.8622082644
 30
0.0
 10
7.6873069598
 20
4.8544289738
 30
0.0
  0
SPLINE
  5
3E1
100
AcDbEntity
  8
0
100
AcDbSpline
 62
7
  6
CONTINUOUS
 70
0
 71
3
 72
11
 73
7
 74
0
 42
0.0000001
 43
0.0000001
 44
0.0000000001
 40
0.0
 40
0.0
 40
0.0
 40
0.0
 40
0.2566125204
 40
0.5105163551
 40
0.7590783924
 40
1.0
 40
1.0
 40
1.0
 40
1.0
 10
7.6587734033
 20
4.8544289738
 30
0.0
 10
7.6587734033
 20
4.8622004042
 30
0.0
 10
7.6591852718
 20
4.8776643231
 30
0.0
 10
7.6610168117
 20
4.9005903756
 30
0.0
 10
7.6640248552
 20
4.9229127264
 30
0.0
 10
7.6668201668
 20
4.9374801958
 30
0.0
 10
7.6684046243
 20
4.944602313
 30
0.0
  0
SPLINE
  5
3E2
100
AcDbEntity
  8
0
100
AcDbSpline
 62
7
  6
CONTINUOUS
 70
0
 71
3
 72
11
 73
7
 74
0
 42
0.0000001
 43
0.0000001
 44
0.0000000001
 40
0.0
 40
0.0
 40
0.0
 40
0.0
 40
0.2409217178
 40
0.4894838832
 40
0.7433875885
 40
1.0
 40
1.0
 40
1.0
 40
1.0
 10
7.6684046243
 20
4.7642556347
 30
0.0
 10
7.6668201661
 20
4.7713777551
 30
0.0
 10
7.664024856
 20
4.7859452321
 30
0.0
 10
7.6610168102
 20
4.8082675859
 30
0.0
 10
7.6591852703
 20
4.8311936351
 30
0.0
 10
7.6587734033
 20
4.8466575468
 30
0.0
 10
7.6587734033
 20
4.8544289738
 30
0.0
  0
SPLINE
  5
3E3
100
AcDbEntity
  8
0
100
AcDbSpline
 62
7
  6
CONTINUOUS
 70
0
 71
3
 72
13
 73
9
 74
0
 42
0.0000001
 43
0.0000001
 44
0.0000000001
 40
0.0
 40
0.0
 40
0.0
 40
0.0
 40
0.2511510401
 40
0.3766495608
 40
0.5019236427
 40
0.6269530948
 40
0.7517120661
 40
1.0
 40
1.0
 40
1.0
 40
1.0
 10
7.7279306023
 20
4.8544289738
 30
0.0
 10
7.7279306023
 20
4.8466489655
 30
0.0
 10
7.7272967283
 20
4.8349687007
 30
0.0
 10
7.7252105184
 20
4.8195560159
 30
0.0
 10
7.7230330684
 20
4.8081140878
 30
0.0
 10
7.7202566603
 20
4.7968262732
 30
0.0
 10
7.7157806433
 20
4.7820555086
 30
0.0
 10
7.7115649953
 20
4.771266683
 30
0.0
 10
7.7084024719
 20
4.7642556347
 30
0.0
  0
SPLINE
  5
3E4
100
AcDbEntity
  8
0
100
AcDbSpline
 62
7
  6
CONTINUOUS
 70
0
 71
3
 72
13
 73
9
 74
0
 42
0.0000001
 43
0.0000001
 44
0.0000000001
 40
0.0
 40
0.0
 40
0.0
 40
0.0
 40
0.248288037
 40
0.3730470964
 40
0.4980765914
 40
0.6233506438
 40
0.7488490672
 40
1.0
 40
1.0
 40
1.0
 40
1.0
 10
7.7084024719
 20
4.944602313
 30
0.0
 10
7.7115649966
 20
4.9375912617
 30
0.0
 10
7.7157806424
 20
4.926802429
 30
0.0
 10
7.7202566636
 20
4.9120316582
 30
0.0
 10
7.723033072
 20
4.9007438405
 30
0.0
 10
7.7252105204
 20
4.8893019148
 30
0.0
 10
7.7272967311
 20
4.8738892374
 30
0.0
 10
7.7279306023
 20
4.8622089789
 30
0.0
 10
7.7279306023
 20
4.8544289738
 30
0.0
  0
SPLINE
  5
3E5
100
AcDbEntity
  8
0
100
AcDbSpline
 62
7
  6
CONTINUOUS
 70
0
 71
3
 72
11
 73
7
 74
0
 42
0.0000001
 43
0.0000001
 44
0.0000000001
 40
0.0
 40
0.0
 40
0.0
 40
0.0
 40
0.2570857954
 40
0.5112703574
 40
0.7597331991
 40
1.0
 40
1.0
 40
1.0
 40
1.0
 10
7.7001132723
 20
4.8544289738
 30
0.0
 10
7.7001132723
 20
4.8621996889
 30
0.0
 10
7.7004674517
 20
4.8776557153
 30
0.0
 10
7.7020426026
 20
4.9005733618
 30
0.0
 10
7.7046295454
 20
4.9228874233
 30
0.0
 10
7.707036754
 20
4.9374695422
 30
0.0
 10
7.7084024719
 20
4.944602313
 30
0.0
  0
SPLINE
  5
3E6
100
AcDbEntity
  8
0
100
AcDbSpline
 62
7
  6
CONTINUOUS
 70
0
 71
3
 72
11
 73
7
 74
0
 42
0.0000001
 43
0.0000001
 44
0.0000000001
 40
0.0
 40
0.0
 40
0.0
 40
0.0
 40
0.2402669118
 40
0.4887298813
 40
0.7429143137
 40
1.0
 40
1.0
 40
1.0
 40
1.0
 10
7.7084024719
 20
4.7642556347
 30
0.0
 10
7.7070367534
 20
4.7713884087
 30
0.0
 10
7.704629546
 20
4.7859705351
 30
0.0
 10
7.7020426014
 20
4.8082845997
 30
0.0
 10
7.7004674504
 20
4.8312022429
 30
0.0
 10
7.7001132723
 20
4.8466582621
 30
0.0
 10
7.7001132723
 20
4.8544289738
 30
0.0
  0
SPLINE
  5
3E7
100
AcDbEntity
  8
0
100
AcDbSpline
 62
7
  6
CONTINUOUS
 70
0
 71
3
 72
13
 73
9
 74
0
 42
0.0000001
 43
0.0000001
 44
0.0000000001
 40
0.0
 40
0.0
 40
0.0
 40
0.0
 40
0.2507723356
 40
0.3761336402
 40
0.5013290754
 40
0.6263559842
 40
0.7512048723
 40
1.0
 40
1.0
 40
1.0
 40
1.0
 10
7.7673461563
 20
4.8544289738
 30
0.0
 10
7.7673461563
 20
4.8466483414
 30
0.0
 10
7.7666946556
 20
4.8349648555
 30
0.0
 10
7.7645517161
 20
4.8195533521
 30
0.0
 10
7.762314775
 20
4.8081106261
 30
0.0
 10
7.7594625148
 20
4.7968221078
 30
0.0
 10
7.7548623215
 20
4.7820442347
 30
0.0
 10
7.7505325678
 20
4.7712596387
 30
0.0
 10
7.7472873702
 20
4.7642556347
 30
0.0
  0
SPLINE
  5
3E8
100
AcDbEntity
  8
0
100
AcDbSpline
 62
7
  6
CONTINUOUS
 70
0
 71
3
 72
13
 73
9
 74
0
 42
0.0000001
 43
0.0000001
 44
0.0000000001
 40
0.0
 40
0.0
 40
0.0
 40
0.0
 40
0.2487952304
 40
0.3736442067
 40
0.4986711584
 40
0.6238665641
 40
0.7492277716
 40
1.0
 40
1.0
 40
1.0
 40
1.0
 10
7.7472873702
 20
4.944602313
 30
0.0
 10
7.7505325692
 20
4.9375983061
 30
0.0
 10
7.7548623206
 20
4.9268137029
 30
0.0
 10
7.7594625182
 20
4.9120358237
 30
0.0
 10
7.7623147787
 20
4.9007473022
 30
0.0
 10
7.7645517181
 20
4.8893045786
 30
0.0
 10
7.7666946586
 20
4.8738930827
 30
0.0
 10
7.7673461563
 20
4.8622096029
 30
0.0
 10
7.7673461563
 20
4.8544289738
 30
0.0
  0
SPLINE
  5
3E9
100
AcDbEntity
  8
0
100
AcDbSpline
 62
7
  6
CONTINUOUS
 70
0
 71
3
 72
11
 73
7
 74
0
 42
0.0000001
 43
0.0000001
 44
0.0000000001
 40
0.0
 40
0.0
 40
0.0
 40
0.0
 40
0.2575021294
 40
0.5119340672
 40
0.7603102163
 40
1.0
 40
1.0
 40
1.0
 40
1.0
 10
7.7403805762
 20
4.8544289738
 30
0.0
 10
7.7403805762
 20
4.862199064
 30
0.0
 10
7.740675471
 20
4.8776481917
 30
0.0
 10
7.7419870668
 20
4.9005584261
 30
0.0
 10
7.7441411337
 20
4.9228650607
 30
0.0
 10
7.7461478984
 20
4.9374600317
 30
0.0
 10
7.7472873702
 20
4.944602313
 30
0.0
  0
SPLINE
  5
3EA
100
AcDbEntity
  8
0
100
AcDbSpline
 62
7
  6
CONTINUOUS
 70
0
 71
3
 72
11
 73
7
 74
0
 42
0.0000001
 43
0.0000001
 44
0.0000000001
 40
0.0
 40
0.0
 40
0.0
 40
0.0
 40
0.2396898951
 40
0.4880661718
 40
0.7424979798
 40
1.0
 40
1.0
 40
1.0
 40
1.0
 10
7.7472873702
 20
4.7642556347
 30
0.0
 10
7.7461478978
 20
4.7713979193
 30
0.0
 10
7.7441411342
 20
4.7859928977
 30
0.0
 10
7.7419870658
 20
4.8082995354
 30
0.0
 10
7.7406754698
 20
4.8312097665
 30
0.0
 10
7.7403805762
 20
4.846658887
 30
0.0
 10
7.7403805762
 20
4.8544289738
 30
0.0
  0
SPLINE
  5
3EB
100
AcDbEntity
  8
0
100
AcDbSpline
 62
7
  6
CONTINUOUS
 70
0
 71
3
 72
12
 73
8
 74
0
 42
0.0000001
 43
0.0000001
 44
0.0000000001
 40
0.0
 40
0.0
 40
0.0
 40
0.0
 40
0.245204382
 40
0.3694276114
 40
0.4944853487
 40
0.7465311119
 40
1.0
 40
1.0
 40
1.0
 40
1.0
 10
6.8716254055
 20
4.7642556347
 30
0.0
 10
6.8690159901
 20
4.771311311
 30
0.0
 10
6.8655578421
 20
4.7821251559
 30
0.0
 10
6.8619006263
 20
4.7968518604
 30
0.0
 10
6.8588604219
 20
4.8119336931
 30
0.0
 10
6.8563029182
 20
4.831135665
 30
0.0
 10
6.8556145534
 20
4.8466526832
 30
0.0
 10
6.8556145534
 20
4.8544289738
 30
0.0
  0
SPLINE
  5
3EC
100
AcDbEntity
  8
0
100
AcDbSpline
 62
7
  6
CONTINUOUS
 70
0
 71
3
 72
12
 73
8
 74
0
 42
0.0000001
 43
0.0000001
 44
0.0000000001
 40
0.0
 40
0.0
 40
0.0
 40
0.0
 40
0.2534689959
 40
0.5055148872
 40
0.6305725817
 40
0.754795724
 40
1.0
 40
1.0
 40
1.0
 40
1.0
 10
6.8556145534
 20
4.8544289738
 30
0.0
 10
6.8556145534
 20
4.8622052678
 30
0.0
 10
6.8563029211
 20
4.8777222931
 30
0.0
 10
6.858860424
 20
4.8969242711
 30
0.0
 10
6.861900629
 20
4.9120061037
 30
0.0
 10
6.8655578411
 20
4.9267328017
 30
0.0
 10
6.8690159913
 20
4.9375466397
 30
0.0
 10
6.8716254055
 20
4.944602313
 30
0.0
  0
SPLINE
  5
3ED
100
AcDbEntity
  8
0
100
AcDbSpline
 62
7
  6
CONTINUOUS
 70
0
 71
3
 72
13
 73
9
 74
0
 42
0.0000001
 43
0.0000001
 44
0.0000000001
 40
0.0
 40
0.0
 40
0.0
 40
0.0
 40
0.2504576113
 40
0.3757049743
 40
0.5008352066
 40
0.6258601801
 40
0.7507839036
 40
1.0
 40
1.0
 40
1.0
 40
1.0
 10
7.8053615934
 20
4.8544289738
 30
0.0
 10
7.8053615934
 20
4.8466478199
 30
0.0
 10
7.8046956884
 20
4.8349616448
 30
0.0
 10
7.8025064647
 20
4.8195511316
 30
0.0
 10
7.800220971
 20
4.8081077458
 30
0.0
 10
7.7973068076
 20
4.7968186512
 30
0.0
 10
7.7926051774
 20
4.7820349063
 30
0.0
 10
7.7881823728
 20
4.7712538453
 30
0.0
 10
7.7848698758
 20
4.7642556347
 30
0.0
  0
SPLINE
  5
3EE
100
AcDbEntity
  8
0
100
AcDbSpline
 62
7
  6
CONTINUOUS
 70
0
 71
3
 72
12
 73
8
 74
0
 42
0.0000001
 43
0.0000001
 44
0.0000000001
 40
0.0
 40
0.0
 40
0.0
 40
0.0
 40
0.2459805444
 40
0.3703395229
 40
0.4953922006
 40
0.7471029085
 40
1.0
 40
1.0
 40
1.0
 40
1.0
 10
6.8760746408
 20
4.7642556347
 30
0.0
 10
6.8733178181
 20
4.7712998968
 30
0.0
 10
6.869658797
 20
4.7821075992
 30
0.0
 10
6.8657853655
 20
4.7968455061
 30
0.0
 10
6.8625688857
 20
4.8119222354
 30
0.0
 10
6.8598611186
 20
4.8311247792
 30
0.0
 10
6.8591319182
 20
4.8466517705
 30
0.0
 10
6.8591319182
 20
4.8544289738
 30
0.0
  0
SPLINE
  5
3EF
100
AcDbEntity
  8
0
100
AcDbSpline
 62
7
  6
CONTINUOUS
 70
0
 71
3
 72
12
 73
8
 74
0
 42
0.0000001
 43
0.0000001
 44
0.0000000001
 40
0.0
 40
0.0
 40
0.0
 40
0.0
 40
0.2528971992
 40
0.5046080348
 40
0.6296606697
 40
0.7540195609
 40
1.0
 40
1.0
 40
1.0
 40
1.0
 10
6.8591319182
 20
4.8544289738
 30
0.0
 10
6.8591319182
 20
4.8622061805
 30
0.0
 10
6.8598611216
 20
4.8777331789
 30
0.0
 10
6.862568888
 20
4.8969357289
 30
0.0
 10
6.8657853683
 20
4.912012458
 30
0.0
 10
6.8696587959
 20
4.9267503584
 30
0.0
 10
6.8733178193
 20
4.9375580539
 30
0.0
 10
6.8760746408
 20
4.944602313
 30
0.0
  0
SPLINE
  5
3F0
100
AcDbEntity
  8
0
100
AcDbSpline
 62
7
  6
CONTINUOUS
 70
0
 71
3
 72
13
 73
9
 74
0
 42
0.0000001
 43
0.0000001
 44
0.0000000001
 40
0.0
 40
0.0
 40
0.0
 40
0.0
 40
0.2492161988
 40
0.3741400106
 40
0.499165027
 40
0.6242952297
 40
0.7495424958
 40
1.0
 40
1.0
 40
1.0
 40
1.0
 10
7.7848698758
 20
4.944602313
 30
0.0
 10
7.7881823742
 20
4.9376040995
 30
0.0
 10
7.7926051764
 20
4.9268230313
 30
0.0
 10
7.7973068111
 20
4.9120392803
 30
0.0
 10
7.8002209748
 20
4.9007501824
 30
0.0
 10
7.8025064668
 20
4.8893067991
 30
0.0
 10
7.8046956914
 20
4.8738962934
 30
0.0
 10
7.8053615934
 20
4.8622101244
 30
0.0
 10
7.8053615934
 20
4.8544289738
 30
0.0
  0
SPLINE
  5
3F1
100
AcDbEntity
  8
0
100
AcDbSpline
 62
7
  6
CONTINUOUS
 70
0
 71
3
 72
11
 73
7
 74
0
 42
0.0000001
 43
0.0000001
 44
0.0000000001
 40
0.0
 40
0.0
 40
0.0
 40
0.0
 40
0.2578518919
 40
0.5124923584
 40
0.7607962804
 40
1.0
 40
1.0
 40
1.0
 40
1.0
 10
7.7793790853
 20
4.8544289738
 30
0.0
 10
7.7793790853
 20
4.862198533
 30
0.0
 10
7.7796134771
 20
4.8776418887
 30
0.0
 10
7.7806555716
 20
4.900545883
 30
0.0
 10
7.7823669603
 20
4.9228461908
 30
0.0
 10
7.783962996
 20
4.9374519384
 30
0.0
 10
7.7848698758
 20
4.944602313
 30
0.0
  0
SPLINE
  5
3F2
100
AcDbEntity
  8
0
100
AcDbSpline
 62
7
  6
CONTINUOUS
 70
0
 71
3
 72
11
 73
7
 74
0
 42
0.0000001
 43
0.0000001
 44
0.0000000001
 40
0.0
 40
0.0
 40
0.0
 40
0.0
 40
0.239203831
 40
0.48750788
 40
0.7421482173
 40
1.0
 40
1.0
 40
1.0
 40
1.0
 10
7.7848698758
 20
4.7642556347
 30
0.0
 10
7.7839629956
 20
4.7714060126
 30
0.0
 10
7.7823669607
 20
4.7860117675
 30
0.0
 10
7.7806555708
 20
4.8083120785
 30
0.0
 10
7.7796134763
 20
4.8312160695
 30
0.0
 10
7.7793790853
 20
4.846659418
 30
0.0
 10
7.7793790853
 20
4.8544289738
 30
0.0
  0
SPLINE
  5
3F3
100
AcDbEntity
  8
0
100
AcDbSpline
 62
7
  6
CONTINUOUS
 70
0
 71
3
 72
13
 73
9
 74
0
 42
0.0000001
 43
0.0000001
 44
0.0000000001
 40
0.0
 40
0.0
 40
0.0
 40
0.0
 40
0.2480045703
 40
0.3727134933
 40
0.4977445103
 40
0.6230625596
 40
0.7486376415
 40
1.0
 40
1.0
 40
1.0
 40
1.0
 10
6.9069165591
 20
4.7642556347
 30
0.0
 10
6.9038010481
 20
4.771270654
 30
0.0
 10
6.8996501892
 20
4.7820618361
 30
0.0
 10
6.8952445701
 20
4.796828618
 30
0.0
 10
6.8925112012
 20
4.8081160379
 30
0.0
 10
6.8903675077
 20
4.8195575162
 30
0.0
 10
6.8883134942
 20
4.8349708484
 30
0.0
 10
6.8876896136
 20
4.8466493156
 30
0.0
 10
6.8876896136
 20
4.8544289738
 30
0.0
  0
SPLINE
  5
3F4
100
AcDbEntity
  8
0
100
AcDbSpline
 62
7
  6
CONTINUOUS
 70
0
 71
3
 72
13
 73
9
 74
0
 42
0.0000001
 43
0.0000001
 44
0.0000000001
 40
0.0
 40
0.0
 40
0.0
 40
0.0
 40
0.2513624656
 40
0.376937645
 40
0.5022557241
 40
0.6272866982
 40
0.7519955331
 40
1.0
 40
1.0
 40
1.0
 40
1.0
 10
6.8876896136
 20
4.8544289738
 30
0.0
 10
6.8876896136
 20
4.8622086354
 30
0.0
 10
6.8883134974
 20
4.8738871088
 30
0.0
 10
6.8903675102
 20
4.8893004484
 30
0.0
 10
6.8925112049
 20
4.9007419292
 30
0.0
 10
6.8952445732
 20
4.912029346
 30
0.0
 10
6.8996501881
 20
4.9267961217
 30
0.0
 10
6.9038010494
 20
4.9375872966
 30
0.0
 10
6.9069165591
 20
4.944602313
 30
0.0
  0
SPLINE
  5
3F5
100
AcDbEntity
  8
0
100
AcDbSpline
 62
7
  6
CONTINUOUS
 70
0
 71
3
 72
13
 73
9
 74
0
 42
0.0000001
 43
0.0000001
 44
0.0000000001
 40
0.0
 40
0.0
 40
0.0
 40
0.0
 40
0.2485519426
 40
0.3733577544
 40
0.4983858973
 40
0.6236190157
 40
0.7490460507
 40
1.0
 40
1.0
 40
1.0
 40
1.0
 10
6.9228616215
 20
4.7642556347
 30
0.0
 10
6.9196558547
 20
4.7712630117
 30
0.0
 10
6.9153805551
 20
4.7820496479
 30
0.0
 10
6.9108396439
 20
4.796824122
 30
0.0
 10
6.9080235881
 20
4.8081123071
 30
0.0
 10
6.9058150443
 20
4.8195546484
 30
0.0
 10
6.9036991793
 20
4.8349667126
 30
0.0
 10
6.9030560982
 20
4.8466486447
 30
0.0
 10
6.9030560982
 20
4.8544289738
 30
0.0
  0
SPLINE
  5
3F6
100
AcDbEntity
  8
0
100
AcDbSpline
 62
7
  6
CONTINUOUS
 70
0
 71
3
 72
13
 73
9
 74
0
 42
0.0000001
 43
0.0000001
 44
0.0000000001
 40
0.0
 40
0.0
 40
0.0
 40
0.0
 40
0.2509540562
 40
0.3763811887
 40
0.5016143368
 40
0.6266424368
 40
0.7514481604
 40
1.0
 40
1.0
 40
1.0
 40
1.0
 10
6.9030560982
 20
4.8544289738
 30
0.0
 10
6.9030560982
 20
4.8622093063
 30
0.0
 10
6.9036991826
 20
4.8738912446
 30
0.0
 10
6.9058150469
 20
4.8893033162
 30
0.0
 10
6.9080235919
 20
4.90074566
 30
0.0
 10
6.9108396472
 20
4.912033842
 30
0.0
 10
6.915380554
 20
4.9268083099
 30
0.0
 10
6.919655856
 20
4.9375949388
 30
0.0
 10
6.9228616215
 20
4.944602313
 30
0.0
  0
SPLINE
  5
3F7
100
AcDbEntity
  8
0
100
AcDbSpline
 62
7
  6
CONTINUOUS
 70
0
 71
3
 72
13
 73
9
 74
0
 42
0.0000001
 43
0.0000001
 44
0.0000000001
 40
0.0
 40
0.0
 40
0.0
 40
0.0
 40
0.2502119972
 40
0.3753704975
 40
0.5004499437
 40
0.625473519
 40
0.7504557134
 40
1.0
 40
1.0
 40
1.0
 40
1.0
 10
7.8417917061
 20
4.8544289738
 30
0.0
 10
7.8417917061
 20
4.8466474112
 30
0.0
 10
7.8411147036
 20
4.8349591296
 30
0.0
 10
7.8388898678
 20
4.8195493945
 30
0.0
 10
7.836567007
 20
4.808105496
 30
0.0
 10
7.8336052032
 20
4.7968159569
 30
0.0
 10
7.8288254482
 20
4.7820276519
 30
0.0
 10
7.8243310765
 20
4.7712493621
 30
0.0
 10
7.8209668907
 20
4.7642556347
 30
0.0
  0
SPLINE
  5
3F8
100
AcDbEntity
  8
0
100
AcDbSpline
 62
7
  6
CONTINUOUS
 70
0
 71
3
 72
13
 73
9
 74
0
 42
0.0000001
 43
0.0000001
 44
0.0000000001
 40
0.0
 40
0.0
 40
0.0
 40
0.0
 40
0.2490169382
 40
0.3739053044
 40
0.498931217
 40
0.6240922744
 40
0.7493934791
 40
1.0
 40
1.0
 40
1.0
 40
1.0
 10
6.9415208106
 20
4.7642556347
 30
0.0
 10
6.938240024
 20
4.7712565844
 30
0.0
 10
6.9338610863
 20
4.7820393287
 30
0.0
 10
6.9292072889
 20
4.7968203035
 30
0.0
 10
6.9263223117
 20
4.8081091294
 30
0.0
 10
6.9240597118
 20
4.8195522007
 30
0.0
 10
6.9218923083
 20
4.8349631762
 30
0.0
 10
6.9212332
 20
4.8466480705
 30
0.0
 10
6.9212332
 20
4.8544289738
 30
0.0
  0
SPLINE
  5
3F9
100
AcDbEntity
  8
0
100
AcDbSpline
 62
7
  6
CONTINUOUS
 70
0
 71
3
 72
13
 73
9
 74
0
 42
0.0000001
 43
0.0000001
 44
0.0000000001
 40
0.0
 40
0.0
 40
0.0
 40
0.0
 40
0.2506066277
 40
0.3759079297
 40
0.5010690169
 40
0.6260948866
 40
0.7509831644
 40
1.0
 40
1.0
 40
1.0
 40
1.0
 10
6.9212332
 20
4.8544289738
 30
0.0
 10
6.9212332
 20
4.8622098805
 30
0.0
 10
6.9218923116
 20
4.873894781
 30
0.0
 10
6.9240597144
 20
4.8893057639
 30
0.0
 10
6.9263223156
 20
4.9007488377
 30
0.0
 10
6.9292072921
 20
4.9120376605
 30
0.0
 10
6.9338610852
 20
4.9268186292
 30
0.0
 10
6.9382400254
 20
4.9376013661
 30
0.0
 10
6.9415208106
 20
4.944602313
 30
0.0
  0
SPLINE
  5
3FA
100
AcDbEntity
  8
0
100
AcDbSpline
 62
7
  6
CONTINUOUS
 70
0
 71
3
 72
13
 73
9
 74
0
 42
0.0000001
 43
0.0000001
 44
0.0000000001
 40
0.0
 40
0.0
 40
0.0
 40
0.0
 40
0.2495443887
 40
0.3745266715
 40
0.4995502897
 40
0.6246297063
 40
0.7497881098
 40
1.0
 40
1.0
 40
1.0
 40
1.0
 10
7.8209668907
 20
4.944602313
 30
0.0
 10
7.8243310779
 20
4.9376085828
 30
0.0
 10
7.8288254473
 20
4.9268302857
 30
0.0
 10
7.8336052067
 20
4.9120419745
 30
0.0
 10
7.8365670109
 20
4.9007524323
 30
0.0
 10
7.83888987
 20
4.8893085362
 30
0.0
 10
7.8411147066
 20
4.8738988085
 30
0.0
 10
7.8417917061
 20
4.8622105332
 30
0.0
 10
7.8417917061
 20
4.8544289738
 30
0.0
  0
SPLINE
  5
3FB
100
AcDbEntity
  8
0
100
AcDbSpline
 62
7
  6
CONTINUOUS
 70
0
 71
3
 72
13
 73
9
 74
0
 42
0.0000001
 43
0.0000001
 44
0.0000000001
 40
0.0
 40
0.0
 40
0.0
 40
0.0
 40
0.2493922408
 40
0.3743474027
 40
0.499371657
 40
0.6244746127
 40
0.7496742161
 40
1.0
 40
1.0
 40
1.0
 40
1.0
 10
6.9628032208
 20
4.7642556347
 30
0.0
 10
6.9594629141
 20
4.7712514397
 30
0.0
 10
6.9550016201
 20
4.7820310232
 30
0.0
 10
6.9502579782
 20
4.7968172222
 30
0.0
 10
6.9473181944
 20
4.8081065589
 30
0.0
 10
6.9450126073
 20
4.8195502175
 30
0.0
 10
6.9428042306
 20
4.8349603065
 30
0.0
 10
6.9421323622
 20
4.8466476043
 30
0.0
 10
6.9421323622
 20
4.8544289738
 30
0.0
  0
SPLINE
  5
3FC
100
AcDbEntity
  8
0
100
AcDbSpline
 62
7
  6
CONTINUOUS
 70
0
 71
3
 72
13
 73
9
 74
0
 42
0.0000001
 43
0.0000001
 44
0.0000000001
 40
0.0
 40
0.0
 40
0.0
 40
0.0
 40
0.2503258906
 40
0.3755255911
 40
0.5006285767
 40
0.6256527881
 40
0.7506078614
 40
1.0
 40
1.0
 40
1.0
 40
1.0
 10
6.9421323622
 20
4.8544289738
 30
0.0
 10
6.9421323622
 20
4.8622103468
 30
0.0
 10
6.942804234
 20
4.8738976507
 30
0.0
 10
6.9450126099
 20
4.8893077472
 30
0.0
 10
6.9473181984
 20
4.9007514082
 30
0.0
 10
6.9502579815
 20
4.9120407418
 30
0.0
 10
6.9550016189
 20
4.9268269347
 30
0.0
 10
6.9594629155
 20
4.9376065108
 30
0.0
 10
6.9628032208
 20
4.944602313
 30
0.0
  0
SPLINE
  5
3FD
100
AcDbEntity
  8
0
100
AcDbSpline
 62
7
  6
CONTINUOUS
 70
0
 71
3
 72
11
 73
7
 74
0
 42
0.0000001
 43
0.0000001
 44
0.0000000001
 40
0.0
 40
0.0
 40
0.0
 40
0.0
 40
0.258127974
 40
0.5129325188
 40
0.7611793568
 40
1.0
 40
1.0
 40
1.0
 40
1.0
 10
7.8169189566
 20
4.8544289738
 30
0.0
 10
7.8169189566
 20
4.8621981324
 30
0.0
 10
7.8170915988
 20
4.8776369669
 30
0.0
 10
7.8178595391
 20
4.9005360299
 30
0.0
 10
7.8191207086
 20
4.9228312632
 30
0.0
 10
7.8202977089
 20
4.9374454852
 30
0.0
 10
7.8209668907
 20
4.944602313
 30
0.0
  0
SPLINE
  5
3FE
100
AcDbEntity
  8
0
100
AcDbSpline
 62
7
  6
CONTINUOUS
 70
0
 71
3
 72
13
 73
9
 74
0
 42
0.0000001
 43
0.0000001
 44
0.0000000001
 40
0.0
 40
0.0
 40
0.0
 40
0.0
 40
0.2496720634
 40
0.3746771236
 40
0.4997002241
 40
0.6247598944
 40
0.74988372
 40
1.0
 40
1.0
 40
1.0
 40
1.0
 10
6.9866051662
 20
4.7642556347
 30
0.0
 10
6.9832210469
 20
4.7712476286
 30
0.0
 10
6.9786990571
 20
4.7820248443
 30
0.0
 10
6.9738891209
 20
4.7968149252
 30
0.0
 10
6.9709089231
 20
4.8081046391
 30
0.0
 10
6.9685716366
 20
4.8195487343
 30
0.0
 10
6.9663330525
 20
4.8349581578
 30
0.0
 10
6.9656517659
 20
4.8466472549
 30
0.0
 10
6.9656517659
 20
4.8544289738
 30
0.0
  0
SPLINE
  5
3FF
100
AcDbEntity
  8
0
100
AcDbSpline
 62
7
  6
CONTINUOUS
 70
0
 71
3
 72
13
 73
9
 74
0
 42
0.0000001
 43
0.0000001
 44
0.0000000001
 40
0.0
 40
0.0
 40
0.0
 40
0.0
 40
0.2501163867
 40
0.3752403093
 40
0.5003000094
 40
0.625323067
 40
0.7503280385
 40
1.0
 40
1.0
 40
1.0
 40
1.0
 10
6.9656517659
 20
4.8544289738
 30
0.0
 10
6.9656517659
 20
4.8622106961
 30
0.0
 10
6.966333056
 20
4.8738997994
 30
0.0
 10
6.9685716393
 20
4.8893092304
 30
0.0
 10
6.9709089272
 20
4.900753328
 30
0.0
 10
6.9738891243
 20
4.9120430388
 30
0.0
 10
6.9786990559
 20
4.9268331137
 30
0.0
 10
6.9832210482
 20
4.9376103219
 30
0.0
 10
6.9866051662
 20
4.944602313
 30
0.0
  0
SPLINE
  5
400
100
AcDbEntity
  8
0
100
AcDbSpline
 62
7
  6
CONTINUOUS
 70
0
 71
3
 72
11
 73
7
 74
0
 42
0.0000001
 43
0.0000001
 44
0.0000000001
 40
0.0
 40
0.0
 40
0.0
 40
0.0
 40
0.2388207555
 40
0.4870677208
 40
0.7418721354
 40
1.0
 40
1.0
 40
1.0
 40
1.0
 10
7.8209668907
 20
4.7642556347
 30
0.0
 10
7.8202977086
 20
4.7714124658
 30
0.0
 10
7.8191207089
 20
4.7860266951
 30
0.0
 10
7.8178595385
 20
4.8083219317
 30
0.0
 10
7.8170915981
 20
4.8312209913
 30
0.0
 10
7.8169189566
 20
4.8466598186
 30
0.0
 10
7.8169189566
 20
4.8544289738
 30
0.0
  0
SPLINE
  5
401
100
AcDbEntity
  8
0
100
AcDbSpline
 62
7
  6
CONTINUOUS
 70
0
 71
3
 72
13
 73
9
 74
0
 42
0.0000001
 43
0.0000001
 44
0.0000000001
 40
0.0
 40
0.0
 40
0.0
 40
0.0
 40
0.2498521594
 40
0.3748893778
 40
0.499911773
 40
0.6249436003
 40
0.7500186436
 40
1.0
 40
1.0
 40
1.0
 40
1.0
 10
7.0128106863
 20
4.7642556347
 30
0.0
 10
7.0093986136
 20
4.7712451868
 30
0.0
 10
7.0048378666
 20
4.7820208736
 30
0.0
 10
6.9999855623
 20
4.796813447
 30
0.0
 10
6.9969795482
 20
4.808103402
 30
0.0
 10
6.9946220119
 20
4.8195477776
 30
0.0
 10
6.9923641341
 20
4.8349567707
 30
0.0
 10
6.9916768271
 20
4.8466470294
 30
0.0
 10
6.9916768271
 20
4.8544289738
 30
0.0
  0
SPLINE
  5
402
100
AcDbEntity
  8
0
100
AcDbSpline
 62
7
  6
CONTINUOUS
 70
0
 71
3
 72
13
 73
9
 74
0
 42
0.0000001
 43
0.0000001
 44
0.0000000001
 40
0.0
 40
0.0
 40
0.0
 40
0.0
 40
0.2499772507
 40
0.3750510961
 40
0.5000813726
 40
0.6251005437
 40
0.7501339656
 40
1.0
 40
1.0
 40
1.0
 40
1.0
 10
6.9916768271
 20
4.8544289738
 30
0.0
 10
6.9916768271
 20
4.8621097507
 30
0.0
 10
6.9923463928
 20
4.8736476845
 30
0.0
 10
6.9945462253
 20
4.8888604289
 30
0.0
 10
6.9968435613
 20
4.900161905
 30
0.0
 10
6.999773291
 20
4.911314679
 30
0.0
 10
7.0045035708
 20
4.9259344948
 30
0.0
 10
7.0089520654
 20
4.9365921533
 30
0.0
 10
7.0122812925
 20
4.9435101081
 30
0.0
  0
SPLINE
  5
403
100
AcDbEntity
  8
0
100
AcDbSpline
 62
7
  6
CONTINUOUS
 70
0
 71
3
 72
13
 73
9
 74
0
 42
0.0000001
 43
0.0000001
 44
0.0000000001
 40
0.0
 40
0.0
 40
0.0
 40
0.0
 40
0.249929826
 40
0.3749809231
 40
0.5000030232
 40
0.625022847
 40
0.7500768502
 40
1.0
 40
1.0
 40
1.0
 40
1.0
 10
7.0412921104
 20
4.7642556347
 30
0.0
 10
7.0378680404
 20
4.7712441364
 30
0.0
 10
7.0332906515
 20
4.7820191627
 30
0.0
 10
7.0284201464
 20
4.7968128095
 30
0.0
 10
7.0254030447
 20
4.8081028681
 30
0.0
 10
7.0230368113
 20
4.8195473646
 30
0.0
 10
7.0207706479
 20
4.8349561716
 30
0.0
 10
7.0200807544
 20
4.8466469319
 30
0.0
 10
7.0200807544
 20
4.8544289738
 30
0.0
  0
SPLINE
  5
404
100
AcDbEntity
  8
0
100
AcDbSpline
 62
7
  6
CONTINUOUS
 70
0
 71
3
 72
13
 73
9
 74
0
 42
0.0000001
 43
0.0000001
 44
0.0000000001
 40
0.0
 40
0.0
 40
0.0
 40
0.0
 40
0.2499232564
 40
0.3749773566
 40
0.4999972102
 40
0.6250192674
 40
0.7500702757
 40
1.0
 40
1.0
 40
1.0
 40
1.0
 10
7.0200807544
 20
4.8544289738
 30
0.0
 10
7.0200807544
 20
4.8622110191
 30
0.0
 10
7.0207706514
 20
4.8739017856
 30
0.0
 10
7.023036814
 20
4.8893106
 30
0.0
 10
7.0254030488
 20
4.9007550989
 30
0.0
 10
7.0284201498
 20
4.9120451544
 30
0.0
 10
7.0332906504
 20
4.9268387952
 30
0.0
 10
7.0378680418
 20
4.9376138141
 30
0.0
 10
7.0412921104
 20
4.944602313
 30
0.0
  0
SPLINE
  5
405
100
AcDbEntity
  8
0
100
AcDbSpline
 62
7
  6
CONTINUOUS
 70
0
 71
3
 72
13
 73
9
 74
0
 42
0.0000001
 43
0.0000001
 44
0.0000000001
 40
0.0
 40
0.0
 40
0.0
 40
0.0
 40
0.2500394404
 40
0.3751355406
 40
0.5001793587
 40
0.6252020105
 40
0.7502253195
 40
1.0
 40
1.0
 40
1.0
 40
1.0
 10
7.8764590105
 20
4.8544289738
 30
0.0
 10
7.8764590105
 20
4.846647123
 30
0.0
 10
7.875774283
 20
4.8349573576
 30
0.0
 10
7.8735246815
 20
4.8195481719
 30
0.0
 10
7.8711758295
 20
4.8081039142
 30
0.0
 10
7.8681808895
 20
4.7968140658
 30
0.0
 10
7.8633467647
 20
4.7820225688
 30
0.0
 10
7.8588026381
 20
4.771246232
 30
0.0
 10
7.8554025537
 20
4.7642556347
 30
0.0
  0
SPLINE
  5
406
100
AcDbEntity
  8
0
100
AcDbSpline
 62
7
  6
CONTINUOUS
 70
0
 71
3
 72
13
 73
9
 74
0
 42
0.0000001
 43
0.0000001
 44
0.0000000001
 40
0.0
 40
0.0
 40
0.0
 40
0.0
 40
0.249903905
 40
0.3749503694
 40
0.4999725674
 40
0.6249963971
 40
0.7500574225
 40
1.0
 40
1.0
 40
1.0
 40
1.0
 10
7.0719106798
 20
4.7642556347
 30
0.0
 10
7.06849061
 20
4.7712444868
 30
0.0
 10
7.0639187705
 20
4.7820197336
 30
0.0
 10
7.0590543352
 20
4.7968130223
 30
0.0
 10
7.0560409309
 20
4.8081030463
 30
0.0
 10
7.0536775978
 20
4.8195475025
 30
0.0
 10
7.0514141974
 20
4.8349563716
 30
0.0
 10
7.0507251665
 20
4.8466469644
 30
0.0
 10
7.0507251665
 20
4.8544289738
 30
0.0
  0
SPLINE
  5
407
100
AcDbEntity
  8
0
100
AcDbSpline
 62
7
  6
CONTINUOUS
 70
0
 71
3
 72
13
 73
9
 74
0
 42
0.0000001
 43
0.0000001
 44
0.0000000001
 40
0.0
 40
0.0
 40
0.0
 40
0.0
 40
0.2499426841
 40
0.3750038065
 40
0.5000276661
 40
0.6250498211
 40
0.7500961967
 40
1.0
 40
1.0
 40
1.0
 40
1.0
 10
7.0507251665
 20
4.8544289738
 30
0.0
 10
7.0507251665
 20
4.8622109866
 30
0.0
 10
7.0514142009
 20
4.8739015856
 30
0.0
 10
7.0536776005
 20
4.8893104621
 30
0.0
 10
7.0560409351
 20
4.9007549208
 30
0.0
 10
7.0590543386
 20
4.9120449417
 30
0.0
 10
7.0639187694
 20
4.9268382243
 30
0.0
 10
7.0684906114
 20
4.9376134637
 30
0.0
 10
7.0719106798
 20
4.944602313
 30
0.0
  0
SPLINE
  5
408
100
AcDbEntity
  8
0
100
AcDbSpline
 62
7
  6
CONTINUOUS
 70
0
 71
3
 72
11
 73
7
 74
0
 42
0.0000001
 43
0.0000001
 44
0.0000000001
 40
0.0
 40
0.0
 40
0.0
 40
0.0
 40
0.2385493269
 40
0.4867562221
 40
0.7416769983
 40
1.0
 40
1.0
 40
1.0
 40
1.0
 10
7.1045172239
 20
4.944602313
 30
0.0
 10
7.1049449038
 20
4.9374408836
 30
0.0
 10
7.1056968232
 20
4.9228206703
 30
0.0
 10
7.1065020724
 20
4.9005290466
 30
0.0
 10
7.1069924033
 20
4.8776334773
 30
0.0
 10
7.1071026317
 20
4.8621978405
 30
0.0
 10
7.1071026317
 20
4.8544289738
 30
0.0
  0
SPLINE
  5
409
100
AcDbEntity
  8
0
100
AcDbSpline
 62
7
  6
CONTINUOUS
 70
0
 71
3
 72
11
 73
7
 74
0
 42
0.0000001
 43
0.0000001
 44
0.0000000001
 40
0.0
 40
0.0
 40
0.0
 40
0.0
 40
0.2583231119
 40
0.5132440174
 40
0.7614507848
 40
1.0
 40
1.0
 40
1.0
 40
1.0
 10
7.1071026317
 20
4.8544289738
 30
0.0
 10
7.1071026317
 20
4.8466601039
 30
0.0
 10
7.106992403
 20
4.8312244599
 30
0.0
 10
7.106502072
 20
4.8083288873
 30
0.0
 10
7.1056968234
 20
4.7860372668
 30
0.0
 10
7.1049449036
 20
4.7714170607
 30
0.0
 10
7.1045172239
 20
4.7642556347
 30
0.0
  0
SPLINE
  5
40A
100
AcDbEntity
  8
0
100
AcDbSpline
 62
7
  6
CONTINUOUS
 70
0
 71
3
 72
13
 73
9
 74
0
 42
0.0000001
 43
0.0000001
 44
0.0000000001
 40
0.0
 40
0.0
 40
0.0
 40
0.0
 40
0.2497747824
 40
0.37479818
 40
0.4998208747
 40
0.6248646631
 40
0.7499606664
 40
1.0
 40
1.0
 40
1.0
 40
1.0
 10
7.1045172239
 20
4.7642556347
 30
0.0
 10
7.101117138
 20
4.7712462349
 30
0.0
 10
7.0965730139
 20
4.782022579
 30
0.0
 10
7.0917388846
 20
4.7968140821
 30
0.0
 10
7.088743944
 20
4.8081039336
 30
0.0
 10
7.0863950936
 20
4.8195481888
 30
0.0
 10
7.0841454913
 20
4.8349573671
 30
0.0
 10
7.0834607671
 20
4.8466471264
 30
0.0
 10
7.0834607671
 20
4.8544289738
 30
0.0
  0
SPLINE
  5
40B
100
AcDbEntity
  8
0
100
AcDbSpline
 62
7
  6
CONTINUOUS
 70
0
 71
3
 72
13
 73
9
 74
0
 42
0.0000001
 43
0.0000001
 44
0.0000000001
 40
0.0
 40
0.0
 40
0.0
 40
0.0
 40
0.2500394402
 40
0.3751355406
 40
0.5001793588
 40
0.6252020105
 40
0.7502253194
 40
1.0
 40
1.0
 40
1.0
 40
1.0
 10
7.0834607671
 20
4.8544289738
 30
0.0
 10
7.0834607671
 20
4.8622108247
 30
0.0
 10
7.0841454948
 20
4.8739005901
 30
0.0
 10
7.0863950963
 20
4.8893097758
 30
0.0
 10
7.0887439481
 20
4.9007540335
 30
0.0
 10
7.091738888
 20
4.9120438819
 30
0.0
 10
7.0965730128
 20
4.926835379
 30
0.0
 10
7.1011171394
 20
4.9376117157
 30
0.0
 10
7.1045172239
 20
4.944602313
 30
0.0
  0
SPLINE
  5
40C
100
AcDbEntity
  8
0
100
AcDbSpline
 62
7
  6
CONTINUOUS
 70
0
 71
3
 72
11
 73
7
 74
0
 42
0.0000001
 43
0.0000001
 44
0.0000000001
 40
0.0
 40
0.0
 40
0.0
 40
0.0
 40
0.2388207551
 40
0.4870677207
 40
0.7418721358
 40
1.0
 40
1.0
 40
1.0
 40
1.0
 10
7.1389528869
 20
4.944602313
 30
0.0
 10
7.139622069
 20
4.9374454819
 30
0.0
 10
7.1407990687
 20
4.9228312526
 30
0.0
 10
7.1420602391
 20
4.900536016
 30
0.0
 10
7.1428281794
 20
4.8776369564
 30
0.0
 10
7.1430008209
 20
4.8621981291
 30
0.0
 10
7.1430008209
 20
4.8544289738
 30
0.0
  0
SPLINE
  5
40D
100
AcDbEntity
  8
0
100
AcDbSpline
 62
7
  6
CONTINUOUS
 70
0
 71
3
 72
11
 73
7
 74
0
 42
0.0000001
 43
0.0000001
 44
0.0000000001
 40
0.0
 40
0.0
 40
0.0
 40
0.0
 40
0.2581279743
 40
0.5129325187
 40
0.7611793564
 40
1.0
 40
1.0
 40
1.0
 40
1.0
 10
7.1430008209
 20
4.8544289738
 30
0.0
 10
7.1430008209
 20
4.8466598153
 30
0.0
 10
7.1428281788
 20
4.8312209808
 30
0.0
 10
7.1420602385
 20
4.8083219178
 30
0.0
 10
7.1407990689
 20
4.7860266845
 30
0.0
 10
7.1396220687
 20
4.7714124625
 30
0.0
 10
7.1389528869
 20
4.7642556347
 30
0.0
  0
SPLINE
  5
40E
100
AcDbEntity
  8
0
100
AcDbSpline
 62
7
  6
CONTINUOUS
 70
0
 71
3
 72
13
 73
9
 74
0
 42
0.0000001
 43
0.0000001
 44
0.0000000001
 40
0.0
 40
0.0
 40
0.0
 40
0.0
 40
0.2495443887
 40
0.3745266716
 40
0.4995502898
 40
0.6246297063
 40
0.7497881096
 40
1.0
 40
1.0
 40
1.0
 40
1.0
 10
7.1389528869
 20
4.7642556347
 30
0.0
 10
7.1355886997
 20
4.7712493649
 30
0.0
 10
7.1310943304
 20
4.7820276621
 30
0.0
 10
7.126314571
 20
4.7968159732
 30
0.0
 10
7.1233527666
 20
4.8081055154
 30
0.0
 10
7.1210299073
 20
4.8195494115
 30
0.0
 10
7.1188050707
 20
4.8349591391
 30
0.0
 10
7.1181280715
 20
4.8466474145
 30
0.0
 10
7.1181280715
 20
4.8544289738
 30
0.0
  0
SPLINE
  5
40F
100
AcDbEntity
  8
0
100
AcDbSpline
 62
7
  6
CONTINUOUS
 70
0
 71
3
 72
13
 73
9
 74
0
 42
0.0000001
 43
0.0000001
 44
0.0000000001
 40
0.0
 40
0.0
 40
0.0
 40
0.0
 40
0.2502119971
 40
0.3753704975
 40
0.5004499438
 40
0.6254735191
 40
0.7504557134
 40
1.0
 40
1.0
 40
1.0
 40
1.0
 10
7.1181280715
 20
4.8544289738
 30
0.0
 10
7.1181280715
 20
4.8622105365
 30
0.0
 10
7.1188050742
 20
4.873898818
 30
0.0
 10
7.12102991
 20
4.8893085532
 30
0.0
 10
7.1233527706
 20
4.9007524517
 30
0.0
 10
7.1263145743
 20
4.9120419908
 30
0.0
 10
7.1310943293
 20
4.9268302958
 30
0.0
 10
7.135588701
 20
4.9376085856
 30
0.0
 10
7.1389528869
 20
4.944602313
 30
0.0
  0
SPLINE
  5
410
100
AcDbEntity
  8
0
100
AcDbSpline
 62
7
  6
CONTINUOUS
 70
0
 71
3
 72
11
 73
7
 74
0
 42
0.0000001
 43
0.0000001
 44
0.0000000001
 40
0.0
 40
0.0
 40
0.0
 40
0.0
 40
0.2392038306
 40
0.4875078803
 40
0.742148218
 40
1.0
 40
1.0
 40
1.0
 40
1.0
 10
7.1750499017
 20
4.944602313
 30
0.0
 10
7.175956782
 20
4.937451935
 30
0.0
 10
7.177552817
 20
4.9228461802
 30
0.0
 10
7.1792642067
 20
4.9005458692
 30
0.0
 10
7.1803063011
 20
4.8776418782
 30
0.0
 10
7.1805406924
 20
4.8621985296
 30
0.0
 10
7.1805406924
 20
4.8544289738
 30
0.0
  0
SPLINE
  5
411
100
AcDbEntity
  8
0
100
AcDbSpline
 62
7
  6
CONTINUOUS
 70
0
 71
3
 72
11
 73
7
 74
0
 42
0.0000001
 43
0.0000001
 44
0.0000000001
 40
0.0
 40
0.0
 40
0.0
 40
0.0
 40
0.257851891
 40
0.5124923581
 40
0.7607962809
 40
1.0
 40
1.0
 40
1.0
 40
1.0
 10
7.1805406924
 20
4.8544289738
 30
0.0
 10
7.1805406924
 20
4.8466594148
 30
0.0
 10
7.1803063003
 20
4.831216059
 30
0.0
 10
7.1792642059
 20
4.8083120647
 30
0.0
 10
7.1775528174
 20
4.7860117569
 30
0.0
 10
7.1759567816
 20
4.7714060093
 30
0.0
 10
7.1750499017
 20
4.7642556347
 30
0.0
  0
SPLINE
  5
412
100
AcDbEntity
  8
0
100
AcDbSpline
 62
7
  6
CONTINUOUS
 70
0
 71
3
 72
13
 73
9
 74
0
 42
0.0000001
 43
0.0000001
 44
0.0000000001
 40
0.0
 40
0.0
 40
0.0
 40
0.0
 40
0.2492162518
 40
0.3741399856
 40
0.4991649461
 40
0.6242952296
 40
0.7495426172
 40
1.0
 40
1.0
 40
1.0
 40
1.0
 10
7.1750499017
 20
4.7642556347
 30
0.0
 10
7.1717374028
 20
4.7712538493
 30
0.0
 10
7.167314525
 20
4.7820348851
 30
0.0
 10
7.1626129305
 20
4.7968186491
 30
0.0
 10
7.1596988996
 20
4.8081077798
 30
0.0
 10
7.1574135069
 20
4.8195511849
 30
0.0
 10
7.1552241599
 20
4.8349616678
 30
0.0
 10
7.1545579867
 20
4.8466478274
 30
0.0
 10
7.1545579867
 20
4.8544289738
 30
0.0
  0
SPLINE
  5
413
100
AcDbEntity
  8
0
100
AcDbSpline
 62
7
  6
CONTINUOUS
 70
0
 71
3
 72
13
 73
9
 74
0
 42
0.0000001
 43
0.0000001
 44
0.0000000001
 40
0.0
 40
0.0
 40
0.0
 40
0.0
 40
0.2504574893
 40
0.3757049737
 40
0.500835287
 40
0.6258602048
 40
0.7507838502
 40
1.0
 40
1.0
 40
1.0
 40
1.0
 10
7.1545579867
 20
4.8544289738
 30
0.0
 10
7.1545579867
 20
4.8622101236
 30
0.0
 10
7.155224163
 20
4.8738962894
 30
0.0
 10
7.1574135094
 20
4.8893067797
 30
0.0
 10
7.1596989035
 20
4.9007501873
 30
0.0
 10
7.1626129338
 20
4.9120393148
 30
0.0
 10
7.1673145239
 20
4.9268230727
 30
0.0
 10
7.1717374042
 20
4.9376041012
 30
0.0
 10
7.1750499017
 20
4.944602313
 30
0.0
  0
SPLINE
  5
414
100
AcDbEntity
  8
0
100
AcDbSpline
 62
7
  6
CONTINUOUS
 70
0
 71
3
 72
11
 73
7
 74
0
 42
0.0000001
 43
0.0000001
 44
0.0000000001
 40
0.0
 40
0.0
 40
0.0
 40
0.0
 40
0.2396898947
 40
0.4880661717
 40
0.7424979801
 40
1.0
 40
1.0
 40
1.0
 40
1.0
 10
7.2126324074
 20
4.944602313
 30
0.0
 10
7.2137718797
 20
4.9374600284
 30
0.0
 10
7.2157786434
 20
4.92286505
 30
0.0
 10
7.2179327118
 20
4.9005584123
 30
0.0
 10
7.2192443076
 20
4.8776481812
 30
0.0
 10
7.2195392014
 20
4.8621990607
 30
0.0
 10
7.2195392014
 20
4.8544289738
 30
0.0
  0
SPLINE
  5
415
100
AcDbEntity
  8
0
100
AcDbSpline
 62
7
  6
CONTINUOUS
 70
0
 71
3
 72
11
 73
7
 74
0
 42
0.0000001
 43
0.0000001
 44
0.0000000001
 40
0.0
 40
0.0
 40
0.0
 40
0.0
 40
0.2575021297
 40
0.5119340671
 40
0.7603102159
 40
1.0
 40
1.0
 40
1.0
 40
1.0
 10
7.2195392014
 20
4.8544289738
 30
0.0
 10
7.2195392014
 20
4.8466588836
 30
0.0
 10
7.2192443067
 20
4.831209756
 30
0.0
 10
7.2179327108
 20
4.8082995215
 30
0.0
 10
7.2157786438
 20
4.785992887
 30
0.0
 10
7.2137718792
 20
4.771397916
 30
0.0
 10
7.2126324074
 20
4.7642556347
 30
0.0
  0
SPLINE
  5
416
100
AcDbEntity
  8
0
100
AcDbSpline
 62
7
  6
CONTINUOUS
 70
0
 71
3
 72
13
 73
9
 74
0
 42
0.0000001
 43
0.0000001
 44
0.0000000001
 40
0.0
 40
0.0
 40
0.0
 40
0.0
 40
0.2487952304
 40
0.3736442068
 40
0.4986711585
 40
0.6238665641
 40
0.7492277715
 40
1.0
 40
1.0
 40
1.0
 40
1.0
 10
7.2126324074
 20
4.7642556347
 30
0.0
 10
7.2093872084
 20
4.7712596415
 30
0.0
 10
7.2050574571
 20
4.7820442449
 30
0.0
 10
7.2004572594
 20
4.796822124
 30
0.0
 10
7.1976049987
 20
4.8081106455
 30
0.0
 10
7.1953680592
 20
4.8195533691
 30
0.0
 10
7.1932251188
 20
4.834964865
 30
0.0
 10
7.1925736212
 20
4.8466483448
 30
0.0
 10
7.1925736212
 20
4.8544289738
 30
0.0
  0
SPLINE
  5
417
100
AcDbEntity
  8
0
100
AcDbSpline
 62
7
  6
CONTINUOUS
 70
0
 71
3
 72
13
 73
9
 74
0
 42
0.0000001
 43
0.0000001
 44
0.0000000001
 40
0.0
 40
0.0
 40
0.0
 40
0.0
 40
0.2507723354
 40
0.3761336401
 40
0.5013290755
 40
0.6263559843
 40
0.7512048724
 40
1.0
 40
1.0
 40
1.0
 40
1.0
 10
7.1925736212
 20
4.8544289738
 30
0.0
 10
7.1925736212
 20
4.8622096063
 30
0.0
 10
7.1932251221
 20
4.8738930922
 30
0.0
 10
7.1953680617
 20
4.8893045955
 30
0.0
 10
7.1976050026
 20
4.9007473216
 30
0.0
 10
7.2004572627
 20
4.91203584
 30
0.0
 10
7.205057456
 20
4.926813713
 30
0.0
 10
7.2093872097
 20
4.937598309
 30
0.0
 10
7.2126324074
 20
4.944602313
 30
0.0
  0
SPLINE
  5
418
100
AcDbEntity
  8
0
100
AcDbSpline
 62
7
  6
CONTINUOUS
 70
0
 71
3
 72
11
 73
7
 74
0
 42
0.0000001
 43
0.0000001
 44
0.0000000001
 40
0.0
 40
0.0
 40
0.0
 40
0.0
 40
0.2402669114
 40
0.4887298812
 40
0.742914314
 40
1.0
 40
1.0
 40
1.0
 40
1.0
 10
7.2515173057
 20
4.944602313
 30
0.0
 10
7.2528830242
 20
4.9374695389
 30
0.0
 10
7.2552902316
 20
4.9228874126
 30
0.0
 10
7.2578771762
 20
4.9005733479
 30
0.0
 10
7.2594523271
 20
4.8776557048
 30
0.0
 10
7.2598065052
 20
4.8621996856
 30
0.0
 10
7.2598065052
 20
4.8544289738
 30
0.0
  0
SPLINE
  5
419
100
AcDbEntity
  8
0
100
AcDbSpline
 62
7
  6
CONTINUOUS
 70
0
 71
3
 72
11
 73
7
 74
0
 42
0.0000001
 43
0.0000001
 44
0.0000000001
 40
0.0
 40
0.0
 40
0.0
 40
0.0
 40
0.2570857957
 40
0.5112703573
 40
0.7597331987
 40
1.0
 40
1.0
 40
1.0
 40
1.0
 10
7.2598065052
 20
4.8544289738
 30
0.0
 10
7.2598065052
 20
4.8466582588
 30
0.0
 10
7.259452326
 20
4.8312022323
 30
0.0
 10
7.257877175
 20
4.8082845859
 30
0.0
 10
7.2552902321
 20
4.7859705244
 30
0.0
 10
7.2528830235
 20
4.7713884055
 30
0.0
 10
7.2515173057
 20
4.7642556347
 30
0.0
  0
SPLINE
  5
41A
100
AcDbEntity
  8
0
100
AcDbSpline
 62
7
  6
CONTINUOUS
 70
0
 71
3
 72
13
 73
9
 74
0
 42
0.0000001
 43
0.0000001
 44
0.0000000001
 40
0.0
 40
0.0
 40
0.0
 40
0.0
 40
0.2482880371
 40
0.3730470965
 40
0.4980765915
 40
0.6233506438
 40
0.7488490671
 40
1.0
 40
1.0
 40
1.0
 40
1.0
 10
7.2515173057
 20
4.7642556347
 30
0.0
 10
7.248354781
 20
4.7712666859
 30
0.0
 10
7.2441391353
 20
4.7820555187
 30
0.0
 10
7.239663114
 20
4.7968262895
 30
0.0
 10
7.2368867055
 20
4.8081141072
 30
0.0
 10
7.2347092569
 20
4.8195560329
 30
0.0
 10
7.2326230463
 20
4.8349687102
 30
0.0
 10
7.2319891753
 20
4.8466489688
 30
0.0
 10
7.2319891753
 20
4.8544289738
 30
0.0
  0
SPLINE
  5
41B
100
AcDbEntity
  8
0
100
AcDbSpline
 62
7
  6
CONTINUOUS
 70
0
 71
3
 72
13
 73
9
 74
0
 42
0.0000001
 43
0.0000001
 44
0.0000000001
 40
0.0
 40
0.0
 40
0.0
 40
0.0
 40
0.2511510399
 40
0.3766495607
 40
0.5019236428
 40
0.6269530949
 40
0.7517120661
 40
1.0
 40
1.0
 40
1.0
 40
1.0
 10
7.2319891753
 20
4.8544289738
 30
0.0
 10
7.2319891753
 20
4.8622089822
 30
0.0
 10
7.2326230495
 20
4.873889247
 30
0.0
 10
7.2347092594
 20
4.8893019317
 30
0.0
 10
7.2368867093
 20
4.9007438599
 30
0.0
 10
7.2396631172
 20
4.9120316745
 30
0.0
 10
7.2441391342
 20
4.9268024391
 30
0.0
 10
7.2483547823
 20
4.9375912646
 30
0.0
 10
7.2515173057
 20
4.944602313
 30
0.0
  0
SPLINE
  5
41C
100
AcDbEntity
  8
0
100
AcDbSpline
 62
7
  6
CONTINUOUS
 70
0
 71
3
 72
11
 73
7
 74
0
 42
0.0000001
 43
0.0000001
 44
0.0000000001
 40
0.0
 40
0.0
 40
0.0
 40
0.0
 40
0.2409217175
 40
0.4894838831
 40
0.7433875888
 40
1.0
 40
1.0
 40
1.0
 40
1.0
 10
7.2915151533
 20
4.944602313
 30
0.0
 10
7.2930996115
 20
4.9374801926
 30
0.0
 10
7.2958949217
 20
4.9229127156
 30
0.0
 10
7.2989029673
 20
4.9005903618
 30
0.0
 10
7.3007345072
 20
4.8776643126
 30
0.0
 10
7.3011463742
 20
4.8622004008
 30
0.0
 10
7.3011463742
 20
4.8544289738
 30
0.0
  0
SPLINE
  5
41D
100
AcDbEntity
  8
0
100
AcDbSpline
 62
7
  6
CONTINUOUS
 70
0
 71
3
 72
11
 73
7
 74
0
 42
0.0000001
 43
0.0000001
 44
0.0000000001
 40
0.0
 40
0.0
 40
0.0
 40
0.0
 40
0.2566125207
 40
0.510516355
 40
0.7590783921
 40
1.0
 40
1.0
 40
1.0
 40
1.0
 10
7.3011463742
 20
4.8544289738
 30
0.0
 10
7.3011463742
 20
4.8466575435
 30
0.0
 10
7.3007345059
 20
4.8311936245
 30
0.0
 10
7.2989029659
 20
4.8082675721
 30
0.0
 10
7.2958949223
 20
4.7859452213
 30
0.0
 10
7.2930996107
 20
4.7713777519
 30
0.0
 10
7.2915151533
 20
4.7642556347
 30
0.0
  0
SPLINE
  5
41E
100
AcDbEntity
  8
0
100
AcDbSpline
 62
7
  6
CONTINUOUS
 70
0
 71
3
 72
13
 73
9
 74
0
 42
0.0000001
 43
0.0000001
 44
0.0000000001
 40
0.0
 40
0.0
 40
0.0
 40
0.0
 40
0.247702692
 40
0.3723583149
 40
0.497391032
 40
0.6227559689
 40
0.7484126644
 40
1.0
 40
1.0
 40
1.0
 40
1.0
 10
7.2915151533
 20
4.7642556347
 30
0.0
 10
7.2884503858
 20
4.7712749045
 30
0.0
 10
7.284369371
 20
4.7820685768
 30
0.0
 10
7.2800395678
 20
4.7968310981
 30
0.0
 10
7.2773525763
 20
4.8081180908
 30
0.0
 10
7.275245255
 20
4.8195590917
 30
0.0
 10
7.2732259419
 20
4.8349731169
 30
0.0
 10
7.2726128178
 20
4.8466496833
 30
0.0
 10
7.2726128178
 20
4.8544289738
 30
0.0
  0
SPLINE
  5
41F
100
AcDbEntity
  8
0
100
AcDbSpline
 62
7
  6
CONTINUOUS
 70
0
 71
3
 72
11
 73
7
 74
0
 42
0.0000001
 43
0.0000001
 44
0.0000000001
 40
0.0
 40
0.0
 40
0.0
 40
0.0
 40
0.2416395367
 40
0.4903114408
 40
0.7439074043
 40
1.0
 40
1.0
 40
1.0
 40
1.0
 10
7.3324310847
 20
4.944602313
 30
0.0
 10
7.3342256976
 20
4.9374917048
 30
0.0
 10
7.3373948372
 20
4.9229403613
 30
0.0
 10
7.3408101798
 20
4.9006090918
 30
0.0
 10
7.3428897174
 20
4.8776738349
 30
0.0
 10
7.3433574047
 20
4.8622011926
 30
0.0
 10
7.3433574047
 20
4.8544289738
 30
0.0
  0
SPLINE
  5
420
100
AcDbEntity
  8
0
100
AcDbSpline
 62
7
  6
CONTINUOUS
 70
0
 71
3
 72
11
 73
7
 74
0
 42
0.0000001
 43
0.0000001
 44
0.0000000001
 40
0.0
 40
0.0
 40
0.0
 40
0.0
 40
0.256092705
 40
0.5096887968
 40
0.7583605723
 40
1.0
 40
1.0
 40
1.0
 40
1.0
 10
7.3433574047
 20
4.8544289738
 30
0.0
 10
7.3433574047
 20
4.8466567517
 30
0.0
 10
7.342889716
 20
4.8311841023
 30
0.0
 10
7.3408101783
 20
4.8082488421
 30
0.0
 10
7.3373948378
 20
4.7859175755
 30
0.0
 10
7.3342256968
 20
4.7713662397
 30
0.0
 10
7.3324310847
 20
4.7642556347
 30
0.0
  0
SPLINE
  5
421
100
AcDbEntity
  8
0
100
AcDbSpline
 62
7
  6
CONTINUOUS
 70
0
 71
3
 72
10
 73
6
 74
0
 42
0.0000001
 43
0.0000001
 44
0.0000000001
 40
0.0
 40
0.0
 40
0.0
 40
0.0
 40
0.4910441122
 40
0.7443869994
 40
1.0
 40
1.0
 40
1.0
 40
1.0
 10
7.3740657616
 20
4.944602313
 30
0.0
 10
7.3781062637
 20
4.9302269329
 30
0.0
 10
7.3826551161
 20
4.9079540639
 30
0.0
 10
7.3857123277
 20
4.8776856811
 30
0.0
 10
7.3862339488
 20
4.8622020455
 30
0.0
 10
7.3862339488
 20
4.8544289738
 30
0.0
  0
SPLINE
  5
422
100
AcDbEntity
  8
0
100
AcDbSpline
 62
7
  6
CONTINUOUS
 70
0
 71
3
 72
10
 73
6
 74
0
 42
0.0000001
 43
0.0000001
 44
0.0000000001
 40
0.0
 40
0.0
 40
0.0
 40
0.0
 40
0.2556131099
 40
0.5089561254
 40
1.0
 40
1.0
 40
1.0
 40
1.0
 10
7.3862339488
 20
4.8544289738
 30
0.0
 10
7.3862339488
 20
4.8466558989
 30
0.0
 10
7.3857123259
 20
4.8311722561
 30
0.0
 10
7.3826551158
 20
4.8009038731
 30
0.0
 10
7.3781062618
 20
4.7786310078
 30
0.0
 10
7.3740657616
 20
4.7642556347
 30
0.0
  0
SPLINE
  5
423
100
AcDbEntity
  8
0
100
AcDbSpline
 62
7
  6
CONTINUOUS
 70
0
 71
3
 72
12
 73
8
 74
0
 42
0.0000001
 43
0.0000001
 44
0.0000000001
 40
0.0
 40
0.0
 40
0.0
 40
0.0
 40
0.2526209337
 40
0.5041701585
 40
0.6292205436
 40
0.7536451454
 40
1.0
 40
1.0
 40
1.0
 40
1.0
 10
7.3566877892
 20
4.8544289738
 30
0.0
 10
7.3566877892
 20
4.8622066244
 30
0.0
 10
7.3574361107
 20
4.877738471
 30
0.0
 10
7.3602141366
 20
4.8969412744
 30
0.0
 10
7.3635129097
 20
4.9120155224
 30
0.0
 10
7.3674874976
 20
4.9267587965
 30
0.0
 10
7.3712403034
 20
4.9375634964
 30
0.0
 10
7.3740657616
 20
4.944602313
 30
0.0
  0
SPLINE
  5
424
100
AcDbEntity
  8
0
100
AcDbSpline
 62
7
  6
CONTINUOUS
 70
0
 71
3
 72
10
 73
6
 74
0
 42
0.0000001
 43
0.0000001
 44
0.0000000001
 40
0.0
 40
0.0
 40
0.0
 40
0.0
 40
0.49193664
 40
0.7449520728
 40
1.0
 40
1.0
 40
1.0
 40
1.0
 10
7.416216344
 20
4.944602313
 30
0.0
 10
7.4206350922
 20
4.9302737467
 30
0.0
 10
7.4256340557
 20
4.9080072969
 30
0.0
 10
7.4289940656
 20
4.8776966947
 30
0.0
 10
7.4295671162
 20
4.8622029427
 30
0.0
 10
7.4295671162
 20
4.8544289738
 30
0.0
  0
SPLINE
  5
425
100
AcDbEntity
  8
0
100
AcDbSpline
 62
7
  6
CONTINUOUS
 70
0
 71
3
 72
10
 73
6
 74
0
 42
0.0000001
 43
0.0000001
 44
0.0000000001
 40
0.0
 40
0.0
 40
0.0
 40
0.0
 40
0.2550480362
 40
0.5080635973
 40
1.0
 40
1.0
 40
1.0
 40
1.0
 10
7.4295671162
 20
4.8544289738
 30
0.0
 10
7.4295671162
 20
4.8466550016
 30
0.0
 10
7.4289940636
 20
4.8311612425
 30
0.0
 10
7.4256340554
 20
4.8008506401
 30
0.0
 10
7.42063509
 20
4.7785841941
 30
0.0
 10
7.416216344
 20
4.7642556347
 30
0.0
  0
SPLINE
  5
426
100
AcDbEntity
  8
0
100
AcDbSpline
 62
7
  6
CONTINUOUS
 70
0
 71
3
 72
12
 73
8
 74
0
 42
0.0000001
 43
0.0000001
 44
0.0000000001
 40
0.0
 40
0.0
 40
0.0
 40
0.0
 40
0.2455964392
 40
0.3698881592
 40
0.4949432742
 40
0.7468197874
 40
1.0
 40
1.0
 40
1.0
 40
1.0
 10
7.416216344
 20
4.7642556347
 30
0.0
 10
7.4135315589
 20
4.771305523
 30
0.0
 10
7.4099707955
 20
4.7821162768
 30
0.0
 10
7.4062032039
 20
4.7968486504
 30
0.0
 10
7.4030729475
 20
4.811927912
 30
0.0
 10
7.40043872
 20
4.8311301806
 30
0.0
 10
7.3997295133
 20
4.8466522235
 30
0.0
 10
7.3997295133
 20
4.8544289738
 30
0.0
  0
SPLINE
  5
427
100
AcDbEntity
  8
0
100
AcDbSpline
 62
7
  6
CONTINUOUS
 70
0
 71
3
 72
12
 73
8
 74
0
 42
0.0000001
 43
0.0000001
 44
0.0000000001
 40
0.0
 40
0.0
 40
0.0
 40
0.0
 40
0.2531803203
 40
0.5050569614
 40
0.6301120336
 40
0.7544036665
 40
1.0
 40
1.0
 40
1.0
 40
1.0
 10
7.3997295133
 20
4.8544289738
 30
0.0
 10
7.3997295133
 20
4.8622057276
 30
0.0
 10
7.400438723
 20
4.8777277775
 30
0.0
 10
7.4030729498
 20
4.8969300522
 30
0.0
 10
7.4062032066
 20
4.9120093136
 30
0.0
 10
7.4099707945
 20
4.9267416808
 30
0.0
 10
7.41353156
 20
4.9375524277
 30
0.0
 10
7.416216344
 20
4.944602313
 30
0.0
  0
SPLINE
  5
428
100
AcDbEntity
  8
0
100
AcDbSpline
 62
7
  6
CONTINUOUS
 70
0
 71
3
 72
17
 73
13
 74
0
 42
0.0000001
 43
0.0000001
 44
0.0000000001
 40
0.0
 40
0.0
 40
0.0
 40
0.0
 40
0.1219792953
 40
0.1839974074
 40
0.2465468348
 40
0.372812459
 40
0.5
 40
0.6271875409
 40
0.7534531649
 40
0.8160025924
 40
0.8780207046
 40
1.0
 40
1.0
 40
1.0
 40
1.0
 10
7.4586774786
 20
4.944602313
 30
0.0
 10
7.4610411478
 20
4.9375297201
 30
0.0
 10
7.4641646662
 20
4.9267065824
 30
0.0
 10
7.4674664358
 20
4.9119973072
 30
0.0
 10
7.4702159641
 20
4.8969074504
 30
0.0
 10
7.4725274335
 20
4.8777050249
 30
0.0
 10
7.4734531516
 20
4.8544289738
 30
0.0
 10
7.4725274335
 20
4.8311529228
 30
0.0
 10
7.4702159641
 20
4.8119504973
 30
0.0
 10
7.4674664358
 20
4.7968606405
 30
0.0
 10
7.4641646662
 20
4.7821513653
 30
0.0
 10
7.4610411478
 20
4.7713282276
 30
0.0
 10
7.4586774786
 20
4.7642556347
 30
0.0
  0
SPLINE
  5
429
100
AcDbEntity
  8
0
100
AcDbSpline
 62
7
  6
CONTINUOUS
 70
0
 71
3
 72
12
 73
8
 74
0
 42
0.0000001
 43
0.0000001
 44
0.0000000001
 40
0.0
 40
0.0
 40
0.0
 40
0.0
 40
0.2448061784
 40
0.3689600089
 40
0.4940205488
 40
0.7462382276
 40
1.0
 40
1.0
 40
1.0
 40
1.0
 10
7.4586774786
 20
4.7642556347
 30
0.0
 10
7.4561466926
 20
4.7713172371
 30
0.0
 10
7.4527953937
 20
4.7821341967
 30
0.0
 10
7.4492529412
 20
4.7968551212
 30
0.0
 10
7.44630651
 20
4.8119395513
 30
0.0
 10
7.4438288153
 20
4.8311412057
 30
0.0
 10
7.4431621118
 20
4.8466531475
 30
0.0
 10
7.4431621118
 20
4.8544289738
 30
0.0
  0
SPLINE
  5
42A
100
AcDbEntity
  8
0
100
AcDbSpline
 62
7
  6
CONTINUOUS
 70
0
 71
3
 72
12
 73
8
 74
0
 42
0.0000001
 43
0.0000001
 44
0.0000000001
 40
0.0
 40
0.0
 40
0.0
 40
0.0
 40
0.2537618804
 40
0.5059796873
 40
0.6310401845
 40
0.7551939281
 40
1.0
 40
1.0
 40
1.0
 40
1.0
 10
7.4431621118
 20
4.8544289738
 30
0.0
 10
7.4431621118
 20
4.8622048035
 30
0.0
 10
7.443828818
 20
4.8777167524
 30
0.0
 10
7.4463065121
 20
4.8969184129
 30
0.0
 10
7.4492529438
 20
4.9120028428
 30
0.0
 10
7.4527953927
 20
4.9267237608
 30
0.0
 10
7.4561466937
 20
4.9375407136
 30
0.0
 10
7.4586774786
 20
4.944602313
 30
0.0
  0
SPLINE
  5
42B
100
AcDbEntity
  8
0
100
AcDbSpline
 62
7
  6
CONTINUOUS
 70
0
 71
3
 72
13
 73
9
 74
0
 42
0.0000001
 43
0.0000001
 44
0.0000000001
 40
0.0
 40
0.0
 40
0.0
 40
0.0
 40
0.2497747824
 40
0.3747981799
 40
0.4998208746
 40
0.6248646631
 40
0.7499606665
 40
1.0
 40
1.0
 40
1.0
 40
1.0
 10
7.8554025537
 20
4.944602313
 30
0.0
 10
7.8588026395
 20
4.9376117128
 30
0.0
 10
7.8633467638
 20
4.9268353688
 30
0.0
 10
7.868180893
 20
4.9120438657
 30
0.0
 10
7.8711758334
 20
4.900754014
 30
0.0
 10
7.8735246837
 20
4.8893097588
 30
0.0
 10
7.875774286
 20
4.8739005806
 30
0.0
 10
7.8764590105
 20
4.8622108213
 30
0.0
 10
7.8764590105
 20
4.8544289738
 30
0.0
  0
SPLINE
  5
42C
100
AcDbEntity
  8
0
100
AcDbSpline
 62
7
  6
CONTINUOUS
 70
0
 71
3
 72
11
 73
7
 74
0
 42
0.0000001
 43
0.0000001
 44
0.0000000001
 40
0.0
 40
0.0
 40
0.0
 40
0.0
 40
0.2583231116
 40
0.5132440175
 40
0.7614507852
 40
1.0
 40
1.0
 40
1.0
 40
1.0
 10
7.8528171459
 20
4.8544289738
 30
0.0
 10
7.8528171459
 20
4.8621978438
 30
0.0
 10
7.8529273746
 20
4.8776334878
 30
0.0
 10
7.8534177055
 20
4.9005290604
 30
0.0
 10
7.8542229542
 20
4.9228206809
 30
0.0
 10
7.854974874
 20
4.937440887
 30
0.0
 10
7.8554025537
 20
4.944602313
 30
0.0
  0
SPLINE
  5
42D
100
AcDbEntity
  8
0
100
AcDbSpline
 62
7
  6
CONTINUOUS
 70
0
 71
3
 72
11
 73
7
 74
0
 42
0.0000001
 43
0.0000001
 44
0.0000000001
 40
0.0
 40
0.0
 40
0.0
 40
0.0
 40
0.2385493273
 40
0.4867562222
 40
0.741676998
 40
1.0
 40
1.0
 40
1.0
 40
1.0
 10
7.8554025537
 20
4.7642556347
 30
0.0
 10
7.8549748738
 20
4.771417064
 30
0.0
 10
7.8542229544
 20
4.7860372774
 30
0.0
 10
7.8534177051
 20
4.8083289011
 30
0.0
 10
7.8529273742
 20
4.8312244704
 30
0.0
 10
7.8528171459
 20
4.8466601072
 30
0.0
 10
7.8528171459
 20
4.8544289738
 30
0.0
  0
SPLINE
  5
42E
100
AcDbEntity
  8
0
100
AcDbSpline
 62
7
  6
CONTINUOUS
 70
0
 71
3
 72
13
 73
9
 74
0
 42
0.0000001
 43
0.0000001
 44
0.0000000001
 40
0.0
 40
0.0
 40
0.0
 40
0.0
 40
0.2499426842
 40
0.3750038065
 40
0.500027666
 40
0.6250498211
 40
0.7500961967
 40
1.0
 40
1.0
 40
1.0
 40
1.0
 10
7.9091946111
 20
4.8544289738
 30
0.0
 10
7.9091946111
 20
4.8466469611
 30
0.0
 10
7.9085055768
 20
4.8349563621
 30
0.0
 10
7.9062421773
 20
4.8195474855
 30
0.0
 10
7.9038788426
 20
4.8081030269
 30
0.0
 10
7.9008654389
 20
4.7968130061
 30
0.0
 10
7.8960010081
 20
4.7820197234
 30
0.0
 10
7.8914291662
 20
4.771244484
 30
0.0
 10
7.8880090978
 20
4.7642556347
 30
0.0
  0
SPLINE
  5
42F
100
AcDbEntity
  8
0
100
AcDbSpline
 62
7
  6
CONTINUOUS
 70
0
 71
3
 72
13
 73
9
 74
0
 42
0.0000001
 43
0.0000001
 44
0.0000000001
 40
0.0
 40
0.0
 40
0.0
 40
0.0
 40
0.249903905
 40
0.3749503693
 40
0.4999725673
 40
0.6249963971
 40
0.7500574227
 40
1.0
 40
1.0
 40
1.0
 40
1.0
 10
7.8880090978
 20
4.944602313
 30
0.0
 10
7.8914291676
 20
4.9376134609
 30
0.0
 10
7.8960010072
 20
4.9268382141
 30
0.0
 10
7.9008654424
 20
4.9120449254
 30
0.0
 10
7.9038788465
 20
4.9007549013
 30
0.0
 10
7.9062421795
 20
4.8893104452
 30
0.0
 10
7.9085055799
 20
4.873901576
 30
0.0
 10
7.9091946111
 20
4.8622109832
 30
0.0
 10
7.9091946111
 20
4.8544289738
 30
0.0
  0
SPLINE
  5
430
100
AcDbEntity
  8
0
100
AcDbSpline
 62
7
  6
CONTINUOUS
 70
0
 71
3
 72
13
 73
9
 74
0
 42
0.0000001
 43
0.0000001
 44
0.0000000001
 40
0.0
 40
0.0
 40
0.0
 40
0.0
 40
0.2499232565
 40
0.3749773566
 40
0.4999972101
 40
0.6250192673
 40
0.7500702757
 40
1.0
 40
1.0
 40
1.0
 40
1.0
 10
7.9398390232
 20
4.8544289738
 30
0.0
 10
7.9398390232
 20
4.8466469286
 30
0.0
 10
7.9391491263
 20
4.8349561621
 30
0.0
 10
7.9368829638
 20
4.8195473476
 30
0.0
 10
7.9345167289
 20
4.8081028487
 30
0.0
 10
7.9314996277
 20
4.7968127933
 30
0.0
 10
7.9266291271
 20
4.7820191525
 30
0.0
 10
7.9220517358
 20
4.7712441336
 30
0.0
 10
7.9186276672
 20
4.7642556347
 30
0.0
  0
SPLINE
  5
431
100
AcDbEntity
  8
0
100
AcDbSpline
 62
7
  6
CONTINUOUS
 70
0
 71
3
 72
13
 73
9
 74
0
 42
0.0000001
 43
0.0000001
 44
0.0000000001
 40
0.0
 40
0.0
 40
0.0
 40
0.0
 40
0.2499298261
 40
0.374980923
 40
0.5000030231
 40
0.625022847
 40
0.7500768503
 40
1.0
 40
1.0
 40
1.0
 40
1.0
 10
7.9186276672
 20
4.944602313
 30
0.0
 10
7.9220517372
 20
4.9376138112
 30
0.0
 10
7.9266291262
 20
4.926838785
 30
0.0
 10
7.9314996313
 20
4.9120451382
 30
0.0
 10
7.9345167328
 20
4.9007550795
 30
0.0
 10
7.936882966
 20
4.889310583
 30
0.0
 10
7.9391491294
 20
4.8739017761
 30
0.0
 10
7.9398390232
 20
4.8622110158
 30
0.0
 10
7.9398390232
 20
4.8544289738
 30
0.0
  0
SPLINE
  5
432
100
AcDbEntity
  8
0
100
AcDbSpline
 62
7
  6
CONTINUOUS
 70
0
 71
3
 72
13
 73
9
 74
0
 42
0.0000001
 43
0.0000001
 44
0.0000000001
 40
0.0
 40
0.0
 40
0.0
 40
0.0
 40
0.2499814632
 40
0.3750566033
 40
0.5000884603
 40
0.6251108127
 40
0.7501479423
 40
1.0
 40
1.0
 40
1.0
 40
1.0
 10
7.9682429504
 20
4.8544289738
 30
0.0
 10
7.9682429504
 20
4.846647026
 30
0.0
 10
7.9675556402
 20
4.8349567612
 30
0.0
 10
7.9652977632
 20
4.8195477607
 30
0.0
 10
7.9629402253
 20
4.8081033826
 30
0.0
 10
7.9599342118
 20
4.7968134307
 30
0.0
 10
7.955081912
 20
4.7820208634
 30
0.0
 10
7.9505211626
 20
4.771245184
 30
0.0
 10
7.9471090912
 20
4.7642556347
 30
0.0
  0
SPLINE
  5
433
100
AcDbEntity
  8
0
100
AcDbSpline
 62
7
  6
CONTINUOUS
 70
0
 71
3
 72
13
 73
9
 74
0
 42
0.0000001
 43
0.0000001
 44
0.0000000001
 40
0.0
 40
0.0
 40
0.0
 40
0.0
 40
0.2498661437
 40
0.3748996535
 40
0.4999188638
 40
0.624949107
 40
0.7500228548
 40
1.0
 40
1.0
 40
1.0
 40
1.0
 10
7.9476384603
 20
4.9435101595
 30
0.0
 10
7.9509676925
 20
4.9365921982
 30
0.0
 10
7.9554161901
 20
4.9259345267
 30
0.0
 10
7.9601464804
 20
4.9113146968
 30
0.0
 10
7.9630762138
 20
4.9001619134
 30
0.0
 10
7.9653735512
 20
4.8888604333
 30
0.0
 10
7.9675733871
 20
4.873647687
 30
0.0
 10
7.9682429504
 20
4.8621097522
 30
0.0
 10
7.9682429504
 20
4.8544289738
 30
0.0
  0
SPLINE
  5
434
100
AcDbEntity
  8
0
100
AcDbSpline
 62
7
  6
CONTINUOUS
 70
0
 71
3
 72
13
 73
9
 74
0
 42
0.0000001
 43
0.0000001
 44
0.0000000001
 40
0.0
 40
0.0
 40
0.0
 40
0.0
 40
0.2501163868
 40
0.3752403093
 40
0.5003000093
 40
0.625323067
 40
0.7503280385
 40
1.0
 40
1.0
 40
1.0
 40
1.0
 10
7.9942680117
 20
4.8544289738
 30
0.0
 10
7.9942680117
 20
4.8466472516
 30
0.0
 10
7.9935867218
 20
4.8349581483
 30
0.0
 10
7.9913481385
 20
4.8195487173
 30
0.0
 10
7.9890108505
 20
4.8081046197
 30
0.0
 10
7.9860306532
 20
4.7968149089
 30
0.0
 10
7.9812207215
 20
4.7820248341
 30
0.0
 10
7.9766987293
 20
4.7712476258
 30
0.0
 10
7.9733146113
 20
4.7642556347
 30
0.0
  0
SPLINE
  5
435
100
AcDbEntity
  8
0
100
AcDbSpline
 62
7
  6
CONTINUOUS
 70
0
 71
3
 72
13
 73
9
 74
0
 42
0.0000001
 43
0.0000001
 44
0.0000000001
 40
0.0
 40
0.0
 40
0.0
 40
0.0
 40
0.2496720635
 40
0.3746771235
 40
0.499700224
 40
0.6247598945
 40
0.7498837201
 40
1.0
 40
1.0
 40
1.0
 40
1.0
 10
7.9733146113
 20
4.944602313
 30
0.0
 10
7.9766987307
 20
4.9376103191
 30
0.0
 10
7.9812207206
 20
4.9268331035
 30
0.0
 10
7.9860306568
 20
4.9120430226
 30
0.0
 10
7.9890108544
 20
4.9007533086
 30
0.0
 10
7.9913481407
 20
4.8893092134
 30
0.0
 10
7.9935867248
 20
4.8738997899
 30
0.0
 10
7.9942680117
 20
4.8622106927
 30
0.0
 10
7.9942680117
 20
4.8544289738
 30
0.0
  0
SPLINE
  5
436
100
AcDbEntity
  8
0
100
AcDbSpline
 62
7
  6
CONTINUOUS
 70
0
 71
3
 72
13
 73
9
 74
0
 42
0.0000001
 43
0.0000001
 44
0.0000000001
 40
0.0
 40
0.0
 40
0.0
 40
0.0
 40
0.2503258908
 40
0.3755255912
 40
0.5006285766
 40
0.625652788
 40
0.7506078614
 40
1.0
 40
1.0
 40
1.0
 40
1.0
 10
8.0177874154
 20
4.8544289738
 30
0.0
 10
8.0177874154
 20
4.8466476009
 30
0.0
 10
8.0171155438
 20
4.834960297
 30
0.0
 10
8.0149071679
 20
4.8195502005
 30
0.0
 10
8.0126015792
 20
4.8081065395
 30
0.0
 10
8.009661796
 20
4.7968172059
 30
0.0
 10
8.0049181585
 20
4.782031013
 30
0.0
 10
8.0004568621
 20
4.7712514369
 30
0.0
 10
7.9971165568
 20
4.7642556347
 30
0.0
  0
SPLINE
  5
437
100
AcDbEntity
  8
0
100
AcDbSpline
 62
7
  6
CONTINUOUS
 70
0
 71
3
 72
13
 73
9
 74
0
 42
0.0000001
 43
0.0000001
 44
0.0000000001
 40
0.0
 40
0.0
 40
0.0
 40
0.0
 40
0.2493922408
 40
0.3743474026
 40
0.4993716569
 40
0.6244746128
 40
0.7496742163
 40
1.0
 40
1.0
 40
1.0
 40
1.0
 10
7.9971165568
 20
4.944602313
 30
0.0
 10
8.0004568634
 20
4.9376065079
 30
0.0
 10
8.0049181576
 20
4.9268269245
 30
0.0
 10
8.0096617994
 20
4.9120407255
 30
0.0
 10
8.0126015831
 20
4.9007513888
 30
0.0
 10
8.01490717
 20
4.8893077302
 30
0.0
 10
8.0171155468
 20
4.8738976412
 30
0.0
 10
8.0177874154
 20
4.8622103434
 30
0.0
 10
8.0177874154
 20
4.8544289738
 30
0.0
  0
SPLINE
  5
438
100
AcDbEntity
  8
0
100
AcDbSpline
 62
7
  6
CONTINUOUS
 70
0
 71
3
 72
13
 73
9
 74
0
 42
0.0000001
 43
0.0000001
 44
0.0000000001
 40
0.0
 40
0.0
 40
0.0
 40
0.0
 40
0.2506066278
 40
0.3759079298
 40
0.5010690168
 40
0.6260948865
 40
0.7509831644
 40
1.0
 40
1.0
 40
1.0
 40
1.0
 10
8.0386865775
 20
4.8544289738
 30
0.0
 10
8.0386865775
 20
4.8466480672
 30
0.0
 10
8.0380274661
 20
4.8349631667
 30
0.0
 10
8.0358600634
 20
4.8195521837
 30
0.0
 10
8.033597462
 20
4.8081091099
 30
0.0
 10
8.0307124854
 20
4.7968202872
 30
0.0
 10
8.0260586923
 20
4.7820393185
 30
0.0
 10
8.0216797522
 20
4.7712565815
 30
0.0
 10
8.018398967
 20
4.7642556347
 30
0.0
  0
SPLINE
  5
439
100
AcDbEntity
  8
0
100
AcDbSpline
 62
7
  6
CONTINUOUS
 70
0
 71
3
 72
13
 73
9
 74
0
 42
0.0000001
 43
0.0000001
 44
0.0000000001
 40
0.0
 40
0.0
 40
0.0
 40
0.0
 40
0.2490169381
 40
0.3739053043
 40
0.4989312169
 40
0.6240922744
 40
0.7493934793
 40
1.0
 40
1.0
 40
1.0
 40
1.0
 10
8.018398967
 20
4.944602313
 30
0.0
 10
8.0216797535
 20
4.9376013633
 30
0.0
 10
8.0260586914
 20
4.9268186191
 30
0.0
 10
8.0307124888
 20
4.9120376442
 30
0.0
 10
8.0335974658
 20
4.9007488183
 30
0.0
 10
8.0358600656
 20
4.8893057469
 30
0.0
 10
8.0380274691
 20
4.8738947714
 30
0.0
 10
8.0386865775
 20
4.8622098772
 30
0.0
 10
8.0386865775
 20
4.8544289738
 30
0.0
  0
SPLINE
  5
43A
100
AcDbEntity
  8
0
100
AcDbSpline
 62
7
  6
CONTINUOUS
 70
0
 71
3
 72
13
 73
9
 74
0
 42
0.0000001
 43
0.0000001
 44
0.0000000001
 40
0.0
 40
0.0
 40
0.0
 40
0.0
 40
0.2509540564
 40
0.3763811887
 40
0.5016143367
 40
0.6266424367
 40
0.7514481603
 40
1.0
 40
1.0
 40
1.0
 40
1.0
 10
8.0568636794
 20
4.8544289738
 30
0.0
 10
8.0568636794
 20
4.8466486413
 30
0.0
 10
8.0562205952
 20
4.8349667031
 30
0.0
 10
8.0541047309
 20
4.8195546314
 30
0.0
 10
8.0518961857
 20
4.8081122877
 30
0.0
 10
8.0490801303
 20
4.7968241057
 30
0.0
 10
8.0445392235
 20
4.7820496378
 30
0.0
 10
8.0402639216
 20
4.7712630088
 30
0.0
 10
8.0370581561
 20
4.7642556347
 30
0.0
  0
SPLINE
  5
43B
100
AcDbEntity
  8
0
100
AcDbSpline
 62
7
  6
CONTINUOUS
 70
0
 71
3
 72
13
 73
9
 74
0
 42
0.0000001
 43
0.0000001
 44
0.0000000001
 40
0.0
 40
0.0
 40
0.0
 40
0.0
 40
0.2485519426
 40
0.3733577543
 40
0.4983858972
 40
0.6236190157
 40
0.7490460509
 40
1.0
 40
1.0
 40
1.0
 40
1.0
 10
8.0370581561
 20
4.944602313
 30
0.0
 10
8.0402639229
 20
4.937594936
 30
0.0
 10
8.0445392226
 20
4.9268082998
 30
0.0
 10
8.0490801337
 20
4.9120338257
 30
0.0
 10
8.0518961894
 20
4.9007456406
 30
0.0
 10
8.054104733
 20
4.8893032992
 30
0.0
 10
8.0562205981
 20
4.8738912351
 30
0.0
 10
8.0568636794
 20
4.862209303
 30
0.0
 10
8.0568636794
 20
4.8544289738
 30
0.0
  0
SPLINE
  5
43C
100
AcDbEntity
  8
0
100
AcDbSpline
 62
7
  6
CONTINUOUS
 70
0
 71
3
 72
13
 73
9
 74
0
 42
0.0000001
 43
0.0000001
 44
0.0000000001
 40
0.0
 40
0.0
 40
0.0
 40
0.0
 40
0.2513624657
 40
0.3769376451
 40
0.502255724
 40
0.6272866981
 40
0.7519955331
 40
1.0
 40
1.0
 40
1.0
 40
1.0
 10
8.0722301639
 20
4.8544289738
 30
0.0
 10
8.0722301639
 20
4.8466493122
 30
0.0
 10
8.0716062804
 20
4.8349708389
 30
0.0
 10
8.0695522676
 20
4.8195574993
 30
0.0
 10
8.0674085727
 20
4.8081160185
 30
0.0
 10
8.0646752043
 20
4.7968286017
 30
0.0
 10
8.0602695894
 20
4.7820618261
 30
0.0
 10
8.0561187281
 20
4.7712706511
 30
0.0
 10
8.0530032184
 20
4.7642556347
 30
0.0
  0
SPLINE
  5
43D
100
AcDbEntity
  8
0
100
AcDbSpline
 62
7
  6
CONTINUOUS
 70
0
 71
3
 72
13
 73
9
 74
0
 42
0.0000001
 43
0.0000001
 44
0.0000000001
 40
0.0
 40
0.0
 40
0.0
 40
0.0
 40
0.2480045703
 40
0.3727134932
 40
0.4977445102
 40
0.6230625597
 40
0.7486376417
 40
1.0
 40
1.0
 40
1.0
 40
1.0
 10
8.0530032184
 20
4.944602313
 30
0.0
 10
8.0561187294
 20
4.9375872937
 30
0.0
 10
8.0602695885
 20
4.9267961116
 30
0.0
 10
8.0646752075
 20
4.9120293297
 30
0.0
 10
8.0674085763
 20
4.9007419098
 30
0.0
 10
8.0695522696
 20
4.8893004314
 30
0.0
 10
8.0716062832
 20
4.8738870993
 30
0.0
 10
8.0722301639
 20
4.8622086321
 30
0.0
 10
8.0722301639
 20
4.8544289738
 30
0.0
  0
SPLINE
  5
43E
100
AcDbEntity
  8
0
100
AcDbSpline
 62
7
  6
CONTINUOUS
 70
0
 71
3
 72
12
 73
8
 74
0
 42
0.0000001
 43
0.0000001
 44
0.0000000001
 40
0.0
 40
0.0
 40
0.0
 40
0.0
 40
0.2528971994
 40
0.5046080347
 40
0.6296606695
 40
0.7540195607
 40
1.0
 40
1.0
 40
1.0
 40
1.0
 10
8.1007878594
 20
4.8544289738
 30
0.0
 10
8.1007878594
 20
4.8466517672
 30
0.0
 10
8.1000586562
 20
4.8311247688
 30
0.0
 10
8.0973508897
 20
4.8119222188
 30
0.0
 10
8.0941344092
 20
4.7968454898
 30
0.0
 10
8.0902609815
 20
4.7821075893
 30
0.0
 10
8.0866019583
 20
4.7712998938
 30
0.0
 10
8.0838451368
 20
4.7642556347
 30
0.0
  0
SPLINE
  5
43F
100
AcDbEntity
  8
0
100
AcDbSpline
 62
7
  6
CONTINUOUS
 70
0
 71
3
 72
12
 73
8
 74
0
 42
0.0000001
 43
0.0000001
 44
0.0000000001
 40
0.0
 40
0.0
 40
0.0
 40
0.0
 40
0.2459805443
 40
0.3703395227
 40
0.4953922005
 40
0.7471029087
 40
1.0
 40
1.0
 40
1.0
 40
1.0
 10
8.0838451368
 20
4.944602313
 30
0.0
 10
8.0866019594
 20
4.9375580509
 30
0.0
 10
8.0902609807
 20
4.9267503485
 30
0.0
 10
8.0941344121
 20
4.9120124417
 30
0.0
 10
8.0973508917
 20
4.8969357123
 30
0.0
 10
8.1000586587
 20
4.8777331684
 30
0.0
 10
8.1007878594
 20
4.8622061772
 30
0.0
 10
8.1007878594
 20
4.8544289738
 30
0.0
  0
SPLINE
  5
440
100
AcDbEntity
  8
0
100
AcDbSpline
 62
7
  6
CONTINUOUS
 70
0
 71
3
 72
12
 73
8
 74
0
 42
0.0000001
 43
0.0000001
 44
0.0000000001
 40
0.0
 40
0.0
 40
0.0
 40
0.0
 40
0.2534689962
 40
0.5055148871
 40
0.6305725815
 40
0.7547957239
 40
1.0
 40
1.0
 40
1.0
 40
1.0
 10
8.1043052242
 20
4.8544289738
 30
0.0
 10
8.1043052242
 20
4.8466526799
 30
0.0
 10
8.1036168567
 20
4.8311356545
 30
0.0
 10
8.1010593536
 20
4.8119336765
 30
0.0
 10
8.0980191485
 20
4.7968518441
 30
0.0
 10
8.0943619364
 20
4.782125146
 30
0.0
 10
8.0909037863
 20
4.771311308
 30
0.0
 10
8.088294372
 20
4.7642556347
 30
0.0
  0
SPLINE
  5
441
100
AcDbEntity
  8
0
100
AcDbSpline
 62
7
  6
CONTINUOUS
 70
0
 71
3
 72
12
 73
8
 74
0
 42
0.0000001
 43
0.0000001
 44
0.0000000001
 40
0.0
 40
0.0
 40
0.0
 40
0.0
 40
0.2452043819
 40
0.3694276111
 40
0.4944853486
 40
0.7465311122
 40
1.0
 40
1.0
 40
1.0
 40
1.0
 10
8.088294372
 20
4.944602313
 30
0.0
 10
8.0909037874
 20
4.9375466367
 30
0.0
 10
8.0943619356
 20
4.9267327919
 30
0.0
 10
8.0980191513
 20
4.9120060873
 30
0.0
 10
8.1010593556
 20
4.8969242546
 30
0.0
 10
8.1036168591
 20
4.8777222827
 30
0.0
 10
8.1043052242
 20
4.8622052645
 30
0.0
 10
8.1043052242
 20
4.8544289738
 30
0.0
  0
SPLINE
  5
442
100
AcDbEntity
  8
0
100
AcDbSpline
 62
7
  6
CONTINUOUS
 70
0
 71
3
 72
43
 73
39
 74
0
 42
0.0000001
 43
0.0000001
 44
0.0000000001
 40
0.0
 40
0.0
 40
0.0
 40
0.0
 40
0.0174048853
 40
0.0346919179
 40
0.0517773163
 40
0.0686183702
 40
0.0852100786
 40
0.1015694788
 40
0.1336775304
 40
0.1651962166
 40
0.1963018076
 40
0.2271203564
 40
0.2577392407
 40
0.2882183602
 40
0.3185994806
 40
0.348912377
 40
0.3791770182
 40
0.4094089027
 40
0.439618962
 40
0.5000000414
 40
0.5603811214
 40
0.5905911886
 40
0.6208230662
 40
0.6510877087
 40
0.6814005981
 40
0.7117817021
 40
0.7422608052
 40
0.7728796879
 40
0.8036982618
 40
0.834803864
 40
0.8663225393
 40
0.8984305424
 40
0.9147899237
 40
0.9313816304
 40
0.9482226915
 40
0.9653080867
 40
0.9825951126
 40
1.0
 40
1.0
 40
1.0
 40
1.0
 10
9.0079087857
 20
5.6374782358
 30
0.0
 10
9.0122399858
 20
5.6374782358
 30
0.0
 10
9.0208864351
 20
5.6381203611
 30
0.0
 10
9.0335022299
 20
5.6409341381
 30
0.0
 10
9.0454820162
 20
5.6453900052
 30
0.0
 10
9.0566523996
 20
5.6512207639
 30
0.0
 10
9.0669463876
 20
5.658159495
 30
0.0
 10
9.0794235622
 20
5.6685098515
 30
0.0
 10
9.0930154563
 20
5.6831753378
 30
0.0
 10
9.1065465617
 20
5.702545764
 30
0.0
 10
9.1177179151
 20
5.72298307
 30
0.0
 10
9.1269363372
 20
5.7441134595
 30
0.0
 10
9.1345282413
 20
5.7657082333
 30
0.0
 10
9.1407491286
 20
5.7876187727
 30
0.0
 10
9.1458010951
 20
5.809746619
 30
0.0
 10
9.1498394482
 20
5.8320252697
 30
0.0
 10
9.1529907061
 20
5.8544075546
 30
0.0
 10
9.15534932
 20
5.876860661
 30
0.0
 10
9.1575282204
 20
5.9068525518
 30
0.0
 10
9.1585787989
 20
5.944429004
 30
0.0
 10
9.1575281953
 20
5.9820054555
 30
0.0
 10
9.1553493365
 20
6.0119973503
 30
0.0
 10
9.1529906721
 20
6.0344504518
 30
0.0
 10
9.1498394584
 20
6.0568327395
 30
0.0
 10
9.1458010772
 20
6.0791113803
 30
0.0
 10
9.1407491091
 20
6.1012392153
 30
0.0
 10
9.1345282342
 20
6.1231497495
 30
0.0
 10
9.1269363258
 20
6.1447445237
 30
0.0
 10
9.1177179009
 20
6.1658749216
 30
0.0
 10
9.1065465365
 20
6.1863122287
 30
0.0
 10
9.0930154338
 20
6.2056826425
 30
0.0
 10
9.0794235457
 20
6.2203481071
 30
0.0
 10
9.066946386
 20
6.2306984545
 30
0.0
 10
9.0566524002
 20
6.2376371829
 30
0.0
 10
9.0454820168
 20
6.2434679426
 30
0.0
 10
9.0335022309
 20
6.2479238091
 30
0.0
 10
9.0208864382
 20
6.2507375863
 30
0.0
 10
9.0122399901
 20
6.2513797119
 30
0.0
 10
9.0079087894
 20
6.2513797119
 30
0.0
  0
SPLINE
  5
443
100
AcDbEntity
  8
0
100
AcDbSpline
 62
7
  6
CONTINUOUS
 70
0
 71
3
 72
43
 73
39
 74
0
 42
0.0000001
 43
0.0000001
 44
0.0000000001
 40
0.0
 40
0.0
 40
0.0
 40
0.0
 40
0.0174049028
 40
0.0346919227
 40
0.0517772942
 40
0.0686183389
 40
0.085210041
 40
0.1015694451
 40
0.1336775311
 40
0.1651962023
 40
0.1963017834
 40
0.2271203639
 40
0.2577392715
 40
0.2882183933
 40
0.3185995093
 40
0.348912391
 40
0.3791770239
 40
0.4094089028
 40
0.4396189582
 40
0.5000000306
 40
0.560381111
 40
0.5905911741
 40
0.6208230531
 40
0.6510876983
 40
0.6814005988
 40
0.7117817124
 40
0.7422608262
 40
0.772879716
 40
0.8036983034
 40
0.8348039132
 40
0.8663225876
 40
0.8984305763
 40
0.9147899481
 40
0.9313816468
 40
0.9482227022
 40
0.9653080853
 40
0.9825951011
 40
1.0
 40
1.0
 40
1.0
 40
1.0
 10
9.0079087826
 20
6.4374782358
 30
0.0
 10
9.0122399871
 20
6.4374782358
 30
0.0
 10
9.0208864376
 20
6.4381203612
 30
0.0
 10
9.0335022272
 20
6.4409341366
 30
0.0
 10
9.0454820022
 20
6.4453899994
 30
0.0
 10
9.0566523775
 20
6.4512207507
 30
0.0
 10
9.0669463645
 20
6.4581594782
 30
0.0
 10
9.0794235473
 20
6.4685098374
 30
0.0
 10
9.0930154485
 20
6.4831753258
 30
0.0
 10
9.1065465526
 20
6.5025457558
 30
0.0
 10
9.1177179151
 20
6.5229830585
 30
0.0
 10
9.1269363414
 20
6.5441134593
 30
0.0
 10
9.1345282401
 20
6.5657082498
 30
0.0
 10
9.140749142
 20
6.5876187908
 30
0.0
 10
9.1458010923
 20
6.6097466368
 30
0.0
 10
9.1498394486
 20
6.6320252799
 30
0.0
 10
9.1529907053
 20
6.654407558
 30
0.0
 10
9.1553493196
 20
6.6768606601
 30
0.0
 10
9.1575282189
 20
6.7068525471
 30
0.0
 10
9.158578797
 20
6.7444289967
 30
0.0
 10
9.1575282022
 20
6.7820054463
 30
0.0
 10
9.1553493294
 20
6.8119973396
 30
0.0
 10
9.1529906822
 20
6.8344504431
 30
0.0
 10
9.1498394536
 20
6.8568327327
 30
0.0
 10
9.1458010838
 20
6.8791113815
 30
0.0
 10
9.1407491047
 20
6.9012392224
 30
0.0
 10
9.1345282327
 20
6.9231497645
 30
0.0
 10
9.126936319
 20
6.9447445453
 30
0.0
 10
9.1177178912
 20
6.9658749498
 30
0.0
 10
9.1065465196
 20
6.9863122589
 30
0.0
 10
9.0930154153
 20
7.0056826696
 30
0.0
 10
9.0794235253
 20
7.020348124
 30
0.0
 10
9.066946371
 20
7.0306984654
 30
0.0
 10
9.0566523892
 20
7.0376371898
 30
0.0
 10
9.0454820105
 20
7.0434679446
 30
0.0
 10
9.0335022315
 20
7.0479238099
 30
0.0
 10
9.0208864412
 20
7.0507375859
 30
0.0
 10
9.0122399927
 20
7.0513797119
 30
0.0
 10
9.0079087892
 20
7.0513797119
 30
0.0
  0
SPLINE
  5
444
100
AcDbEntity
  8
0
100
AcDbSpline
 62
7
  6
CONTINUOUS
 70
0
 71
3
 72
17
 73
13
 74
0
 42
0.0000001
 43
0.0000001
 44
0.0000000001
 40
0.0
 40
0.0
 40
0.0
 40
0.0
 40
0.1166045805
 40
0.2399487064
 40
0.3038376229
 40
0.3687699443
 40
0.4999999136
 40
0.6312298977
 40
0.6961622363
 40
0.7600511754
 40
0.8833953577
 40
1.0
 40
1.0
 40
1.0
 40
1.0
 10
6.929960092
 20
5.4664289738
 30
0.0
 10
6.9299601034
 20
5.4702700675
 30
0.0
 10
6.9292247515
 20
5.4781895742
 30
0.0
 10
6.9264557386
 20
5.4878772362
 30
0.0
 10
6.922987354
 20
5.4954397276
 30
0.0
 10
6.9186565943
 20
5.5028436713
 30
0.0
 10
6.9118370927
 20
5.5113061434
 30
0.0
 10
6.9033746122
 20
5.5181256354
 30
0.0
 10
6.8959706622
 20
5.5224563879
 30
0.0
 10
6.8884081644
 20
5.525924766
 30
0.0
 10
6.8787204955
 20
5.5286937712
 30
0.0
 10
6.8708009844
 20
5.5294291178
 30
0.0
 10
6.8669598887
 20
5.529429104
 30
0.0
  0
SPLINE
  5
445
100
AcDbEntity
  8
0
100
AcDbSpline
 62
7
  6
CONTINUOUS
 70
0
 71
3
 72
17
 73
13
 74
0
 42
0.0000001
 43
0.0000001
 44
0.0000000001
 40
0.0
 40
0.0
 40
0.0
 40
0.0
 40
0.1166045647
 40
0.2399486824
 40
0.3038375981
 40
0.3687699206
 40
0.4999998955
 40
0.6312298883
 40
0.6961622315
 40
0.7600511745
 40
0.8833953605
 40
1.0
 40
1.0
 40
1.0
 40
1.0
 10
8.0299596591
 20
5.4664289738
 30
0.0
 10
8.0299596461
 20
5.4702700687
 30
0.0
 10
8.0306949955
 20
5.4781895785
 30
0.0
 10
8.0334640071
 20
5.4878772448
 30
0.0
 10
8.0369323922
 20
5.4954397399
 30
0.0
 10
8.0412631534
 20
5.5028436874
 30
0.0
 10
8.0480826585
 20
5.5113061637
 30
0.0
 10
8.0565451445
 20
5.5181256579
 30
0.0
 10
8.0639490994
 20
5.5224564109
 30
0.0
 10
8.071511602
 20
5.5259247886
 30
0.0
 10
8.0811992765
 20
5.5286937916
 30
0.0
 10
8.0891187915
 20
5.5294291351
 30
0.0
 10
8.0929598888
 20
5.5294291195
 30
0.0
  0
SPLINE
  5
446
100
AcDbEntity
  8
0
100
AcDbSpline
 62
9
  6
CONTINUOUS
 70
0
 71
3
 72
34
 73
30
 74
0
 42
0.0000001
 43
0.0000001
 44
0.0000000001
 40
0.0
 40
0.0
 40
0.0
 40
0.0
 40
0.2045924938
 40
0.3937274066
 40
0.4814986237
 40
0.5641674394
 40
0.6412520016
 40
0.7122291699
 40
0.7765710141
 40
0.833751569
 40
0.8594966434
 40
0.8832602668
 40
0.9049788672
 40
0.9245887999
 40
0.942026355
 40
0.9572347166
 40
0.9701808571
 40
0.9808368364
 40
0.9852972818
 40
0.989174705
 40
0.9924656105
 40
0.9951665027
 40
0.997273885
 40
0.9981039171
 40
0.9987842604
 40
0.9993144776
 40
0.9996941314
 40
0.9999227847
 40
1.0
 40
1.0
 40
1.0
 40
1.0
 10
7.8231570277
 20
5.6086143867
 30
0.0
 10
7.8379776254
 20
5.6000285737
 30
0.0
 10
7.8661591174
 20
5.582914219
 30
0.0
 10
7.8999157377
 20
5.5608733181
 30
0.0
 10
7.924784836
 20
5.5439105457
 30
0.0
 10
7.9417712698
 20
5.5320411243
 30
0.0
 10
7.9574949544
 20
5.5208210548
 30
0.0
 10
7.9718778745
 20
5.5103647882
 30
0.0
 10
7.9848405676
 20
5.5007896361
 30
0.0
 10
7.9947119227
 20
5.4934032641
 30
0.0
 10
8.0018403767
 20
5.4880216952
 30
0.0
 10
8.0065902659
 20
5.4844167656
 30
0.0
 10
8.0109233768
 20
5.481112295
 30
0.0
 10
8.0148292805
 20
5.4781210089
 30
0.0
 10
8.0182979938
 20
5.4754552592
 30
0.0
 10
8.0213215835
 20
5.4731258338
 30
0.0
 10
8.0238930904
 20
5.4711398644
 30
0.0
 10
8.0257507886
 20
5.4697017128
 30
0.0
 10
8.027007257
 20
5.4687271609
 30
0.0
 10
8.0277761673
 20
5.4681300533
 30
0.0
 10
8.0284284465
 20
5.4676229239
 30
0.0
 10
8.0289634812
 20
5.4672064182
 30
0.0
 10
8.0293358209
 20
5.4669162935
 30
0.0
 10
8.0295745722
 20
5.4667299468
 30
0.0
 10
8.0297093305
 20
5.4666249374
 30
0.0
 10
8.0298139907
 20
5.4665426944
 30
0.0
 10
8.0298896558
 20
5.4664846468
 30
0.0
 10
8.0299338432
 20
5.4664481257
 30
0.0
 10
8.0299550534
 20
5.4664335371
 30
0.0
 10
8.0299596936
 20
5.4664290365
 30
0.0
  0
SPLINE
  5
447
100
AcDbEntity
  8
0
100
AcDbSpline
 62
9
  6
CONTINUOUS
 70
0
 71
3
 72
34
 73
30
 74
0
 42
0.0000001
 43
0.0000001
 44
0.0000000001
 40
0.0
 40
0.0
 40
0.0
 40
0.0
 40
0.000077253
 40
0.0003059394
 40
0.0006856219
 40
0.0012158635
 40
0.0018962271
 40
0.0027262754
 40
0.0048336784
 40
0.0075345765
 40
0.0108254744
 40
0.014702877
 40
0.0191632903
 40
0.0298191741
 40
0.0427651841
 40
0.0579733883
 40
0.0754107728
 40
0.095020535
 40
0.1167389709
 40
0.1405024414
 40
0.1662473804
 40
0.2234277389
 40
0.2877695197
 40
0.3587467579
 40
0.4358315054
 40
0.5185005973
 40
0.6062721119
 40
0.7954074633
 40
1.0
 40
1.0
 40
1.0
 40
1.0
 10
6.929960092
 20
5.4664290313
 30
0.0
 10
6.9299647403
 20
5.4664335273
 30
0.0
 10
6.929985938
 20
5.4664481345
 30
0.0
 10
6.9300301427
 20
5.466484643
 30
0.0
 10
6.9301057986
 20
5.4665426997
 30
0.0
 10
6.9302104583
 20
5.4666249366
 30
0.0
 10
6.9303452078
 20
5.4667299429
 30
0.0
 10
6.9305839434
 20
5.4669162778
 30
0.0
 10
6.9309562544
 20
5.4672063831
 30
0.0
 10
6.9314912461
 20
5.4676228576
 30
0.0
 10
6.9321434698
 20
5.4681299467
 30
0.0
 10
6.9329123127
 20
5.4687270047
 30
0.0
 10
6.9341686681
 20
5.4697014726
 30
0.0
 10
6.9360261973
 20
5.4711394974
 30
0.0
 10
6.9385974695
 20
5.473125289
 30
0.0
 10
6.941620784
 20
5.475454504
 30
0.0
 10
6.9450891842
 20
5.4781200131
 30
0.0
 10
6.9489947392
 20
5.4811110317
 30
0.0
 10
6.953327468
 20
5.4844152105
 30
0.0
 10
6.9580769435
 20
5.4880198264
 30
0.0
 10
6.9652047883
 20
5.4934009383
 30
0.0
 10
6.9750753158
 20
5.5007866998
 30
0.0
 10
6.9880369362
 20
5.5103610878
 30
0.0
 10
7.0024186777
 20
5.5208165617
 30
0.0
 10
7.0181410769
 20
5.5320358245
 30
0.0
 10
7.0351261107
 20
5.5439044395
 30
0.0
 10
7.0599931166
 20
5.560866117
 30
0.0
 10
7.0937468316
 20
5.5829056347
 30
0.0
 10
7.1219259098
 20
5.6000189117
 30
0.0
 10
7.136745199
 20
5.6086042324
 30
0.0
  0
SPLINE
  5
448
100
AcDbEntity
  8
0
100
AcDbSpline
 62
9
  6
CONTINUOUS
 70
0
 71
3
 72
38
 73
34
 74
0
 42
0.0000001
 43
0.0000001
 44
0.0000000001
 40
0.0
 40
0.0
 40
0.0
 40
0.0
 40
0.210967467
 40
0.3097099082
 40
0.4034948384
 40
0.4919509363
 40
0.5746879879
 40
0.6512985978
 40
0.7213618403
 40
0.7844584476
 40
0.8401783482
 40
0.8651459157
 40
0.8881194278
 40
0.9090555354
 40
0.9279128202
 40
0.9446512754
 40
0.9592351876
 40
0.9716297694
 40
0.9769966848
 40
0.9818067656
 40
0.98605776
 40
0.9897474156
 40
0.9928734864
 40
0.9954341476
 40
0.9965020823
 40
0.9974282353
 40
0.9982124686
 40
0.9988546437
 40
0.9993546226
 40
0.999712267
 40
0.9998376705
 40
0.9999274387
 40
1.0
 40
1.0
 40
1.0
 40
1.0
 10
7.9324954501
 20
5.6254711292
 30
0.0
 10
7.9440584943
 20
5.6191996281
 30
0.0
 10
7.960936978
 20
5.6098133604
 30
0.0
 10
7.9827533525
 20
5.5972825837
 30
0.0
 10
7.9978734912
 20
5.5884317265
 30
0.0
 10
8.0120703245
 20
5.5799800838
 30
0.0
 10
8.0252944548
 20
5.5719886522
 30
0.0
 10
8.0374932773
 20
5.5645184669
 30
0.0
 10
8.0486116471
 20
5.5576292739
 30
0.0
 10
8.0585939538
 20
5.5513799472
 30
0.0
 10
8.066174495
 20
5.5465933239
 30
0.0
 10
8.0716305825
 20
5.5431280733
 30
0.0
 10
8.0752522577
 20
5.5408199348
 30
0.0
 10
8.0785496565
 20
5.5387118776
 30
0.0
 10
8.0815171456
 20
5.5368095467
 30
0.0
 10
8.0841494788
 20
5.5351183
 30
0.0
 10
8.0864413379
 20
5.533642613
 30
0.0
 10
8.0881360067
 20
5.5325491677
 30
0.0
 10
8.0893180752
 20
5.5317853227
 30
0.0
 10
8.090073483
 20
5.5312967819
 30
0.0
 10
8.0907409436
 20
5.5308648322
 30
0.0
 10
8.0913201757
 20
5.5304898137
 30
0.0
 10
8.0918109255
 20
5.5301720592
 30
0.0
 10
8.0921644949
 20
5.529943211
 30
0.0
 10
8.0924029287
 20
5.5297889216
 30
0.0
 10
8.0925483844
 20
5.5296948352
 30
0.0
 10
8.0926715429
 20
5.5296151433
 30
0.0
 10
8.0927724468
 20
5.5295500098
 30
0.0
 10
8.0928508978
 20
5.5294990405
 30
0.0
 10
8.0929025772
 20
5.5294662273
 30
0.0
 10
8.0929323357
 20
5.5294462749
 30
0.0
 10
8.0929478679
 20
5.5294376022
 30
0.0
 10
8.092955506
 20
5.5294300968
 30
0.0
 10
8.0929598888
 20
5.5294289738
 30
0.0
  0
SPLINE
  5
449
100
AcDbEntity
  8
0
100
AcDbSpline
 62
9
  6
CONTINUOUS
 70
0
 71
3
 72
38
 73
34
 74
0
 42
0.0000001
 43
0.0000001
 44
0.0000000001
 40
0.0
 40
0.0
 40
0.0
 40
0.0
 40
0.2109675715
 40
0.3097101789
 40
0.4034947692
 40
0.4919508221
 40
0.5746881166
 40
0.6512985751
 40
0.7213616728
 40
0.7844584057
 40
0.8401783868
 40
0.8651459556
 40
0.8881194517
 40
0.9090555371
 40
0.9279128115
 40
0.9446512704
 40
0.9592351727
 40
0.9716297004
 40
0.9769965655
 40
0.9818065908
 40
0.9860575351
 40
0.9897471565
 40
0.9928732196
 40
0.9954339011
 40
0.9965018547
 40
0.9974280315
 40
0.9982122927
 40
0.9988544991
 40
0.999354512
 40
0.9997121922
 40
0.9998376142
 40
0.999927401
 40
1.0
 40
1.0
 40
1.0
 40
1.0
 10
7.0274240385
 20
5.6254710118
 30
0.0
 10
7.0158610328
 20
5.6191994717
 30
0.0
 10
6.9989825716
 20
5.6098131973
 30
0.0
 10
6.9771661856
 20
5.597282532
 30
0.0
 10
6.9620461393
 20
5.5884316009
 30
0.0
 10
6.9478493456
 20
5.5799799633
 30
0.0
 10
6.9346251909
 20
5.5719886156
 30
0.0
 10
6.9224264113
 20
5.5645184116
 30
0.0
 10
6.9113080888
 20
5.5576292038
 30
0.0
 10
6.9013257781
 20
5.5513799131
 30
0.0
 10
6.8937452333
 20
5.546593299
 30
0.0
 10
6.8882891518
 20
5.5431280513
 30
0.0
 10
6.884667486
 20
5.5408199156
 30
0.0
 10
6.8813700969
 20
5.5387118609
 30
0.0
 10
6.8784026153
 20
5.5368095323
 30
0.0
 10
6.8757702867
 20
5.53511829
 30
0.0
 10
6.8734784343
 20
5.5336426079
 30
0.0
 10
6.8717837773
 20
5.5325491636
 30
0.0
 10
6.8706017241
 20
5.5317853174
 30
0.0
 10
6.8698463296
 20
5.5312967769
 30
0.0
 10
6.8691788807
 20
5.5308648275
 30
0.0
 10
6.8685996565
 20
5.5304898094
 30
0.0
 10
6.868108909
 20
5.5301720557
 30
0.0
 10
6.8677553365
 20
5.5299432098
 30
0.0
 10
6.8675168974
 20
5.5297889224
 30
0.0
 10
6.8673714362
 20
5.5296948368
 30
0.0
 10
6.8672482713
 20
5.5296151457
 30
0.0
 10
6.8671473607
 20
5.5295500122
 30
0.0
 10
6.867068902
 20
5.529499044
 30
0.0
 10
6.8670172171
 20
5.5294662283
 30
0.0
 10
6.8669874524
 20
5.5294462785
 30
0.0
 10
6.8669719172
 20
5.5294375996
 30
0.0
 10
6.8669642725
 20
5.5294301027
 30
0.0
 10
6.8669598888
 20
5.5294289738
 30
0.0
  0
SPLINE
  5
44A
100
AcDbEntity
  8
0
100
AcDbSpline
 62
9
  6
CONTINUOUS
 70
0
 71
3
 72
23
 73
19
 74
0
 42
0.0000001
 43
0.0000001
 44
0.0000000001
 40
0.0
 40
0.0
 40
0.0
 40
0.0
 40
0.0314325635
 40
0.0436105017
 40
0.0577674628
 40
0.0739595609
 40
0.0922000989
 40
0.1124728347
 40
0.1347506772
 40
0.1851783539
 40
0.2431622272
 40
0.3082071258
 40
0.3796944357
 40
0.4569885815
 40
0.539400453
 40
0.6261757618
 40
0.8096759857
 40
1.0
 40
1.0
 40
1.0
 40
1.0
 10
8.6816495542
 20
4.9982120915
 30
0.0
 10
8.6835165809
 20
5.0005665759
 30
0.0
 10
8.6886821901
 20
5.000864657
 30
0.0
 10
8.6939911224
 20
5.0000676631
 30
0.0
 10
8.6979885684
 20
4.9991424768
 30
0.0
 10
8.702426532
 20
4.9978002266
 30
0.0
 10
8.7073573941
 20
4.9960422745
 30
0.0
 10
8.7127495277
 20
4.9938741897
 30
0.0
 10
8.7208859519
 20
4.9902917067
 30
0.0
 10
8.7321041506
 20
4.9847809179
 30
0.0
 10
8.7466898367
 20
4.9768864266
 30
0.0
 10
8.7627641814
 20
4.9675326011
 30
0.0
 10
8.7801712689
 20
4.9568127486
 30
0.0
 10
8.7987408662
 20
4.9448245486
 30
0.0
 10
8.8182976484
 20
4.9316787949
 30
0.0
 10
8.8459676805
 20
4.9124111736
 30
0.0
 10
8.8815187782
 20
4.8864202543
 30
0.0
 10
8.9098081941
 20
4.8645764208
 30
0.0
 10
8.924064585
 20
4.8532715835
 30
0.0
  0
SPLINE
  5
44B
100
AcDbEntity
  8
0
100
AcDbSpline
 62
9
  6
CONTINUOUS
 70
0
 71
3
 72
23
 73
19
 74
0
 42
0.0000001
 43
0.0000001
 44
0.0000000001
 40
0.0
 40
0.0
 40
0.0
 40
0.0
 40
0.1903240143
 40
0.3738242382
 40
0.460599547
 40
0.5430114185
 40
0.6203055643
 40
0.6917928742
 40
0.7568377728
 40
0.8148216461
 40
0.8652493228
 40
0.8875271653
 40
0.9077999011
 40
0.9260404391
 40
0.9422325372
 40
0.9563894983
 40
0.9685674365
 40
1.0
 40
1.0
 40
1.0
 40
1.0
 10
8.924064585
 20
4.8532715835
 30
0.0
 10
8.9383209758
 20
4.8419667461
 30
0.0
 10
8.9660371647
 20
4.819400023
 30
0.0
 10
8.9994462517
 20
4.7907078406
 30
0.0
 10
9.0245128651
 20
4.7681570799
 30
0.0
 10
9.0417696928
 20
4.7521108819
 30
0.0
 10
9.057674448
 20
4.7367620826
 30
0.0
 10
9.0720792959
 20
4.7222561428
 30
0.0
 10
9.0848503311
 20
4.7087365544
 30
0.0
 10
9.0958611684
 20
4.6963338655
 30
0.0
 10
9.1037835778
 20
4.6866667974
 30
0.0
 10
9.109126086
 20
4.6795609414
 30
0.0
 10
9.1124659898
 20
4.6748048149
 30
0.0
 10
9.1153014295
 20
4.6704043515
 30
0.0
 10
9.1176197746
 20
4.6663890766
 30
0.0
 10
9.1194316367
 20
4.6627076774
 30
0.0
 10
9.1214175692
 20
4.6577200895
 30
0.0
 10
9.1223045809
 20
4.652622484
 30
0.0
 10
9.1204375542
 20
4.6502679997
 30
0.0
  0
ENDSEC
  0
SECTION
  2
OBJECTS
  0
DICTIONARY
  5
C
100
AcDbDictionary
280
0
281
1
  3
ACAD_GROUP
350
D
  3
ACAD_MLINESTYLE
350
17
  3
ACAD_LAYOUT
350
1A
  3
ACAD_PLOTSETTINGS
350
19
  3
ACAD_PLOTSTYLENAME
350
E
  0
DICTIONARY
  5
D
102
{ACAD_REACTORS
330
C
102
}
100
AcDbDictionary
280
0
281
1
  0
ACDBDICTIONARYWDFLT
  5
E
102
{ACAD_REACTORS
330
C
102
}
100
AcDbDictionary
281
1
  3
Normal
350
F
100
AcDbDictionaryWithDefault
340
F
  0
DICTIONARY
  5
17
102
{ACAD_REACTORS
330
C
102
}
100
AcDbDictionary
280
0
281
1
  3
Standard
350
18
  0
DICTIONARY
  5
19
102
{ACAD_REACTORS
330
C
102
}
100
AcDbDictionary
281
1
  0
DICTIONARY
  5
1A
102
{ACAD_REACTORS
330
C
102
}
100
AcDbDictionary
281
1
  3
Model
350
44C
  3
Layout1
350
44D
  0
ACDBPLACEHOLDER
  5
F
102
{ACAD_REACTORS
330
E
102
}
  0
MLINESTYLE
  5
18
102
{ACAD_REACTORS
330
17
102
}
100
AcDbMlineStyle
  2
STANDARD
 70
0
  3

 62
256
 51
90.0
 52
90.0
 71
2
 49
0.5
 62
256
  6
BYLAYER
 49
-0.5
 62
256
  6
BYLAYER
  0
LAYOUT
  5
44C
102
{ACAD_REACTORS
330
1A
102
}
100
AcDbPlotSettings
  1

  2
none_device
  4
ANSI_C_(22.00_x_17.00_Inches)
  6

 40
0.0
 41
0.0
 42
0.0
 43
0.0
 44
558.8
 45
431.8
 46
0.0
 47
0.0
 48
0.0
 49
0.0
140
0.0
141
0.0
142
1.0
143
1.0
 70
1024
 72
0
 73
0
 74
0
  7

 75
0
147
1.0
148
0.0
149
0.0
100
AcDbLayout
  1
Model
 70
0
 71
0
 10
0.0
 20
0.0
 11
22.0
 21
17.0
 12
0.0
 22
0.0
 32
0.0
 14
0.0
 24
0.0
 34
0.0
 15
0.0
 25
0.0
 35
0.0
146
0.0
 13
0.0
 23
0.0
 33
0.0
 16
1.0
 26
0.0
 36
0.0
 17
0.0
 27
1.0
 37
0.0
 76
0
330
202
345
0
346
0
  0
LAYOUT
  5
44D
102
{ACAD_REACTORS
330
1A
102
}
100
AcDbPlotSettings
  1

  2
none_device
  4
ANSI_C_(22.00_x_17.00_Inches)
  6

 40
0.0
 41
0.0
 42
0.0
 43
0.0
 44
558.8
 45
431.8
 46
0.0
 47
0.0
 48
0.0
 49
0.0
140
0.0
141
0.0
142
1.0
143
1.0
 70
0
 72
0
 73
0
 74
0
  7

 75
0
147
1.0
148
0.0
149
0.0
100
AcDbLayout
  1
Layout1
 70
0
 71
1
 10
0.0
 20
0.0
 11
22.0
 21
17.0
 12
0.0
 22
0.0
 32
0.0
 14
0.0
 24
0.0
 34
0.0
 15
0.0
 25
0.0
 35
0.0
146
0.0
 13
0.0
 23
0.0
 33
0.0
 16
1.0
 26
0.0
 36
0.0
 17
0.0
 27
1.0
 37
0.0
 76
0
330
203
345
0
346
0
  0
ENDSEC
  0
EOF
