999
DXF file: 283-201_right.dxf
999
Pro/ENGINEER 2023134 by Parametric Technology Corporation
  0
SECTION
  2
HEADER
  9
$ACADVER
  1
AC1032
  9
$DWGCODEPAGE
  3
ANSI_1252
  9
$EXTMAX
 10
11.0
 20
8.5
 30
0.0
  9
$EXTMIN
 10
0.0
 20
0.0
 30
0.0
  9
$LIMMIN
 10
0.0
 20
0.0
  9
$LIMMAX
 10
11.0
 20
8.5
  9
$VIEWCTR
 10
5.5
 20
4.25
  9
$VIEWSIZE
 40
8.5
  9
$CLAYER
  8
0
  9
$LTSCALE
 40
0.605
  9
$CELTYPE
  6
BYLAYER
  9
$DIMSCALE
 40
1.0
  9
$DIMASZ
 40
0.1
  9
$DIMEXO
 40
0.03125
  9
$DIMDLI
 40
0.418
  9
$DIMEXE
 40
0.0625
  9
$DIMCEN
 40
0.099
  9
$DIMLFAC
 40
1.0
  9
$DIMBLK
  1
_FILLED
  9
$DIMALT
 70
1
  9
$DIMALTD
 70
2
  9
$DIMALTTD
 70
2
  9
$DIMALTF
 40
25.4
  9
$DIMTXT
 40
0.08
  9
$DIMTOL
 70
1
  9
$DIMLIM
 70
0
  9
$DIMTFAC
 40
1.0
  9
$DIMTP
 40
0.001
  9
$DIMTM
 40
0.001
  9
$DIMGAP
 40
0.09
  9
$DIMDSEP
 70
46
  9
$AUNITS
 70
0
  9
$PDMODE
 70
3
  9
$PDSIZE
 40
0.06
  9
$HANDSEED
  5
394
  9
$TILEMODE
 70
1
  9
$MEASUREMENT
 70
0
  9
$INSUNITS
 70
1
  0
ENDSEC
  0
SECTION
  2
CLASSES
  0
CLASS
  1
ACDBDICTIONARYWDFLT
  2
AcDbDictionaryWithDefault
  3
AutoCAD 2000
 90
0
 91
1
280
0
281
0
  0
CLASS
  1
ACDBPLACEHOLDER
  2
AcDbPlaceHolder
  3
AutoCAD 2000
 90
0
 91
1
280
0
281
0
  0
CLASS
  1
LAYOUT
  2
AcDbLayout
  3
AutoCAD 2000
 90
0
 91
0
280
0
281
0
  0
ENDSEC
  0
SECTION
  2
TABLES
  0
TABLE
  2
VPORT
  5
8
100
AcDbSymbolTable
 70
2
  0
VPORT
  5
1F4
100
AcDbSymbolTableRecord
100
AcDbViewportTableRecord
  2
*ACTIVE
 70
0
 10
0.0
 20
0.0
 11
1.0
 21
1.0
 12
5.5
 22
4.25
 13
0.0
 23
0.0
 14
1.0
 24
1.0
 15
0.0
 25
0.0
 16
0.0
 26
0.0
 36
1.0
 17
0.0
 27
0.0
 37
0.0
 40
8.5
 41
1.2941176471
 42
50.0
 43
0.0
 44
0.0
 50
0.0
 51
0.0
 71
0
 72
100
 73
1
 74
1
 75
0
 76
0
 77
0
 78
0
  0
ENDTAB
  0
TABLE
  2
LTYPE
  5
5
100
AcDbSymbolTable
 70
6
  0
LTYPE
  5
14
100
AcDbSymbolTableRecord
100
AcDbLinetypeTableRecord
  2
BYBLOCK
 70
0
  3

 72
65
 73
0
 40
0.0
  0
LTYPE
  5
15
100
AcDbSymbolTableRecord
100
AcDbLinetypeTableRecord
  2
BYLAYER
 70
0
  3

 72
65
 73
0
 40
0.0
  0
LTYPE
  5
16
100
AcDbSymbolTableRecord
100
AcDbLinetypeTableRecord
  2
CONTINUOUS
 70
64
  3
Solid line
 72
65
 73
0
 40
0.0
  0
LTYPE
  5
1F5
100
AcDbSymbolTableRecord
100
AcDbLinetypeTableRecord
  2
CENTER
 70
64
  3
____ _ ____ _ ____ _ ____ _ ____ _ ____ _ ____
 72
65
 73
4
 40
0.6
 49
0.375
 74
0
 49
-0.075
 74
0
 49
0.075
 74
0
 49
-0.075
 74
0
  0
LTYPE
  5
1F6
100
AcDbSymbolTableRecord
100
AcDbLinetypeTableRecord
  2
HIDDEN
 70
64
  3
- - - - - - - - - - - - - - - - - - - -
 72
65
 73
2
 40
0.2
 49
0.1
 74
0
 49
-0.1
 74
0
  0
LTYPE
  5
1F7
100
AcDbSymbolTableRecord
100
AcDbLinetypeTableRecord
  2
PHANTOM
 70
64
  3
_____ _ _ _____ _ _ _____ _ _ _____
 72
65
 73
6
 40
0.8
 49
0.45
 74
0
 49
-0.05
 74
0
 49
0.1
 74
0
 49
-0.05
 74
0
 49
0.1
 74
0
 49
-0.05
 74
0
  0
LTYPE
  5
1F8
100
AcDbSymbolTableRecord
100
AcDbLinetypeTableRecord
  2
DOT
 70
64
  3
. . . . . . . . . . . . . . . . . . . .
 72
65
 73
2
 40
0.2
 49
0.1
 74
0
 49
-0.1
 74
0
  0
LTYPE
  5
1F9
100
AcDbSymbolTableRecord
100
AcDbLinetypeTableRecord
  2
DASHED
 70
64
  3
- - - - - - - - - - - - - - - - - - - -
 72
65
 73
2
 40
0.2
 49
0.1
 74
0
 49
-0.1
 74
0
  0
ENDTAB
  0
TABLE
  2
LAYER
  5
2
100
AcDbSymbolTable
 70
36
  0
LAYER
  5
10
100
AcDbSymbolTableRecord
100
AcDbLayerTableRecord
  2
0
 70
0
 62
7
  6
CONTINUOUS
370
-3
390
F
  0
LAYER
  5
1FA
100
AcDbSymbolTableRecord
100
AcDbLayerTableRecord
  2
DEFAULT_1
 70
0
 62
7
  6
CENTER
370
-3
390
F
  0
LAYER
  5
1FB
100
AcDbSymbolTableRecord
100
AcDbLayerTableRecord
  2
DEFAULT_2
 70
0
 62
8
  6
HIDDEN
370
-3
390
F
  0
LAYER
  5
1FC
100
AcDbSymbolTableRecord
100
AcDbLayerTableRecord
  2
DEFAULT_3
 70
0
 62
7
  6
PHANTOM
370
-3
390
F
  0
LAYER
  5
1FD
100
AcDbSymbolTableRecord
100
AcDbLayerTableRecord
  2
DEFAULT_COORDINATE_SYSTEM
 70
0
 62
7
  6
CONTINUOUS
370
-3
390
F
  0
LAYER
  5
1FE
100
AcDbSymbolTableRecord
100
AcDbLayerTableRecord
  2
DEFAULT_DATUM_AXES
 70
0
 62
7
  6
CONTINUOUS
370
-3
390
F
  0
LAYER
  5
1FF
100
AcDbSymbolTableRecord
100
AcDbLayerTableRecord
  2
DEFAULT_DATUM_CURVES
 70
0
 62
7
  6
CONTINUOUS
370
-3
390
F
  0
LAYER
  5
200
100
AcDbSymbolTableRecord
100
AcDbLayerTableRecord
  2
DEFAULT_DATUM_PLANES
 70
0
 62
7
  6
CONTINUOUS
370
-3
390
F
  0
ENDTAB
  0
TABLE
  2
STYLE
  5
3
100
AcDbSymbolTable
 70
1
  0
STYLE
  5
11
100
AcDbSymbolTableRecord
100
AcDbTextStyleTableRecord
  2
STANDARD
 70
0
 40
0.0
 41
0.8
 50
0.0
 71
0
 42
0.2
  3
txt
  4

  0
STYLE
  5
201
100
AcDbSymbolTableRecord
100
AcDbTextStyleTableRecord
  2
TEXTSTYLE_1
 70
0
 40
0.0
 41
0.8
 50
0.0
 71
0
 42
0.2
  3
gdt
  4

  0
ENDTAB
  0
TABLE
  2
VIEW
  5
6
100
AcDbSymbolTable
 70
0
  0
ENDTAB
  0
TABLE
  2
UCS
  5
7
100
AcDbSymbolTable
 70
0
  0
ENDTAB
  0
TABLE
  2
APPID
  5
9
100
AcDbSymbolTable
 70
1
  0
APPID
  5
202
100
AcDbSymbolTableRecord
100
AcDbRegAppTableRecord
  2
ACAD
 70
0
  0
ENDTAB
  0
TABLE
  2
BLOCK_RECORD
  5
1
100
AcDbSymbolTable
 70
0
  0
BLOCK_RECORD
  5
203
100
AcDbSymbolTableRecord
100
AcDbBlockTableRecord
  2
*Model_Space
  0
BLOCK_RECORD
  5
204
100
AcDbSymbolTableRecord
100
AcDbBlockTableRecord
  2
*Paper_Space
  0
BLOCK_RECORD
  5
205
100
AcDbSymbolTableRecord
100
AcDbBlockTableRecord
  2
_FILLED
  0
ENDTAB
  0
TABLE
  2
DIMSTYLE
  5
A
100
AcDbSymbolTable
 70
1
100
AcDbDimStyleTable
 71
0
  0
DIMSTYLE
105
206
100
AcDbSymbolTableRecord
100
AcDbDimStyleTableRecord
  2
STANDARD
 70
0
  3

  4

 40
1.0
 41
0.1
 42
0.03125
 43
0.38
 44
0.0625
 45
0.0
 46
0.0
 47
0.001
 48
0.001
140
0.08
141
0.09
142
0.0
143
25.4
144
1.0
145
0.0
146
1.0
147
0.09
 71
1
 72
0
 73
1
 74
1
 75
0
 76
0
 77
0
 78
4
 79
1
170
1
171
2
172
0
173
0
174
0
175
0
176
0
177
0
178
0
270
2
179
3
271
3
272
3
273
2
274
2
275
0
280
0
281
0
282
0
283
1
284
4
285
0
286
0
287
3
288
0
340
11
278
46
341
205
342
205
343
205
344
205
  0
ENDTAB
  0
ENDSEC
  0
SECTION
  2
BLOCKS
  0
BLOCK
  5
20
100
AcDbEntity
  8
0
100
AcDbBlockBegin
  2
*Model_Space
 70
0
 10
0.0
 20
0.0
 30
0.0
  3
*Model_Space
  1

  0
ENDBLK
  5
21
100
AcDbEntity
  8
0
100
AcDbBlockEnd
  0
BLOCK
  5
1C
100
AcDbEntity
  8
0
100
AcDbBlockBegin
  2
*Paper_Space
 70
0
 10
0.0
 20
0.0
 30
0.0
  3
*Paper_Space
  1

  0
ENDBLK
  5
1D
100
AcDbEntity
  8
0
100
AcDbBlockEnd
  0
BLOCK
  5
207
100
AcDbEntity
  8
0
100
AcDbBlockBegin
  2
_FILLED
 70
64
 10
0.0
 20
0.0
  3
_FILLED
  1

  0
SOLID
  5
208
100
AcDbEntity
  8
0
  6
BYBLOCK
 62
0
100
AcDbTrace
 10
0.0
 20
0.0
 11
-1.0
 21
0.2
 12
-1.0
 22
-0.2
 13
-1.0
 23
-0.2
  0
ENDBLK
  5
209
100
AcDbEntity
  8
0
  6
BYBLOCK
 62
0
100
AcDbBlockEnd
  0
ENDSEC
  0
SECTION
  2
ENTITIES
  0
MTEXT
  5
20A
100
AcDbEntity
  8
0
100
AcDbMText
 62
2
  6
CONTINUOUS
  7
STANDARD
 71
3
 72
1
 10
5.5685788512
 20
2.0101641926
 30
0.0
 11
1.0
 21
0.0
 31
0.0
 73
2
 44
0.9
  1
SCALE .500
 40
0.08
 41
0.64
  0
LINE
  5
20B
100
AcDbEntity
  8
0
100
AcDbLine
 62
7
  6
CONTINUOUS
 10
0.0
 20
0.0
 11
0.0
 21
8.5
  0
LINE
  5
20C
100
AcDbEntity
  8
0
100
AcDbLine
 62
7
  6
CONTINUOUS
 10
0.0
 20
0.0
 11
11.0
 21
0.0
  0
LINE
  5
20D
100
AcDbEntity
  8
0
100
AcDbLine
 62
7
  6
CONTINUOUS
 10
0.0
 20
8.5
 11
11.0
 21
8.5
  0
LINE
  5
20E
100
AcDbEntity
  8
0
100
AcDbLine
 62
7
  6
CONTINUOUS
 10
11.0
 20
0.0
 11
11.0
 21
8.5
  0
LINE
  5
20F
100
AcDbEntity
  8
0
100
AcDbLine
 62
7
  6
CONTINUOUS
 10
4.7308954334
 20
6.7130365577
 11
4.8556191703
 21
6.7646988211
  0
LINE
  5
210
100
AcDbEntity
  8
0
100
AcDbLine
 62
7
  6
CONTINUOUS
 10
5.4171049837
 20
2.9257977543
 11
5.7736049837
 21
2.9257977543
  0
LINE
  5
211
100
AcDbEntity
  8
0
100
AcDbLine
 62
7
  6
CONTINUOUS
 10
4.7491771723
 20
6.6001929696
 11
4.7500094683
 21
6.6005377179
  0
LINE
  5
212
100
AcDbEntity
  8
0
100
AcDbLine
 62
7
  6
CONTINUOUS
 10
4.7581448796
 20
6.4983742761
 11
4.7589771757
 21
6.4987190244
  0
LINE
  5
213
100
AcDbEntity
  8
0
100
AcDbLine
 62
7
  6
CONTINUOUS
 10
5.788036137
 20
3.0882977543
 11
5.4042301196
 21
3.0882977543
  0
LINE
  5
214
100
AcDbEntity
  8
0
100
AcDbLine
 62
7
  6
CONTINUOUS
 10
5.3703549837
 20
3.1182977543
 11
5.8203549837
 21
3.1182977543
  0
LINE
  5
215
100
AcDbEntity
  8
0
100
AcDbLine
 62
7
  6
CONTINUOUS
 10
4.767112587
 20
6.3965555826
 11
4.767944883
 21
6.3969003309
  0
LINE
  5
216
100
AcDbEntity
  8
0
100
AcDbLine
 62
7
  6
CONTINUOUS
 10
5.3703549837
 20
3.1682977543
 11
5.8203549837
 21
3.1682977543
  0
LINE
  5
217
100
AcDbEntity
  8
0
100
AcDbLine
 62
7
  6
CONTINUOUS
 10
5.4114349839
 20
2.9412718557
 11
5.3923430175
 21
2.9523088698
  0
LINE
  5
218
100
AcDbEntity
  8
0
100
AcDbLine
 62
7
  6
CONTINUOUS
 10
5.4114349843
 20
2.9769868701
 11
5.3923430176
 21
2.9880238844
  0
LINE
  5
219
100
AcDbEntity
  8
0
100
AcDbLine
 62
7
  6
CONTINUOUS
 10
5.4114349837
 20
3.0127018624
 11
5.392343017
 21
3.0237388767
  0
LINE
  5
21A
100
AcDbEntity
  8
0
100
AcDbLine
 62
7
  6
CONTINUOUS
 10
5.4114349841
 20
3.0484168591
 11
5.3923430176
 21
3.0594538732
  0
LINE
  5
21B
100
AcDbEntity
  8
0
100
AcDbLine
 62
7
  6
CONTINUOUS
 10
5.4114349842
 20
3.0841318727
 11
5.4042293675
 21
3.0882977543
  0
LINE
  5
21C
100
AcDbEntity
  8
0
100
AcDbLine
 62
7
  6
CONTINUOUS
 10
5.3903549837
 20
3.4027977543
 11
5.8003549837
 21
3.4027977543
  0
LINE
  5
21D
100
AcDbEntity
  8
0
100
AcDbLine
 62
7
  6
CONTINUOUS
 10
5.3903549837
 20
3.4527977543
 11
5.8003549837
 21
3.4527977543
  0
LINE
  5
21E
100
AcDbEntity
  8
0
100
AcDbLine
 62
7
  6
CONTINUOUS
 10
5.7792749833
 20
2.9505032818
 11
5.7911807681
 21
2.9436202541
  0
LINE
  5
21F
100
AcDbEntity
  8
0
100
AcDbLine
 62
7
  6
CONTINUOUS
 10
5.7792749833
 20
2.9862182918
 11
5.7983669501
 21
2.9751812773
  0
LINE
  5
220
100
AcDbEntity
  8
0
100
AcDbLine
 62
7
  6
CONTINUOUS
 10
5.7792749836
 20
3.0219332745
 11
5.79836695
 21
3.0108962602
  0
LINE
  5
221
100
AcDbEntity
  8
0
100
AcDbLine
 62
7
  6
CONTINUOUS
 10
5.7880368005
 20
3.0882977543
 11
5.7983669503
 21
3.0823262727
  0
LINE
  5
222
100
AcDbEntity
  8
0
100
AcDbLine
 62
7
  6
CONTINUOUS
 10
5.7792749832
 20
3.0576482869
 11
5.7983669498
 21
3.0466112725
  0
LINE
  5
223
100
AcDbEntity
  8
0
100
AcDbLine
 62
7
  6
CONTINUOUS
 10
5.4107844871
 20
2.9321182509
 11
5.4171049837
 21
2.9257977543
  0
LINE
  5
224
100
AcDbEntity
  8
0
100
AcDbLine
 62
7
  6
CONTINUOUS
 10
5.3253550076
 20
3.7790280169
 11
5.8653550076
 21
3.7790280169
  0
LINE
  5
225
100
AcDbEntity
  8
0
100
AcDbLine
 62
7
  6
CONTINUOUS
 10
5.0828264187
 20
5.6343549683
 11
5.0836587147
 21
5.6346997166
  0
LINE
  5
226
100
AcDbEntity
  8
0
100
AcDbLine
 62
7
  6
CONTINUOUS
 10
5.7229368373
 20
5.951449714
 11
5.7253563817
 21
5.9531224709
  0
LINE
  5
227
100
AcDbEntity
  8
0
100
AcDbLine
 62
7
  6
CONTINUOUS
 10
5.7253563817
 20
5.9531224709
 11
5.7270968447
 21
5.9543077804
  0
LINE
  5
228
100
AcDbEntity
  8
0
100
AcDbLine
 62
7
  6
CONTINUOUS
 10
5.7270968447
 20
5.9543077804
 11
5.7284966599
 21
5.9552501776
  0
LINE
  5
229
100
AcDbEntity
  8
0
100
AcDbLine
 62
7
  6
CONTINUOUS
 10
5.7271339999
 20
5.954452062
 11
5.7289305603
 21
5.9556630439
  0
LINE
  5
22A
100
AcDbEntity
  8
0
100
AcDbLine
 62
7
  6
CONTINUOUS
 10
5.7285758092
 20
5.9554267776
 11
5.7289319286
 21
5.955664341
  0
LINE
  5
22B
100
AcDbEntity
  8
0
100
AcDbLine
 62
7
  6
CONTINUOUS
 10
5.7289305603
 20
5.9556630439
 11
5.729046314
 21
5.9557381593
  0
LINE
  5
22C
100
AcDbEntity
  8
0
100
AcDbLine
 62
7
  6
CONTINUOUS
 10
5.1484819806
 20
5.5560171529
 11
5.1493142767
 21
5.5563619013
  0
LINE
  5
22D
100
AcDbEntity
  8
0
100
AcDbLine
 62
7
  6
CONTINUOUS
 10
5.2141375426
 20
5.4776793376
 11
5.2149698386
 21
5.4780240859
  0
LINE
  5
22E
100
AcDbEntity
  8
0
100
AcDbLine
 62
7
  6
CONTINUOUS
 10
5.4391049852
 20
5.6160331967
 11
5.4646251734
 21
5.6459334971
  0
LINE
  5
22F
100
AcDbEntity
  8
0
100
AcDbLine
 62
7
  6
CONTINUOUS
 10
5.7290462262
 20
5.9557379871
 11
5.7379386538
 21
5.9661566506
  0
LINE
  5
230
100
AcDbEntity
  8
0
100
AcDbLine
 62
7
  6
CONTINUOUS
 10
5.2810028674
 20
5.3849597297
 11
5.4057266043
 21
5.4366219931
  0
LINE
  5
231
100
AcDbEntity
  8
0
100
AcDbLine
 62
7
  6
CONTINUOUS
 10
5.4646251734
 20
5.645933497
 11
5.4646664311
 21
5.6460013661
  0
LINE
  5
232
100
AcDbEntity
  8
0
100
AcDbLine
 62
7
  6
CONTINUOUS
 10
5.4646223852
 20
5.6459308142
 11
5.4669429857
 21
5.6494289824
  0
LINE
  5
233
100
AcDbEntity
  8
0
100
AcDbLine
 62
7
  6
CONTINUOUS
 10
5.465152804
 20
5.6466335976
 11
5.4745191556
 21
5.6606844322
  0
LINE
  5
234
100
AcDbEntity
  8
0
100
AcDbLine
 62
7
  6
CONTINUOUS
 10
5.4745191556
 20
5.6606844322
 11
5.4841599273
 21
5.6749974971
  0
LINE
  5
235
100
AcDbEntity
  8
0
100
AcDbLine
 62
7
  6
CONTINUOUS
 10
5.4841599273
 20
5.6749974971
 11
5.4938719632
 21
5.6892580645
  0
LINE
  5
236
100
AcDbEntity
  8
0
100
AcDbLine
 62
7
  6
CONTINUOUS
 10
5.4938719632
 20
5.6892580645
 11
5.5021190562
 21
5.7012375743
  0
LINE
  5
237
100
AcDbEntity
  8
0
100
AcDbLine
 62
7
  6
CONTINUOUS
 10
5.5021190562
 20
5.7012375743
 11
5.5111318183
 21
5.7141864014
  0
LINE
  5
238
100
AcDbEntity
  8
0
100
AcDbLine
 62
7
  6
CONTINUOUS
 10
5.5111318183
 20
5.7141864014
 11
5.5208805664
 21
5.7280163092
  0
LINE
  5
239
100
AcDbEntity
  8
0
100
AcDbLine
 62
7
  6
CONTINUOUS
 10
5.5208805664
 20
5.7280163092
 11
5.5277809526
 21
5.7376893572
  0
LINE
  5
23A
100
AcDbEntity
  8
0
100
AcDbLine
 62
7
  6
CONTINUOUS
 10
5.5277809526
 20
5.7376893572
 11
5.5349998781
 21
5.7477012546
  0
LINE
  5
23B
100
AcDbEntity
  8
0
100
AcDbLine
 62
7
  6
CONTINUOUS
 10
5.5349998781
 20
5.7477012546
 11
5.5425384524
 21
5.7580340472
  0
LINE
  5
23C
100
AcDbEntity
  8
0
100
AcDbLine
 62
7
  6
CONTINUOUS
 10
5.5425384524
 20
5.7580340472
 11
5.5503986188
 21
5.7686686275
  0
LINE
  5
23D
100
AcDbEntity
  8
0
100
AcDbLine
 62
7
  6
CONTINUOUS
 10
5.5503986188
 20
5.7686686275
 11
5.5585834348
 21
5.7795847513
  0
LWPOLYLINE
  5
23E
100
AcDbEntity
  8
0
100
AcDbPolyline
 62
7
  6
CONTINUOUS
 90
41
 70
0
 10
5.5585834348
 20
5.7795847513
 10
5.5671035576
 20
5.7907690666
 10
5.5714913257
 20
5.7964547661
 10
5.5759816349
 20
5.8022194735
 10
5.5805741759
 20
5.8080576443
 10
5.5852710321
 20
5.8139664394
 10
5.5900925531
 20
5.8199651754
 10
5.5950425046
 20
5.8260513434
 10
5.6001192903
 20
5.8322152674
 10
5.6053354779
 20
5.8384637436
 10
5.6107302268
 20
5.8448333135
 10
5.6162654473
 20
5.8512679376
 10
5.6218353332
 20
5.8576369017
 10
5.627457622
 20
5.8639550233
 10
5.6331065029
 20
5.870187891
 10
5.6386048693
 20
5.8761409054
 10
5.6438853753
 20
5.8817497498
 10
5.6489990471
 20
5.8870778452
 10
5.6539438882
 20
5.8921310051
 10
5.6586955721
 20
5.8968931741
 10
5.6632637102
 20
5.9013832231
 10
5.6676968435
 20
5.9056564683
 10
5.6720014221
 20
5.9097252232
 10
5.676156016
 20
5.91357575
 10
5.6801663365
 20
5.9172202981
 10
5.6840247779
 20
5.9206589457
 10
5.6877249656
 20
5.9238932712
 10
5.6912738678
 20
5.9269364844
 10
5.6946634595
 20
5.9297887246
 10
5.6978896848
 20
5.9324537105
 10
5.7009642075
 20
5.9349478141
 10
5.7038817079
 20
5.9372730968
 10
5.706636737
 20
5.9394315939
 10
5.7092386663
 20
5.9414366757
 10
5.7116837884
 20
5.9432911236
 10
5.7139660615
 20
5.9449958849
 10
5.7160893946
 20
5.9465591322
 10
5.7180498454
 20
5.947982878
 10
5.7198437423
 20
5.949269137
 10
5.7214738123
 20
5.9504241929
 10
5.7229368373
 20
5.951449714
  0
LINE
  5
23F
100
AcDbEntity
  8
0
100
AcDbLine
 62
7
  6
CONTINUOUS
 10
4.8041701058
 20
6.0994248238
 11
4.7946317099
 21
6.142449747
  0
LINE
  5
240
100
AcDbEntity
  8
0
100
AcDbLine
 62
7
  6
CONTINUOUS
 10
4.7912056732
 20
6.1579036
 11
4.7822883913
 21
6.1981268593
  0
LINE
  5
241
100
AcDbEntity
  8
0
100
AcDbLine
 62
7
  6
CONTINUOUS
 10
4.790821761
 20
6.2150780319
 11
4.77431535
 21
6.28953364
  0
LINE
  5
242
100
AcDbEntity
  8
0
100
AcDbLine
 62
7
  6
CONTINUOUS
 10
4.7828487194
 20
6.3064848139
 11
4.764144524
 21
6.3908539871
  0
LINE
  5
243
100
AcDbEntity
  8
0
100
AcDbLine
 62
7
  6
CONTINUOUS
 10
4.7738810112
 20
6.4083035116
 11
4.7661923906
 21
6.4429846379
  0
LINE
  5
244
100
AcDbEntity
  8
0
100
AcDbLine
 62
7
  6
CONTINUOUS
 10
4.7627885747
 20
6.4583386094
 11
4.7551768167
 21
6.4926726807
  0
LINE
  5
245
100
AcDbEntity
  8
0
100
AcDbLine
 62
7
  6
CONTINUOUS
 10
4.7649133034
 20
6.5101222071
 11
4.7462091092
 21
6.5944913749
  0
LINE
  5
246
100
AcDbEntity
  8
0
100
AcDbLine
 62
7
  6
CONTINUOUS
 10
4.7946263358
 20
6.1424749614
 11
4.7946317099
 21
6.142449747
  0
LINE
  5
247
100
AcDbEntity
  8
0
100
AcDbLine
 62
7
  6
CONTINUOUS
 10
4.7946266229
 20
6.1424749284
 11
4.7946317099
 21
6.142449747
  0
LINE
  5
248
100
AcDbEntity
  8
0
100
AcDbLine
 62
7
  6
CONTINUOUS
 10
5.3253550076
 20
3.7790280169
 11
5.3253550076
 21
4.8715674916
  0
LINE
  5
249
100
AcDbEntity
  8
0
100
AcDbLine
 62
7
  6
CONTINUOUS
 10
5.3703549837
 20
3.1682977543
 11
5.3703549837
 21
3.1182977543
  0
LINE
  5
24A
100
AcDbEntity
  8
0
100
AcDbLine
 62
7
  6
CONTINUOUS
 10
5.3703550076
 20
5.2117977543
 11
5.3703550076
 21
5.1867977543
  0
LINE
  5
24B
100
AcDbEntity
  8
0
100
AcDbLine
 62
7
  6
CONTINUOUS
 10
5.3903549837
 20
3.4527977543
 11
5.3903549837
 21
3.4027977543
  0
LINE
  5
24C
100
AcDbEntity
  8
0
100
AcDbLine
 62
7
  6
CONTINUOUS
 10
5.3921049837
 20
3.0641936513
 11
5.3921049837
 21
3.0597289997
  0
LINE
  5
24D
100
AcDbEntity
  8
0
100
AcDbLine
 62
7
  6
CONTINUOUS
 10
5.3921049837
 20
3.0284786379
 11
5.3921049837
 21
3.0240140025
  0
LINE
  5
24E
100
AcDbEntity
  8
0
100
AcDbLine
 62
7
  6
CONTINUOUS
 10
5.3921049837
 20
2.9927636411
 11
5.3921049837
 21
2.9882990109
  0
LINE
  5
24F
100
AcDbEntity
  8
0
100
AcDbLine
 62
7
  6
CONTINUOUS
 10
5.3921049837
 20
2.9570486488
 11
5.3921049837
 21
2.9525839962
  0
LINE
  5
250
100
AcDbEntity
  8
0
100
AcDbLine
 62
7
  6
CONTINUOUS
 10
5.4114349839
 20
2.932645775
 11
5.4114349839
 21
2.9414238154
  0
LINE
  5
251
100
AcDbEntity
  8
0
100
AcDbLine
 62
7
  6
CONTINUOUS
 10
5.4114349843
 20
2.9683607897
 11
5.4114349843
 21
2.9771388298
  0
LINE
  5
252
100
AcDbEntity
  8
0
100
AcDbLine
 62
7
  6
CONTINUOUS
 10
5.4114349837
 20
3.0040757813
 11
5.4114349837
 21
3.0128538218
  0
LINE
  5
253
100
AcDbEntity
  8
0
100
AcDbLine
 62
7
  6
CONTINUOUS
 10
5.4114349841
 20
3.0397907787
 11
5.4114349841
 21
3.0485688188
  0
LINE
  5
254
100
AcDbEntity
  8
0
100
AcDbLine
 62
7
  6
CONTINUOUS
 10
5.4114349842
 20
3.0755057921
 11
5.4114349842
 21
3.0842838323
  0
LINE
  5
255
100
AcDbEntity
  8
0
100
AcDbLine
 62
7
  6
CONTINUOUS
 10
5.4253550076
 20
5.3495475275
 11
5.4253550076
 21
5.5494727745
  0
LINE
  5
256
100
AcDbEntity
  8
0
100
AcDbLine
 62
7
  6
CONTINUOUS
 10
5.4303549837
 20
3.0882977543
 11
5.4303549837
 21
3.1182977543
  0
LINE
  5
257
100
AcDbEntity
  8
0
100
AcDbLine
 62
7
  6
CONTINUOUS
 10
5.3253550076
 20
4.8715674916
 11
5.8653550076
 21
4.8715674916
  0
LINE
  5
258
100
AcDbEntity
  8
0
100
AcDbLine
 62
7
  6
CONTINUOUS
 10
4.8044321895
 20
6.0985936057
 11
4.8985244283
 21
5.8714348467
  0
LINE
  5
259
100
AcDbEntity
  8
0
100
AcDbLine
 62
7
  6
CONTINUOUS
 10
4.8989268671
 20
5.8706617655
 11
4.8041701058
 21
6.0994248238
  0
LINE
  5
25A
100
AcDbEntity
  8
0
100
AcDbLine
 62
7
  6
CONTINUOUS
 10
4.7822883913
 20
6.1981268593
 11
4.953247037
 21
5.7853961782
  0
LINE
  5
25B
100
AcDbEntity
  8
0
100
AcDbLine
 62
7
  6
CONTINUOUS
 10
4.7851335743
 20
6.2037756264
 11
4.9592531668
 21
5.7834137449
  0
LINE
  5
25C
100
AcDbEntity
  8
0
100
AcDbLine
 62
7
  6
CONTINUOUS
 10
4.9712673297
 20
5.7794438927
 11
4.790821761
 21
6.2150780319
  0
LINE
  5
25D
100
AcDbEntity
  8
0
100
AcDbLine
 62
7
  6
CONTINUOUS
 10
4.77431535
 20
6.28953364
 11
5.0122436
 21
5.7151240322
  0
LINE
  5
25E
100
AcDbEntity
  8
0
100
AcDbLine
 62
7
  6
CONTINUOUS
 10
4.7771605341
 20
6.2951824026
 11
5.0182497272
 21
5.7131416028
  0
LINE
  5
25F
100
AcDbEntity
  8
0
100
AcDbLine
 62
7
  6
CONTINUOUS
 10
5.0302638934
 20
5.7091717455
 11
4.7828487194
 21
6.3064848139
  0
LINE
  5
260
100
AcDbEntity
  8
0
100
AcDbLine
 62
7
  6
CONTINUOUS
 10
4.764144524
 20
6.3908539871
 11
5.0766960444
 21
5.6362878677
  0
LINE
  5
261
100
AcDbEntity
  8
0
100
AcDbLine
 62
7
  6
CONTINUOUS
 10
4.767112587
 20
6.3965555826
 11
5.0828264187
 21
5.6343549683
  0
LINE
  5
262
100
AcDbEntity
  8
0
100
AcDbLine
 62
7
  6
CONTINUOUS
 10
5.0836587147
 20
5.6346997166
 11
4.767944883
 21
6.3969003309
  0
LINE
  5
263
100
AcDbEntity
  8
0
100
AcDbLine
 62
7
  6
CONTINUOUS
 10
5.0959194576
 20
5.6308339267
 11
4.7738810112
 21
6.4083035116
  0
LINE
  5
264
100
AcDbEntity
  8
0
100
AcDbLine
 62
7
  6
CONTINUOUS
 10
4.7551768167
 20
6.4926726807
 11
5.1423516064
 21
5.5579500523
  0
LINE
  5
265
100
AcDbEntity
  8
0
100
AcDbLine
 62
7
  6
CONTINUOUS
 10
4.7581448796
 20
6.4983742761
 11
5.1484819806
 21
5.5560171529
  0
LINE
  5
266
100
AcDbEntity
  8
0
100
AcDbLine
 62
7
  6
CONTINUOUS
 10
5.1493142767
 20
5.5563619013
 11
4.7589771757
 21
6.4987190244
  0
LINE
  5
267
100
AcDbEntity
  8
0
100
AcDbLine
 62
7
  6
CONTINUOUS
 10
5.1615750206
 20
5.5524961096
 11
4.7649133034
 21
6.5101222071
  0
LINE
  5
268
100
AcDbEntity
  8
0
100
AcDbLine
 62
7
  6
CONTINUOUS
 10
5.4713549837
 20
5.655953357
 11
5.4713549837
 21
5.6463438034
  0
LINE
  5
269
100
AcDbEntity
  8
0
100
AcDbLine
 62
7
  6
CONTINUOUS
 10
4.9226054176
 20
5.8334938862
 11
4.9226195757
 21
5.8334725616
  0
LINE
  5
26A
100
AcDbEntity
  8
0
100
AcDbLine
 62
7
  6
CONTINUOUS
 10
4.9226054176
 20
5.8334938862
 11
4.9226192249
 21
5.8334725991
  0
LINE
  5
26B
100
AcDbEntity
  8
0
100
AcDbLine
 62
7
  6
CONTINUOUS
 10
4.8989268671
 20
5.8706617655
 11
4.9226054176
 21
5.8334938862
  0
LINE
  5
26C
100
AcDbEntity
  8
0
100
AcDbLine
 62
7
  6
CONTINUOUS
 10
4.9311103681
 20
5.8201437881
 11
4.953247037
 21
5.7853961782
  0
LINE
  5
26D
100
AcDbEntity
  8
0
100
AcDbLine
 62
7
  6
CONTINUOUS
 10
4.9712673297
 20
5.7794438927
 11
5.0122436
 21
5.7151240322
  0
LINE
  5
26E
100
AcDbEntity
  8
0
100
AcDbLine
 62
7
  6
CONTINUOUS
 10
5.0302638934
 20
5.7091717455
 11
5.0766960444
 21
5.6362878677
  0
LINE
  5
26F
100
AcDbEntity
  8
0
100
AcDbLine
 62
7
  6
CONTINUOUS
 10
5.0959194576
 20
5.6308339267
 11
5.1150060414
 21
5.6008739913
  0
LINE
  5
270
100
AcDbEntity
  8
0
100
AcDbLine
 62
7
  6
CONTINUOUS
 10
5.1234699791
 20
5.5875882703
 11
5.1423516064
 21
5.5579500523
  0
LINE
  5
271
100
AcDbEntity
  8
0
100
AcDbLine
 62
7
  6
CONTINUOUS
 10
5.1615750206
 20
5.5524961096
 11
5.2080071688
 21
5.4796122363
  0
LINE
  5
272
100
AcDbEntity
  8
0
100
AcDbLine
 62
7
  6
CONTINUOUS
 10
4.7462091092
 20
6.5944913749
 11
5.2080071688
 21
5.4796122363
  0
LINE
  5
273
100
AcDbEntity
  8
0
100
AcDbLine
 62
7
  6
CONTINUOUS
 10
5.2141375426
 20
5.4776793376
 11
4.7491771723
 21
6.6001929696
  0
LINE
  5
274
100
AcDbEntity
  8
0
100
AcDbLine
 62
7
  6
CONTINUOUS
 10
4.7500094683
 20
6.6005377179
 11
5.2149698386
 21
5.4780240859
  0
LINE
  5
275
100
AcDbEntity
  8
0
100
AcDbLine
 62
7
  6
CONTINUOUS
 10
5.2548711965
 20
5.3957846454
 11
4.720071923
 21
6.6869043048
  0
LINE
  5
276
100
AcDbEntity
  8
0
100
AcDbLine
 62
7
  6
CONTINUOUS
 10
4.7308954334
 20
6.7130365577
 11
5.2810028674
 21
5.3849597297
  0
LINE
  5
277
100
AcDbEntity
  8
0
100
AcDbLine
 62
7
  6
CONTINUOUS
 10
5.8203550076
 20
5.1867977543
 11
5.3703550076
 21
5.1867977543
  0
LINE
  5
278
100
AcDbEntity
  8
0
100
AcDbLine
 62
7
  6
CONTINUOUS
 10
5.3703550076
 20
5.2117977543
 11
5.8203550076
 21
5.2117977543
  0
LINE
  5
279
100
AcDbEntity
  8
0
100
AcDbLine
 62
7
  6
CONTINUOUS
 10
5.8134800076
 20
5.2290164759
 11
5.3772300076
 21
5.2290164759
  0
LINE
  5
27A
100
AcDbEntity
  8
0
100
AcDbLine
 62
7
  6
CONTINUOUS
 10
5.4057266043
 20
5.4366219931
 11
4.8556191703
 21
6.7646988211
  0
LINE
  5
27B
100
AcDbEntity
  8
0
100
AcDbLine
 62
7
  6
CONTINUOUS
 10
5.7193549837
 20
5.9489186876
 11
5.7193549837
 21
5.6463438034
  0
LINE
  5
27C
100
AcDbEntity
  8
0
100
AcDbLine
 62
7
  6
CONTINUOUS
 10
5.7603549837
 20
3.0882977543
 11
5.7603549837
 21
3.1182977543
  0
LINE
  5
27D
100
AcDbEntity
  8
0
100
AcDbLine
 62
7
  6
CONTINUOUS
 10
5.7653550076
 20
5.3495475274
 11
5.7653550076
 21
5.5494727356
  0
LINE
  5
27E
100
AcDbEntity
  8
0
100
AcDbLine
 62
7
  6
CONTINUOUS
 10
5.7792749832
 20
3.0662743673
 11
5.7792749832
 21
3.057496327
  0
LINE
  5
27F
100
AcDbEntity
  8
0
100
AcDbLine
 62
7
  6
CONTINUOUS
 10
5.7792749836
 20
3.0305593551
 11
5.7792749836
 21
3.0217813147
  0
LINE
  5
280
100
AcDbEntity
  8
0
100
AcDbLine
 62
7
  6
CONTINUOUS
 10
5.7792749833
 20
2.9948443725
 11
5.7792749833
 21
2.9860663321
  0
LINE
  5
281
100
AcDbEntity
  8
0
100
AcDbLine
 62
7
  6
CONTINUOUS
 10
5.7792749833
 20
2.9591293621
 11
5.7792749833
 21
2.9503513219
  0
LINE
  5
282
100
AcDbEntity
  8
0
100
AcDbLine
 62
7
  6
CONTINUOUS
 10
5.7986049837
 20
3.0820511468
 11
5.7986049837
 21
3.0775865081
  0
LINE
  5
283
100
AcDbEntity
  8
0
100
AcDbLine
 62
7
  6
CONTINUOUS
 10
5.7986049837
 20
3.046336146
 11
5.7986049837
 21
3.0418714955
  0
LINE
  5
284
100
AcDbEntity
  8
0
100
AcDbLine
 62
7
  6
CONTINUOUS
 10
5.7986049837
 20
3.0106211339
 11
5.7986049837
 21
3.006156513
  0
LINE
  5
285
100
AcDbEntity
  8
0
100
AcDbLine
 62
7
  6
CONTINUOUS
 10
5.7986049837
 20
2.9749061511
 11
5.7986049837
 21
2.9704415029
  0
LINE
  5
286
100
AcDbEntity
  8
0
100
AcDbLine
 62
7
  6
CONTINUOUS
 10
5.8003549837
 20
3.4527977543
 11
5.8003549837
 21
3.4027977543
  0
LINE
  5
287
100
AcDbEntity
  8
0
100
AcDbLine
 62
7
  6
CONTINUOUS
 10
5.8203549837
 20
3.1682977543
 11
5.8203549837
 21
3.1182977543
  0
LINE
  5
288
100
AcDbEntity
  8
0
100
AcDbLine
 62
7
  6
CONTINUOUS
 10
5.8203550076
 20
5.2117977543
 11
5.8203550076
 21
5.1867977543
  0
LINE
  5
289
100
AcDbEntity
  8
0
100
AcDbLine
 62
7
  6
CONTINUOUS
 10
5.7653550076
 20
5.3495475273
 11
5.4253550076
 21
5.3495475274
  0
LINE
  5
28A
100
AcDbEntity
  8
0
100
AcDbLine
 62
7
  6
CONTINUOUS
 10
5.0137323714
 20
6.6608335494
 11
5.4436127177
 21
5.6230105881
  0
LINE
  5
28B
100
AcDbEntity
  8
0
100
AcDbLine
 62
7
  6
CONTINUOUS
 10
5.8653550076
 20
3.7790280169
 11
5.8653550076
 21
4.8715674916
  0
LINE
  5
28C
100
AcDbEntity
  8
0
100
AcDbLine
 62
7
  6
CONTINUOUS
 10
5.4253550076
 20
5.5494727746
 11
5.7653550076
 21
5.5494727356
  0
LINE
  5
28D
100
AcDbEntity
  8
0
100
AcDbLine
 62
7
  6
CONTINUOUS
 10
5.4713549837
 20
5.6463438034
 11
5.7193549837
 21
5.6463438034
  0
LINE
  5
28E
100
AcDbEntity
  8
0
100
AcDbLine
 62
7
  6
CONTINUOUS
 10
5.7379386538
 20
5.9661566506
 11
5.4649661105
 21
6.6251706669
  0
LINE
  5
28F
100
AcDbEntity
  8
0
100
AcDbLine
 62
7
  6
CONTINUOUS
 10
5.7894810756
 20
6.3893148242
 11
5.8006301205
 21
6.3623986488
  0
LINE
  5
290
100
AcDbEntity
  8
0
100
AcDbLine
 62
7
  6
CONTINUOUS
 10
5.3923430174
 20
3.0644687776
 11
5.4116979332
 21
3.075657822
  0
LINE
  5
291
100
AcDbEntity
  8
0
100
AcDbLine
 62
7
  6
CONTINUOUS
 10
5.7912466857
 20
2.9434394563
 11
5.7736049837
 21
2.9257977543
  0
LINE
  5
292
100
AcDbEntity
  8
0
100
AcDbLine
 62
7
  6
CONTINUOUS
 10
5.3923430176
 20
3.0287537644
 11
5.4116979332
 21
3.0399428087
  0
LINE
  5
293
100
AcDbEntity
  8
0
100
AcDbLine
 62
7
  6
CONTINUOUS
 10
5.392343017
 20
2.9930387669
 11
5.4116979322
 21
3.0042278109
  0
LINE
  5
294
100
AcDbEntity
  8
0
100
AcDbLine
 62
7
  6
CONTINUOUS
 10
5.3923430175
 20
2.9573237752
 11
5.4116979334
 21
2.9685128197
  0
LINE
  5
295
100
AcDbEntity
  8
0
100
AcDbLine
 62
7
  6
CONTINUOUS
 10
5.4108543976
 20
2.9323100957
 11
5.411697933
 21
2.9327978051
  0
LINE
  5
296
100
AcDbEntity
  8
0
100
AcDbLine
 62
7
  6
CONTINUOUS
 10
5.7983669498
 20
3.0773113815
 11
5.779012034
 21
3.0661223371
  0
LINE
  5
297
100
AcDbEntity
  8
0
100
AcDbLine
 62
7
  6
CONTINUOUS
 10
5.79836695
 20
3.0415963692
 11
5.7790120347
 21
3.0304073251
  0
LINE
  5
298
100
AcDbEntity
  8
0
100
AcDbLine
 62
7
  6
CONTINUOUS
 10
5.7983669501
 20
3.0058813868
 11
5.7790120344
 21
2.9946923425
  0
LINE
  5
299
100
AcDbEntity
  8
0
100
AcDbLine
 62
7
  6
CONTINUOUS
 10
5.7983669498
 20
2.9701663763
 11
5.7790120341
 21
2.958977332
  0
LINE
  5
29A
100
AcDbEntity
  8
0
100
AcDbLine
 62
7
  6
CONTINUOUS
 10
5.0137323714
 20
6.6608335494
 11
5.4649661105
 21
6.6251706669
  0
ARC
  5
29B
100
AcDbEntity
  8
0
100
AcDbCircle
 62
7
  6
CONTINUOUS
 10
5.1153550076
 20
3.7790280169
 40
0.75
100
AcDbArc
 50
334.2163806706
 51
360.0
  0
ARC
  5
29C
100
AcDbEntity
  8
0
100
AcDbCircle
 62
7
  6
CONTINUOUS
 10
5.1153550076
 20
4.8715674916
 40
0.75
100
AcDbArc
 50
0.0
 51
24.8539722589
  0
ARC
  5
29D
100
AcDbEntity
  8
0
100
AcDbCircle
 62
7
  6
CONTINUOUS
 10
5.1992853835
 20
3.3009907905
 40
0.2165
100
AcDbArc
 50
322.2004490872
 51
28.0498776995
  0
ARC
  5
29E
100
AcDbEntity
  8
0
100
AcDbCircle
 62
7
  6
CONTINUOUS
 10
5.0447750315
 20
7.0536087437
 40
0.394
100
AcDbArc
 50
246.1002043872
 51
265.4810692104
  0
ARC
  5
29F
100
AcDbEntity
  8
0
100
AcDbCircle
 62
7
  6
CONTINUOUS
 10
5.2503550076
 20
5.3495475274
 40
0.175
100
AcDbArc
 50
316.4688478326
 51
360.0
  0
ARC
  5
2A0
100
AcDbEntity
  8
0
100
AcDbCircle
 62
7
  6
CONTINUOUS
 10
5.3463549837
 20
5.6463438034
 40
0.125
100
AcDbArc
 50
309.1978476435
 51
360.0
  0
ARC
  5
2A1
100
AcDbEntity
  8
0
100
AcDbCircle
 62
7
  6
CONTINUOUS
 10
5.3953550076
 20
5.2117977543
 40
0.025
100
AcDbArc
 50
136.4688478326
 51
180.0
  0
ARC
  5
2A2
100
AcDbEntity
  8
0
100
AcDbCircle
 62
7
  6
CONTINUOUS
 10
5.2733491988
 20
5.4034373204
 40
0.02
100
AcDbArc
 50
202.5
 51
292.5
  0
ARC
  5
2A3
100
AcDbEntity
  8
0
100
AcDbCircle
 62
7
  6
CONTINUOUS
 10
4.738549102
 20
6.6945589671
 40
0.02
100
AcDbArc
 50
112.5
 51
202.5
  0
ARC
  5
2A4
100
AcDbEntity
  8
0
100
AcDbCircle
 62
7
  6
CONTINUOUS
 10
4.746182634
 20
6.6097765133
 40
0.01
100
AcDbArc
 50
292.5
 51
325.1317573789
  0
ARC
  5
2A5
100
AcDbEntity
  8
0
100
AcDbCircle
 62
7
  6
CONTINUOUS
 10
5.218796673
 20
5.4687852906
 40
0.01
100
AcDbArc
 50
79.8682426211
 51
112.5
  0
ARC
  5
2A6
100
AcDbEntity
  8
0
100
AcDbCircle
 62
7
  6
CONTINUOUS
 10
4.7551503413
 20
6.5079578197
 40
0.01
100
AcDbArc
 50
292.5
 51
12.4999486749
  0
ARC
  5
2A7
100
AcDbEntity
  8
0
100
AcDbCircle
 62
7
  6
CONTINUOUS
 10
5.153141111
 20
5.5471231059
 40
0.01
100
AcDbArc
 50
32.5000513251
 51
112.5
  0
ARC
  5
2A8
100
AcDbEntity
  8
0
100
AcDbCircle
 62
7
  6
CONTINUOUS
 10
5.0874855491
 20
5.6254609213
 40
0.01
100
AcDbArc
 50
32.5000633043
 51
112.5
  0
ARC
  5
2A9
100
AcDbEntity
  8
0
100
AcDbCircle
 62
7
  6
CONTINUOUS
 10
4.9628334267
 20
5.7740708786
 40
0.01
100
AcDbArc
 50
32.5001222301
 51
110.9672257125
  0
ARC
  5
2AA
100
AcDbEntity
  8
0
100
AcDbCircle
 62
7
  6
CONTINUOUS
 10
5.0218299871
 20
5.7037987366
 40
0.01
100
AcDbArc
 50
32.5000874532
 51
110.9672257125
  0
ARC
  5
2AB
100
AcDbEntity
  8
0
100
AcDbCircle
 62
7
  6
CONTINUOUS
 10
4.7641180487
 20
6.4061391262
 40
0.01
100
AcDbArc
 50
292.5
 51
12.4999366957
  0
ARC
  5
2AC
100
AcDbEntity
  8
0
100
AcDbCircle
 62
7
  6
CONTINUOUS
 10
4.7810587963
 20
6.2129136566
 40
0.01
100
AcDbArc
 50
294.0327742875
 51
12.4998777699
  0
ARC
  5
2AD
100
AcDbEntity
  8
0
100
AcDbCircle
 62
7
  6
CONTINUOUS
 10
4.7730857561
 20
6.3043204327
 40
0.01
100
AcDbArc
 50
294.0327742875
 51
12.4999125468
  0
ARC
  5
2AE
100
AcDbEntity
  8
0
100
AcDbCircle
 62
7
  6
CONTINUOUS
 10
5.0809130015
 20
5.6389743659
 40
0.005
100
AcDbArc
 50
212.5000032006
 51
292.5
  0
ARC
  5
2AF
100
AcDbEntity
  8
0
100
AcDbCircle
 62
7
  6
CONTINUOUS
 10
4.9031438293
 20
5.8733482557
 40
0.005
100
AcDbArc
 50
202.4998990128
 51
212.4998928466
  0
ARC
  5
2B0
100
AcDbEntity
  8
0
100
AcDbCircle
 62
7
  6
CONTINUOUS
 10
4.8090515838
 20
6.100507031
 40
0.005
100
AcDbArc
 50
192.5001071534
 51
202.5001009872
  0
ARC
  5
2B1
100
AcDbEntity
  8
0
100
AcDbCircle
 62
7
  6
CONTINUOUS
 10
5.1465685635
 20
5.5606365506
 40
0.005
100
AcDbArc
 50
212.5000037312
 51
292.5
  0
ARC
  5
2B2
100
AcDbEntity
  8
0
100
AcDbCircle
 62
7
  6
CONTINUOUS
 10
4.7510905894
 20
6.595573572
 40
0.005
100
AcDbArc
 50
112.5
 51
192.4999875767
  0
ARC
  5
2B3
100
AcDbEntity
  8
0
100
AcDbCircle
 62
7
  6
CONTINUOUS
 10
4.78716987
 20
6.1992090632
 40
0.005
100
AcDbArc
 50
114.0327742878
 51
192.5000683522
  0
ARC
  5
2B4
100
AcDbEntity
  8
0
100
AcDbCircle
 62
7
  6
CONTINUOUS
 10
4.9574639974
 20
5.7880826712
 40
0.005
100
AcDbArc
 50
212.4999316478
 51
290.9672257122
  0
ARC
  5
2B5
100
AcDbEntity
  8
0
100
AcDbCircle
 62
7
  6
CONTINUOUS
 10
4.7791968298
 20
6.2906158393
 40
0.005
100
AcDbArc
 50
114.0327742876
 51
192.5000143458
  0
ARC
  5
2B6
100
AcDbEntity
  8
0
100
AcDbCircle
 62
7
  6
CONTINUOUS
 10
5.0164605579
 20
5.7178105292
 40
0.005
100
AcDbArc
 50
212.4999856542
 51
290.9672257124
  0
ARC
  5
2B7
100
AcDbEntity
  8
0
100
AcDbCircle
 62
7
  6
CONTINUOUS
 10
4.7690260041
 20
6.3919361849
 40
0.005
100
AcDbArc
 50
112.5
 51
192.4999967994
  0
ARC
  5
2B8
100
AcDbEntity
  8
0
100
AcDbCircle
 62
7
  6
CONTINUOUS
 10
5.2122241254
 20
5.4822987353
 40
0.005
100
AcDbArc
 50
212.5000124233
 51
292.5
  0
ARC
  5
2B9
100
AcDbEntity
  8
0
100
AcDbCircle
 62
7
  6
CONTINUOUS
 10
4.7600582968
 20
6.4937548784
 40
0.005
100
AcDbArc
 50
112.5
 51
192.4999962687
  0
ARC
  5
2BA
100
AcDbEntity
  8
0
100
AcDbCircle
 62
7
  6
CONTINUOUS
 10
6.0753550076
 20
3.7790280169
 40
0.75
100
AcDbArc
 50
180.0
 51
205.7836193294
  0
ARC
  5
2BB
100
AcDbEntity
  8
0
100
AcDbCircle
 62
7
  6
CONTINUOUS
 10
6.0753550076
 20
4.8715674916
 40
0.75
100
AcDbArc
 50
155.1460277411
 51
180.0
  0
ARC
  5
2BC
100
AcDbEntity
  8
0
100
AcDbCircle
 62
7
  6
CONTINUOUS
 10
5.9914245839
 20
3.3009907905
 40
0.2165
100
AcDbArc
 50
151.9501223005
 51
217.7995509128
  0
ARC
  5
2BD
100
AcDbEntity
  8
0
100
AcDbCircle
 62
7
  6
CONTINUOUS
 10
5.7437701619
 20
5.3660852199
 40
0.394
100
AcDbArc
 50
140.6344688321
 51
158.9054363137
  0
ARC
  5
2BE
100
AcDbEntity
  8
0
100
AcDbCircle
 62
7
  6
CONTINUOUS
 10
5.4347113351
 20
6.2423643861
 40
0.384
100
AcDbArc
 50
22.5
 51
85.4810692104
  0
ARC
  5
2BF
100
AcDbEntity
  8
0
100
AcDbCircle
 62
7
  6
CONTINUOUS
 10
5.44586038
 20
6.2154482108
 40
0.384
100
AcDbArc
 50
319.5189307896
 51
22.5
  0
ARC
  5
2C0
100
AcDbEntity
  8
0
100
AcDbCircle
 62
7
  6
CONTINUOUS
 10
5.9403550076
 20
5.3495475274
 40
0.175
100
AcDbArc
 50
180.0
 51
223.5311521674
  0
ARC
  5
2C1
100
AcDbEntity
  8
0
100
AcDbCircle
 62
7
  6
CONTINUOUS
 10
5.8443549837
 20
5.6463438034
 40
0.125
100
AcDbArc
 50
180.0
 51
230.8021805813
  0
ARC
  5
2C2
100
AcDbEntity
  8
0
100
AcDbCircle
 62
7
  6
CONTINUOUS
 10
5.7953550076
 20
5.2117977543
 40
0.025
100
AcDbArc
 50
0.0
 51
43.5311521674
  0
ARC
  5
2C3
100
AcDbEntity
  8
0
100
AcDbCircle
 62
7
  6
CONTINUOUS
 10
5.4591287579
 20
5.6506247395
 40
0.0072262259
100
AcDbArc
 50
319.518930624
 51
326.4739385438
  0
ARC
  5
2C4
100
AcDbEntity
  8
0
100
AcDbCircle
 62
7
  6
CONTINUOUS
 10
5.727019523
 20
5.9574677974
 40
0.0026645393
100
AcDbArc
 50
303.6672354913
 51
319.5189307995
  0
LINE
  5
2C5
100
AcDbEntity
  8
0
100
AcDbLine
 62
7
  6
CONTINUOUS
 10
5.3921050578
 20
2.952583996
 11
5.3923431272
 21
2.9523088697
  0
LINE
  5
2C6
100
AcDbEntity
  8
0
100
AcDbLine
 62
7
  6
CONTINUOUS
 10
5.3921050579
 20
2.9570486487
 11
5.3923430244
 21
2.9573237753
  0
LINE
  5
2C7
100
AcDbEntity
  8
0
100
AcDbLine
 62
7
  6
CONTINUOUS
 10
5.7986049329
 20
2.970441503
 11
5.79836692
 21
2.9701663762
  0
LINE
  5
2C8
100
AcDbEntity
  8
0
100
AcDbLine
 62
7
  6
CONTINUOUS
 10
5.7986049423
 20
2.9749061512
 11
5.7983668741
 21
2.9751812772
  0
SPLINE
  5
2C9
100
AcDbEntity
  8
0
100
AcDbSpline
 62
7
  6
CONTINUOUS
 70
0
 71
3
 72
19
 73
15
 74
0
 42
0.0000001
 43
0.0000001
 44
0.0000000001
 40
0.0
 40
0.0
 40
0.0
 40
0.0
 40
0.0191214885
 40
0.0406883115
 40
0.0668395343
 40
0.0987602874
 40
0.1370673705
 40
0.1820848687
 40
0.2339744202
 40
0.2927662638
 40
0.4308728109
 40
0.5958215973
 40
0.7862207531
 40
1.0
 40
1.0
 40
1.0
 40
1.0
 10
4.810448767
 20
6.1104371362
 30
0.0
 10
4.8104633226
 20
6.1104423125
 30
0.0
 10
4.810497021
 20
6.1104465397
 30
0.0
 10
4.8105500434
 20
6.1104323303
 30
0.0
 10
4.810606297
 20
6.1104002091
 30
0.0
 10
4.8106666217
 20
6.1103505876
 30
0.0
 10
4.8107313198
 20
6.1102834326
 30
0.0
 10
4.8108004059
 20
6.1101986938
 30
0.0
 10
4.8108737689
 20
6.1100964362
 30
0.0
 10
4.8109830783
 20
6.1099276893
 30
0.0
 10
4.8111276587
 20
6.109673352
 30
0.0
 10
4.8113074978
 20
6.1093174451
 30
0.0
 10
4.8114998756
 20
6.1088997261
 30
0.0
 10
4.8116281472
 20
6.1085993903
 30
0.0
 10
4.8116942428
 20
6.1084398214
 30
0.0
  0
SPLINE
  5
2CA
100
AcDbEntity
  8
0
100
AcDbSpline
 62
7
  6
CONTINUOUS
 70
0
 71
3
 72
22
 73
18
 74
0
 42
0.0000001
 43
0.0000001
 44
0.0000000001
 40
0.0
 40
0.0
 40
0.0
 40
0.0
 40
0.0082808222
 40
0.0171444135
 40
0.0270864126
 40
0.0384502038
 40
0.066197319
 40
0.101351951
 40
0.1441466917
 40
0.1944676173
 40
0.2520529867
 40
0.3164647053
 40
0.387192165
 40
0.4636272572
 40
0.6307569666
 40
0.8118667729
 40
1.0
 40
1.0
 40
1.0
 40
1.0
 10
4.856903536
 20
5.9957841322
 30
0.0
 10
4.8569244035
 20
5.9957927824
 30
0.0
 10
4.8569704277
 20
5.995804472
 30
0.0
 10
4.8570449966
 20
5.9958030081
 30
0.0
 10
4.8571254868
 20
5.9957835717
 30
0.0
 10
4.8572489486
 20
5.9957308103
 30
0.0
 10
4.8574175861
 20
5.9956157915
 30
0.0
 10
4.8576304411
 20
5.9954207001
 30
0.0
 10
4.8578649712
 20
5.995160439
 30
0.0
 10
4.8581192058
 20
5.994837129
 30
0.0
 10
4.8583907418
 20
5.9944532215
 30
0.0
 10
4.8586771933
 20
5.9940122522
 30
0.0
 10
4.8589757866
 20
5.9935182381
 30
0.0
 10
4.8593990607
 20
5.9927725513
 30
0.0
 10
4.8599344289
 20
5.9917447593
 30
0.0
 10
4.8605610551
 20
5.9904222635
 30
0.0
 10
4.8609616258
 20
5.9894978389
 30
0.0
 10
4.8611580227
 20
5.9890236949
 30
0.0
  0
SPLINE
  5
2CB
100
AcDbEntity
  8
0
100
AcDbSpline
 62
7
  6
CONTINUOUS
 70
0
 71
3
 72
19
 73
15
 74
0
 42
0.0000001
 43
0.0000001
 44
0.0000000001
 40
0.0
 40
0.0
 40
0.0
 40
0.0
 40
0.017354988
 40
0.0384001734
 40
0.0649668981
 40
0.0979253254
 40
0.1376292997
 40
0.1842063974
 40
0.2376750395
 40
0.2979595861
 40
0.4382764885
 40
0.6035654283
 40
0.7916505072
 40
1.0
 40
1.0
 40
1.0
 40
1.0
 10
4.9033602983
 20
5.88104567
 30
0.0
 10
4.903379449
 20
5.8810547773
 30
0.0
 10
4.9034273128
 20
5.8810637015
 30
0.0
 10
4.9035062394
 20
5.8810484349
 30
0.0
 10
4.903596908
 20
5.8810088809
 30
0.0
 10
4.9037002077
 20
5.8809448846
 30
0.0
 10
4.9038163114
 20
5.8808566188
 30
0.0
 10
4.9039449188
 20
5.880744135
 30
0.0
 10
4.9040855974
 20
5.8806076993
 30
0.0
 10
4.9042996005
 20
5.880382712
 30
0.0
 10
4.904591506
 20
5.8800437557
 30
0.0
 10
4.9049650722
 20
5.8795699592
 30
0.0
 10
4.9053721152
 20
5.8790171898
 30
0.0
 10
4.9056489843
 20
5.8786196501
 30
0.0
 10
4.9057922634
 20
5.8784092162
 30
0.0
  0
SPLINE
  5
2CC
100
AcDbEntity
  8
0
100
AcDbSpline
 62
7
  6
CONTINUOUS
 70
0
 71
3
 72
13
 73
9
 74
0
 42
0.0000001
 43
0.0000001
 44
0.0000000001
 40
0.0
 40
0.0
 40
0.0
 40
0.0
 40
0.1189540305
 40
0.2473508879
 40
0.5173485933
 40
0.7784797791
 40
0.8960171349
 40
1.0
 40
1.0
 40
1.0
 40
1.0
 10
4.9057922634
 20
5.8784092162
 30
0.0
 10
4.9060166054
 20
5.8780797254
 30
0.0
 10
4.9064719005
 20
5.8773869313
 30
0.0
 10
4.9073864049
 20
5.8759139599
 30
0.0
 10
4.9084879173
 20
5.8739971669
 30
0.0
 10
4.9094949708
 20
5.8720699578
 30
0.0
 10
4.9101896715
 20
5.8706092202
 30
0.0
 10
4.9104884568
 20
5.8699294902
 30
0.0
 10
4.9106218013
 20
5.8696075679
 30
0.0
  0
LINE
  5
2CD
100
AcDbEntity
  8
0
100
AcDbLine
 62
7
  6
CONTINUOUS
 10
4.7596395016
 20
6.5449961691
 11
4.759746418
 21
6.5448238668
  0
SPLINE
  5
2CE
100
AcDbEntity
  8
0
100
AcDbSpline
 62
7
  6
CONTINUOUS
 70
0
 71
3
 72
17
 73
13
 74
0
 42
0.0000001
 43
0.0000001
 44
0.0000000001
 40
0.0
 40
0.0
 40
0.0
 40
0.0
 40
0.0197495005
 40
0.0421569307
 40
0.0690773401
 40
0.1015881343
 40
0.1854153582
 40
0.2957894811
 40
0.4330705401
 40
0.5969811886
 40
0.7864252507
 40
1.0
 40
1.0
 40
1.0
 40
1.0
 10
4.8006769508
 20
6.4452551736
 30
0.0
 10
4.8006884834
 20
6.4452581711
 30
0.0
 10
4.8007146014
 20
6.4452594393
 30
0.0
 10
4.8007549576
 20
6.4452470091
 30
0.0
 10
4.8007977026
 20
6.4452216933
 30
0.0
 10
4.8008641832
 20
6.4451660648
 30
0.0
 10
4.8009528184
 20
6.4450608881
 30
0.0
 10
4.8010640653
 20
6.4448945609
 30
0.0
 10
4.8011868887
 20
6.444678519
 30
0.0
 10
4.801320321
 20
6.4444141999
 30
0.0
 10
4.8014633656
 20
6.444103423
 30
0.0
 10
4.8015588393
 20
6.4438797595
 30
0.0
 10
4.8016081518
 20
6.4437607084
 30
0.0
  0
SPLINE
  5
2CF
100
AcDbEntity
  8
0
100
AcDbSpline
 62
7
  6
CONTINUOUS
 70
0
 71
3
 72
19
 73
15
 74
0
 42
0.0000001
 43
0.0000001
 44
0.0000000001
 40
0.0
 40
0.0
 40
0.0
 40
0.0
 40
0.0187075054
 40
0.0406137429
 40
0.0677930005
 40
0.1012602855
 40
0.1414626454
 40
0.1885817233
 40
0.242610305
 40
0.3033998497
 40
0.4444227112
 40
0.6095452809
 40
0.7960234386
 40
1.0
 40
1.0
 40
1.0
 40
1.0
 10
4.8746224257
 20
6.2655051585
 30
0.0
 10
4.8746501237
 20
6.2655142129
 30
0.0
 10
4.8747155
 20
6.2655191244
 30
0.0
 10
4.8748175154
 20
6.2654862034
 30
0.0
 10
4.8749275313
 20
6.2654182051
 30
0.0
 10
4.8750469779
 20
6.2653155318
 30
0.0
 10
4.8751760611
 20
6.2651783143
 30
0.0
 10
4.8753143438
 20
6.2650067748
 30
0.0
 10
4.8754612456
 20
6.2648015893
 30
0.0
 10
4.8756786613
 20
6.26446748
 30
0.0
 10
4.8759636992
 20
6.2639716006
 30
0.0
 10
4.8763135634
 20
6.2632884352
 30
0.0
 10
4.8766788775
 20
6.2625037176
 30
0.0
 10
4.8769187962
 20
6.2619447343
 30
0.0
 10
4.8770403869
 20
6.2616511885
 30
0.0
  0
SPLINE
  5
2D0
100
AcDbEntity
  8
0
100
AcDbSpline
 62
7
  6
CONTINUOUS
 70
0
 71
3
 72
22
 73
18
 74
0
 42
0.0000001
 43
0.0000001
 44
0.0000000001
 40
0.0
 40
0.0
 40
0.0
 40
0.0
 40
0.008273199
 40
0.0171459613
 40
0.027114798
 40
0.0385232211
 40
0.0663995708
 40
0.1017128863
 40
0.1446815393
 40
0.1951705257
 40
0.2529002419
 40
0.3174214207
 40
0.388208775
 40
0.4646491213
 40
0.6316155687
 40
0.8123539012
 40
1.0
 40
1.0
 40
1.0
 40
1.0
 10
4.9668351511
 20
6.041319293
 30
0.0
 10
4.9668560068
 20
6.0413279339
 30
0.0
 10
4.9669020697
 20
6.0413395692
 30
0.0
 10
4.9669767337
 20
6.0413379678
 30
0.0
 10
4.9670574325
 20
6.0413183637
 30
0.0
 10
4.9671813821
 20
6.0412652592
 30
0.0
 10
4.9673508385
 20
6.0411497556
 30
0.0
 10
4.9675649713
 20
6.0409540806
 30
0.0
 10
4.9678009977
 20
6.0406931995
 30
0.0
 10
4.9680568776
 20
6.0403693508
 30
0.0
 10
4.9683300966
 20
6.0399850629
 30
0.0
 10
4.9686181615
 20
6.0395439453
 30
0.0
 10
4.9689182313
 20
6.0390500776
 30
0.0
 10
4.9693430716
 20
6.0383053106
 30
0.0
 10
4.9698797272
 20
6.0372794411
 30
0.0
 10
4.9705067973
 20
6.0359597739
 30
0.0
 10
4.9709069003
 20
6.0350373805
 30
0.0
 10
4.9711028438
 20
6.0345643309
 30
0.0
  0
SPLINE
  5
2D1
100
AcDbEntity
  8
0
100
AcDbSpline
 62
7
  6
CONTINUOUS
 70
0
 71
3
 72
19
 73
15
 74
0
 42
0.0000001
 43
0.0000001
 44
0.0000000001
 40
0.0
 40
0.0
 40
0.0
 40
0.0
 40
0.0186919717
 40
0.0406189438
 40
0.0678421321
 40
0.1013717511
 40
0.1416761819
 40
0.1889153025
 40
0.2430466985
 40
0.3039480723
 40
0.4452121037
 40
0.610382304
 40
0.796491332
 40
1.0
 40
1.0
 40
1.0
 40
1.0
 10
5.0590620462
 20
5.8170896489
 30
0.0
 10
5.0590888231
 20
5.8171032358
 30
0.0
 10
5.0591547476
 20
5.8171184563
 30
0.0
 10
5.0592639096
 20
5.8171004117
 30
0.0
 10
5.0593867282
 20
5.8170479189
 30
0.0
 10
5.0595246099
 20
5.8169613996
 30
0.0
 10
5.0596776363
 20
5.8168409573
 30
0.0
 10
5.0598453298
 20
5.8166868543
 30
0.0
 10
5.0600270018
 20
5.8164997672
 30
0.0
 10
5.0603003831
 20
5.8161917761
 30
0.0
 10
5.0606672564
 20
5.815729076
 30
0.0
 10
5.0611282573
 20
5.8150857907
 30
0.0
 10
5.0616196638
 20
5.8143420905
 30
0.0
 10
5.0619485301
 20
5.8138094637
 30
0.0
 10
5.0621166912
 20
5.8135291148
 30
0.0
  0
SPLINE
  5
2D2
100
AcDbEntity
  8
0
100
AcDbSpline
 62
7
  6
CONTINUOUS
 70
0
 71
3
 72
11
 73
7
 74
0
 42
0.0000001
 43
0.0000001
 44
0.0000000001
 40
0.0
 40
0.0
 40
0.0
 40
0.0
 40
0.244660705
 40
0.5010760203
 40
0.7569766567
 40
1.0
 40
1.0
 40
1.0
 40
1.0
 10
5.0621166912
 20
5.8135291148
 30
0.0
 10
5.0624011737
 20
5.8130548412
 30
0.0
 10
5.0629629838
 20
5.8120709355
 30
0.0
 10
5.0637585996
 20
5.8105556655
 30
0.0
 10
5.0645009019
 20
5.8090176881
 30
0.0
 10
5.0649550724
 20
5.8079850061
 30
0.0
 10
5.0651652996
 20
5.8074774728
 30
0.0
  0
SPLINE
  5
2D3
100
AcDbEntity
  8
0
100
AcDbSpline
 62
7
  6
CONTINUOUS
 70
0
 71
3
 72
19
 73
15
 74
0
 42
0.0000001
 43
0.0000001
 44
0.0000000001
 40
0.0
 40
0.0
 40
0.0
 40
0.0
 40
0.0146820701
 40
0.0333586045
 40
0.0581039136
 40
0.089749753
 40
0.128630084
 40
0.1748323235
 40
0.2282837401
 40
0.288855722
 40
0.4306390578
 40
0.5981697039
 40
0.7889599765
 40
1.0
 40
1.0
 40
1.0
 40
1.0
 10
5.1330389555
 20
5.6372426383
 30
0.0
 10
5.1330553872
 20
5.6372522897
 30
0.0
 10
5.1331001503
 20
5.6372616104
 30
0.0
 10
5.1331744891
 20
5.637243098
 30
0.0
 10
5.1332619057
 20
5.6371992313
 30
0.0
 10
5.1333639056
 20
5.6371288343
 30
0.0
 10
5.1334806037
 20
5.6370320308
 30
0.0
 10
5.1336116582
 20
5.636908792
 30
0.0
 10
5.1337565924
 20
5.6367595787
 30
0.0
 10
5.1339794608
 20
5.6365133988
 30
0.0
 10
5.1342861331
 20
5.6361437625
 30
0.0
 10
5.134681985
 20
5.6356292153
 30
0.0
 10
5.1351158612
 20
5.6350308895
 30
0.0
 10
5.1354125028
 20
5.6346018612
 30
0.0
 10
5.1355662145
 20
5.6343751363
 30
0.0
  0
SPLINE
  5
2D4
100
AcDbEntity
  8
0
100
AcDbSpline
 62
7
  6
CONTINUOUS
 70
0
 71
3
 72
14
 73
10
 74
0
 42
0.0000001
 43
0.0000001
 44
0.0000000001
 40
0.0
 40
0.0
 40
0.0
 40
0.0
 40
0.1243180884
 40
0.2576012334
 40
0.5335322295
 40
0.6671954799
 40
0.7921033836
 40
0.9042756733
 40
1.0
 40
1.0
 40
1.0
 40
1.0
 10
5.1355662145
 20
5.6343751363
 30
0.0
 10
5.1358064313
 20
5.6340208165
 30
0.0
 10
5.1362938217
 20
5.6332795653
 30
0.0
 10
5.1372682764
 20
5.6317220399
 30
0.0
 10
5.1382119357
 20
5.6301076808
 30
0.0
 10
5.1390932656
 20
5.6284918248
 30
0.0
 10
5.1396798919
 20
5.6273578316
 30
0.0
 10
5.1401800451
 20
5.6263266359
 30
0.0
 10
5.1404713932
 20
5.6256724754
 30
0.0
 10
5.1405975311
 20
5.6253679515
 30
0.0
  0
LINE
  5
2D5
100
AcDbEntity
  8
0
100
AcDbLine
 62
7
  6
CONTINUOUS
 10
5.1741011979
 20
5.5374252409
 11
5.1756339501
 21
5.5354262867
  0
LINE
  5
2D6
100
AcDbEntity
  8
0
100
AcDbLine
 62
7
  6
CONTINUOUS
 10
5.1756339501
 20
5.5354262867
 11
5.1814537883
 21
5.5261820248
  0
LINE
  5
2D7
100
AcDbEntity
  8
0
100
AcDbLine
 62
7
  6
CONTINUOUS
 10
5.1814537883
 20
5.5261820248
 11
5.1824592599
 21
5.5243047911
  0
LINE
  5
2D8
100
AcDbEntity
  8
0
100
AcDbLine
 62
7
  6
CONTINUOUS
 10
4.7863720536
 20
6.4009517797
 11
4.7869443321
 21
6.4000330588
  0
SPLINE
  5
2D9
100
AcDbEntity
  8
0
100
AcDbSpline
 62
7
  6
CONTINUOUS
 70
0
 71
3
 72
19
 73
15
 74
0
 42
0.0000001
 43
0.0000001
 44
0.0000000001
 40
0.0
 40
0.0
 40
0.0
 40
0.0
 40
0.0188758365
 40
0.0407824298
 40
0.0677763975
 40
0.1009096345
 40
0.1406936347
 40
0.1873418658
 40
0.2408526552
 40
0.3011350883
 40
0.441390913
 40
0.6063691059
 40
0.7937227755
 40
1.0
 40
1.0
 40
1.0
 40
1.0
 10
4.8508186078
 20
6.2440772719
 30
0.0
 10
4.8508433086
 20
6.2440854008
 30
0.0
 10
4.8509012707
 20
6.2440902747
 30
0.0
 10
4.8509917756
 20
6.2440620586
 30
0.0
 10
4.8510889801
 20
6.2440031194
 30
0.0
 10
4.8511941654
 20
6.2439137465
 30
0.0
 10
4.8513075517
 20
6.2437939641
 30
0.0
 10
4.8514288611
 20
6.2436439411
 30
0.0
 10
4.8515577163
 20
6.2434642418
 30
0.0
 10
4.8517486328
 20
6.2431708034
 30
0.0
 10
4.8519993297
 20
6.2427336882
 30
0.0
 10
4.8523080464
 20
6.2421291861
 30
0.0
 10
4.852632211
 20
6.2414310698
 30
0.0
 10
4.8528459066
 20
6.2409325894
 30
0.0
 10
4.8529546555
 20
6.2406700462
 30
0.0
  0
SPLINE
  5
2DA
100
AcDbEntity
  8
0
100
AcDbSpline
 62
7
  6
CONTINUOUS
 70
0
 71
3
 72
22
 73
18
 74
0
 42
0.0000001
 43
0.0000001
 44
0.0000000001
 40
0.0
 40
0.0
 40
0.0
 40
0.0
 40
0.0082735945
 40
0.0171453983
 40
0.0271120246
 40
0.0385169928
 40
0.0663838587
 40
0.1016862743
 40
0.1446434246
 40
0.1951216732
 40
0.2528425526
 40
0.3173573011
 40
0.3881415839
 40
0.4645823175
 40
0.6315603223
 40
0.8123229665
 40
1.0
 40
1.0
 40
1.0
 40
1.0
 10
4.9388602085
 20
6.0297316927
 30
0.0
 10
4.9388810643
 20
6.0297403341
 30
0.0
 10
4.9389271227
 20
6.0297519727
 30
0.0
 10
4.9390017768
 20
6.0297503777
 30
0.0
 10
4.9390824554
 20
6.0297307791
 30
0.0
 10
4.9392063607
 20
6.0296776882
 30
0.0
 10
4.9393757419
 20
6.0295622005
 30
0.0
 10
4.9395897563
 20
6.0293665404
 30
0.0
 10
4.9398256436
 20
6.0291056726
 30
0.0
 10
4.9400813682
 20
6.0287818285
 30
0.0
 10
4.9403544245
 20
6.0283975333
 30
0.0
 10
4.9406423284
 20
6.0279563936
 30
0.0
 10
4.9409422445
 20
6.0274624865
 30
0.0
 10
4.9413669046
 20
6.0267176253
 30
0.0
 10
4.9419033878
 20
6.0256916032
 30
0.0
 10
4.9425303535
 20
6.0243717453
 30
0.0
 10
4.9429304636
 20
6.023449232
 30
0.0
 10
4.9431264322
 20
6.0229761218
 30
0.0
  0
SPLINE
  5
2DB
100
AcDbEntity
  8
0
100
AcDbSpline
 62
7
  6
CONTINUOUS
 70
0
 71
3
 72
19
 73
15
 74
0
 42
0.0000001
 43
0.0000001
 44
0.0000000001
 40
0.0
 40
0.0
 40
0.0
 40
0.0
 40
0.0181955185
 40
0.0397682853
 40
0.0667740223
 40
0.100189249
 40
0.1404200504
 40
0.1876175812
 40
0.2417640687
 40
0.3027025997
 40
0.4440847277
 40
0.6094990299
 40
0.7959730843
 40
1.0
 40
1.0
 40
1.0
 40
1.0
 10
5.0269191087
 20
5.8153290894
 30
0.0
 10
5.0269448754
 20
5.8153421009
 30
0.0
 10
5.0270088424
 20
5.8153561707
 30
0.0
 10
5.027114709
 20
5.8153374357
 30
0.0
 10
5.0272345137
 20
5.8152849672
 30
0.0
 10
5.0273696385
 20
5.8151991319
 30
0.0
 10
5.027520229
 20
5.8150801288
 30
0.0
 10
5.0276857647
 20
5.8149281118
 30
0.0
 10
5.0278655092
 20
5.8147436607
 30
0.0
 10
5.0281366873
 20
5.8144402167
 30
0.0
 10
5.0285017744
 20
5.8139847101
 30
0.0
 10
5.0289620212
 20
5.8133516151
 30
0.0
 10
5.0294542543
 20
5.8126196585
 30
0.0
 10
5.0297846171
 20
5.8120955
 30
0.0
 10
5.0299537977
 20
5.8118195644
 30
0.0
  0
SPLINE
  5
2DC
100
AcDbEntity
  8
0
100
AcDbSpline
 62
7
  6
CONTINUOUS
 70
0
 71
3
 72
11
 73
7
 74
0
 42
0.0000001
 43
0.0000001
 44
0.0000000001
 40
0.0
 40
0.0
 40
0.0
 40
0.0
 40
0.2466323811
 40
0.5053731875
 40
0.7613832506
 40
1.0
 40
1.0
 40
1.0
 40
1.0
 10
5.0299537977
 20
5.8118195644
 30
0.0
 10
5.0302696162
 20
5.8113044603
 30
0.0
 10
5.030892784
 20
5.8102341722
 30
0.0
 10
5.0317716738
 20
5.8085885126
 30
0.0
 10
5.0325831634
 20
5.8069304323
 30
0.0
 10
5.0330745001
 20
5.8058222747
 30
0.0
 10
5.0332982076
 20
5.8052821969
 30
0.0
  0
SPLINE
  5
2DD
100
AcDbEntity
  8
0
100
AcDbSpline
 62
7
  6
CONTINUOUS
 70
0
 71
3
 72
17
 73
13
 74
0
 42
0.0000001
 43
0.0000001
 44
0.0000000001
 40
0.0
 40
0.0
 40
0.0
 40
0.0
 40
0.0287297635
 40
0.0524831489
 40
0.0835560923
 40
0.1221381058
 40
0.1682225803
 40
0.2217325981
 40
0.2825414102
 40
0.4251462057
 40
0.5940182258
 40
1.0
 40
1.0
 40
1.0
 40
1.0
 10
5.0913999247
 20
5.6583418468
 30
0.0
 10
5.0914311148
 20
5.6583597524
 30
0.0
 10
5.0915067511
 20
5.6583377245
 30
0.0
 10
5.0915924438
 20
5.6582844794
 30
0.0
 10
5.0916860178
 20
5.6582118731
 30
0.0
 10
5.091792654
 20
5.6581143745
 30
0.0
 10
5.0919145547
 20
5.6579913511
 30
0.0
 10
5.0920503137
 20
5.6578434283
 30
0.0
 10
5.0922608861
 20
5.6576002511
 30
0.0
 10
5.0925534278
 20
5.6572373242
 30
0.0
 10
5.0930956097
 20
5.6565212148
 30
0.0
 10
5.0935093978
 20
5.6559321669
 30
0.0
 10
5.0937960714
 20
5.6555125241
 30
0.0
  0
SPLINE
  5
2DE
100
AcDbEntity
  8
0
100
AcDbSpline
 62
7
  6
CONTINUOUS
 70
0
 71
3
 72
12
 73
8
 74
0
 42
0.0000001
 43
0.0000001
 44
0.0000000001
 40
0.0
 40
0.0
 40
0.0
 40
0.0
 40
0.2508497614
 40
0.521893329
 40
0.7816575548
 40
0.897727774
 40
1.0
 40
1.0
 40
1.0
 40
1.0
 10
5.0937960714
 20
5.6555125241
 30
0.0
 10
5.0942645161
 20
5.6548267986
 30
0.0
 10
5.0952077366
 20
5.6533786618
 30
0.0
 10
5.0965538737
 20
5.6511682941
 30
0.0
 10
5.0976144597
 20
5.6493073096
 30
0.0
 10
5.0983599398
 20
5.6479109597
 30
0.0
 10
5.0986862051
 20
5.6472658277
 30
0.0
 10
5.0988341243
 20
5.6469612683
 30
0.0
  0
LINE
  5
2DF
100
AcDbEntity
  8
0
100
AcDbLine
 62
7
  6
CONTINUOUS
 10
5.0988341243
 20
5.6469612683
 11
5.0993085272
 21
5.6459191827
  0
LINE
  5
2E0
100
AcDbEntity
  8
0
100
AcDbLine
 62
7
  6
CONTINUOUS
 10
4.7789927363
 20
6.3378590007
 11
4.7792018495
 21
6.3375232156
  0
SPLINE
  5
2E1
100
AcDbEntity
  8
0
100
AcDbSpline
 62
7
  6
CONTINUOUS
 70
0
 71
3
 72
19
 73
15
 74
0
 42
0.0000001
 43
0.0000001
 44
0.0000000001
 40
0.0
 40
0.0
 40
0.0
 40
0.0
 40
0.0190833324
 40
0.0409567782
 40
0.0676845049
 40
0.1003985917
 40
0.1396508126
 40
0.1856586048
 40
0.2384889011
 40
0.2981288458
 40
0.4374130024
 40
0.6022376095
 40
0.790732049
 40
1.0
 40
1.0
 40
1.0
 40
1.0
 10
4.829088708
 20
6.2156462706
 30
0.0
 10
4.8291093174
 20
6.2156530769
 30
0.0
 10
4.8291572533
 20
6.2156575695
 30
0.0
 10
4.8292322295
 20
6.215635492
 30
0.0
 10
4.8293123578
 20
6.2155881555
 30
0.0
 10
4.8293986449
 20
6.2155158464
 30
0.0
 10
4.8294913933
 20
6.2154186275
 30
0.0
 10
4.8295905194
 20
6.2152966517
 30
0.0
 10
4.829695742
 20
6.2151502106
 30
0.0
 10
4.8298518889
 20
6.2149101103
 30
0.0
 10
4.8300574366
 20
6.2145507354
 30
0.0
 10
4.8303115802
 20
6.2140512868
 30
0.0
 10
4.8305804041
 20
6.213470513
 30
0.0
 10
4.8307584531
 20
6.2130545698
 30
0.0
 10
4.830849535
 20
6.2128346785
 30
0.0
  0
LINE
  5
2E2
100
AcDbEntity
  8
0
100
AcDbLine
 62
7
  6
CONTINUOUS
 10
5.1824592599
 20
5.5243047911
 11
5.1825054946
 21
5.5241073536
  0
SPLINE
  5
2E3
100
AcDbEntity
  8
0
100
AcDbSpline
 62
7
  6
CONTINUOUS
 70
0
 71
3
 72
17
 73
13
 74
0
 42
0.0000001
 43
0.0000001
 44
0.0000000001
 40
0.0
 40
0.0
 40
0.0
 40
0.0
 40
0.2135747618
 40
0.403018817
 40
0.5669294329
 40
0.7042104755
 40
0.8145846079
 40
0.8984118369
 40
0.9309226372
 40
0.9578430563
 40
0.9802504949
 40
1.0
 40
1.0
 40
1.0
 40
1.0
 10
5.1405975311
 20
5.6253679515
 30
0.0
 10
5.1406468437
 20
5.6252489004
 30
0.0
 10
5.1407374876
 20
5.6250232364
 30
0.0
 10
5.1408560922
 20
5.6247023361
 30
0.0
 10
5.1409486432
 20
5.6244210835
 30
0.0
 10
5.1410145585
 20
5.6241814695
 30
0.0
 10
5.1410535062
 20
5.623985195
 30
0.0
 10
5.1410652029
 20
5.6238481493
 30
0.0
 10
5.1410575292
 20
5.6237618051
 30
0.0
 10
5.1410452049
 20
5.6237136788
 30
0.0
 10
5.1410254583
 20
5.6236763531
 30
0.0
 10
5.1410060933
 20
5.6236587817
 30
0.0
 10
5.140995819
 20
5.6236527465
 30
0.0
  0
SPLINE
  5
2E4
100
AcDbEntity
  8
0
100
AcDbSpline
 62
7
  6
CONTINUOUS
 70
0
 71
3
 72
19
 73
15
 74
0
 42
0.0000001
 43
0.0000001
 44
0.0000000001
 40
0.0
 40
0.0
 40
0.0
 40
0.0
 40
0.2039765524
 40
0.3904546715
 40
0.5555772294
 40
0.6966001024
 40
0.7573896614
 40
0.8114182547
 40
0.8585373373
 40
0.8987397043
 40
0.9322069964
 40
0.9593862573
 40
0.9812924957
 40
1.0
 40
1.0
 40
1.0
 40
1.0
 10
5.0651652996
 20
5.8074774728
 30
0.0
 10
5.0652868902
 20
5.8071839271
 30
0.0
 10
5.0655125029
 20
5.8066190181
 30
0.0
 10
5.0658090659
 20
5.805805823
 30
0.0
 10
5.0660447455
 20
5.8050753609
 30
0.0
 10
5.0661938329
 20
5.8045231688
 30
0.0
 10
5.0662763478
 20
5.8041331817
 30
0.0
 10
5.0663175606
 20
5.8038842184
 30
0.0
 10
5.0663410767
 20
5.803665141
 30
0.0
 10
5.0663468285
 20
5.8034768379
 30
0.0
 10
5.066334968
 20
5.8033197755
 30
0.0
 10
5.0663052571
 20
5.8031939003
 30
0.0
 10
5.0662564
 20
5.8030984859
 30
0.0
 10
5.066206699
 20
5.8030557309
 30
0.0
 10
5.0661807111
 20
5.8030425478
 30
0.0
  0
SPLINE
  5
2E5
100
AcDbEntity
  8
0
100
AcDbSpline
 62
7
  6
CONTINUOUS
 70
0
 71
3
 72
22
 73
18
 74
0
 42
0.0000001
 43
0.0000001
 44
0.0000000001
 40
0.0
 40
0.0
 40
0.0
 40
0.0
 40
0.1876461522
 40
0.3683845893
 40
0.5353511978
 40
0.6117916567
 40
0.6825790298
 40
0.747100034
 40
0.8048296249
 40
0.8553186092
 40
0.8982873266
 40
0.9336006798
 40
0.9614768857
 40
0.9728852448
 40
0.9828540541
 40
0.9917268041
 40
1.0
 40
1.0
 40
1.0
 40
1.0
 10
4.9711028438
 20
6.0345643309
 30
0.0
 10
4.9712987874
 20
6.0340912812
 30
0.0
 10
4.9716681026
 20
6.0331561347
 30
0.0
 10
4.9721578431
 20
6.0317795827
 30
0.0
 10
4.9725037697
 20
6.0306747096
 30
0.0
 10
4.972729992
 20
6.0298476715
 30
0.0
 10
4.9728670281
 20
6.0292862731
 30
0.0
 10
4.9729752524
 20
6.0287706639
 30
0.0
 10
4.9730537896
 20
6.0283057371
 30
0.0
 10
4.9731018505
 20
6.0278958071
 30
0.0
 10
4.973119425
 20
6.0275444402
 30
0.0
 10
4.9731063742
 20
6.0272546625
 30
0.0
 10
4.9730682235
 20
6.0270531657
 30
0.0
 10
4.9730181282
 20
6.0269279704
 30
0.0
 10
4.9729749279
 20
6.0268570458
 30
0.0
 10
4.9729232648
 20
6.0268031181
 30
0.0
 10
4.972882466
 20
6.0267787742
 30
0.0
 10
4.9728616088
 20
6.0267701371
 30
0.0
  0
SPLINE
  5
2E6
100
AcDbEntity
  8
0
100
AcDbSpline
 62
7
  6
CONTINUOUS
 70
0
 71
3
 72
24
 73
20
 74
0
 42
0.0000001
 43
0.0000001
 44
0.0000000001
 40
0.0
 40
0.0
 40
0.0
 40
0.0
 40
0.1624877755
 40
0.3334122135
 40
0.5021635941
 40
0.5824214879
 40
0.6582575113
 40
0.7285078951
 40
0.7921124369
 40
0.8481364801
 40
0.8958085172
 40
0.9163313867
 40
0.9345860521
 40
0.9505504461
 40
0.9642409155
 40
0.9757456846
 40
0.9852482804
 40
0.9931098497
 40
1.0
 40
1.0
 40
1.0
 40
1.0
 10
4.8770403869
 20
6.2616511885
 30
0.0
 10
4.8772808407
 20
6.2610706815
 30
0.0
 10
4.8777449646
 20
6.2598672943
 30
0.0
 10
4.8783717362
 20
6.2580289399
 30
0.0
 10
4.8788366956
 20
6.2564725312
 30
0.0
 10
4.8791571302
 20
6.2552578255
 30
0.0
 10
4.8793603381
 20
6.2544063748
 30
0.0
 10
4.8795272511
 20
6.2536127581
 30
0.0
 10
4.8796553667
 20
6.2528895955
 30
0.0
 10
4.8797426758
 20
6.2522483858
 30
0.0
 10
4.8797826509
 20
6.2517693113
 30
0.0
 10
4.8797904808
 20
6.2514350051
 30
0.0
 10
4.8797852521
 20
6.2512232825
 30
0.0
 10
4.8797693175
 20
6.2510385523
 30
0.0
 10
4.8797426845
 20
6.250881396
 30
0.0
 10
4.8797054973
 20
6.2507520726
 30
0.0
 10
4.8796575238
 20
6.2506505153
 30
0.0
 10
4.8795976218
 20
6.2505766433
 30
0.0
 10
4.8795468961
 20
6.2505469778
 30
0.0
 10
4.8795215699
 20
6.2505387018
 30
0.0
  0
SPLINE
  5
2E7
100
AcDbEntity
  8
0
100
AcDbSpline
 62
7
  6
CONTINUOUS
 70
0
 71
3
 72
15
 73
11
 74
0
 42
0.0000001
 43
0.0000001
 44
0.0000000001
 40
0.0
 40
0.0
 40
0.0
 40
0.0
 40
0.0965986297
 40
0.2104098112
 40
0.337269725
 40
0.4726504085
 40
0.6116142315
 40
0.7491149717
 40
0.8801588209
 40
1.0
 40
1.0
 40
1.0
 40
1.0
 10
4.8016081518
 20
6.4437607084
 30
0.0
 10
4.8017419566
 20
6.4434376753
 30
0.0
 10
4.8020138691
 20
6.4427259683
 30
0.0
 10
4.8024109642
 20
6.4415714331
 30
0.0
 10
4.802819324
 20
6.4402728218
 30
0.0
 10
4.8032236443
 20
6.4388779296
 30
0.0
 10
4.8036086889
 20
6.43743769
 30
0.0
 10
4.8039601307
 20
6.4360050336
 30
0.0
 10
4.8042649569
 20
6.4346325637
 30
0.0
 10
4.8044396183
 20
6.4337412639
 30
0.0
 10
4.8045158921
 20
6.4333142451
 30
0.0
  0
SPLINE
  5
2E8
100
AcDbEntity
  8
0
100
AcDbSpline
 62
7
  6
CONTINUOUS
 70
0
 71
3
 72
19
 73
15
 74
0
 42
0.0000001
 43
0.0000001
 44
0.0000000001
 40
0.0
 40
0.0
 40
0.0
 40
0.0
 40
0.2124869743
 40
0.4034049803
 40
0.5702936351
 40
0.7110361957
 40
0.7710923633
 40
0.8240874309
 40
0.8699247876
 40
0.9085841242
 40
0.9402168645
 40
0.965207472
 40
0.9844484347
 40
1.0
 40
1.0
 40
1.0
 40
1.0
 10
4.8045158921
 20
6.4333142451
 30
0.0
 10
4.8045578065
 20
6.433079588
 30
0.0
 10
4.8046332571
 20
6.4326333382
 30
0.0
 10
4.8047251071
 20
6.4320001242
 30
0.0
 10
4.8047890013
 20
6.4314444211
 30
0.0
 10
4.8048200949
 20
6.4310329252
 30
0.0
 10
4.804828528
 20
6.4307482896
 30
0.0
 10
4.8048271591
 20
6.4305700007
 30
0.0
 10
4.8048185333
 20
6.4304159185
 30
0.0
 10
4.8048026675
 20
6.4302864947
 30
0.0
 10
4.8047797713
 20
6.4301818294
 30
0.0
 10
4.8047496981
 20
6.4301018141
 30
0.0
 10
4.8047118848
 20
6.4300451356
 30
0.0
 10
4.8046769882
 20
6.430023706
 30
0.0
 10
4.8046601033
 20
6.4300193168
 30
0.0
  0
LINE
  5
2E9
100
AcDbEntity
  8
0
100
AcDbLine
 62
7
  6
CONTINUOUS
 10
4.759746418
 20
6.5448238668
 11
4.7602489745
 21
6.5432038858
  0
SPLINE
  5
2EA
100
AcDbEntity
  8
0
100
AcDbSpline
 62
7
  6
CONTINUOUS
 70
0
 71
3
 72
13
 73
9
 74
0
 42
0.0000001
 43
0.0000001
 44
0.0000000001
 40
0.0
 40
0.0
 40
0.0
 40
0.0
 40
0.1024166951
 40
0.2229070133
 40
0.4960591118
 40
0.7712721722
 40
0.8942539936
 40
1.0
 40
1.0
 40
1.0
 40
1.0
 10
4.7602489745
 20
6.5432038858
 30
0.0
 10
4.7603561608
 20
6.5428154839
 30
0.0
 10
4.7605808925
 20
6.5419677783
 30
0.0
 10
4.7610574875
 20
6.5400752774
 30
0.0
 10
4.7616614173
 20
6.5375140029
 30
0.0
 10
4.7622269591
 20
6.5349339439
 30
0.0
 10
4.7626221111
 20
6.532991123
 30
0.0
 10
4.7627905667
 20
6.5321071432
 30
0.0
 10
4.7628644623
 20
6.5316977403
 30
0.0
  0
LINE
  5
2EB
100
AcDbEntity
  8
0
100
AcDbLine
 62
7
  6
CONTINUOUS
 10
4.7628644623
 20
6.5316977403
 11
4.7631139348
 21
6.5296362654
  0
SPLINE
  5
2EC
100
AcDbEntity
  8
0
100
AcDbSpline
 62
7
  6
CONTINUOUS
 70
0
 71
3
 72
22
 73
18
 74
0
 42
0.0000001
 43
0.0000001
 44
0.0000000001
 40
0.0
 40
0.0
 40
0.0
 40
0.0
 40
0.0082757971
 40
0.0171469132
 40
0.027109651
 40
0.0385074329
 40
0.0663521677
 40
0.1016261975
 40
0.1445516058
 40
0.1949985921
 40
0.2526921333
 40
0.3171857807
 40
0.387957906
 40
0.4643966624
 40
0.631403169
 40
0.8122333234
 40
1.0
 40
1.0
 40
1.0
 40
1.0
 10
4.910152748
 20
6.0178406739
 30
0.0
 10
4.9101736085
 20
6.0178493179
 30
0.0
 10
4.9102196652
 20
6.0178609686
 30
0.0
 10
4.9102943113
 20
6.0178594052
 30
0.0
 10
4.910374964
 20
6.0178398454
 30
0.0
 10
4.9104987997
 20
6.0177868311
 30
0.0
 10
4.9106680623
 20
6.0176714546
 30
0.0
 10
4.9108818879
 20
6.0174759309
 30
0.0
 10
4.9111175513
 20
6.0172152096
 30
0.0
 10
4.9113730302
 20
6.0168914998
 30
0.0
 10
4.911645837
 20
6.0165073103
 30
0.0
 10
4.9119335058
 20
6.0160662322
 30
0.0
 10
4.9122332123
 20
6.0155723294
 30
0.0
 10
4.9126576673
 20
6.0148273339
 30
0.0
 10
4.9131940054
 20
6.0138009844
 30
0.0
 10
4.9138209664
 20
6.0124806102
 30
0.0
 10
4.9142211864
 20
6.0115577093
 30
0.0
 10
4.9144172432
 20
6.0110843864
 30
0.0
  0
SPLINE
  5
2ED
100
AcDbEntity
  8
0
100
AcDbSpline
 62
7
  6
CONTINUOUS
 70
0
 71
3
 72
19
 73
15
 74
0
 42
0.0000001
 43
0.0000001
 44
0.0000000001
 40
0.0
 40
0.0
 40
0.0
 40
0.0
 40
0.0178687567
 40
0.0392171843
 40
0.0660003285
 40
0.0991713791
 40
0.1391594871
 40
0.1860798796
 40
0.2399104504
 40
0.3005611704
 40
0.441518786
 40
0.6069162263
 40
0.7941216302
 40
1.0
 40
1.0
 40
1.0
 40
1.0
 10
4.9912364475
 20
5.8199608091
 30
0.0
 10
4.9912594895
 20
5.819972404
 30
0.0
 10
4.99131698
 20
5.8199846872
 30
0.0
 10
4.991412091
 20
5.8199676651
 30
0.0
 10
4.9915204014
 20
5.819920899
 30
0.0
 10
4.991643105
 20
5.8198443302
 30
0.0
 10
4.9917803074
 20
5.8197380682
 30
0.0
 10
4.9919316688
 20
5.8196023522
 30
0.0
 10
4.9920965828
 20
5.819437639
 30
0.0
 10
4.9923462665
 20
5.8191661738
 30
0.0
 10
4.9926843139
 20
5.818757815
 30
0.0
 10
4.9931132705
 20
5.818188729
 30
0.0
 10
4.9935756857
 20
5.8175281474
 30
0.0
 10
4.9938878331
 20
5.817054185
 30
0.0
 10
4.9940484016
 20
5.8168040929
 30
0.0
  0
SPLINE
  5
2EE
100
AcDbEntity
  8
0
100
AcDbSpline
 62
7
  6
CONTINUOUS
 70
0
 71
3
 72
11
 73
7
 74
0
 42
0.0000001
 43
0.0000001
 44
0.0000000001
 40
0.0
 40
0.0
 40
0.0
 40
0.0
 40
0.247031087
 40
0.5096914984
 40
0.7673899071
 40
1.0
 40
1.0
 40
1.0
 40
1.0
 10
4.9940484016
 20
5.8168040929
 30
0.0
 10
4.9944244464
 20
5.8162183875
 30
0.0
 10
4.9951683108
 20
5.8149892662
 30
0.0
 10
4.9962130396
 20
5.8130956512
 30
0.0
 10
4.9971660196
 20
5.8111996345
 30
0.0
 10
4.9977341392
 20
5.8099396038
 30
0.0
 10
4.9979849497
 20
5.8093340936
 30
0.0
  0
LINE
  5
2EF
100
AcDbEntity
  8
0
100
AcDbLine
 62
7
  6
CONTINUOUS
 10
5.0413640839
 20
5.697628832
 11
5.0431989002
 21
5.6953336924
  0
SPLINE
  5
2F0
100
AcDbEntity
  8
0
100
AcDbSpline
 62
7
  6
CONTINUOUS
 70
0
 71
3
 72
13
 73
9
 74
0
 42
0.0000001
 43
0.0000001
 44
0.0000000001
 40
0.0
 40
0.0
 40
0.0
 40
0.0
 40
0.1154973367
 40
0.2434205114
 40
0.517551157
 40
0.7826008375
 40
0.8994625489
 40
1.0
 40
1.0
 40
1.0
 40
1.0
 10
5.0431989002
 20
5.6953336924
 30
0.0
 10
5.0434377576
 20
5.6949874794
 30
0.0
 10
5.0439343538
 20
5.6942530962
 30
0.0
 10
5.0449686877
 20
5.692677413
 30
0.0
 10
5.0462657685
 20
5.6906229802
 30
0.0
 10
5.0475002334
 20
5.6885771961
 30
0.0
 10
5.0483784048
 20
5.6870553887
 30
0.0
 10
5.0487632009
 20
5.6863634025
 30
0.0
 10
5.0489371548
 20
5.6860412317
 30
0.0
  0
LINE
  5
2F1
100
AcDbEntity
  8
0
100
AcDbLine
 62
7
  6
CONTINUOUS
 10
5.0489371548
 20
5.6860412317
 11
5.0496326312
 21
5.6846455548
  0
LINE
  5
2F2
100
AcDbEntity
  8
0
100
AcDbLine
 62
7
  6
CONTINUOUS
 10
4.7863297171
 20
6.2456900699
 11
4.7865386134
 21
6.2453548108
  0
SPLINE
  5
2F3
100
AcDbEntity
  8
0
100
AcDbSpline
 62
7
  6
CONTINUOUS
 70
0
 71
3
 72
19
 73
15
 74
0
 42
0.0000001
 43
0.0000001
 44
0.0000000001
 40
0.0
 40
0.0
 40
0.0
 40
0.0
 40
0.0190001264
 40
0.040713316
 40
0.067256613
 40
0.0997936967
 40
0.1388921151
 40
0.1847770477
 40
0.2375199113
 40
0.2971109086
 40
0.4364182965
 40
0.6014273428
 40
0.7902609433
 40
1.0
 40
1.0
 40
1.0
 40
1.0
 10
4.8235700469
 20
6.1545156432
 30
0.0
 10
4.8235904473
 20
6.154522733
 30
0.0
 10
4.8236380312
 20
6.1545279101
 30
0.0
 10
4.8237127253
 20
6.1545066231
 30
0.0
 10
4.823792517
 20
6.1544599638
 30
0.0
 10
4.8238784738
 20
6.1543882628
 30
0.0
 10
4.8239709198
 20
6.1542915704
 30
0.0
 10
4.8240697853
 20
6.1541700297
 30
0.0
 10
4.8241747936
 20
6.154023923
 30
0.0
 10
4.824330765
 20
6.1537840558
 30
0.0
 10
4.8245362078
 20
6.153424683
 30
0.0
 10
4.8247903876
 20
6.1529249138
 30
0.0
 10
4.8250594545
 20
6.1523434079
 30
0.0
 10
4.8252377451
 20
6.1519268466
 30
0.0
 10
4.8253289802
 20
6.1517065856
 30
0.0
  0
SPLINE
  5
2F4
100
AcDbEntity
  8
0
100
AcDbSpline
 62
7
  6
CONTINUOUS
 70
0
 71
3
 72
22
 73
18
 74
0
 42
0.0000001
 43
0.0000001
 44
0.0000000001
 40
0.0
 40
0.0
 40
0.0
 40
0.0
 40
0.0082793356
 40
0.017149301
 40
0.0271055884
 40
0.0384914565
 40
0.0662994307
 40
0.1015260653
 40
0.1443983026
 40
0.1947927728
 40
0.2524402078
 40
0.3168981417
 40
0.3876495045
 40
0.4640846265
 40
0.6311386295
 40
0.8120822295
 40
1.0
 40
1.0
 40
1.0
 40
1.0
 10
4.883831214
 20
6.0069379388
 30
0.0
 10
4.8838520823
 20
6.0069465871
 30
0.0
 10
4.8838981363
 20
6.0069582576
 30
0.0
 10
4.883972769
 20
6.0069567475
 30
0.0
 10
4.8840533801
 20
6.0069372551
 30
0.0
 10
4.8841771036
 20
6.0068843729
 30
0.0
 10
4.8843461759
 20
6.0067691897
 30
0.0
 10
4.8845597004
 20
6.0065739059
 30
0.0
 10
4.884795008
 20
6.0063134434
 30
0.0
 10
4.885050098
 20
6.0059899739
 30
0.0
 10
4.8853225131
 20
6.005605978
 30
0.0
 10
4.8856098157
 20
6.0051650196
 30
0.0
 10
4.8859092003
 20
6.0046711397
 30
0.0
 10
4.8863333517
 20
6.003925937
 30
0.0
 10
4.886869493
 20
6.002899053
 30
0.0
 10
4.8874964862
 20
6.0015778167
 30
0.0
 10
4.8878969032
 20
6.000654259
 30
0.0
 10
4.8880931102
 20
6.0001805735
 30
0.0
  0
SPLINE
  5
2F5
100
AcDbEntity
  8
0
100
AcDbSpline
 62
7
  6
CONTINUOUS
 70
0
 71
3
 72
19
 73
15
 74
0
 42
0.0000001
 43
0.0000001
 44
0.0000000001
 40
0.0
 40
0.0
 40
0.0
 40
0.0
 40
0.0180027774
 40
0.039534056
 40
0.0664974518
 40
0.099824281
 40
0.1399320225
 40
0.1869324255
 40
0.2408047783
 40
0.3014606533
 40
0.4423222861
 40
0.6075126046
 40
0.7944351066
 40
1.0
 40
1.0
 40
1.0
 40
1.0
 10
4.9441052795
 20
5.8592931367
 30
0.0
 10
4.9441286343
 20
5.8593044361
 30
0.0
 10
4.9441865893
 20
5.8593160176
 30
0.0
 10
4.9442820985
 20
5.8592983572
 30
0.0
 10
4.9443907953
 20
5.8592511139
 30
0.0
 10
4.9445137741
 20
5.8591742174
 30
0.0
 10
4.9446511307
 20
5.8590677969
 30
0.0
 10
4.9448025138
 20
5.8589320978
 30
0.0
 10
4.9449673192
 20
5.8587675724
 30
0.0
 10
4.9452166039
 20
5.8584966802
 30
0.0
 10
4.9455539085
 20
5.8580894223
 30
0.0
 10
4.9459817039
 20
5.85752202
 30
0.0
 10
4.9464426947
 20
5.8568635116
 30
0.0
 10
4.9467538183
 20
5.8563910481
 30
0.0
 10
4.9469138536
 20
5.8561417452
 30
0.0
  0
SPLINE
  5
2F6
100
AcDbEntity
  8
0
100
AcDbSpline
 62
7
  6
CONTINUOUS
 70
0
 71
3
 72
11
 73
7
 74
0
 42
0.0000001
 43
0.0000001
 44
0.0000000001
 40
0.0
 40
0.0
 40
0.0
 40
0.0
 40
0.2468237781
 40
0.509475279
 40
0.7672916142
 40
1.0
 40
1.0
 40
1.0
 40
1.0
 10
4.9469138536
 20
5.8561417452
 30
0.0
 10
4.9472903563
 20
5.8555552295
 30
0.0
 10
4.948035231
 20
5.8543237731
 30
0.0
 10
4.94908149
 20
5.8524259453
 30
0.0
 10
4.9500363023
 20
5.8505250288
 30
0.0
 10
4.9506057764
 20
5.8492616451
 30
0.0
 10
4.950857239
 20
5.8486545608
 30
0.0
  0
LINE
  5
2F7
100
AcDbEntity
  8
0
100
AcDbLine
 62
7
  6
CONTINUOUS
 10
5.0496326312
 20
5.6846455548
 11
5.0497222018
 21
5.6842602535
  0
SPLINE
  5
2F8
100
AcDbEntity
  8
0
100
AcDbSpline
 62
7
  6
CONTINUOUS
 70
0
 71
3
 72
19
 73
15
 74
0
 42
0.0000001
 43
0.0000001
 44
0.0000000001
 40
0.0
 40
0.0
 40
0.0
 40
0.0
 40
0.2092679472
 40
0.3977623558
 40
0.5625869385
 40
0.7018710998
 40
0.7615110497
 40
0.8143413585
 40
0.8603491642
 40
0.8996013929
 40
0.9323154802
 40
0.9590432117
 40
0.9809166638
 40
1.0
 40
1.0
 40
1.0
 40
1.0
 10
4.9979849497
 20
5.8093340936
 30
0.0
 10
4.9980760317
 20
5.8091142023
 30
0.0
 10
4.9982442483
 20
5.8086941865
 30
0.0
 10
4.9984648302
 20
5.8080934301
 30
0.0
 10
4.998638287
 20
5.8075605602
 30
0.0
 10
4.9987470592
 20
5.8071610995
 30
0.0
 10
4.9988064233
 20
5.8068809105
 30
0.0
 10
4.9988355692
 20
5.8067029573
 30
0.0
 10
4.9988517263
 20
5.8065466146
 30
0.0
 10
4.9988548875
 20
5.8064122874
 30
0.0
 10
4.9988450036
 20
5.8063001429
 30
0.0
 10
4.9988218162
 20
5.8062100117
 30
0.0
 10
4.9987844112
 20
5.8061413843
 30
0.0
 10
4.9987473386
 20
5.8061106653
 30
0.0
 10
4.9987279528
 20
5.806100905
 30
0.0
  0
SPLINE
  5
2F9
100
AcDbEntity
  8
0
100
AcDbSpline
 62
7
  6
CONTINUOUS
 70
0
 71
3
 72
22
 73
18
 74
0
 42
0.0000001
 43
0.0000001
 44
0.0000000001
 40
0.0
 40
0.0
 40
0.0
 40
0.0
 40
0.1877666613
 40
0.3685967886
 40
0.5356033016
 40
0.6120420677
 40
0.6828142021
 40
0.7473078635
 40
0.8050014133
 40
0.8554483993
 40
0.8983738021
 40
0.9336478268
 40
0.9614925656
 40
0.9728903492
 40
0.9828530872
 40
0.9917242033
 40
1.0
 40
1.0
 40
1.0
 40
1.0
 10
4.9144172432
 20
6.0110843864
 30
0.0
 10
4.9146132999
 20
6.0106110634
 30
0.0
 10
4.9149828911
 20
6.0096754758
 30
0.0
 10
4.9154732082
 20
6.008298502
 30
0.0
 10
4.9158196986
 20
6.007193515
 30
0.0
 10
4.9160463551
 20
6.0063665886
 30
0.0
 10
4.9161836725
 20
6.005805422
 30
0.0
 10
4.9162921494
 20
6.00529012
 30
0.0
 10
4.9163709088
 20
6.0048255534
 30
0.0
 10
4.9164191554
 20
6.0044160051
 30
0.0
 10
4.916436874
 20
6.0040650082
 30
0.0
 10
4.9164239325
 20
6.0037755546
 30
0.0
 10
4.9163858294
 20
6.0035742843
 30
0.0
 10
4.9163357511
 20
6.0034492325
 30
0.0
 10
4.9162925518
 20
6.0033783716
 30
0.0
 10
4.9162408746
 20
6.0033244833
 30
0.0
 10
4.9162000693
 20
6.0033001545
 30
0.0
 10
4.9161792065
 20
6.0032915162
 30
0.0
  0
SPLINE
  5
2FA
100
AcDbEntity
  8
0
100
AcDbSpline
 62
7
  6
CONTINUOUS
 70
0
 71
3
 72
24
 73
20
 74
0
 42
0.0000001
 43
0.0000001
 44
0.0000000001
 40
0.0
 40
0.0
 40
0.0
 40
0.0
 40
0.1491169975
 40
0.3142415175
 40
0.4832001651
 40
0.5651938814
 40
0.6434922711
 40
0.7166671391
 40
0.7833807937
 40
0.8424499137
 40
0.8928581776
 40
0.9145619975
 40
0.9338234192
 40
0.9506041772
 40
0.9648910103
 40
0.9767169567
 40
0.986225793
 40
0.9937521852
 40
1.0
 40
1.0
 40
1.0
 40
1.0
 10
4.830849535
 20
6.2128346785
 30
0.0
 10
4.8310926983
 20
6.2122476304
 30
0.0
 10
4.8315680122
 20
6.2109950896
 30
0.0
 10
4.8322185441
 20
6.2090411114
 30
0.0
 10
4.8327155217
 20
6.207338689
 30
0.0
 10
4.8330685346
 20
6.2059807414
 30
0.0
 10
4.833298092
 20
6.2050126497
 30
0.0
 10
4.8334909166
 20
6.204103028
 30
0.0
 10
4.8336433498
 20
6.2032688997
 30
0.0
 10
4.833752703
 20
6.2025259641
 30
0.0
 10
4.8338092546
 20
6.2019695119
 30
0.0
 10
4.8338288115
 20
6.2015805576
 30
0.0
 10
4.8338309413
 20
6.2013344124
 30
0.0
 10
4.8338214679
 20
6.2011200291
 30
0.0
 10
4.8338005116
 20
6.200938258
 30
0.0
 10
4.8337681731
 20
6.2007895722
 30
0.0
 10
4.8337242811
 20
6.200674024
 30
0.0
 10
4.8336680806
 20
6.2005905493
 30
0.0
 10
4.8336171244
 20
6.2005568984
 30
0.0
 10
4.833591846
 20
6.2005485442
 30
0.0
  0
LINE
  5
2FB
100
AcDbEntity
  8
0
100
AcDbLine
 62
7
  6
CONTINUOUS
 10
4.7792018495
 20
6.3375232156
 11
4.7796969477
 21
6.3360446084
  0
SPLINE
  5
2FC
100
AcDbEntity
  8
0
100
AcDbSpline
 62
7
  6
CONTINUOUS
 70
0
 71
3
 72
13
 73
9
 74
0
 42
0.0000001
 43
0.0000001
 44
0.0000000001
 40
0.0
 40
0.0
 40
0.0
 40
0.0
 40
0.1018299861
 40
0.2207468099
 40
0.4899763635
 40
0.7643997703
 40
0.8896344917
 40
1.0
 40
1.0
 40
1.0
 40
1.0
 10
4.7796969477
 20
6.3360446084
 30
0.0
 10
4.7798077019
 20
6.3356738844
 30
0.0
 10
4.7800373054
 20
6.3348670968
 30
0.0
 10
4.780517464
 20
6.3330683106
 30
0.0
 10
4.7811176822
 20
6.3306231388
 30
0.0
 10
4.7816714977
 20
6.3281424527
 30
0.0
 10
4.7820569426
 20
6.3262432293
 30
0.0
 10
4.7822214452
 20
6.3253632219
 30
0.0
 10
4.7822938234
 20
6.3249501693
 30
0.0
  0
LINE
  5
2FD
100
AcDbEntity
  8
0
100
AcDbLine
 62
7
  6
CONTINUOUS
 10
4.7822938234
 20
6.3249501693
 11
4.782535667
 21
6.3224959063
  0
LINE
  5
2FE
100
AcDbEntity
  8
0
100
AcDbLine
 62
7
  6
CONTINUOUS
 10
4.9813664985
 20
5.7680105381
 11
4.9831966037
 21
5.7657281187
  0
SPLINE
  5
2FF
100
AcDbEntity
  8
0
100
AcDbSpline
 62
7
  6
CONTINUOUS
 70
0
 71
3
 72
13
 73
9
 74
0
 42
0.0000001
 43
0.0000001
 44
0.0000000001
 40
0.0
 40
0.0
 40
0.0
 40
0.0
 40
0.1152745079
 40
0.2430391563
 40
0.5170741041
 40
0.7823127721
 40
0.8993255061
 40
1.0
 40
1.0
 40
1.0
 40
1.0
 10
4.9831966037
 20
5.7657281187
 30
0.0
 10
4.9834360228
 20
5.7653816888
 30
0.0
 10
4.9839338193
 20
5.7646464594
 30
0.0
 10
4.9849708405
 20
5.7630675916
 30
0.0
 10
4.9862715468
 20
5.7610067584
 30
0.0
 10
4.9875093441
 20
5.7589532359
 30
0.0
 10
4.9883902477
 20
5.757424667
 30
0.0
 10
4.988776356
 20
5.7567293816
 30
0.0
 10
4.988950916
 20
5.7564056716
 30
0.0
  0
LINE
  5
300
100
AcDbEntity
  8
0
100
AcDbLine
 62
7
  6
CONTINUOUS
 10
4.988950916
 20
5.7564056716
 11
4.9896476027
 21
5.7550063343
  0
LINE
  5
301
100
AcDbEntity
  8
0
100
AcDbLine
 62
7
  6
CONTINUOUS
 10
5.7986049744
 20
3.0775865081
 11
5.7983668835
 21
3.0773113814
  0
LINE
  5
302
100
AcDbEntity
  8
0
100
AcDbLine
 62
7
  6
CONTINUOUS
 10
5.7912466635
 20
2.9434394562
 11
5.791180711
 21
2.9436202542
  0
LINE
  5
303
100
AcDbEntity
  8
0
100
AcDbLine
 62
7
  6
CONTINUOUS
 10
4.7912056732
 20
6.1579036
 11
4.7946263358
 21
6.1424749614
  0
LINE
  5
304
100
AcDbEntity
  8
0
100
AcDbLine
 62
7
  6
CONTINUOUS
 10
4.9226192249
 20
5.8334725991
 11
4.9311103681
 21
5.8201437881
  0
SPLINE
  5
305
100
AcDbEntity
  8
0
100
AcDbSpline
 62
7
  6
CONTINUOUS
 70
0
 71
3
 72
19
 73
15
 74
0
 42
0.0000001
 43
0.0000001
 44
0.0000000001
 40
0.0
 40
0.0
 40
0.0
 40
0.0
 40
0.2137792317
 40
0.4041783975
 40
0.569127215
 40
0.7072337638
 40
0.766025603
 40
0.8179151521
 40
0.8629326441
 40
0.9012397164
 40
0.9331604614
 40
0.959311684
 40
0.9808785139
 40
1.0
 40
1.0
 40
1.0
 40
1.0
 10
4.9106218013
 20
5.8696075679
 30
0.0
 10
4.9106878969
 20
5.869447999
 30
0.0
 10
4.9108095647
 20
5.8691449279
 30
0.0
 10
4.9109689049
 20
5.8687135242
 30
0.0
 10
4.9110934037
 20
5.8683346946
 30
0.0
 10
4.9111710136
 20
5.8680526171
 30
0.0
 10
4.9112130422
 20
5.8678560016
 30
0.0
 10
4.9112334738
 20
5.8677318191
 30
0.0
 10
4.9112445419
 20
5.8676230485
 30
0.0
 10
4.9112462792
 20
5.8675298144
 30
0.0
 10
4.9112387109
 20
5.8674520706
 30
0.0
 10
4.9112216467
 20
5.8673895803
 30
0.0
 10
4.9111942018
 20
5.8673420402
 30
0.0
 10
4.9111673844
 20
5.8673212008
 30
0.0
 10
4.9111534318
 20
5.8673145687
 30
0.0
  0
SPLINE
  5
306
100
AcDbEntity
  8
0
100
AcDbSpline
 62
7
  6
CONTINUOUS
 70
0
 71
3
 72
22
 73
18
 74
0
 42
0.0000001
 43
0.0000001
 44
0.0000000001
 40
0.0
 40
0.0
 40
0.0
 40
0.0
 40
0.1881332419
 40
0.3692430716
 40
0.53637279
 40
0.6128078851
 40
0.6835353399
 40
0.7479470339
 40
0.8055323833
 40
0.8558533068
 40
0.8986480559
 40
0.9338026959
 40
0.9615498025
 40
0.9729135885
 40
0.9828555848
 40
0.9917191759
 40
1.0
 40
1.0
 40
1.0
 40
1.0
 10
4.8611580227
 20
5.9890236949
 30
0.0
 10
4.8613544196
 20
5.9885495508
 30
0.0
 10
4.8617248402
 20
5.9876126377
 30
0.0
 10
4.8622168944
 20
5.9862344001
 30
0.0
 10
4.8625650906
 20
5.9851290788
 30
0.0
 10
4.8627930708
 20
5.9843024986
 30
0.0
 10
4.8629312541
 20
5.9837420407
 30
0.0
 10
4.8630405148
 20
5.9832276766
 30
0.0
 10
4.8631199733
 20
5.9827642082
 30
0.0
 10
4.8631688169
 20
5.9823558225
 30
0.0
 10
4.8631870116
 20
5.9820059523
 30
0.0
 10
4.8631744508
 20
5.9817174906
 30
0.0
 10
4.8631365367
 20
5.9815169153
 30
0.0
 10
4.863086544
 20
5.9813923067
 30
0.0
 10
4.8630433724
 20
5.981321648
 30
0.0
 10
4.8629916794
 20
5.9812678847
 30
0.0
 10
4.8629508695
 20
5.9812436064
 30
0.0
 10
4.8629299974
 20
5.9812349676
 30
0.0
  0
SPLINE
  5
307
100
AcDbEntity
  8
0
100
AcDbSpline
 62
7
  6
CONTINUOUS
 70
0
 71
3
 72
12
 73
8
 74
0
 42
0.0000001
 43
0.0000001
 44
0.0000000001
 40
0.0
 40
0.0
 40
0.0
 40
0.0
 40
0.1030754045
 40
0.2190470713
 40
0.4768340571
 40
0.7464774924
 40
1.0
 40
1.0
 40
1.0
 40
1.0
 10
4.8116942428
 20
6.1084398214
 30
0.0
 10
4.811819141
 20
6.1081382906
 30
0.0
 10
4.8120716461
 20
6.107492135
 30
0.0
 10
4.812580949
 20
6.10607066
 30
0.0
 10
4.8131986007
 20
6.1041285365
 30
0.0
 10
4.8138573908
 20
6.1017446334
 30
0.0
 10
4.8142346449
 20
6.100130879
 30
0.0
 10
4.8143956561
 20
6.0993444469
 30
0.0
  0
SPLINE
  5
308
100
AcDbEntity
  8
0
100
AcDbSpline
 62
7
  6
CONTINUOUS
 70
0
 71
3
 72
19
 73
15
 74
0
 42
0.0000001
 43
0.0000001
 44
0.0000000001
 40
0.0
 40
0.0
 40
0.0
 40
0.0
 40
0.2070252955
 40
0.3950518453
 40
0.5610711063
 40
0.7024381869
 40
0.7632401568
 40
0.8171709688
 40
0.8640840347
 40
0.9039551631
 40
0.9368716177
 40
0.9631324249
 40
0.983551657
 40
1.0
 40
1.0
 40
1.0
 40
1.0
 10
4.8143956561
 20
6.0993444469
 30
0.0
 10
4.8144540571
 20
6.0990591971
 30
0.0
 10
4.8145598774
 20
6.0985136959
 30
0.0
 10
4.8146903066
 20
6.0977353311
 30
0.0
 10
4.8147837274
 20
6.0970447347
 30
0.0
 10
4.8148319708
 20
6.0965288959
 30
0.0
 10
4.8148486706
 20
6.09616903
 30
0.0
 10
4.8148505743
 20
6.0959416261
 30
0.0
 10
4.8148425578
 20
6.0957437777
 30
0.0
 10
4.8148247602
 20
6.0955762172
 30
0.0
 10
4.8147974516
 20
6.0954393187
 30
0.0
 10
4.8147603927
 20
6.0953331559
 30
0.0
 10
4.8147131782
 20
6.0952566226
 30
0.0
 10
4.814669342
 20
6.0952249511
 30
0.0
 10
4.8146475443
 20
6.0952172039
 30
0.0
  0
LINE
  5
309
100
AcDbEntity
  8
0
100
AcDbLine
 62
7
  6
CONTINUOUS
 10
4.9896476027
 20
5.7550063343
 11
4.9897369546
 21
5.7546215584
  0
SPLINE
  5
30A
100
AcDbEntity
  8
0
100
AcDbSpline
 62
7
  6
CONTINUOUS
 70
0
 71
3
 72
19
 73
15
 74
0
 42
0.0000001
 43
0.0000001
 44
0.0000000001
 40
0.0
 40
0.0
 40
0.0
 40
0.0
 40
0.2097390543
 40
0.3985726254
 40
0.5635816487
 40
0.7028890414
 40
0.7624800435
 40
0.8152229188
 40
0.8611078633
 40
0.9002062875
 40
0.9327433697
 40
0.9592866715
 40
0.9809998688
 40
1.0
 40
1.0
 40
1.0
 40
1.0
 10
4.950857239
 20
5.8486545608
 30
0.0
 10
4.9509484741
 20
5.8484342999
 30
0.0
 10
4.9511169569
 20
5.8480136761
 30
0.0
 10
4.9513378846
 20
5.8474122303
 30
0.0
 10
4.9515115425
 20
5.8468791079
 30
0.0
 10
4.9516203874
 20
5.8464797231
 30
0.0
 10
4.9516797107
 20
5.8461998229
 30
0.0
 10
4.9517087717
 20
5.8460222577
 30
0.0
 10
4.9517248056
 20
5.8458664069
 30
0.0
 10
4.9517278082
 20
5.8457326659
 30
0.0
 10
4.9517177278
 20
5.8456211849
 30
0.0
 10
4.9516942997
 20
5.8455317706
 30
0.0
 10
4.9516565351
 20
5.8454639016
 30
0.0
 10
4.9516192275
 20
5.8454339155
 30
0.0
 10
4.9515997889
 20
5.8454245035
 30
0.0
  0
SPLINE
  5
30B
100
AcDbEntity
  8
0
100
AcDbSpline
 62
7
  6
CONTINUOUS
 70
0
 71
3
 72
22
 73
18
 74
0
 42
0.0000001
 43
0.0000001
 44
0.0000000001
 40
0.0
 40
0.0
 40
0.0
 40
0.0
 40
0.1879177556
 40
0.36886133
 40
0.5359153353
 40
0.6123504634
 40
0.6831018343
 40
0.747559785
 40
0.8052072314
 40
0.8556017017
 40
0.8984739325
 40
0.933700561
 40
0.9615085407
 40
0.9728944115
 40
0.9828506998
 40
0.9917206652
 40
1.0
 40
1.0
 40
1.0
 40
1.0
 10
4.8880931102
 20
6.0001805735
 30
0.0
 10
4.8882893171
 20
5.999706888
 30
0.0
 10
4.8886592334
 20
5.9987706966
 30
0.0
 10
4.8891501374
 20
5.9973930904
 30
0.0
 10
4.8894971449
 20
5.9962878646
 30
0.0
 10
4.8897241625
 20
5.9954610064
 30
0.0
 10
4.8898616914
 20
5.9949000836
 30
0.0
 10
4.8899703425
 20
5.9943851252
 30
0.0
 10
4.8900492421
 20
5.9939209724
 30
0.0
 10
4.8900975936
 20
5.9935118691
 30
0.0
 10
4.8901153809
 20
5.9931613067
 30
0.0
 10
4.8901024827
 20
5.9928722357
 30
0.0
 10
4.8900643774
 20
5.9926712366
 30
0.0
 10
4.890014285
 20
5.9925463575
 30
0.0
 10
4.8899710676
 20
5.9924755737
 30
0.0
 10
4.8899193621
 20
5.9924217325
 30
0.0
 10
4.8898785447
 20
5.9923974197
 30
0.0
 10
4.8898576734
 20
5.9923887789
 30
0.0
  0
SPLINE
  5
30C
100
AcDbEntity
  8
0
100
AcDbSpline
 62
7
  6
CONTINUOUS
 70
0
 71
3
 72
24
 73
20
 74
0
 42
0.0000001
 43
0.0000001
 44
0.0000000001
 40
0.0
 40
0.0
 40
0.0
 40
0.0
 40
0.1490642452
 40
0.3141332444
 40
0.4830004611
 40
0.564935381
 40
0.6431724663
 40
0.7162923422
 40
0.7829663069
 40
0.8420220725
 40
0.8924504607
 40
0.9141798451
 40
0.9334769797
 40
0.9503034808
 40
0.9646462959
 40
0.976537108
 40
0.986115074
 40
0.9937071996
 40
1.0
 40
1.0
 40
1.0
 40
1.0
 10
4.8253289802
 20
6.1517065856
 30
0.0
 10
4.8255722686
 20
6.1511192356
 30
0.0
 10
4.8260480264
 20
6.1498661205
 30
0.0
 10
4.8266995849
 20
6.1479115012
 30
0.0
 10
4.8271975984
 20
6.1462086934
 30
0.0
 10
4.8275513957
 20
6.144850623
 30
0.0
 10
4.8277814703
 20
6.1438825335
 30
0.0
 10
4.8279747556
 20
6.1429728637
 30
0.0
 10
4.8281275815
 20
6.1421385268
 30
0.0
 10
4.8282372729
 20
6.1413951229
 30
0.0
 10
4.8282940405
 20
6.1408380657
 30
0.0
 10
4.8283137577
 20
6.1404484334
 30
0.0
 10
4.8283159885
 20
6.140201619
 30
0.0
 10
4.8283065972
 20
6.1399864596
 30
0.0
 10
4.8282857061
 20
6.1398038071
 30
0.0
 10
4.8282534246
 20
6.1396541515
 30
0.0
 10
4.8282095696
 20
6.1395375686
 30
0.0
 10
4.8281534704
 20
6.1394530582
 30
0.0
 10
4.8281025811
 20
6.1394184381
 30
0.0
 10
4.828077233
 20
6.1394096201
 30
0.0
  0
LINE
  5
30D
100
AcDbEntity
  8
0
100
AcDbLine
 62
7
  6
CONTINUOUS
 10
4.7865386134
 20
6.2453548108
 11
4.7870354446
 21
6.2438727578
  0
SPLINE
  5
30E
100
AcDbEntity
  8
0
100
AcDbSpline
 62
7
  6
CONTINUOUS
 70
0
 71
3
 72
13
 73
9
 74
0
 42
0.0000001
 43
0.0000001
 44
0.0000000001
 40
0.0
 40
0.0
 40
0.0
 40
0.0
 40
0.1019742435
 40
0.2210465332
 40
0.4904591155
 40
0.7647741005
 40
0.8898506221
 40
1.0
 40
1.0
 40
1.0
 40
1.0
 10
4.7870354446
 20
6.2438727578
 30
0.0
 10
4.7871468729
 20
6.2435005076
 30
0.0
 10
4.7873779138
 20
6.2426904497
 30
0.0
 10
4.7878609602
 20
6.2408850237
 30
0.0
 10
4.7884642504
 20
6.2384322903
 30
0.0
 10
4.7890198355
 20
6.2359448715
 30
0.0
 10
4.7894053555
 20
6.2340418872
 30
0.0
 10
4.7895694492
 20
6.2331606494
 30
0.0
 10
4.7896414969
 20
6.2327471585
 30
0.0
  0
LINE
  5
30F
100
AcDbEntity
  8
0
100
AcDbLine
 62
7
  6
CONTINUOUS
 10
4.7896414969
 20
6.2327471585
 11
4.7898783492
 21
6.2303038252
  0
LINE
  5
310
100
AcDbEntity
  8
0
100
AcDbLine
 62
7
  6
CONTINUOUS
 10
5.798366869
 20
3.0415963692
 11
5.7986049837
 21
3.0418714955
  0
LINE
  5
311
100
AcDbEntity
  8
0
100
AcDbLine
 62
7
  6
CONTINUOUS
 10
5.3923430986
 20
3.0594538732
 11
5.3921049837
 21
3.0597289997
  0
LINE
  5
312
100
AcDbEntity
  8
0
100
AcDbLine
 62
7
  6
CONTINUOUS
 10
4.7627885747
 20
6.4583386094
 11
4.7661923906
 21
6.4429846379
  0
LINE
  5
313
100
AcDbEntity
  8
0
100
AcDbLine
 62
7
  6
CONTINUOUS
 10
5.1150060414
 20
5.6008739913
 11
5.1234560883
 21
5.5876102154
  0
LINE
  5
314
100
AcDbEntity
  8
0
100
AcDbLine
 62
7
  6
CONTINUOUS
 10
5.0993085272
 20
5.6459191827
 11
5.0995534989
 21
5.644864887
  0
SPLINE
  5
315
100
AcDbEntity
  8
0
100
AcDbSpline
 62
7
  6
CONTINUOUS
 70
0
 71
3
 72
19
 73
15
 74
0
 42
0.0000001
 43
0.0000001
 44
0.0000000001
 40
0.0
 40
0.0
 40
0.0
 40
0.0
 40
0.2062772169
 40
0.3936308493
 40
0.5586090257
 40
0.6988648569
 40
0.759147302
 40
0.8126581051
 40
0.8593063445
 40
0.899090348
 40
0.9322235921
 40
0.9592175667
 40
0.9811241633
 40
1.0
 40
1.0
 40
1.0
 40
1.0
 10
5.0332982076
 20
5.8052821969
 30
0.0
 10
5.0334069565
 20
5.8050196538
 30
0.0
 10
5.0336083298
 20
5.8045160693
 30
0.0
 10
5.0338727536
 20
5.8037932076
 30
0.0
 10
5.0340819054
 20
5.8031474645
 30
0.0
 10
5.0342137231
 20
5.802661108
 30
0.0
 10
5.034286217
 20
5.8023186173
 30
0.0
 10
5.0343221693
 20
5.8021004362
 30
0.0
 10
5.0343424728
 20
5.8019085752
 30
0.0
 10
5.0343469956
 20
5.8017437
 30
0.0
 10
5.0343358145
 20
5.8016061265
 30
0.0
 10
5.0343087569
 20
5.8014957163
 30
0.0
 10
5.034264712
 20
5.8014117678
 30
0.0
 10
5.0342202803
 20
5.8013742288
 30
0.0
 10
5.0341970662
 20
5.8013625107
 30
0.0
  0
SPLINE
  5
316
100
AcDbEntity
  8
0
100
AcDbSpline
 62
7
  6
CONTINUOUS
 70
0
 71
3
 72
22
 73
18
 74
0
 42
0.0000001
 43
0.0000001
 44
0.0000000001
 40
0.0
 40
0.0
 40
0.0
 40
0.0
 40
0.1876770177
 40
0.3684396337
 40
0.5354176474
 40
0.6118583926
 40
0.6826426852
 40
0.7471574462
 40
0.8048783326
 40
0.8553565809
 40
0.8983137264
 40
0.9336161374
 40
0.9614830064
 40
0.9728879757
 40
0.9828546019
 40
0.9917264056
 40
1.0
 40
1.0
 40
1.0
 40
1.0
 10
4.9431264322
 20
6.0229761218
 30
0.0
 10
4.9433224009
 20
6.0225030117
 30
0.0
 10
4.9436917957
 20
6.0215677759
 30
0.0
 10
4.9441817445
 20
6.0201911637
 30
0.0
 10
4.9445279007
 20
6.0190863057
 30
0.0
 10
4.9447543171
 20
6.0182593291
 30
0.0
 10
4.9448914895
 20
6.0176980114
 30
0.0
 10
4.9449998435
 20
6.0171824996
 30
0.0
 10
4.9450785014
 20
6.0167176818
 30
0.0
 10
4.9451266691
 20
6.0163078648
 30
0.0
 10
4.945144333
 20
6.015956606
 30
0.0
 10
4.9451313546
 20
6.0156669224
 30
0.0
 10
4.945093246
 20
6.0154654897
 30
0.0
 10
4.9450431727
 20
6.0153403344
 30
0.0
 10
4.9449999827
 20
6.0152694278
 30
0.0
 10
4.944948322
 20
6.0152155115
 30
0.0
 10
4.9449075241
 20
6.015191173
 30
0.0
 10
4.9448866665
 20
6.0151825361
 30
0.0
  0
SPLINE
  5
317
100
AcDbEntity
  8
0
100
AcDbSpline
 62
7
  6
CONTINUOUS
 70
0
 71
3
 72
24
 73
20
 74
0
 42
0.0000001
 43
0.0000001
 44
0.0000000001
 40
0.0
 40
0.0
 40
0.0
 40
0.0
 40
0.1571366043
 40
0.3257616575
 40
0.4946218864
 40
0.5755852818
 40
0.6524132875
 40
0.723840499
 40
0.7886875398
 40
0.8459311352
 40
0.8946864767
 40
0.9156797085
 40
0.9343330904
 40
0.9506119502
 40
0.9645320794
 40
0.9761601471
 40
0.9856544667
 40
0.9933700713
 40
1.0
 40
1.0
 40
1.0
 40
1.0
 10
4.8529546555
 20
6.2406700462
 30
0.0
 10
4.853197375
 20
6.2400840696
 30
0.0
 10
4.8536682579
 20
6.2388558026
 30
0.0
 10
4.854307388
 20
6.2369639682
 30
0.0
 10
4.8547870006
 20
6.2353439716
 30
0.0
 10
4.855121549
 20
6.2340685542
 30
0.0
 10
4.8553358465
 20
6.2331684148
 30
0.0
 10
4.855513509
 20
6.2323267013
 30
0.0
 10
4.8556514969
 20
6.2315577225
 30
0.0
 10
4.855747662
 20
6.2308746953
 30
0.0
 10
4.8557940768
 20
6.2303638502
 30
0.0
 10
4.8558064005
 20
6.2300071496
 30
0.0
 10
4.855803953
 20
6.2297813313
 30
0.0
 10
4.8557903358
 20
6.2295844728
 30
0.0
 10
4.8557657032
 20
6.2294172293
 30
0.0
 10
4.8557302164
 20
6.2292799179
 30
0.0
 10
4.8556835723
 20
6.2291725328
 30
0.0
 10
4.8556246451
 20
6.2290947293
 30
0.0
 10
4.8555735981
 20
6.2290634779
 30
0.0
 10
4.8555481773
 20
6.2290551163
 30
0.0
  0
LINE
  5
318
100
AcDbEntity
  8
0
100
AcDbLine
 62
7
  6
CONTINUOUS
 10
4.7869443321
 20
6.4000330588
 11
4.7873457291
 21
6.3989607838
  0
SPLINE
  5
319
100
AcDbEntity
  8
0
100
AcDbSpline
 62
7
  6
CONTINUOUS
 70
0
 71
3
 72
13
 73
9
 74
0
 42
0.0000001
 43
0.0000001
 44
0.0000000001
 40
0.0
 40
0.0
 40
0.0
 40
0.0
 40
0.1045303834
 40
0.224259895
 40
0.4915270558
 40
0.7631886954
 40
0.8882637065
 40
1.0
 40
1.0
 40
1.0
 40
1.0
 10
4.7873457291
 20
6.3989607838
 30
0.0
 10
4.7874705055
 20
6.3986003503
 30
0.0
 10
4.7877242863
 20
6.3978222513
 30
0.0
 10
4.7882395596
 20
6.3961042222
 30
0.0
 10
4.7888616308
 20
6.3937821983
 30
0.0
 10
4.789414738
 20
6.3914227795
 30
0.0
 10
4.7897865838
 20
6.3896049539
 30
0.0
 10
4.7899407573
 20
6.3887545968
 30
0.0
 10
4.7900071143
 20
6.388352319
 30
0.0
  0
SPLINE
  5
31A
100
AcDbEntity
  8
0
100
AcDbSpline
 62
7
  6
CONTINUOUS
 70
0
 71
3
 72
18
 73
14
 74
0
 42
0.0000001
 43
0.0000001
 44
0.0000000001
 40
0.0
 40
0.0
 40
0.0
 40
0.0
 40
0.2160904245
 40
0.4089409105
 40
0.576517189
 40
0.6503042649
 40
0.7171565499
 40
0.8294972439
 40
0.9129123605
 40
0.9438427451
 40
0.9679359327
 40
0.9860017535
 40
1.0
 40
1.0
 40
1.0
 40
1.0
 10
4.7900071143
 20
6.388352319
 30
0.0
 10
4.79003928
 20
6.3881573205
 30
0.0
 10
4.7900972771
 20
6.3877878066
 30
0.0
 10
4.7901685454
 20
6.3872653328
 30
0.0
 10
4.7902121774
 20
6.3868705381
 30
0.0
 10
4.790235506
 20
6.3865896005
 30
0.0
 10
4.7902496988
 20
6.386358634
 30
0.0
 10
4.790255609
 20
6.3861184902
 30
0.0
 10
4.7902448169
 20
6.3859108434
 30
0.0
 10
4.790221667
 20
6.3857861042
 30
0.0
 10
4.7902006114
 20
6.3857223964
 30
0.0
 10
4.7901741929
 20
6.3856775049
 30
0.0
 10
4.7901486139
 20
6.3856600262
 30
0.0
 10
4.7901362557
 20
6.3856566823
 30
0.0
  0
LINE
  5
31B
100
AcDbEntity
  8
0
100
AcDbLine
 62
7
  6
CONTINUOUS
 10
5.3923431212
 20
3.0237388765
 11
5.3921049845
 21
3.0240140026
  0
LINE
  5
31C
100
AcDbEntity
  8
0
100
AcDbLine
 62
7
  6
CONTINUOUS
 10
5.7983668699
 20
3.0823262727
 11
5.7986049719
 21
3.0820511468
  0
LINE
  5
31D
100
AcDbEntity
  8
0
100
AcDbLine
 62
7
  6
CONTINUOUS
 10
5.7983668688
 20
3.0466112725
 11
5.7986049837
 21
3.046336146
  0
LINE
  5
31E
100
AcDbEntity
  8
0
100
AcDbLine
 62
7
  6
CONTINUOUS
 10
5.798366869
 20
3.0108962602
 11
5.7986049837
 21
3.0106211339
  0
LINE
  5
31F
100
AcDbEntity
  8
0
100
AcDbLine
 62
7
  6
CONTINUOUS
 10
5.3923430984
 20
3.0644687776
 11
5.3921049837
 21
3.0641936513
  0
LINE
  5
320
100
AcDbEntity
  8
0
100
AcDbLine
 62
7
  6
CONTINUOUS
 10
5.3923430986
 20
3.0287537644
 11
5.3921049837
 21
3.0284786379
  0
LINE
  5
321
100
AcDbEntity
  8
0
100
AcDbLine
 62
7
  6
CONTINUOUS
 10
5.3923430888
 20
2.993038767
 11
5.3921049845
 21
2.9927636411
  0
LINE
  5
322
100
AcDbEntity
  8
0
100
AcDbLine
 62
7
  6
CONTINUOUS
 10
5.7983668691
 20
3.0058813868
 11
5.7986049837
 21
3.006156513
  0
LINE
  5
323
100
AcDbEntity
  8
0
100
AcDbLine
 62
7
  6
CONTINUOUS
 10
5.3923430986
 20
2.9880238843
 11
5.3921049837
 21
2.9882990109
  0
LINE
  5
324
100
AcDbEntity
  8
0
100
AcDbLine
 62
7
  6
CONTINUOUS
 10
5.4108543966
 20
2.9323100957
 11
5.4107513544
 21
2.9321716548
  0
SPLINE
  5
325
100
AcDbEntity
  8
0
100
AcDbSpline
 62
7
  6
CONTINUOUS
 70
0
 71
3
 72
9
 73
5
 74
0
 42
0.0000001
 43
0.0000001
 44
0.0000000001
 40
0.0
 40
0.0
 40
0.0
 40
0.0
 40
0.222357919
 40
1.0
 40
1.0
 40
1.0
 40
1.0
 10
5.4107513544
 20
2.9321716548
 30
0.0
 10
5.4107524532
 20
2.9321670914
 30
0.0
 10
5.4107593141
 20
2.932147009
 30
0.0
 10
5.4107728799
 20
2.932129859
 30
0.0
 10
5.4107844872
 20
2.9321182512
 30
0.0
  0
SPLINE
  5
326
100
AcDbEntity
  8
0
100
AcDbSpline
 62
7
  6
CONTINUOUS
 70
0
 71
3
 72
19
 73
15
 74
0
 42
0.0000001
 43
0.0000001
 44
0.0000000001
 40
0.0
 40
0.0
 40
0.0
 40
0.0
 40
0.018422184
 40
0.0401571755
 40
0.0672736396
 40
0.1007616863
 40
0.1410695845
 40
0.1883516176
 40
0.242554145
 40
0.3035413047
 40
0.4449982342
 40
0.6103386135
 40
0.7965380004
 40
1.0
 40
1.0
 40
1.0
 40
1.0
 10
5.0661807111
 20
5.8030425478
 30
0.0
 10
5.0661540473
 20
5.8030290218
 30
0.0
 10
5.0660880567
 20
5.8030141444
 30
0.0
 10
5.0659788492
 20
5.8030331645
 30
0.0
 10
5.065855692
 20
5.8030869024
 30
0.0
 10
5.0657171061
 20
5.8031749872
 30
0.0
 10
5.0655630082
 20
5.8032973101
 30
0.0
 10
5.0653939124
 20
5.8034536302
 30
0.0
 10
5.0652105203
 20
5.8036432403
 30
0.0
 10
5.0649343064
 20
5.8039551475
 30
0.0
 10
5.0645632903
 20
5.8044232439
 30
0.0
 10
5.0640967261
 20
5.8050734788
 30
0.0
 10
5.0635992764
 20
5.8058246111
 30
0.0
 10
5.063266309
 20
5.8063623721
 30
0.0
 10
5.0630961013
 20
5.8066453348
 30
0.0
  0
SPLINE
  5
327
100
AcDbEntity
  8
0
100
AcDbSpline
 62
7
  6
CONTINUOUS
 70
0
 71
3
 72
11
 73
7
 74
0
 42
0.0000001
 43
0.0000001
 44
0.0000000001
 40
0.0
 40
0.0
 40
0.0
 40
0.0
 40
0.2450683539
 40
0.5014796987
 40
0.7571713195
 40
1.0
 40
1.0
 40
1.0
 40
1.0
 10
5.0630961013
 20
5.8066453348
 30
0.0
 10
5.0628127099
 20
5.8071164604
 30
0.0
 10
5.0622531816
 20
5.8080928556
 30
0.0
 10
5.0614610753
 20
5.809595874
 30
0.0
 10
5.0607230661
 20
5.8111206026
 30
0.0
 10
5.0602722356
 20
5.8121444753
 30
0.0
 10
5.0600637625
 20
5.8126477738
 30
0.0
  0
LINE
  5
328
100
AcDbEntity
  8
0
100
AcDbLine
 62
7
  6
CONTINUOUS
 10
4.782535667
 20
6.3224959063
 11
4.7823238681
 21
6.3228309341
  0
SPLINE
  5
329
100
AcDbEntity
  8
0
100
AcDbSpline
 62
7
  6
CONTINUOUS
 70
0
 71
3
 72
40
 73
36
 74
0
 42
0.0000001
 43
0.0000001
 44
0.0000000001
 40
0.0
 40
0.0
 40
0.0
 40
0.0
 40
0.0003506063
 40
0.000760635
 40
0.0012690494
 40
0.0018966579
 40
0.0026544399
 40
0.0035485293
 40
0.0045825833
 40
0.0057589069
 40
0.0085437049
 40
0.0119103049
 40
0.01586092
 40
0.0203957042
 40
0.0255138474
 40
0.0312139509
 40
0.0374935577
 40
0.044349161
 40
0.0597733029
 40
0.07745381
 40
0.0973487565
 40
0.11941263
 40
0.1435926869
 40
0.1698315857
 40
0.1980670515
 40
0.2282308307
 40
0.2940515655
 40
0.3666623874
 40
0.4453657389
 40
0.5294051697
 40
0.6179721731
 40
0.710215962
 40
0.8052458036
 40
0.9021548168
 40
1.0
 40
1.0
 40
1.0
 40
1.0
 10
5.7986049719
 20
3.0820511468
 30
0.0
 10
5.7986049792
 20
3.0820273427
 30
0.0
 10
5.7985924807
 20
3.081975374
 30
0.0
 10
5.7985419629
 20
3.0819040376
 30
0.0
 10
5.7984624794
 20
3.0818345891
 30
0.0
 10
5.7983535641
 20
3.0817656339
 30
0.0
 10
5.7982148137
 20
3.0816966657
 30
0.0
 10
5.7980459167
 20
3.0816275921
 30
0.0
 10
5.7978467448
 20
3.081558391
 30
0.0
 10
5.7975219886
 20
3.0814604051
 30
0.0
 10
5.7970388306
 20
3.0813406459
 30
0.0
 10
5.7963667978
 20
3.0812030646
 30
0.0
 10
5.7955739422
 20
3.0810650543
 30
0.0
 10
5.7946607113
 20
3.0809266829
 30
0.0
 10
5.7936275441
 20
3.0807880809
 30
0.0
 10
5.7924749941
 20
3.0806493156
 30
0.0
 10
5.7912037288
 20
3.0805104209
 30
0.0
 10
5.7892743207
 20
3.080317425
 30
0.0
 10
5.7865716408
 20
3.080079184
 30
0.0
 10
5.7829838687
 20
3.0798026423
 30
0.0
 10
5.7789441513
 20
3.0795256073
 30
0.0
 10
5.7744622537
 20
3.0792482139
 30
0.0
 10
5.7695489083
 20
3.0789705477
 30
0.0
 10
5.764215947
 20
3.0786926813
 30
0.0
 10
5.7584762245
 20
3.0784146561
 30
0.0
 10
5.7500510532
 20
3.0780325785
 30
0.0
 10
5.738614131
 20
3.0775596902
 30
0.0
 10
5.7238822864
 20
3.0770064278
 30
0.0
 10
5.7079127215
 20
3.0764525123
 30
0.0
 10
5.6908592381
 20
3.075898085
 30
0.0
 10
5.6728859908
 20
3.0753433051
 30
0.0
 10
5.654166227
 20
3.0747882771
 30
0.0
 10
5.6348798542
 20
3.0742330695
 30
0.0
 10
5.6152130285
 20
3.0736777604
 30
0.0
 10
5.6019955105
 20
3.0733081138
 30
0.0
 10
5.5953549837
 20
3.0731224007
 30
0.0
  0
SPLINE
  5
32A
100
AcDbEntity
  8
0
100
AcDbSpline
 62
7
  6
CONTINUOUS
 70
0
 71
3
 72
18
 73
14
 74
0
 42
0.0000001
 43
0.0000001
 44
0.0000000001
 40
0.0
 40
0.0
 40
0.0
 40
0.0
 40
0.0195143189
 40
0.0417556931
 40
0.0687588017
 40
0.101658791
 40
0.1410271883
 40
0.1870941593
 40
0.2995025871
 40
0.4385985995
 40
0.6031120401
 40
0.7912027722
 40
1.0
 40
1.0
 40
1.0
 40
1.0
 10
4.833591846
 20
6.2005485442
 30
0.0
 10
4.8335707215
 20
6.2005415628
 30
0.0
 10
4.8335218338
 20
6.2005366685
 30
0.0
 10
4.8334452078
 20
6.2005580885
 30
0.0
 10
4.8333633792
 20
6.2006048596
 30
0.0
 10
4.8332754226
 20
6.2006766237
 30
0.0
 10
4.8331810529
 20
6.2007733168
 30
0.0
 10
4.8330370731
 20
6.2009471791
 30
0.0
 10
4.8328459237
 20
6.2012282139
 30
0.0
 10
4.8326080418
 20
6.2016387705
 30
0.0
 10
4.8323521466
 20
6.2021377762
 30
0.0
 10
4.8320821927
 20
6.2027182307
 30
0.0
 10
4.8319038878
 20
6.2031341839
 30
0.0
 10
4.8318127906
 20
6.2033541119
 30
0.0
  0
SPLINE
  5
32B
100
AcDbEntity
  8
0
100
AcDbSpline
 62
7
  6
CONTINUOUS
 70
0
 71
3
 72
19
 73
15
 74
0
 42
0.0000001
 43
0.0000001
 44
0.0000000001
 40
0.0
 40
0.0
 40
0.0
 40
0.0
 40
0.0151143259
 40
0.0340298813
 40
0.0588171828
 40
0.0903422199
 40
0.1289665674
 40
0.1748275551
 40
0.2278940794
 40
0.2880565546
 40
0.4290741553
 40
0.5962622199
 40
0.7874182012
 40
1.0
 40
1.0
 40
1.0
 40
1.0
 10
5.140995819
 20
5.6236527465
 30
0.0
 10
5.1409808742
 20
5.6236439678
 30
0.0
 10
5.1409408339
 20
5.6236348978
 30
0.0
 10
5.1408739167
 20
5.6236496674
 30
0.0
 10
5.1407956578
 20
5.6236868057
 30
0.0
 10
5.1407046711
 20
5.6237470396
 30
0.0
 10
5.140600779
 20
5.6238303109
 30
0.0
 10
5.1404842157
 20
5.6239367049
 30
0.0
 10
5.1403553247
 20
5.6240658858
 30
0.0
 10
5.1401569262
 20
5.624279596
 30
0.0
 10
5.1398833374
 20
5.6246016935
 30
0.0
 10
5.1395292089
 20
5.6250518094
 30
0.0
 10
5.1391390998
 20
5.6255776936
 30
0.0
 10
5.138871671
 20
5.6259556767
 30
0.0
 10
5.1387326497
 20
5.6261559289
 30
0.0
  0
SPLINE
  5
32C
100
AcDbEntity
  8
0
100
AcDbSpline
 62
7
  6
CONTINUOUS
 70
0
 71
3
 72
14
 73
10
 74
0
 42
0.0000001
 43
0.0000001
 44
0.0000000001
 40
0.0
 40
0.0
 40
0.0
 40
0.0
 40
0.1205733588
 40
0.2519940083
 40
0.5283789074
 40
0.6634804825
 40
0.7900172837
 40
0.903551145
 40
1.0
 40
1.0
 40
1.0
 40
1.0
 10
5.1387326497
 20
5.6261559289
 30
0.0
 10
5.1384856003
 20
5.6265117894
 30
0.0
 10
5.1379809493
 20
5.6272636611
 30
0.0
 10
5.1369609672
 20
5.6288649149
 30
0.0
 10
5.1359649385
 20
5.6305428561
 30
0.0
 10
5.1350292949
 20
5.6322345156
 30
0.0
 10
5.134403867
 20
5.6334287764
 30
0.0
 10
5.1338720013
 20
5.6345147465
 30
0.0
 10
5.1335635521
 20
5.6352035802
 30
0.0
 10
5.1334309401
 20
5.635523734
 30
0.0
  0
SPLINE
  5
32D
100
AcDbEntity
  8
0
100
AcDbSpline
 62
7
  6
CONTINUOUS
 70
0
 71
3
 72
40
 73
36
 74
0
 42
0.0000001
 43
0.0000001
 44
0.0000000001
 40
0.0
 40
0.0
 40
0.0
 40
0.0
 40
0.0003506326
 40
0.0007606977
 40
0.0012691125
 40
0.0018966845
 40
0.0026544069
 40
0.0035484326
 40
0.0045824394
 40
0.0057587532
 40
0.0085437085
 40
0.0119103819
 40
0.0158609027
 40
0.0203955751
 40
0.0255137415
 40
0.0312140105
 40
0.0374935987
 40
0.0443490912
 40
0.0597732795
 40
0.0774538051
 40
0.0973486575
 40
0.1194126695
 40
0.14359259
 40
0.1698316321
 40
0.1980669893
 40
0.2282308427
 40
0.2940515196
 40
0.3666623331
 40
0.4453657031
 40
0.5294051502
 40
0.617972156
 40
0.710216
 40
0.8052456986
 40
0.9021549974
 40
1.0
 40
1.0
 40
1.0
 40
1.0
 10
5.7986049837
 20
3.046336146
 30
0.0
 10
5.7986049837
 20
3.04631234
 30
0.0
 10
5.7985924622
 20
3.0462603731
 30
0.0
 10
5.7985419374
 20
3.04618904
 30
0.0
 10
5.7984624551
 20
3.0461195898
 30
0.0
 10
5.7983535486
 20
3.0460506333
 30
0.0
 10
5.7982148107
 20
3.045981664
 30
0.0
 10
5.7980459265
 20
3.0459125898
 30
0.0
 10
5.7978467634
 20
3.0458433882
 30
0.0
 10
5.7975220008
 20
3.0457453993
 30
0.0
 10
5.7970388254
 20
3.0456256481
 30
0.0
 10
5.7963667836
 20
3.0454880656
 30
0.0
 10
5.7955739378
 20
3.0453500521
 30
0.0
 10
5.7946607197
 20
3.0452116785
 30
0.0
 10
5.7936275472
 20
3.0450730767
 30
0.0
 10
5.7924749852
 20
3.044934316
 30
0.0
 10
5.7912037177
 20
3.0447954191
 30
0.0
 10
5.7892743157
 20
3.0446024196
 30
0.0
 10
5.7865716387
 20
3.044364182
 30
0.0
 10
5.7829838689
 20
3.04408764
 30
0.0
 10
5.7789441475
 20
3.0438106015
 30
0.0
 10
5.7744622562
 20
3.0435332127
 30
0.0
 10
5.7695489014
 20
3.0432555411
 30
0.0
 10
5.764215947
 20
3.0429776791
 30
0.0
 10
5.7584762175
 20
3.0426996501
 30
0.0
 10
5.7500510528
 20
3.0423175751
 30
0.0
 10
5.7386141306
 20
3.0418446842
 30
0.0
 10
5.7238822899
 20
3.041291422
 30
0.0
 10
5.7079127239
 20
3.0407375059
 30
0.0
 10
5.6908592387
 20
3.0401830783
 30
0.0
 10
5.6728859873
 20
3.0396282979
 30
0.0
 10
5.6541662301
 20
3.0390732697
 30
0.0
 10
5.6348798447
 20
3.0385180612
 30
0.0
 10
5.6152130224
 20
3.0379627518
 30
0.0
 10
5.6019954979
 20
3.0375931048
 30
0.0
 10
5.5953549837
 20
3.0374073918
 30
0.0
  0
SPLINE
  5
32E
100
AcDbEntity
  8
0
100
AcDbSpline
 62
7
  6
CONTINUOUS
 70
0
 71
3
 72
40
 73
36
 74
0
 42
0.0000001
 43
0.0000001
 44
0.0000000001
 40
0.0
 40
0.0
 40
0.0
 40
0.0
 40
0.0003506326
 40
0.0007606978
 40
0.0012691127
 40
0.0018966847
 40
0.0026544072
 40
0.003548433
 40
0.0045824398
 40
0.0057587538
 40
0.008543709
 40
0.0119103825
 40
0.0158609035
 40
0.0203955762
 40
0.0255137428
 40
0.0312140122
 40
0.037493601
 40
0.0443490942
 40
0.0597732832
 40
0.0774538094
 40
0.0973486619
 40
0.1194126733
 40
0.1435925931
 40
0.1698316347
 40
0.1980669921
 40
0.2282308464
 40
0.2940515261
 40
0.3666623395
 40
0.4453657088
 40
0.5294051585
 40
0.6179721651
 40
0.7102160054
 40
0.8052457009
 40
0.9021549984
 40
1.0
 40
1.0
 40
1.0
 40
1.0
 10
5.3921049837
 20
3.0597289997
 30
0.0
 10
5.3921049837
 20
3.0597528057
 30
0.0
 10
5.3921175052
 20
3.0598047726
 30
0.0
 10
5.39216803
 20
3.0598761057
 30
0.0
 10
5.3922475123
 20
3.0599455559
 30
0.0
 10
5.3923564189
 20
3.0600145124
 30
0.0
 10
5.3924951568
 20
3.0600834817
 30
0.0
 10
5.392664041
 20
3.0601525559
 30
0.0
 10
5.3928632041
 20
3.0602217575
 30
0.0
 10
5.3931879667
 20
3.0603197464
 30
0.0
 10
5.3936711422
 20
3.0604394977
 30
0.0
 10
5.3943431839
 20
3.0605770801
 30
0.0
 10
5.3951360298
 20
3.0607150936
 30
0.0
 10
5.3960492479
 20
3.0608534672
 30
0.0
 10
5.3970824205
 20
3.0609920691
 30
0.0
 10
5.3982349826
 20
3.0611308297
 30
0.0
 10
5.3995062502
 20
3.0612697267
 30
0.0
 10
5.4014356523
 20
3.0614627261
 30
0.0
 10
5.4041383295
 20
3.0617009637
 30
0.0
 10
5.4077260994
 20
3.0619775057
 30
0.0
 10
5.4117658208
 20
3.0622545442
 30
0.0
 10
5.416247712
 20
3.062531933
 30
0.0
 10
5.4211610667
 20
3.0628096046
 30
0.0
 10
5.426494021
 20
3.0630874665
 30
0.0
 10
5.4322337505
 20
3.0633654956
 30
0.0
 10
5.4406589155
 20
3.0637475706
 30
0.0
 10
5.4520958379
 20
3.0642204615
 30
0.0
 10
5.4668276788
 20
3.0647737237
 30
0.0
 10
5.4827972449
 20
3.0653276397
 30
0.0
 10
5.4998507303
 20
3.0658820674
 30
0.0
 10
5.5178239817
 20
3.0664368478
 30
0.0
 10
5.5365437384
 20
3.066991876
 30
0.0
 10
5.5558301233
 20
3.0675470845
 30
0.0
 10
5.5754969452
 20
3.0681023938
 30
0.0
 10
5.5887144695
 20
3.0684720409
 30
0.0
 10
5.5953549837
 20
3.0686577538
 30
0.0
  0
LINE
  5
32F
100
AcDbEntity
  8
0
100
AcDbLine
 62
7
  6
CONTINUOUS
 10
5.1741466504
 20
5.537227307
 11
5.1741011979
 21
5.5374252409
  0
LINE
  5
330
100
AcDbEntity
  8
0
100
AcDbLine
 62
7
  6
CONTINUOUS
 10
5.1825054946
 20
5.5241073536
 11
5.1809546823
 21
5.5261567402
  0
LINE
  5
331
100
AcDbEntity
  8
0
100
AcDbLine
 62
7
  6
CONTINUOUS
 10
5.1809546823
 20
5.5261567402
 11
5.1751467481
 21
5.5353703568
  0
LINE
  5
332
100
AcDbEntity
  8
0
100
AcDbLine
 62
7
  6
CONTINUOUS
 10
5.1751467481
 20
5.5353703568
 11
5.1741466504
 21
5.537227307
  0
SPLINE
  5
333
100
AcDbEntity
  8
0
100
AcDbSpline
 62
7
  6
CONTINUOUS
 70
0
 71
3
 72
15
 73
11
 74
0
 42
0.0000001
 43
0.0000001
 44
0.0000000001
 40
0.0
 40
0.0
 40
0.0
 40
0.0
 40
0.2139354624
 40
0.4037254981
 40
0.5679736134
 40
0.7056015893
 40
0.8163557106
 40
0.8617696577
 40
0.9007093902
 40
1.0
 40
1.0
 40
1.0
 40
1.0
 10
5.1334309401
 20
5.635523734
 30
0.0
 10
5.1333816235
 20
5.6356427947
 30
0.0
 10
5.133291031
 20
5.6358685158
 30
0.0
 10
5.1331727608
 20
5.6361896419
 30
0.0
 10
5.1330806881
 20
5.6364711659
 30
0.0
 10
5.1330156402
 20
5.6367114078
 30
0.0
 10
5.132981694
 20
5.636884859
 30
0.0
 10
5.1329704186
 20
5.6370028736
 30
0.0
 10
5.132968539
 20
5.6371102836
 30
0.0
 10
5.132987383
 20
5.6372123466
 30
0.0
 10
5.1330389555
 20
5.6372426383
 30
0.0
  0
SPLINE
  5
334
100
AcDbEntity
  8
0
100
AcDbSpline
 62
7
  6
CONTINUOUS
 70
0
 71
3
 72
19
 73
15
 74
0
 42
0.0000001
 43
0.0000001
 44
0.0000000001
 40
0.0
 40
0.0
 40
0.0
 40
0.0
 40
0.2037174071
 40
0.3899742463
 40
0.5549332634
 40
0.6958655958
 40
0.7566429416
 40
0.8106820341
 40
0.8578370639
 40
0.8981085242
 40
0.9316795997
 40
0.9589992972
 40
0.9810875458
 40
1.0
 40
1.0
 40
1.0
 40
1.0
 10
5.0600637625
 20
5.8126477738
 30
0.0
 10
5.0599421636
 20
5.8129413396
 30
0.0
 10
5.0597167294
 20
5.8135063964
 30
0.0
 10
5.0594210796
 20
5.8143200989
 30
0.0
 10
5.0591868692
 20
5.8150513454
 30
0.0
 10
5.0590394543
 20
5.8156043653
 30
0.0
 10
5.0589584795
 20
5.815995077
 30
0.0
 10
5.0589184056
 20
5.8162446262
 30
0.0
 10
5.0588960666
 20
5.8164643085
 30
0.0
 10
5.0588914941
 20
5.8166532272
 30
0.0
 10
5.0589045234
 20
5.8168109045
 30
0.0
 10
5.0589354084
 20
5.8169373712
 30
0.0
 10
5.0589854072
 20
5.8170332706
 30
0.0
 10
5.0590357398
 20
5.8170763007
 30
0.0
 10
5.0590620462
 20
5.8170896489
 30
0.0
  0
SPLINE
  5
335
100
AcDbEntity
  8
0
100
AcDbSpline
 62
7
  6
CONTINUOUS
 70
0
 71
3
 72
22
 73
18
 74
0
 42
0.0000001
 43
0.0000001
 44
0.0000000001
 40
0.0
 40
0.0
 40
0.0
 40
0.0
 40
0.1875556516
 40
0.3682135383
 40
0.5351287762
 40
0.6115568416
 40
0.6823407635
 40
0.746870613
 40
0.8046180158
 40
0.8551369611
 40
0.8981444893
 40
0.9335011839
 40
0.9614263421
 40
0.9728561122
 40
0.9828414395
 40
0.9917251186
 40
1.0
 40
1.0
 40
1.0
 40
1.0
 10
4.968576387
 20
6.0335178383
 30
0.0
 10
4.9683804371
 20
6.0339909033
 30
0.0
 10
4.9680115399
 20
6.034926283
 30
0.0
 10
4.9675236625
 20
6.0363036658
 30
0.0
 10
4.9671801596
 20
6.037409522
 30
0.0
 10
4.9669562022
 20
6.0382374459
 30
0.0
 10
4.9668208801
 20
6.0387995482
 30
0.0
 10
4.9667143596
 20
6.0393158554
 30
0.0
 10
4.9666374731
 20
6.0397814624
 30
0.0
 10
4.966590928
 20
6.0401920196
 30
0.0
 10
4.9665746799
 20
6.0405439385
 30
0.0
 10
4.9665888569
 20
6.0408341707
 30
0.0
 10
4.9666277307
 20
6.0410359411
 30
0.0
 10
4.9666782379
 20
6.0411612996
 30
0.0
 10
4.9667216618
 20
6.0412322897
 30
0.0
 10
4.9667734389
 20
6.0412862623
 30
0.0
 10
4.9668142804
 20
6.0413106459
 30
0.0
 10
4.9668351511
 20
6.041319293
 30
0.0
  0
SPLINE
  5
336
100
AcDbEntity
  8
0
100
AcDbSpline
 62
7
  6
CONTINUOUS
 70
0
 71
3
 72
24
 73
20
 74
0
 42
0.0000001
 43
0.0000001
 44
0.0000000001
 40
0.0
 40
0.0
 40
0.0
 40
0.0
 40
0.1625039405
 40
0.3334443777
 40
0.5022245121
 40
0.5825031129
 40
0.6583630398
 40
0.728641626
 40
0.7922733188
 40
0.8483247678
 40
0.896014717
 40
0.9165436817
 40
0.9347996012
 40
0.9507574202
 40
0.9644344387
 40
0.9759160732
 40
0.9853805521
 40
0.9931846443
 40
1.0
 40
1.0
 40
1.0
 40
1.0
 10
4.8770890103
 20
6.2543879022
 30
0.0
 10
4.8768485637
 20
6.2549683917
 30
0.0
 10
4.8763852899
 20
6.2561720901
 30
0.0
 10
4.8757616745
 20
6.2580115207
 30
0.0
 10
4.8753004197
 20
6.2595690872
 30
0.0
 10
4.8749830922
 20
6.2607847334
 30
0.0
 10
4.8747820631
 20
6.2616368734
 30
0.0
 10
4.8746170617
 20
6.2624310942
 30
0.0
 10
4.8744905085
 20
6.2631547564
 30
0.0
 10
4.8744042682
 20
6.2637963048
 30
0.0
 10
4.8743647931
 20
6.2642755472
 30
0.0
 10
4.8743570233
 20
6.2646099061
 30
0.0
 10
4.8743621506
 20
6.2648216044
 30
0.0
 10
4.8743778599
 20
6.2650062532
 30
0.0
 10
4.8744041148
 20
6.265163277
 30
0.0
 10
4.874440773
 20
6.2652924241
 30
0.0
 10
4.8744880696
 20
6.2653937647
 30
0.0
 10
4.8745471767
 20
6.2654674081
 30
0.0
 10
4.8745973786
 20
6.2654969707
 30
0.0
 10
4.8746224257
 20
6.2655051585
 30
0.0
  0
SPLINE
  5
337
100
AcDbEntity
  8
0
100
AcDbSpline
 62
7
  6
CONTINUOUS
 70
0
 71
3
 72
14
 73
10
 74
0
 42
0.0000001
 43
0.0000001
 44
0.0000000001
 40
0.0
 40
0.0
 40
0.0
 40
0.0
 40
0.0964486856
 40
0.2099822387
 40
0.3365187127
 40
0.471620015
 40
0.7480048408
 40
0.8794258738
 40
1.0
 40
1.0
 40
1.0
 40
1.0
 10
4.8037218294
 20
6.4315119407
 30
0.0
 10
4.8035892186
 20
6.4318320913
 30
0.0
 10
4.8033202487
 20
6.4325372696
 30
0.0
 10
4.8029284413
 20
6.4336812403
 30
0.0
 10
4.8025262191
 20
6.434967941
 30
0.0
 10
4.8019916388
 20
6.4368257074
 30
0.0
 10
4.801509456
 20
6.4387164745
 30
0.0
 10
4.801098435
 20
6.4405699568
 30
0.0
 10
4.8009236227
 20
6.4414584493
 30
0.0
 10
4.8008466809
 20
6.4418847701
 30
0.0
  0
SPLINE
  5
338
100
AcDbEntity
  8
0
100
AcDbSpline
 62
7
  6
CONTINUOUS
 70
0
 71
3
 72
19
 73
15
 74
0
 42
0.0000001
 43
0.0000001
 44
0.0000000001
 40
0.0
 40
0.0
 40
0.0
 40
0.0
 40
0.2125815938
 40
0.4037375664
 40
0.5709257417
 40
0.7119435094
 40
0.7721060718
 40
0.8251726734
 40
0.8710337186
 40
0.9096580951
 40
0.9411831259
 40
0.9659703763
 40
0.9848858257
 40
1.0
 40
1.0
 40
1.0
 40
1.0
 10
4.8008466809
 20
6.4418847701
 30
0.0
 10
4.8008033825
 20
6.4421246783
 30
0.0
 10
4.800725206
 20
6.4425810643
 30
0.0
 10
4.8006291946
 20
6.4432287851
 30
0.0
 10
4.8005613181
 20
6.443797486
 30
0.0
 10
4.8005270152
 20
6.4442187106
 30
0.0
 10
4.800516187
 20
6.444510123
 30
0.0
 10
4.8005159813
 20
6.4446926122
 30
0.0
 10
4.8005231716
 20
6.4448502709
 30
0.0
 10
4.8005377523
 20
6.4449826188
 30
0.0
 10
4.8005594978
 20
6.4450895507
 30
0.0
 10
4.8005885746
 20
6.4451711509
 30
0.0
 10
4.8006254487
 20
6.4452289136
 30
0.0
 10
4.8006601755
 20
6.4452508134
 30
0.0
 10
4.8006769508
 20
6.4452551736
 30
0.0
  0
LINE
  5
339
100
AcDbEntity
  8
0
100
AcDbLine
 62
7
  6
CONTINUOUS
 10
4.7630061142
 20
6.5298083656
 11
4.7625114733
 21
6.5314152167
  0
LINE
  5
33A
100
AcDbEntity
  8
0
100
AcDbLine
 62
7
  6
CONTINUOUS
 10
4.7625114733
 20
6.5314152167
 11
4.759908568
 21
6.5428947434
  0
LINE
  5
33B
100
AcDbEntity
  8
0
100
AcDbLine
 62
7
  6
CONTINUOUS
 10
4.759908568
 20
6.5428947434
 11
4.7596395016
 21
6.5449961691
  0
SPLINE
  5
33C
100
AcDbEntity
  8
0
100
AcDbSpline
 62
7
  6
CONTINUOUS
 70
0
 71
3
 72
22
 73
18
 74
0
 42
0.0000001
 43
0.0000001
 44
0.0000000001
 40
0.0
 40
0.0
 40
0.0
 40
0.0
 40
0.0082789905
 40
0.017167566
 40
0.0271564158
 40
0.0385877786
 40
0.066508797
 40
0.1018495044
 40
0.1448330545
 40
0.1953232124
 40
0.2530399554
 40
0.3175425061
 40
0.3883047771
 40
0.464720912
 40
0.6316466466
 40
0.8123596191
 40
1.0
 40
1.0
 40
1.0
 40
1.0
 10
4.9161792065
 20
6.0032915162
 30
0.0
 10
4.9161583189
 20
6.0032828676
 30
0.0
 10
4.9161121687
 20
6.0032712132
 30
0.0
 10
4.9160373438
 20
6.0032727029
 30
0.0
 10
4.9159563713
 20
6.0032920935
 30
0.0
 10
4.9158319038
 20
6.0033448395
 30
0.0
 10
4.9156615516
 20
6.0034597276
 30
0.0
 10
4.9154460024
 20
6.0036545141
 30
0.0
 10
4.9152082933
 20
6.0039143754
 30
0.0
 10
4.9149504842
 20
6.0042370908
 30
0.0
 10
4.9146751425
 20
6.0046201875
 30
0.0
 10
4.9143848606
 20
6.0050601302
 30
0.0
 10
4.9140825195
 20
6.0055528938
 30
0.0
 10
4.9136546179
 20
6.0062963526
 30
0.0
 10
4.9131145337
 20
6.0073211265
 30
0.0
 10
4.9124845877
 20
6.0086404168
 30
0.0
 10
4.9120836281
 20
6.0095631694
 30
0.0
 10
4.9118875467
 20
6.0100365518
 30
0.0
  0
SPLINE
  5
33D
100
AcDbEntity
  8
0
100
AcDbSpline
 62
7
  6
CONTINUOUS
 70
0
 71
3
 72
17
 73
13
 74
0
 42
0.0000001
 43
0.0000001
 44
0.0000000001
 40
0.0
 40
0.0
 40
0.0
 40
0.0
 40
0.2126904372
 40
0.4021509301
 40
0.5663518943
 40
0.7039819717
 40
0.8145028774
 40
0.8981226977
 40
0.9304893284
 40
0.9573042
 40
0.9797786064
 40
1.0
 40
1.0
 40
1.0
 40
1.0
 10
4.9038641034
 20
5.878739425
 30
0.0
 10
4.9037979813
 20
5.8788990577
 30
0.0
 10
4.9036765698
 20
5.8792024071
 30
0.0
 10
4.9035186986
 20
5.8796346703
 30
0.0
 10
4.9033966444
 20
5.8800147744
 30
0.0
 10
4.9033113044
 20
5.8803390228
 30
0.0
 10
4.9032631144
 20
5.8806043682
 30
0.0
 10
4.9032520191
 20
5.8807892262
 30
0.0
 10
4.9032667428
 20
5.8809046862
 30
0.0
 10
4.9032865827
 20
5.8809684834
 30
0.0
 10
4.903316939
 20
5.8810171395
 30
0.0
 10
4.903345463
 20
5.8810386149
 30
0.0
 10
4.9033602983
 20
5.88104567
 30
0.0
  0
SPLINE
  5
33E
100
AcDbEntity
  8
0
100
AcDbSpline
 62
7
  6
CONTINUOUS
 70
0
 71
3
 72
22
 73
18
 74
0
 42
0.0000001
 43
0.0000001
 44
0.0000000001
 40
0.0
 40
0.0
 40
0.0
 40
0.0
 40
0.1878967039
 40
0.3687759156
 40
0.5357335667
 40
0.6121143128
 40
0.6828120947
 40
0.7472331289
 40
0.8048586735
 40
0.8552639647
 40
0.8981765908
 40
0.9334702959
 40
0.9613778256
 40
0.9728125476
 40
0.9828103287
 40
0.9917113982
 40
1.0
 40
1.0
 40
1.0
 40
1.0
 10
4.8586185656
 20
5.9879718174
 30
0.0
 10
4.8584220864
 20
5.9884461602
 30
0.0
 10
4.8580529466
 20
5.9893840701
 30
0.0
 10
4.8575669249
 20
5.9907652503
 30
0.0
 10
4.8572266526
 20
5.991873816
 30
0.0
 10
4.8570060991
 20
5.9927031819
 30
0.0
 10
4.8568735371
 20
5.9932657879
 30
0.0
 10
4.8567698516
 20
5.993782266
 30
0.0
 10
4.8566957778
 20
5.9942478
 30
0.0
 10
4.856651855
 20
5.9946581068
 30
0.0
 10
4.8566379562
 20
5.9950096969
 30
0.0
 10
4.8566541406
 20
5.9952996028
 30
0.0
 10
4.8566943755
 20
5.9955010696
 30
0.0
 10
4.8567456958
 20
5.9956262227
 30
0.0
 10
4.856789584
 20
5.9956971166
 30
0.0
 10
4.8568416547
 20
5.9957510449
 30
0.0
 10
4.8568826139
 20
5.9957754593
 30
0.0
 10
4.856903536
 20
5.9957841322
 30
0.0
  0
SPLINE
  5
33F
100
AcDbEntity
  8
0
100
AcDbSpline
 62
7
  6
CONTINUOUS
 70
0
 71
3
 72
13
 73
9
 74
0
 42
0.0000001
 43
0.0000001
 44
0.0000000001
 40
0.0
 40
0.0
 40
0.0
 40
0.0
 40
0.1035283686
 40
0.2202904462
 40
0.3468727246
 40
0.4798008124
 40
0.7496265433
 40
1.0
 40
1.0
 40
1.0
 40
1.0
 10
4.8133730268
 20
6.0972042093
 30
0.0
 10
4.813243604
 20
6.0975166636
 30
0.0
 10
4.8129834093
 20
6.0981878228
 30
0.0
 10
4.8126074288
 20
6.0992569008
 30
0.0
 10
4.8122300728
 20
6.100426856
 30
0.0
 10
4.8117368088
 20
6.102084329
 30
0.0
 10
4.8111918682
 20
6.1041477206
 30
0.0
 10
4.8108234363
 20
6.1058073659
 30
0.0
 10
4.8106684427
 20
6.1066104456
 30
0.0
  0
SPLINE
  5
340
100
AcDbEntity
  8
0
100
AcDbSpline
 62
7
  6
CONTINUOUS
 70
0
 71
3
 72
19
 73
15
 74
0
 42
0.0000001
 43
0.0000001
 44
0.0000000001
 40
0.0
 40
0.0
 40
0.0
 40
0.0
 40
0.2085881352
 40
0.397410474
 40
0.5636439888
 40
0.7048617949
 40
0.7654864039
 40
0.8191756076
 40
0.8658309543
 40
0.9054253202
 40
0.9380295684
 40
0.9639408148
 40
0.9839788805
 40
1.0
 40
1.0
 40
1.0
 40
1.0
 10
4.8106684427
 20
6.1066104456
 30
0.0
 10
4.810616972
 20
6.1068771341
 30
0.0
 10
4.8105237979
 20
6.1073862053
 30
0.0
 10
4.8104087792
 20
6.1081111667
 30
0.0
 10
4.8103263899
 20
6.1087522078
 30
0.0
 10
4.8102837016
 20
6.109229802
 30
0.0
 10
4.8102688738
 20
6.1095622648
 30
0.0
 10
4.8102672014
 20
6.1097719193
 30
0.0
 10
4.810274285
 20
6.1099540908
 30
0.0
 10
4.8102900618
 20
6.1101081793
 30
0.0
 10
4.8103143432
 20
6.1102338675
 30
0.0
 10
4.8103474341
 20
6.110331117
 30
0.0
 10
4.8103895773
 20
6.1104011258
 30
0.0
 10
4.8104291113
 20
6.1104301461
 30
0.0
 10
4.810448767
 20
6.1104371362
 30
0.0
  0
SPLINE
  5
341
100
AcDbEntity
  8
0
100
AcDbSpline
 62
7
  6
CONTINUOUS
 70
0
 71
3
 72
19
 73
15
 74
0
 42
0.0000001
 43
0.0000001
 44
0.0000000001
 40
0.0
 40
0.0
 40
0.0
 40
0.0
 40
0.0173202342
 40
0.0382667178
 40
0.064804838
 40
0.0978546042
 40
0.1378225968
 40
0.1848052596
 40
0.238755537
 40
0.2995631315
 40
0.4409098117
 40
0.6066783164
 40
0.7941274097
 40
1.0
 40
1.0
 40
1.0
 40
1.0
 10
4.9987279528
 20
5.806100905
 30
0.0
 10
4.9987050974
 20
5.8060893978
 30
0.0
 10
4.9986474074
 20
5.8060777594
 30
0.0
 10
4.9985521865
 20
5.8060968004
 30
0.0
 10
4.998443269
 20
5.806146124
 30
0.0
 10
4.9983193389
 20
5.8062259913
 30
0.0
 10
4.9981803066
 20
5.8063362959
 30
0.0
 10
4.9980265401
 20
5.8064767961
 30
0.0
 10
4.9978586698
 20
5.8066469658
 30
0.0
 10
4.9976040791
 20
5.8069269764
 30
0.0
 10
4.9972588318
 20
5.8073472189
 30
0.0
 10
4.9968200439
 20
5.8079316419
 30
0.0
 10
4.9963467047
 20
5.808608722
 30
0.0
 10
4.9960269251
 20
5.8090939937
 30
0.0
 10
4.995862469
 20
5.8093498538
 30
0.0
  0
SPLINE
  5
342
100
AcDbEntity
  8
0
100
AcDbSpline
 62
7
  6
CONTINUOUS
 70
0
 71
3
 72
11
 73
7
 74
0
 42
0.0000001
 43
0.0000001
 44
0.0000000001
 40
0.0
 40
0.0
 40
0.0
 40
0.0
 40
0.2480475368
 40
0.5106640906
 40
0.7678237568
 40
1.0
 40
1.0
 40
1.0
 40
1.0
 10
4.995862469
 20
5.8093498538
 30
0.0
 10
4.9954893243
 20
5.8099303909
 30
0.0
 10
4.9947512103
 20
5.8111450085
 30
0.0
 10
4.9937143277
 20
5.8130133
 30
0.0
 10
4.9927705632
 20
5.8148809597
 30
0.0
 10
4.9922094992
 20
5.8161222026
 30
0.0
 10
4.9919623013
 20
5.816718991
 30
0.0
  0
LINE
  5
343
100
AcDbEntity
  8
0
100
AcDbLine
 62
7
  6
CONTINUOUS
 10
4.9814525159
 20
5.7676240024
 11
4.9813664985
 21
5.7680105381
  0
SPLINE
  5
344
100
AcDbEntity
  8
0
100
AcDbSpline
 62
7
  6
CONTINUOUS
 70
0
 71
3
 72
17
 73
13
 74
0
 42
0.0000001
 43
0.0000001
 44
0.0000000001
 40
0.0
 40
0.0
 40
0.0
 40
0.0
 40
0.2099998736
 40
0.3990884129
 40
0.5643684111
 40
0.6374883852
 40
0.7040156306
 40
0.7637997096
 40
0.8167686373
 40
0.8629187674
 40
0.9023312366
 40
1.0
 40
1.0
 40
1.0
 40
1.0
 10
4.9448245236
 20
5.8560518023
 30
0.0
 10
4.9447332648
 20
5.8562721205
 30
0.0
 10
4.9445650129
 20
5.8566930026
 30
0.0
 10
4.9443454822
 20
5.8572952298
 30
0.0
 10
4.9441970122
 20
5.8577576089
 30
0.0
 10
4.9441047256
 20
5.8580914204
 30
0.0
 10
4.9440513122
 20
5.8583114949
 30
0.0
 10
4.9440110053
 20
5.8585112851
 30
0.0
 10
4.9439837488
 20
5.8586892141
 30
0.0
 10
4.9439698882
 20
5.8588476837
 30
0.0
 10
4.9439675026
 20
5.8590485039
 30
0.0
 10
4.9440054404
 20
5.8592448331
 30
0.0
 10
4.9441052795
 20
5.8592931367
 30
0.0
  0
SPLINE
  5
345
100
AcDbEntity
  8
0
100
AcDbSpline
 62
7
  6
CONTINUOUS
 70
0
 71
3
 72
22
 73
18
 74
0
 42
0.0000001
 43
0.0000001
 44
0.0000000001
 40
0.0
 40
0.0
 40
0.0
 40
0.0
 40
0.1877570657
 40
0.3685478694
 40
0.5354922028
 40
0.6118945418
 40
0.682629597
 40
0.7470963563
 40
0.8047721516
 40
0.8552226746
 40
0.8981718974
 40
0.9334880749
 40
0.9613990459
 40
0.97283038
 40
0.9828221858
 40
0.9917159892
 40
1.0
 40
1.0
 40
1.0
 40
1.0
 10
4.8855591853
 20
5.9991309874
 30
0.0
 10
4.8853629349
 20
5.9996047776
 30
0.0
 10
4.8849938517
 20
6.000541572
 30
0.0
 10
4.8845068207
 20
6.0019210299
 30
0.0
 10
4.8841648911
 20
6.0030283318
 30
0.0
 10
4.8839426321
 20
6.0038569941
 30
0.0
 10
4.8838087067
 20
6.0044193184
 30
0.0
 10
4.8837036327
 20
6.0049356588
 30
0.0
 10
4.883628192
 20
6.0054011611
 30
0.0
 10
4.8835830063
 20
6.0058115174
 30
0.0
 10
4.8835679841
 20
6.0061631968
 30
0.0
 10
4.8835832201
 20
6.0064532019
 30
0.0
 10
4.8836228236
 20
6.0066547738
 30
0.0
 10
4.8836737712
 20
6.0067800015
 30
0.0
 10
4.8837174527
 20
6.0068509323
 30
0.0
 10
4.8837693997
 20
6.0069048768
 30
0.0
 10
4.8838103115
 20
6.0069292763
 30
0.0
 10
4.883831214
 20
6.0069379388
 30
0.0
  0
SPLINE
  5
346
100
AcDbEntity
  8
0
100
AcDbSpline
 62
7
  6
CONTINUOUS
 70
0
 71
3
 72
24
 73
20
 74
0
 42
0.0000001
 43
0.0000001
 44
0.0000000001
 40
0.0
 40
0.0
 40
0.0
 40
0.0
 40
0.149130563
 40
0.3142668439
 40
0.4832132895
 40
0.565196093
 40
0.643489751
 40
0.7166702752
 40
0.7834106851
 40
0.8425226703
 40
0.8929946231
 40
0.9147297067
 40
0.9340239113
 40
0.9508338337
 40
0.9651378508
 40
0.9769627356
 40
0.9864433865
 40
0.9938939173
 40
1.0
 40
1.0
 40
1.0
 40
1.0
 10
4.8262938458
 20
6.142210172
 30
0.0
 10
4.8260505599
 20
6.1427975163
 30
0.0
 10
4.8255770487
 20
6.1440515224
 30
0.0
 10
4.8249332268
 20
6.1460087103
 30
0.0
 10
4.8244438423
 20
6.1477140565
 30
0.0
 10
4.8240969223
 20
6.1490740472
 30
0.0
 10
4.823871416
 20
6.1500434665
 30
0.0
 10
4.8236818714
 20
6.1509542848
 30
0.0
 10
4.823531621
 20
6.1517894815
 30
0.0
 10
4.8234232546
 20
6.1525334371
 30
0.0
 10
4.8233663847
 20
6.1530906539
 30
0.0
 10
4.8233458439
 20
6.1534802575
 30
0.0
 10
4.8233426745
 20
6.1537268834
 30
0.0
 10
4.8233508038
 20
6.1539417389
 30
0.0
 10
4.8233701603
 20
6.1541239427
 30
0.0
 10
4.8234006422
 20
6.1542730087
 30
0.0
 10
4.8234423962
 20
6.1543888776
 30
0.0
 10
4.8234960322
 20
6.154472743
 30
0.0
 10
4.8235454594
 20
6.1545070982
 30
0.0
 10
4.8235700469
 20
6.1545156432
 30
0.0
  0
LINE
  5
347
100
AcDbEntity
  8
0
100
AcDbLine
 62
7
  6
CONTINUOUS
 10
4.7896658506
 20
6.2306379707
 11
4.7891817519
 21
6.232098642
  0
SPLINE
  5
348
100
AcDbEntity
  8
0
100
AcDbSpline
 62
7
  6
CONTINUOUS
 70
0
 71
3
 72
13
 73
9
 74
0
 42
0.0000001
 43
0.0000001
 44
0.0000000001
 40
0.0
 40
0.0
 40
0.0
 40
0.0
 40
0.102767645
 40
0.2233817939
 40
0.4962141468
 40
0.7709811529
 40
0.8939733668
 40
1.0
 40
1.0
 40
1.0
 40
1.0
 10
4.7891817519
 20
6.232098642
 30
0.0
 10
4.7890678407
 20
6.2324861896
 30
0.0
 10
4.7888321401
 20
6.2333320803
 30
0.0
 10
4.7883402751
 20
6.2352195279
 30
0.0
 10
4.7877278917
 20
6.2377738851
 30
0.0
 10
4.7871617269
 20
6.2403484161
 30
0.0
 10
4.7867709895
 20
6.2422897223
 30
0.0
 10
4.7866064827
 20
6.2431748163
 30
0.0
 10
4.7865352341
 20
6.2435854323
 30
0.0
  0
LINE
  5
349
100
AcDbEntity
  8
0
100
AcDbLine
 62
7
  6
CONTINUOUS
 10
4.7865352341
 20
6.2435854323
 11
4.7863297171
 21
6.2456900699
  0
SPLINE
  5
34A
100
AcDbEntity
  8
0
100
AcDbSpline
 62
7
  6
CONTINUOUS
 70
0
 71
3
 72
31
 73
27
 74
0
 42
0.0000001
 43
0.0000001
 44
0.0000000001
 40
0.0
 40
0.0
 40
0.0
 40
0.0
 40
0.0015798716
 40
0.0036847054
 40
0.0063297284
 40
0.0095217932
 40
0.0132632979
 40
0.0175545986
 40
0.027783428
 40
0.0401957822
 40
0.0547670604
 40
0.0714685573
 40
0.0902635678
 40
0.1111112539
 40
0.1339657329
 40
0.1587752548
 40
0.1854854215
 40
0.2443609013
 40
0.3100626139
 40
0.3819983266
 40
0.4595188698
 40
0.5419241883
 40
0.6284694324
 40
0.7183738205
 40
0.8108208955
 40
1.0
 40
1.0
 40
1.0
 40
1.0
 10
5.7983668835
 20
3.0773113814
 30
0.0
 10
5.798274186
 20
3.0772578089
 30
0.0
 10
5.7980441909
 20
3.0771575357
 30
0.0
 10
5.7976358111
 20
3.0770258999
 30
0.0
 10
5.7971138524
 20
3.076893276
 30
0.0
 10
5.7964784805
 20
3.0767599442
 30
0.0
 10
5.7957295572
 20
3.0766261328
 30
0.0
 10
5.7945066252
 20
3.0764359939
 30
0.0
 10
5.7926959613
 20
3.0762041785
 30
0.0
 10
5.790188151
 20
3.0759378756
 30
0.0
 10
5.7872396941
 20
3.075670599
 30
0.0
 10
5.7838572563
 20
3.075402576
 30
0.0
 10
5.7800483412
 20
3.0751340617
 30
0.0
 10
5.7758215538
 20
3.0748651948
 30
0.0
 10
5.771186445
 20
3.0745960833
 30
0.0
 10
5.7661534486
 20
3.0743267488
 30
0.0
 10
5.7586814095
 20
3.0739552938
 30
0.0
 10
5.7484392074
 20
3.0734961241
 30
0.0
 10
5.73513269
 20
3.072960268
 30
0.0
 10
5.7205617347
 20
3.0724236546
 30
0.0
 10
5.7048581285
 20
3.0718864481
 30
0.0
 10
5.6881639376
 20
3.0713488346
 30
0.0
 10
5.6706301176
 20
3.0708109204
 30
0.0
 10
5.6524154888
 20
3.0702727955
 30
0.0
 10
5.6272480186
 20
3.0695495729
 30
0.0
 10
5.6081702495
 20
3.0690161539
 30
0.0
 10
5.5953549837
 20
3.0686577538
 30
0.0
  0
LINE
  5
34B
100
AcDbEntity
  8
0
100
AcDbLine
 62
7
  6
CONTINUOUS
 10
5.0497222018
 20
5.6842602535
 11
5.0478496876
 21
5.6866509124
  0
SPLINE
  5
34C
100
AcDbEntity
  8
0
100
AcDbSpline
 62
7
  6
CONTINUOUS
 70
0
 71
3
 72
12
 73
8
 74
0
 42
0.0000001
 43
0.0000001
 44
0.0000000001
 40
0.0
 40
0.0
 40
0.0
 40
0.0
 40
0.240820709
 40
0.5107524689
 40
0.7751364749
 40
0.8944855809
 40
1.0
 40
1.0
 40
1.0
 40
1.0
 10
5.0478496876
 20
5.6866509124
 30
0.0
 10
5.0473782849
 20
5.6873409979
 30
0.0
 10
5.0464006795
 20
5.6888197359
 30
0.0
 10
5.0449584421
 20
5.6910905087
 30
0.0
 10
5.0437754887
 20
5.6930262743
 30
0.0
 10
5.0429144956
 20
5.6944896559
 30
0.0
 10
5.0425279941
 20
5.6951676151
 30
0.0
 10
5.0423498454
 20
5.6954875261
 30
0.0
  0
LINE
  5
34D
100
AcDbEntity
  8
0
100
AcDbLine
 62
7
  6
CONTINUOUS
 10
5.0423498454
 20
5.6954875261
 11
5.0414512198
 21
5.6972421672
  0
SPLINE
  5
34E
100
AcDbEntity
  8
0
100
AcDbSpline
 62
7
  6
CONTINUOUS
 70
0
 71
3
 72
40
 73
36
 74
0
 42
0.0000001
 43
0.0000001
 44
0.0000000001
 40
0.0
 40
0.0
 40
0.0
 40
0.0
 40
0.0003506326
 40
0.0007606977
 40
0.0012691125
 40
0.0018966846
 40
0.002654407
 40
0.0035484328
 40
0.0045824396
 40
0.0057587535
 40
0.0085437087
 40
0.0119103821
 40
0.0158609031
 40
0.0203955757
 40
0.0255137423
 40
0.0312140116
 40
0.0374936004
 40
0.0443490935
 40
0.0597732825
 40
0.0774538087
 40
0.0973486612
 40
0.1194126723
 40
0.143592592
 40
0.1698316335
 40
0.1980669908
 40
0.2282308444
 40
0.2940515219
 40
0.3666623355
 40
0.4453657053
 40
0.529405154
 40
0.6179721607
 40
0.710216003
 40
0.8052457002
 40
0.9021549983
 40
1.0
 40
1.0
 40
1.0
 40
1.0
 10
5.3921049837
 20
2.9882990109
 30
0.0
 10
5.3921049837
 20
2.9883228168
 30
0.0
 10
5.3921175052
 20
2.9883747837
 30
0.0
 10
5.39216803
 20
2.9884461169
 30
0.0
 10
5.3922475123
 20
2.9885155671
 30
0.0
 10
5.3923564189
 20
2.9885845235
 30
0.0
 10
5.3924951568
 20
2.9886534928
 30
0.0
 10
5.392664041
 20
2.988722567
 30
0.0
 10
5.3928632041
 20
2.9887917686
 30
0.0
 10
5.3931879666
 20
2.9888897575
 30
0.0
 10
5.3936711421
 20
2.9890095087
 30
0.0
 10
5.3943431839
 20
2.9891470912
 30
0.0
 10
5.3951360298
 20
2.9892851046
 30
0.0
 10
5.3960492478
 20
2.9894234782
 30
0.0
 10
5.3970824204
 20
2.9895620801
 30
0.0
 10
5.3982349825
 20
2.9897008407
 30
0.0
 10
5.3995062501
 20
2.9898397377
 30
0.0
 10
5.4014356522
 20
2.9900327371
 30
0.0
 10
5.4041383294
 20
2.9902709746
 30
0.0
 10
5.4077260993
 20
2.9905475166
 30
0.0
 10
5.4117658206
 20
2.990824555
 30
0.0
 10
5.4162477119
 20
2.9911019438
 30
0.0
 10
5.4211610665
 20
2.9913796154
 30
0.0
 10
5.4264940208
 20
2.9916574773
 30
0.0
 10
5.4322337503
 20
2.9919355063
 30
0.0
 10
5.4406589151
 20
2.9923175812
 30
0.0
 10
5.4520958373
 20
2.992790472
 30
0.0
 10
5.466827678
 20
2.9933437341
 30
0.0
 10
5.4827972441
 20
2.99389765
 30
0.0
 10
5.4998507294
 20
2.9944520775
 30
0.0
 10
5.517823981
 20
2.9950068578
 30
0.0
 10
5.5365437379
 20
2.9955618858
 30
0.0
 10
5.5558301231
 20
2.9961170942
 30
0.0
 10
5.5754969451
 20
2.9966724033
 30
0.0
 10
5.5887144695
 20
2.9970420503
 30
0.0
 10
5.5953549837
 20
2.9972277631
 30
0.0
  0
LINE
  5
34F
100
AcDbEntity
  8
0
100
AcDbLine
 62
7
  6
CONTINUOUS
 10
5.0916399599
 20
5.6572847093
 11
5.0913999247
 21
5.6583418468
  0
SPLINE
  5
350
100
AcDbEntity
  8
0
100
AcDbSpline
 62
7
  6
CONTINUOUS
 70
0
 71
3
 72
19
 73
15
 74
0
 42
0.0000001
 43
0.0000001
 44
0.0000000001
 40
0.0
 40
0.0
 40
0.0
 40
0.0
 40
0.2059395749
 40
0.3930036858
 40
0.5577632943
 40
0.697891465
 40
0.7581527822
 40
0.8116735985
 40
0.8583651131
 40
0.8982333353
 40
0.9315019284
 40
0.9586862849
 40
0.980839158
 40
1.0
 40
1.0
 40
1.0
 40
1.0
 10
5.0278026331
 20
5.8114016548
 30
0.0
 10
5.0276938723
 20
5.8116642265
 30
0.0
 10
5.0274926809
 20
5.8121679786
 30
0.0
 10
5.0272292168
 20
5.8128913908
 30
0.0
 10
5.0270216322
 20
5.8135379757
 30
0.0
 10
5.0268916187
 20
5.8140252226
 30
0.0
 10
5.0268208117
 20
5.8143684995
 30
0.0
 10
5.0267861149
 20
5.8145873239
 30
0.0
 10
5.0267671181
 20
5.814779853
 30
0.0
 10
5.0267639362
 20
5.8149454178
 30
0.0
 10
5.0267764651
 20
5.8150836908
 30
0.0
 10
5.0268048738
 20
5.8151947963
 30
0.0
 10
5.0268502972
 20
5.8152793189
 30
0.0
 10
5.0268955047
 20
5.81531717
 30
0.0
 10
5.0269191087
 20
5.8153290894
 30
0.0
  0
SPLINE
  5
351
100
AcDbEntity
  8
0
100
AcDbSpline
 62
7
  6
CONTINUOUS
 70
0
 71
3
 72
22
 73
18
 74
0
 42
0.0000001
 43
0.0000001
 44
0.0000000001
 40
0.0
 40
0.0
 40
0.0
 40
0.0
 40
0.187572751
 40
0.3682407605
 40
0.535156158
 40
0.6115805978
 40
0.6823589877
 40
0.746882601
 40
0.8046233463
 40
0.8551366182
 40
0.8981400025
 40
0.9334947125
 40
0.9614210258
 40
0.9728520747
 40
0.9828388946
 40
0.9917241367
 40
1.0
 40
1.0
 40
1.0
 40
1.0
 10
4.940599221
 20
6.0219293167
 30
0.0
 10
4.9404032391
 20
6.0224024588
 30
0.0
 10
4.9400343427
 20
6.0233379982
 30
0.0
 10
4.939546645
 20
6.0247156373
 30
0.0
 10
4.939203425
 20
6.0258216896
 30
0.0
 10
4.9389797555
 20
6.0266497301
 30
0.0
 10
4.9388446628
 20
6.0272118873
 30
0.0
 10
4.9387383754
 20
6.0277282302
 30
0.0
 10
4.9386617189
 20
6.0281938583
 30
0.0
 10
4.9386153873
 20
6.0286044244
 30
0.0
 10
4.9385993293
 20
6.0289563453
 30
0.0
 10
4.9386136695
 20
6.0292465769
 30
0.0
 10
4.9386526519
 20
6.0294483416
 30
0.0
 10
4.9387032233
 20
6.029573696
 30
0.0
 10
4.938746684
 20
6.0296446838
 30
0.0
 10
4.9387984835
 20
6.0296986563
 30
0.0
 10
4.938839334
 20
6.0297230436
 30
0.0
 10
4.9388602085
 20
6.0297316927
 30
0.0
  0
SPLINE
  5
352
100
AcDbEntity
  8
0
100
AcDbSpline
 62
7
  6
CONTINUOUS
 70
0
 71
3
 72
24
 73
20
 74
0
 42
0.0000001
 43
0.0000001
 44
0.0000000001
 40
0.0
 40
0.0
 40
0.0
 40
0.0
 40
0.1571665942
 40
0.325821208
 40
0.4947231335
 40
0.575713896
 40
0.6525732211
 40
0.7240355927
 40
0.7889177203
 40
0.8461935357
 40
0.8949716999
 40
0.9159708702
 40
0.9346219408
 40
0.9508916703
 40
0.9647936074
 40
0.9763887171
 40
0.9858296208
 40
0.9934692604
 40
1.0
 40
1.0
 40
1.0
 40
1.0
 10
4.8533958076
 20
6.232456978
 30
0.0
 10
4.8531530952
 20
6.2330429376
 30
0.0
 10
4.8526833492
 20
6.2342716277
 30
0.0
 10
4.8520483167
 20
6.2361648332
 30
0.0
 10
4.8515734198
 20
6.2377862579
 30
0.0
 10
4.8512427461
 20
6.2390628038
 30
0.0
 10
4.8510311131
 20
6.2399637524
 30
0.0
 10
4.8508557281
 20
6.2408061664
 30
0.0
 10
4.8507194936
 20
6.241575698
 30
0.0
 10
4.8506244309
 20
6.2422590875
 30
0.0
 10
4.8505783649
 20
6.2427700833
 30
0.0
 10
4.8505658825
 20
6.2431268034
 30
0.0
 10
4.8505680536
 20
6.2433525489
 30
0.0
 10
4.850581204
 20
6.2435492709
 30
0.0
 10
4.8506051864
 20
6.243716317
 30
0.0
 10
4.8506398471
 20
6.2438533639
 30
0.0
 10
4.8506855231
 20
6.243960405
 30
0.0
 10
4.8507432655
 20
6.2440379012
 30
0.0
 10
4.8507935741
 20
6.2440690335
 30
0.0
 10
4.8508186078
 20
6.2440772719
 30
0.0
  0
LINE
  5
353
100
AcDbEntity
  8
0
100
AcDbLine
 62
7
  6
CONTINUOUS
 10
4.7895584771
 20
6.386573922
 11
4.7891606917
 21
6.3876398116
  0
SPLINE
  5
354
100
AcDbEntity
  8
0
100
AcDbSpline
 62
7
  6
CONTINUOUS
 70
0
 71
3
 72
13
 73
9
 74
0
 42
0.0000001
 43
0.0000001
 44
0.0000000001
 40
0.0
 40
0.0
 40
0.0
 40
0.0
 40
0.1041894593
 40
0.2234912334
 40
0.4900146305
 40
0.7617232353
 40
0.887326098
 40
1.0
 40
1.0
 40
1.0
 40
1.0
 10
4.7891606917
 20
6.3876398116
 30
0.0
 10
4.7890378344
 20
6.3879967078
 30
0.0
 10
4.7887884153
 20
6.3887671317
 30
0.0
 10
4.7882827959
 20
6.3904689048
 30
0.0
 10
4.7876722508
 20
6.3927719364
 30
0.0
 10
4.7871265465
 20
6.395114546
 30
0.0
 10
4.7867551853
 20
6.3969244692
 30
0.0
 10
4.7865991821
 20
6.3977735715
 30
0.0
 10
4.7865312513
 20
6.3981760665
 30
0.0
  0
SPLINE
  5
355
100
AcDbEntity
  8
0
100
AcDbSpline
 62
7
  6
CONTINUOUS
 70
0
 71
3
 72
18
 73
14
 74
0
 42
0.0000001
 43
0.0000001
 44
0.0000000001
 40
0.0
 40
0.0
 40
0.0
 40
0.0
 40
0.2164272488
 40
0.4097220667
 40
0.5777630264
 40
0.7187919578
 40
0.7787064147
 40
0.8313996531
 40
0.8767987049
 40
0.9148729333
 40
0.9456884034
 40
0.9695568513
 40
1.0
 40
1.0
 40
1.0
 40
1.0
 10
4.7865312513
 20
6.3981760665
 30
0.0
 10
4.786497373
 20
6.3983767982
 30
0.0
 10
4.7864360247
 20
6.3987572872
 30
0.0
 10
4.7863596447
 20
6.3992953774
 30
0.0
 10
4.786304599
 20
6.399764732
 30
0.0
 10
4.7862752836
 20
6.4001106636
 30
0.0
 10
4.7862643458
 20
6.4003490239
 30
0.0
 10
4.7862622081
 20
6.4004976321
 30
0.0
 10
4.7862657345
 20
6.4006257968
 30
0.0
 10
4.7862745229
 20
6.4007327526
 30
0.0
 10
4.7862894877
 20
6.4008196174
 30
0.0
 10
4.786311242
 20
6.4008945232
 30
0.0
 10
4.7863444137
 20
6.4009442979
 30
0.0
 10
4.7863720536
 20
6.4009517797
 30
0.0
  0
SPLINE
  5
356
100
AcDbEntity
  8
0
100
AcDbSpline
 62
7
  6
CONTINUOUS
 70
0
 71
3
 72
40
 73
36
 74
0
 42
0.0000001
 43
0.0000001
 44
0.0000000001
 40
0.0
 40
0.0
 40
0.0
 40
0.0
 40
0.0003506401
 40
0.0007607024
 40
0.0012690966
 40
0.0018966363
 40
0.0026543251
 40
0.0035483278
 40
0.0045823339
 40
0.0057586811
 40
0.0085437753
 40
0.0119104493
 40
0.015860888
 40
0.020395498
 40
0.025513724
 40
0.0312140652
 40
0.0374936102
 40
0.0443490306
 40
0.0597733061
 40
0.0774537887
 40
0.0973486168
 40
0.119412685
 40
0.1435925262
 40
0.1698316612
 40
0.1980669394
 40
0.2282308571
 40
0.2940514994
 40
0.3666622979
 40
0.4453656764
 40
0.5294051361
 40
0.6179721467
 40
0.7102160246
 40
0.8052456288
 40
0.9021551169
 40
1.0
 40
1.0
 40
1.0
 40
1.0
 10
5.3921049845
 20
3.0240140026
 30
0.0
 10
5.3921049878
 20
3.024037809
 30
0.0
 10
5.3921175124
 20
3.0240897745
 30
0.0
 10
5.3921680341
 20
3.024161108
 30
0.0
 10
5.3922475108
 20
3.024230559
 30
0.0
 10
5.3923564101
 20
3.0242995158
 30
0.0
 10
5.3924951413
 20
3.0243684853
 30
0.0
 10
5.3926640213
 20
3.0244375594
 30
0.0
 10
5.3928631852
 20
3.0245067608
 30
0.0
 10
5.39318796
 20
3.0246047494
 30
0.0
 10
5.3936711491
 20
3.0247244946
 30
0.0
 10
5.3943431939
 20
3.0248620805
 30
0.0
 10
5.3951360297
 20
3.0250000951
 30
0.0
 10
5.3960492417
 20
3.0251384704
 30
0.0
 10
5.3970824192
 20
3.02527707
 30
0.0
 10
5.3982349875
 20
3.0254158291
 30
0.0
 10
5.3995062519
 20
3.0255547273
 30
0.0
 10
5.4014356517
 20
3.0257477288
 30
0.0
 10
5.4041383273
 20
3.0259859618
 30
0.0
 10
5.4077260982
 20
3.0262625061
 30
0.0
 10
5.4117658188
 20
3.0265395443
 30
0.0
 10
5.416247707
 20
3.026816931
 30
0.0
 10
5.4211610663
 20
3.0270946051
 30
0.0
 10
5.4264940163
 20
3.0273724638
 30
0.0
 10
5.432233751
 20
3.0276504951
 30
0.0
 10
5.4406589124
 20
3.0280325674
 30
0.0
 10
5.4520958354
 20
3.0285054593
 30
0.0
 10
5.4668276732
 20
3.0290587206
 30
0.0
 10
5.4827972394
 20
3.0296126361
 30
0.0
 10
5.4998507262
 20
3.0301670631
 30
0.0
 10
5.517823981
 20
3.0307218431
 30
0.0
 10
5.5365437342
 20
3.0312768706
 30
0.0
 10
5.5558301281
 20
3.0318320789
 30
0.0
 10
5.5754969485
 20
3.0323873877
 30
0.0
 10
5.5887144776
 20
3.0327570346
 30
0.0
 10
5.5953549837
 20
3.0329427471
 30
0.0
  0
LINE
  5
357
100
AcDbEntity
  8
0
100
AcDbLine
 62
7
  6
CONTINUOUS
 10
5.4436127141
 20
5.6230105828
 11
5.4391049837
 21
5.6160331949
  0
SPLINE
  5
358
100
AcDbEntity
  8
0
100
AcDbSpline
 62
7
  6
CONTINUOUS
 70
0
 71
3
 72
26
 73
22
 74
0
 42
0.0000001
 43
0.0000001
 44
0.0000000001
 40
0.0
 40
0.0
 40
0.0
 40
0.0
 40
0.0069506748
 40
0.0096259709
 40
0.0127403275
 40
0.016310567
 40
0.0203476916
 40
0.0298490849
 40
0.0412833019
 40
0.0546669858
 40
0.0700060805
 40
0.0873017413
 40
0.1065523216
 40
0.1509010214
 40
0.2029902033
 40
0.2627317123
 40
0.3300252163
 40
0.4047387575
 40
0.5758495096
 40
0.7748034768
 40
1.0
 40
1.0
 40
1.0
 40
1.0
 10
5.4114349846
 20
3.0842838323
 30
0.0
 10
5.4114349777
 20
3.0843865931
 30
0.0
 10
5.4115621817
 20
3.0845064906
 30
0.0
 10
5.4117190578
 20
3.0846016142
 30
0.0
 10
5.4118436355
 20
3.0846645613
 30
0.0
 10
5.4119891979
 20
3.0847266318
 30
0.0
 10
5.4122265393
 20
3.0848147114
 30
0.0
 10
5.4125799079
 20
3.0849223715
 30
0.0
 10
5.4130721029
 20
3.085046199
 30
0.0
 10
5.4136527662
 20
3.0851703366
 30
0.0
 10
5.4143217004
 20
3.0852947803
 30
0.0
 10
5.4150786375
 20
3.085419427
 30
0.0
 10
5.4162618204
 20
3.0855941712
 30
0.0
 10
5.417958832
 20
3.0858088757
 30
0.0
 10
5.4202545482
 20
3.086056931
 30
0.0
 10
5.42289114
 20
3.0863055851
 30
0.0
 10
5.4258634686
 20
3.0865547076
 30
0.0
 10
5.4304795942
 20
3.0869032697
 30
0.0
 10
5.4370415325
 20
3.0873313558
 30
0.0
 10
5.4458281579
 20
3.0878267838
 30
0.0
 10
5.452091169
 20
3.0881393645
 30
0.0
 10
5.455416771
 20
3.0882977543
 30
0.0
  0
SPLINE
  5
359
100
AcDbEntity
  8
0
100
AcDbSpline
 62
7
  6
CONTINUOUS
 70
0
 71
3
 72
61
 73
57
 74
0
 42
0.0000001
 43
0.0000001
 44
0.0000000001
 40
0.0
 40
0.0
 40
0.0
 40
0.0
 40
0.0001896552
 40
0.0004053301
 40
0.0006653402
 40
0.0009803583
 40
0.0013564003
 40
0.0017969795
 40
0.0028791087
 40
0.0042364261
 40
0.0058729377
 40
0.0077905173
 40
0.0099899672
 40
0.0124711145
 40
0.015233077
 40
0.0182747428
 40
0.0215948584
 40
0.0290643105
 40
0.0376253496
 40
0.0472594806
 40
0.0579453451
 40
0.0823716884
 40
0.1106806402
 40
0.1426110281
 40
0.1778673128
 40
0.2161224037
 40
0.2570210848
 40
0.3001834918
 40
0.3452086183
 40
0.3916780305
 40
0.4391597605
 40
0.4872123632
 40
0.5353891272
 40
0.5832421847
 40
0.6303266669
 40
0.6762048488
 40
0.7204502718
 40
0.7626517878
 40
0.8024173743
 40
0.8393777808
 40
0.8731899689
 40
0.9035404157
 40
0.9301484753
 40
0.9419713438
 40
0.9527693694
 40
0.9625187734
 40
0.9711969521
 40
0.9787853534
 40
0.9852680025
 40
0.9906322573
 40
0.9928928449
 40
0.9948717244
 40
0.9965690685
 40
0.9979864578
 40
0.9991275329
 40
1.0
 40
1.0
 40
1.0
 40
1.0
 10
5.4114350748
 20
3.0485688188
 30
0.0
 10
5.4114350765
 20
3.048592106
 30
0.0
 10
5.4114456033
 20
3.0486421925
 30
0.0
 10
5.4114893197
 20
3.0487124871
 30
0.0
 10
5.4115588386
 20
3.0487810892
 30
0.0
 10
5.4116541653
 20
3.0488491042
 30
0.0
 10
5.4117755924
 20
3.048917049
 30
0.0
 10
5.4119876005
 20
3.0490144606
 30
0.0
 10
5.4123215922
 20
3.0491324443
 30
0.0
 10
5.4128037728
 20
3.0492671158
 30
0.0
 10
5.4133916525
 20
3.0494023507
 30
0.0
 10
5.4140850316
 20
3.0495380847
 30
0.0
 10
5.4148837668
 20
3.0496741072
 30
0.0
 10
5.4157874436
 20
3.0498103527
 30
0.0
 10
5.4167955488
 20
3.0499467635
 30
0.0
 10
5.4179074949
 20
3.0500833079
 30
0.0
 10
5.4195951815
 20
3.0502730264
 30
0.0
 10
5.4219597124
 20
3.0505071931
 30
0.0
 10
5.425099292
 20
3.0507790623
 30
0.0
 10
5.4286350728
 20
3.0510514023
 30
0.0
 10
5.4341161601
 20
3.0514321794
 30
0.0
 10
5.4418895396
 20
3.0518997898
 30
0.0
 10
5.4522713181
 20
3.0524412765
 30
0.0
 10
5.4639844005
 20
3.0529840884
 30
0.0
 10
5.4769198558
 20
3.05352795
 30
0.0
 10
5.4909573604
 20
3.0540724882
 30
0.0
 10
5.5059662895
 20
3.0546175236
 30
0.0
 10
5.5218069923
 20
3.0551629107
 30
0.0
 10
5.5383320843
 20
3.0557085505
 30
0.0
 10
5.5553878046
 20
3.0562543649
 30
0.0
 10
5.5728154405
 20
3.0568002928
 30
0.0
 10
5.5904528157
 20
3.0573462822
 30
0.0
 10
5.6081358063
 20
3.0578922848
 30
0.0
 10
5.6256998688
 20
3.0584382532
 30
0.0
 10
5.6429815608
 20
3.0589841374
 30
0.0
 10
5.6598200622
 20
3.0595298819
 30
0.0
 10
5.6760586829
 20
3.0600754195
 30
0.0
 10
5.6915463274
 20
3.0606206648
 30
0.0
 10
5.7061389013
 20
3.0611654978
 30
0.0
 10
5.7197006342
 20
3.061709769
 30
0.0
 10
5.7321053496
 20
3.0622531926
 30
0.0
 10
5.7432376378
 20
3.0627955396
 30
0.0
 10
5.7516702738
 20
3.06326244
 30
0.0
 10
5.7577030699
 20
3.0636414962
 30
0.0
 10
5.7616683735
 20
3.0639142443
 30
0.0
 10
5.7652465832
 20
3.0641865939
 30
0.0
 10
5.7684294618
 20
3.0644585108
 30
0.0
 10
5.7712096751
 20
3.0647296653
 30
0.0
 10
5.7735808303
 20
3.0649998994
 30
0.0
 10
5.7752973109
 20
3.0652349977
 30
0.0
 10
5.7764607607
 20
3.0654276056
 30
0.0
 10
5.7771770591
 20
3.0655634045
 30
0.0
 10
5.7777877621
 20
3.0656987816
 30
0.0
 10
5.7782929633
 20
3.0658335368
 30
0.0
 10
5.7786925692
 20
3.0659674165
 30
0.0
 10
5.7789192409
 20
3.0660687255
 30
0.0
 10
5.7790119883
 20
3.066122337
 30
0.0
  0
SPLINE
  5
35A
100
AcDbEntity
  8
0
100
AcDbSpline
 62
7
  6
CONTINUOUS
 70
0
 71
3
 72
61
 73
57
 74
0
 42
0.0000001
 43
0.0000001
 44
0.0000000001
 40
0.0
 40
0.0
 40
0.0
 40
0.0
 40
0.0001896538
 40
0.000405374
 40
0.0006654826
 40
0.0009806125
 40
0.0013567257
 40
0.0017972867
 40
0.0028791891
 40
0.0042363255
 40
0.0058729945
 40
0.0077908514
 40
0.0099903053
 40
0.0124711859
 40
0.0152329815
 40
0.0182748313
 40
0.0215952025
 40
0.0290643439
 40
0.0376254726
 40
0.0472597438
 40
0.0579452801
 40
0.0823716887
 40
0.1106808433
 40
0.1426113385
 40
0.1778675233
 40
0.2161224653
 40
0.2570211041
 40
0.3001835894
 40
0.3452087838
 40
0.3916781897
 40
0.4391598679
 40
0.4872124521
 40
0.535389232
 40
0.5832422827
 40
0.6303267071
 40
0.67620485
 40
0.7204503324
 40
0.7626519565
 40
0.8024175321
 40
0.8393777802
 40
0.8731898205
 40
0.9035403363
 40
0.9301486151
 40
0.9419711744
 40
0.952769613
 40
0.9625186224
 40
0.9711970335
 40
0.9787854217
 40
0.9852678412
 40
0.9906324994
 40
0.9928928735
 40
0.9948715082
 40
0.996568933
 40
0.9979865947
 40
0.999127757
 40
1.0
 40
1.0
 40
1.0
 40
1.0
 10
5.4114349921
 20
3.0128538217
 30
0.0
 10
5.4114349843
 20
3.0128771087
 30
0.0
 10
5.4114455116
 20
3.0129272056
 30
0.0
 10
5.4114892703
 20
3.0129974965
 30
0.0
 10
5.4115588383
 20
3.0130660921
 30
0.0
 10
5.41165421
 20
3.0131341025
 30
0.0
 10
5.4117756608
 20
3.0132020449
 30
0.0
 10
5.4119876453
 20
3.0132994558
 30
0.0
 10
5.4123215757
 20
3.0134174553
 30
0.0
 10
5.4128037231
 20
3.0135521353
 30
0.0
 10
5.4133916386
 20
3.0136873549
 30
0.0
 10
5.4140850751
 20
3.0138230756
 30
0.0
 10
5.4148838114
 20
3.0139591017
 30
0.0
 10
5.4157874333
 20
3.0140953587
 30
0.0
 10
5.416795507
 20
3.0142317745
 30
0.0
 10
5.4179074882
 20
3.0143683105
 30
0.0
 10
5.4195951927
 20
3.0145580121
 30
0.0
 10
5.4219597253
 20
3.0147922073
 30
0.0
 10
5.4250992968
 20
3.0150640614
 30
0.0
 10
5.4286350662
 20
3.0153363955
 30
0.0
 10
5.434116138
 20
3.0157171905
 30
0.0
 10
5.4418895119
 20
3.0161847875
 30
0.0
 10
5.4522713379
 20
3.0167262753
 30
0.0
 10
5.4639844477
 20
3.0172690846
 30
0.0
 10
5.4769198872
 20
3.0178129475
 30
0.0
 10
5.4909573578
 20
3.0183574862
 30
0.0
 10
5.5059662751
 20
3.0189025212
 30
0.0
 10
5.5218069927
 20
3.0194479066
 30
0.0
 10
5.5383321041
 20
3.0199935453
 30
0.0
 10
5.5553878278
 20
3.0205393597
 30
0.0
 10
5.5728154565
 20
3.0210852878
 30
0.0
 10
5.5904528273
 20
3.0216312766
 30
0.0
 10
5.608135819
 20
3.0221772781
 30
0.0
 10
5.6256998779
 20
3.0227232459
 30
0.0
 10
5.6429815594
 20
3.0232691303
 30
0.0
 10
5.6598200584
 20
3.0238148749
 30
0.0
 10
5.6760586969
 20
3.0243604116
 30
0.0
 10
5.6915463627
 20
3.0249056553
 30
0.0
 10
5.706138931
 20
3.0254504876
 30
0.0
 10
5.7197006266
 20
3.0259947601
 30
0.0
 10
5.7321053145
 20
3.0265381832
 30
0.0
 10
5.7432376211
 20
3.027080536
 30
0.0
 10
5.7516702569
 20
3.0275474148
 30
0.0
 10
5.7577030917
 20
3.0279264996
 30
0.0
 10
5.761668362
 20
3.0281992173
 30
0.0
 10
5.765246601
 20
3.028471596
 30
0.0
 10
5.7684294596
 20
3.0287434965
 30
0.0
 10
5.7712096732
 20
3.0290146431
 30
0.0
 10
5.7735808438
 20
3.0292849136
 30
0.0
 10
5.7752973264
 20
3.0295199643
 30
0.0
 10
5.7764607669
 20
3.0297125905
 30
0.0
 10
5.7771770151
 20
3.0298484051
 30
0.0
 10
5.7777877317
 20
3.0299837812
 30
0.0
 10
5.7782929927
 20
3.0301185199
 30
0.0
 10
5.7786926237
 20
3.0302523797
 30
0.0
 10
5.7789192709
 20
3.0303537082
 30
0.0
 10
5.7790119834
 20
3.0304073252
 30
0.0
  0
LINE
  5
35B
100
AcDbEntity
  8
0
100
AcDbLine
 62
7
  6
CONTINUOUS
 10
4.7898783492
 20
6.2303038252
 11
4.7896658506
 21
6.2306379707
  0
SPLINE
  5
35C
100
AcDbEntity
  8
0
100
AcDbSpline
 62
7
  6
CONTINUOUS
 70
0
 71
3
 72
17
 73
13
 74
0
 42
0.0000001
 43
0.0000001
 44
0.0000000001
 40
0.0
 40
0.0
 40
0.0
 40
0.0
 40
0.0202213949
 40
0.0426958011
 40
0.0695106826
 40
0.1018773323
 40
0.1854971851
 40
0.2960181047
 40
0.4336481857
 40
0.597849088
 40
0.7873095489
 40
1.0
 40
1.0
 40
1.0
 40
1.0
 10
4.8146475443
 20
6.0952172039
 30
0.0
 10
4.8146320655
 20
6.0952117024
 30
0.0
 10
4.8145967106
 20
6.0952067183
 30
0.0
 10
4.8145408403
 20
6.0952196582
 30
0.0
 10
4.8144816999
 20
6.0952507407
 30
0.0
 10
4.8143896462
 20
6.0953219721
 30
0.0
 10
4.8142667774
 20
6.095460532
 30
0.0
 10
4.8141132253
 20
6.0956822351
 30
0.0
 10
4.8139442915
 20
6.0959718578
 30
0.0
 10
4.8137618227
 20
6.0963269372
 30
0.0
 10
4.8135677983
 20
6.0967442252
 30
0.0
 10
4.8134391488
 20
6.0970445766
 30
0.0
 10
4.8133730268
 20
6.0972042093
 30
0.0
  0
SPLINE
  5
35D
100
AcDbEntity
  8
0
100
AcDbSpline
 62
7
  6
CONTINUOUS
 70
0
 71
3
 72
37
 73
33
 74
0
 42
0.0000001
 43
0.0000001
 44
0.0000000001
 40
0.0
 40
0.0
 40
0.0
 40
0.0
 40
0.0007308142
 40
0.0016286719
 40
0.0026983188
 40
0.0039423987
 40
0.0069591818
 40
0.0106852358
 40
0.0151200817
 40
0.0202608658
 40
0.0261036596
 40
0.03264243
 40
0.039869642
 40
0.0477775124
 40
0.0655983656
 40
0.0860209433
 40
0.1089487252
 40
0.1342724217
 40
0.1618701313
 40
0.1916101212
 40
0.2233486627
 40
0.2569334811
 40
0.2922027326
 40
0.3671073093
 40
0.446620155
 40
0.5292098803
 40
0.6132854122
 40
0.6972269172
 40
0.7794171117
 40
0.8582733959
 40
0.932274473
 40
1.0
 40
1.0
 40
1.0
 40
1.0
 10
5.4116979485
 20
3.0756578221
 30
0.0
 10
5.4117619401
 20
3.0756948132
 30
0.0
 10
5.4119106863
 20
3.0757665509
 30
0.0
 10
5.4121658275
 20
3.0758638314
 30
0.0
 10
5.4124757911
 20
3.0759614551
 30
0.0
 10
5.4129966458
 20
3.0761010426
 30
0.0
 10
5.4137868859
 20
3.0762705783
 30
0.0
 10
5.4149007195
 20
3.0764647489
 30
0.0
 10
5.4162319777
 20
3.0766597071
 30
0.0
 10
5.4177791316
 20
3.0768553378
 30
0.0
 10
5.4195405086
 20
3.0770513412
 30
0.0
 10
5.4215140206
 20
3.0772476341
 30
0.0
 10
5.423697295
 20
3.0774441639
 30
0.0
 10
5.4270192379
 20
3.0777174124
 30
0.0
 10
5.4316748731
 20
3.0780543312
 30
0.0
 10
5.4378493568
 20
3.0784454465
 30
0.0
 10
5.4447839767
 20
3.0788372738
 30
0.0
 10
5.4524452851
 20
3.0792296746
 30
0.0
 10
5.4607963767
 20
3.079622485
 30
0.0
 10
5.4697969074
 20
3.0800155817
 30
0.0
 10
5.4794034967
 20
3.0804089162
 30
0.0
 10
5.489569744
 20
3.0808024299
 30
0.0
 10
5.5040995109
 20
3.0813380836
 30
0.0
 10
5.5232728279
 20
3.0820010746
 30
0.0
 10
5.5472307978
 20
3.0827826334
 30
0.0
 10
5.5721167637
 20
3.083564753
 30
0.0
 10
5.5974508457
 20
3.0843471527
 30
0.0
 10
5.6227445016
 20
3.085129525
 30
0.0
 10
5.6475100419
 20
3.085911582
 30
0.0
 10
5.6712697248
 20
3.0866929608
 30
0.0
 10
5.693565665
 20
3.0874732479
 30
0.0
 10
5.7078894026
 20
3.0880197
 30
0.0
 10
5.7147334605
 20
3.0882977543
 30
0.0
  0
SPLINE
  5
35E
100
AcDbEntity
  8
0
100
AcDbSpline
 62
7
  6
CONTINUOUS
 70
0
 71
3
 72
31
 73
27
 74
0
 42
0.0000001
 43
0.0000001
 44
0.0000000001
 40
0.0
 40
0.0
 40
0.0
 40
0.0
 40
0.1891792073
 40
0.2816261627
 40
0.3715305949
 40
0.4580758575
 40
0.5404811885
 40
0.6180017098
 40
0.6899373881
 40
0.7556391067
 40
0.8145146252
 40
0.8412247747
 40
0.8660343635
 40
0.8888887304
 40
0.9097365641
 40
0.9285314391
 40
0.9452330469
 40
0.959804276
 40
0.9722165732
 40
0.9824455328
 40
0.98673673
 40
0.9904781647
 40
0.9936703131
 40
0.9963154576
 40
0.9984202352
 40
1.0
 40
1.0
 40
1.0
 40
1.0
 10
5.5953549837
 20
3.0374073918
 30
0.0
 10
5.5825397118
 20
3.0370489916
 30
0.0
 10
5.563461945
 20
3.0365155727
 30
0.0
 10
5.5382944745
 20
3.03579235
 30
0.0
 10
5.5200798507
 20
3.0352542253
 30
0.0
 10
5.5025460267
 20
3.0347163111
 30
0.0
 10
5.4858518362
 20
3.0341786978
 30
0.0
 10
5.470148234
 20
3.0336414911
 30
0.0
 10
5.455577283
 20
3.0331048777
 30
0.0
 10
5.4422707657
 20
3.0325690212
 30
0.0
 10
5.4320285624
 20
3.0321098526
 30
0.0
 10
5.4245565178
 20
3.031738396
 30
0.0
 10
5.4195235259
 20
3.0314690642
 30
0.0
 10
5.4148884107
 20
3.0311999483
 30
0.0
 10
5.4106616299
 20
3.0309310871
 30
0.0
 10
5.4068527072
 20
3.030662567
 30
0.0
 10
5.4034702742
 20
3.0303945484
 30
0.0
 10
5.4005218172
 20
3.0301272713
 30
0.0
 10
5.3980140061
 20
3.0298609628
 30
0.0
 10
5.3962033431
 20
3.0296291568
 30
0.0
 10
5.3949804149
 20
3.0294390128
 30
0.0
 10
5.3942314983
 20
3.0293051985
 30
0.0
 10
5.3935961171
 20
3.0291718674
 30
0.0
 10
5.3930741461
 20
3.0290392513
 30
0.0
 10
5.3926657696
 20
3.0289076133
 30
0.0
 10
5.3924357877
 20
3.0288073369
 30
0.0
 10
5.3923430986
 20
3.0287537644
 30
0.0
  0
LINE
  5
35F
100
AcDbEntity
  8
0
100
AcDbLine
 62
7
  6
CONTINUOUS
 10
5.411697984
 20
3.0399428086
 11
5.4120606402
 21
3.0401078076
  0
SPLINE
  5
360
100
AcDbEntity
  8
0
100
AcDbSpline
 62
7
  6
CONTINUOUS
 70
0
 71
3
 72
59
 73
55
 74
0
 42
0.0000001
 43
0.0000001
 44
0.0000000001
 40
0.0
 40
0.0
 40
0.0
 40
0.0
 40
0.0011856848
 40
0.0026438238
 40
0.0043771477
 40
0.0063868596
 40
0.0112362943
 40
0.0171879816
 40
0.0242314224
 40
0.0323533598
 40
0.0415357855
 40
0.0517592431
 40
0.0630008553
 40
0.0752352
 40
0.1025706246
 40
0.1335181633
 40
0.1677966383
 40
0.2050941719
 40
0.245071123
 40
0.2873632212
 40
0.3315848542
 40
0.3773326534
 40
0.4241893416
 40
0.519513497
 40
0.567111323
 40
0.6140867533
 40
0.6600112828
 40
0.7044660447
 40
0.7470456064
 40
0.7873616366
 40
0.8250466801
 40
0.8597575518
 40
0.8911784446
 40
0.919023905
 40
0.9430416518
 40
0.9535460719
 40
0.9630158261
 40
0.971429974
 40
0.9787702046
 40
0.982033128
 40
0.9850223444
 40
0.9877363535
 40
0.9901742732
 40
0.9923356766
 40
0.9942204799
 40
0.9958291771
 40
0.9971633941
 40
0.9982273834
 40
0.9986608825
 40
0.9990311992
 40
0.9993417847
 40
0.9995985508
 40
0.9998119788
 40
1.0
 40
1.0
 40
1.0
 40
1.0
 10
5.4120606402
 20
3.0401078076
 30
0.0
 10
5.412196809
 20
3.0401588724
 30
0.0
 10
5.4125061511
 20
3.0402573797
 30
0.0
 10
5.4130262509
 20
3.0403910604
 30
0.0
 10
5.413650056
 20
3.0405252935
 30
0.0
 10
5.4146864783
 20
3.0407169771
 30
0.0
 10
5.4162408034
 20
3.0409499273
 30
0.0
 10
5.4184132584
 20
3.0412171257
 30
0.0
 10
5.4209895444
 20
3.0414853874
 30
0.0
 10
5.4239638102
 20
3.0417544923
 30
0.0
 10
5.427329468
 20
3.0420241553
 30
0.0
 10
5.4310788243
 20
3.0422941854
 30
0.0
 10
5.4352033646
 20
3.0425645144
 30
0.0
 10
5.4414243282
 20
3.0429392377
 30
0.0
 10
5.4500612904
 20
3.043401375
 30
0.0
 10
5.4614016204
 20
3.0439390469
 30
0.0
 10
5.4739650315
 20
3.0444776687
 30
0.0
 10
5.487636826
 20
3.045017042
 30
0.0
 10
5.5022922114
 20
3.0455569182
 30
0.0
 10
5.5177973913
 20
3.046097164
 30
0.0
 10
5.5340107874
 20
3.0466376722
 30
0.0
 10
5.5507843409
 20
3.0471783708
 30
0.0
 10
5.5738231205
 20
3.0479035888
 30
0.0
 10
5.5970891856
 20
3.0486203668
 30
0.0
 10
5.620369674
 20
3.0493419007
 30
0.0
 10
5.6375937938
 20
3.0498827317
 30
0.0
 10
5.654432215
 20
3.0504234492
 30
0.0
 10
5.6707311864
 20
3.0509639885
 30
0.0
 10
5.6863418701
 20
3.0515042742
 30
0.0
 10
5.7011217133
 20
3.0520442106
 30
0.0
 10
5.7149357688
 20
3.052583654
 30
0.0
 10
5.7276579349
 20
3.0531224264
 30
0.0
 10
5.7391721155
 20
3.0536601542
 30
0.0
 10
5.7493732085
 20
3.0541965713
 30
0.0
 10
5.7570089561
 20
3.0546598206
 30
0.0
 10
5.762391574
 20
3.0550370682
 30
0.0
 10
5.7658630909
 20
3.0553068487
 30
0.0
 10
5.7689452403
 20
3.0555761467
 30
0.0
 10
5.7712663204
 20
3.0558081489
 30
0.0
 10
5.7729228768
 20
3.0559960726
 30
0.0
 10
5.7740142849
 20
3.0561313256
 30
0.0
 10
5.7750036745
 20
3.0562664576
 30
0.0
 10
5.7758905121
 20
3.0564014363
 30
0.0
 10
5.7766743835
 20
3.0565361867
 30
0.0
 10
5.7773549059
 20
3.0566706374
 30
0.0
 10
5.7779318762
 20
3.0568045908
 30
0.0
 10
5.7784050502
 20
3.05693801
 30
0.0
 10
5.7787327287
 20
3.0570549118
 30
0.0
 10
5.778940704
 20
3.0571513985
 30
0.0
 10
5.7790598849
 20
3.0572187142
 30
0.0
 10
5.7791534769
 20
3.0572861045
 30
0.0
 10
5.7792217456
 20
3.0573540797
 30
0.0
 10
5.7792646593
 20
3.0574237136
 30
0.0
 10
5.7792749806
 20
3.0574732655
 30
0.0
 10
5.7792749826
 20
3.057496327
 30
0.0
  0
SPLINE
  5
361
100
AcDbEntity
  8
0
100
AcDbSpline
 62
7
  6
CONTINUOUS
 70
0
 71
3
 72
31
 73
27
 74
0
 42
0.0000001
 43
0.0000001
 44
0.0000000001
 40
0.0
 40
0.0
 40
0.0
 40
0.0
 40
0.1891792918
 40
0.2816261643
 40
0.3715306356
 40
0.4580759131
 40
0.5404812437
 40
0.6180017456
 40
0.6899374119
 40
0.7556391306
 40
0.8145146664
 40
0.8412247751
 40
0.8660344365
 40
0.8888887086
 40
0.9097366459
 40
0.9285314296
 40
0.9452330633
 40
0.9598043071
 40
0.972216508
 40
0.982445581
 40
0.9867367017
 40
0.9904780592
 40
0.9936702226
 40
0.9963155009
 40
0.9984202962
 40
1.0
 40
1.0
 40
1.0
 40
1.0
 10
5.5953549837
 20
3.0016923857
 30
0.0
 10
5.5825397055
 20
3.0013339856
 30
0.0
 10
5.5634619377
 20
3.0008005672
 30
0.0
 10
5.5382944633
 20
3.0000773449
 30
0.0
 10
5.5200798406
 20
2.9995392208
 30
0.0
 10
5.5025460122
 20
2.999001307
 30
0.0
 10
5.4858518212
 20
2.9984636942
 30
0.0
 10
5.4701482204
 20
2.9979264878
 30
0.0
 10
5.4555772709
 20
2.997389875
 30
0.0
 10
5.4422707526
 20
2.9968540186
 30
0.0
 10
5.4320285503
 20
2.9963948518
 30
0.0
 10
5.4245565022
 20
2.9960233936
 30
0.0
 10
5.4195235141
 20
2.9957540646
 30
0.0
 10
5.4148883933
 20
2.9954849454
 30
0.0
 10
5.4106616177
 20
2.9952160884
 30
0.0
 10
5.4068526924
 20
2.9949475655
 30
0.0
 10
5.4034702627
 20
2.9946795478
 30
0.0
 10
5.4005218089
 20
2.994412274
 30
0.0
 10
5.3980139964
 20
2.9941459589
 30
0.0
 10
5.3962033362
 20
2.9939141613
 30
0.0
 10
5.3949804112
 20
2.9937240136
 30
0.0
 10
5.3942315044
 20
2.993590198
 30
0.0
 10
5.393596119
 20
2.9934568641
 30
0.0
 10
5.3930741343
 20
2.9933242557
 30
0.0
 10
5.3926657509
 20
2.9931926186
 30
0.0
 10
5.3924357728
 20
2.9930923401
 30
0.0
 10
5.3923430888
 20
2.993038767
 30
0.0
  0
SPLINE
  5
362
100
AcDbEntity
  8
0
100
AcDbSpline
 62
7
  6
CONTINUOUS
 70
0
 71
3
 72
31
 73
27
 74
0
 42
0.0000001
 43
0.0000001
 44
0.0000000001
 40
0.0
 40
0.0
 40
0.0
 40
0.0
 40
0.1891792118
 40
0.281626171
 40
0.371530608
 40
0.4580758714
 40
0.5404812001
 40
0.6180017221
 40
0.6899374013
 40
0.7556391173
 40
0.8145146334
 40
0.841224783
 40
0.866034372
 40
0.888888739
 40
0.9097365729
 40
0.9285314473
 40
0.9452330542
 40
0.959804282
 40
0.9722165776
 40
0.982445536
 40
0.9867367326
 40
0.9904781668
 40
0.9936703148
 40
0.9963154588
 40
0.9984202358
 40
1.0
 40
1.0
 40
1.0
 40
1.0
 10
5.5953549837
 20
3.0329427471
 30
0.0
 10
5.6081702559
 20
3.0333011471
 30
0.0
 10
5.6272480233
 20
3.0338345655
 30
0.0
 10
5.6524154947
 20
3.0345577878
 30
0.0
 10
5.6706301191
 20
3.035095912
 30
0.0
 10
5.6881639433
 20
3.0356338258
 30
0.0
 10
5.7048581338
 20
3.0361714388
 30
0.0
 10
5.720561736
 20
3.0367086452
 30
0.0
 10
5.7351326869
 20
3.0372452581
 30
0.0
 10
5.7484392039
 20
3.0377811143
 30
0.0
 10
5.7586814069
 20
3.0382402826
 30
0.0
 10
5.7661534513
 20
3.038611739
 30
0.0
 10
5.7711864433
 20
3.0388810707
 30
0.0
 10
5.7758215586
 20
3.0391501865
 30
0.0
 10
5.7800483393
 20
3.0394190475
 30
0.0
 10
5.783857262
 20
3.0396875675
 30
0.0
 10
5.7872396947
 20
3.039955586
 30
0.0
 10
5.7901881516
 20
3.0402228629
 30
0.0
 10
5.7926959623
 20
3.0404891713
 30
0.0
 10
5.7945066252
 20
3.0407209772
 30
0.0
 10
5.7957295532
 20
3.0409111211
 30
0.0
 10
5.7964784697
 20
3.0410449353
 30
0.0
 10
5.7971138508
 20
3.0411782664
 30
0.0
 10
5.7976358218
 20
3.0413108825
 30
0.0
 10
5.7980441982
 20
3.0414425204
 30
0.0
 10
5.7982741799
 20
3.0415427967
 30
0.0
 10
5.798366869
 20
3.0415963692
 30
0.0
  0
SPLINE
  5
363
100
AcDbEntity
  8
0
100
AcDbSpline
 62
7
  6
CONTINUOUS
 70
0
 71
3
 72
31
 73
27
 74
0
 42
0.0000001
 43
0.0000001
 44
0.0000000001
 40
0.0
 40
0.0
 40
0.0
 40
0.0
 40
0.1891792127
 40
0.2816261724
 40
0.37153061
 40
0.4580758738
 40
0.5404812024
 40
0.6180017247
 40
0.6899374049
 40
0.7556391201
 40
0.8145146353
 40
0.8412247848
 40
0.8660343738
 40
0.8888887405
 40
0.9097365742
 40
0.9285314485
 40
0.9452330553
 40
0.959804283
 40
0.9722165785
 40
0.9824455368
 40
0.9867367333
 40
0.9904781674
 40
0.9936703152
 40
0.9963154591
 40
0.998420236
 40
1.0
 40
1.0
 40
1.0
 40
1.0
 10
5.5953549837
 20
2.9972277631
 30
0.0
 10
5.608170256
 20
2.9975861632
 30
0.0
 10
5.6272480234
 20
2.998119582
 30
0.0
 10
5.652415495
 20
2.9988428045
 30
0.0
 10
5.6706301195
 20
2.999380929
 30
0.0
 10
5.6881639438
 20
2.9999188429
 30
0.0
 10
5.7048581343
 20
3.0004564561
 30
0.0
 10
5.7205617366
 20
3.0009936626
 30
0.0
 10
5.7351326875
 20
3.0015302757
 30
0.0
 10
5.7484392045
 20
3.0020661319
 30
0.0
 10
5.7586814074
 20
3.0025253003
 30
0.0
 10
5.7661534517
 20
3.0028967567
 30
0.0
 10
5.7711864437
 20
3.0031660884
 30
0.0
 10
5.7758215589
 20
3.0034352042
 30
0.0
 10
5.7800483396
 20
3.0037040652
 30
0.0
 10
5.7838572622
 20
3.0039725852
 30
0.0
 10
5.787239695
 20
3.0042406037
 30
0.0
 10
5.7901881518
 20
3.0045078807
 30
0.0
 10
5.7926959626
 20
3.004774189
 30
0.0
 10
5.7945066254
 20
3.0050059949
 30
0.0
 10
5.7957295534
 20
3.0051961388
 30
0.0
 10
5.7964784698
 20
3.005329953
 30
0.0
 10
5.7971138509
 20
3.0054632841
 30
0.0
 10
5.7976358219
 20
3.0055959001
 30
0.0
 10
5.7980441983
 20
3.005727538
 30
0.0
 10
5.79827418
 20
3.0058278144
 30
0.0
 10
5.7983668691
 20
3.0058813868
 30
0.0
  0
SPLINE
  5
364
100
AcDbEntity
  8
0
100
AcDbSpline
 62
7
  6
CONTINUOUS
 70
0
 71
3
 72
17
 73
13
 74
0
 42
0.0000001
 43
0.0000001
 44
0.0000000001
 40
0.0
 40
0.0
 40
0.0
 40
0.0
 40
0.0976687568
 40
0.1370812166
 40
0.1832313286
 40
0.2362002385
 40
0.2959843085
 40
0.3625115475
 40
0.4356315173
 40
0.6009115453
 40
0.7900001268
 40
1.0
 40
1.0
 40
1.0
 40
1.0
 10
4.828077233
 20
6.1394096201
 30
0.0
 10
4.8279724803
 20
6.1393731791
 30
0.0
 10
4.8278068285
 20
6.1394851786
 30
0.0
 10
4.8276665141
 20
6.1396288668
 30
0.0
 10
4.8275642601
 20
6.1397507227
 30
0.0
 10
4.8274577186
 20
6.1398958106
 30
0.0
 10
4.8273449469
 20
6.1400655849
 30
0.0
 10
4.8272270997
 20
6.14025897
 30
0.0
 10
4.8270563158
 20
6.1405602669
 30
0.0
 10
4.8268343486
 20
6.1409922025
 30
0.0
 10
4.8265637412
 20
6.1415732731
 30
0.0
 10
4.8263851046
 20
6.1419898539
 30
0.0
 10
4.8262938458
 20
6.142210172
 30
0.0
  0
LINE
  5
365
100
AcDbEntity
  8
0
100
AcDbLine
 62
7
  6
CONTINUOUS
 10
5.4116980005
 20
3.0042278111
 11
5.4121121235
 21
3.0044117138
  0
SPLINE
  5
366
100
AcDbEntity
  8
0
100
AcDbSpline
 62
7
  6
CONTINUOUS
 70
0
 71
3
 72
59
 73
55
 74
0
 42
0.0000001
 43
0.0000001
 44
0.0000000001
 40
0.0
 40
0.0
 40
0.0
 40
0.0
 40
0.0012218034
 40
0.0027161319
 40
0.0044856201
 40
0.0065310883
 40
0.0114495834
 40
0.0174678111
 40
0.0245749958
 40
0.0327568962
 40
0.0419966804
 40
0.0522734494
 40
0.0635651788
 40
0.0758461391
 40
0.1032635401
 40
0.1342780992
 40
0.1686088268
 40
0.2059441594
 40
0.2459447874
 40
0.2882468067
 40
0.3324653421
 40
0.378198061
 40
0.4250287777
 40
0.5202728264
 40
0.5678191253
 40
0.6147373107
 40
0.660600303
 40
0.7049905961
 40
0.7475042086
 40
0.7877544411
 40
0.8253752895
 40
0.8600247937
 40
0.8913882188
 40
0.9191811941
 40
0.9431527575
 40
0.953637136
 40
0.9630881096
 40
0.9714857021
 40
0.9788116088
 40
0.9820678331
 40
0.9850509832
 40
0.9877597852
 40
0.9901931078
 40
0.9923501593
 40
0.994231008
 40
0.9958364327
 40
0.9971682638
 40
0.9982304616
 40
0.9986631612
 40
0.9990327567
 40
0.9993427357
 40
0.999599041
 40
0.9998121661
 40
1.0
 40
1.0
 40
1.0
 40
1.0
 10
5.4121121235
 20
3.0044117138
 30
0.0
 10
5.4122530782
 20
3.004462535
 30
0.0
 10
5.4125717076
 20
3.004560776
 30
0.0
 10
5.4131054558
 20
3.0046944066
 30
0.0
 10
5.4137427285
 20
3.004828545
 30
0.0
 10
5.4147966365
 20
3.005019827
 30
0.0
 10
5.416371984
 20
3.0052525478
 30
0.0
 10
5.4185687616
 20
3.0055195469
 30
0.0
 10
5.4211681345
 20
3.0057875735
 30
0.0
 10
5.4241642665
 20
3.0060564623
 30
0.0
 10
5.4275504337
 20
3.0063258329
 30
0.0
 10
5.4313190142
 20
3.0065956145
 30
0.0
 10
5.4354613951
 20
3.0068656582
 30
0.0
 10
5.441703413
 20
3.0072398846
 30
0.0
 10
5.4503631344
 20
3.0077014787
 30
0.0
 10
5.4617265029
 20
3.0082386127
 30
0.0
 10
5.474307341
 20
3.0087766828
 30
0.0
 10
5.4879910741
 20
3.0093154925
 30
0.0
 10
5.5026530543
 20
3.0098547975
 30
0.0
 10
5.5181596825
 20
3.0103944696
 30
0.0
 10
5.5343696648
 20
3.0109344019
 30
0.0
 10
5.5511353166
 20
3.0114745215
 30
0.0
 10
5.5741558192
 20
3.0121988904
 30
0.0
 10
5.5973990987
 20
3.0129149074
 30
0.0
 10
5.6206529611
 20
3.0136357213
 30
0.0
 10
5.6378536327
 20
3.0141759681
 30
0.0
 10
5.6546670752
 20
3.0147161001
 30
0.0
 10
5.67094008
 20
3.0152560544
 30
0.0
 10
5.6865243765
 20
3.0157957568
 30
0.0
 10
5.7012779893
 20
3.0163351091
 30
0.0
 10
5.7150665195
 20
3.0168739678
 30
0.0
 10
5.7277643444
 20
3.0174121544
 30
0.0
 10
5.739255799
 20
3.0179493
 30
0.0
 10
5.7494362235
 20
3.0184851333
 30
0.0
 10
5.7570562729
 20
3.0189479021
 30
0.0
 10
5.7624276643
 20
3.0193247179
 30
0.0
 10
5.7658918705
 20
3.0195942197
 30
0.0
 10
5.7689674688
 20
3.0198632287
 30
0.0
 10
5.7712835953
 20
3.020094959
 30
0.0
 10
5.7729365797
 20
3.0202826932
 30
0.0
 10
5.774025619
 20
3.0204178059
 30
0.0
 10
5.7750129146
 20
3.0205527862
 30
0.0
 10
5.7758978853
 20
3.020687605
 30
0.0
 10
5.7766800554
 20
3.0208222124
 30
0.0
 10
5.7773590522
 20
3.0209565259
 30
0.0
 10
5.7779347519
 20
3.0210903483
 30
0.0
 10
5.778406942
 20
3.0212236155
 30
0.0
 10
5.7787339707
 20
3.02134037
 30
0.0
 10
5.778941507
 20
3.0214367576
 30
0.0
 10
5.7790604047
 20
3.0215040033
 30
0.0
 10
5.7791537545
 20
3.0215713254
 30
0.0
 10
5.779221832
 20
3.0216392343
 30
0.0
 10
5.77926461
 20
3.0217087971
 30
0.0
 10
5.7792748956
 20
3.0217582795
 30
0.0
 10
5.7792749013
 20
3.0217813146
 30
0.0
  0
LINE
  5
367
100
AcDbEntity
  8
0
100
AcDbLine
 62
7
  6
CONTINUOUS
 10
4.7901362557
 20
6.3856566823
 11
4.7895584771
 21
6.386573922
  0
LINE
  5
368
100
AcDbEntity
  8
0
100
AcDbLine
 62
7
  6
CONTINUOUS
 10
5.79836692
 20
2.9701663762
 11
5.7981535045
 21
2.9700625932
  0
SPLINE
  5
369
100
AcDbEntity
  8
0
100
AcDbSpline
 62
7
  6
CONTINUOUS
 70
0
 71
3
 72
63
 73
59
 74
0
 42
0.0000001
 43
0.0000001
 44
0.0000000001
 40
0.0
 40
0.0
 40
0.0
 40
0.0
 40
0.001001377
 40
0.0022768134
 40
0.0038304214
 40
0.0056640921
 40
0.0077781996
 40
0.0101723647
 40
0.0157977791
 40
0.0225317935
 40
0.0303601306
 40
0.0392665793
 40
0.0492311619
 40
0.0602314231
 40
0.0722428315
 40
0.0991860423
 40
0.1298143067
 40
0.1638464615
 40
0.2009695683
 40
0.2408418174
 40
0.2830958526
 40
0.3273423204
 40
0.3731734683
 40
0.420166869
 40
0.4678892988
 40
0.5159007734
 40
0.5637586521
 40
0.6110217511
 40
0.6572543764
 40
0.7020303517
 40
0.744936965
 40
0.7855787704
 40
0.8235813729
 40
0.8585948937
 40
0.89029723
 40
0.9183971156
 40
0.9310141586
 40
0.9426370565
 40
0.9532387692
 40
0.9627960537
 40
0.9712869006
 40
0.9786931383
 40
0.981984617
 40
0.9849991652
 40
0.9877354706
 40
0.9901926047
 40
0.9923698198
 40
0.9942666519
 40
0.9958832263
 40
0.9972210556
 40
0.9977865027
 40
0.9982838414
 40
0.9987142048
 40
0.9990793946
 40
0.999382431
 40
0.9996286984
 40
0.9998283337
 40
1.0
 40
1.0
 40
1.0
 40
1.0
 10
5.7981535045
 20
2.9700625932
 30
0.0
 10
5.798028318
 20
2.9700100406
 30
0.0
 10
5.7977356373
 20
2.9699100404
 30
0.0
 10
5.7972336724
 20
2.9697762818
 30
0.0
 10
5.7966157596
 20
2.9696417956
 30
0.0
 10
5.7958821067
 20
2.9695067832
 30
0.0
 10
5.7950329025
 20
2.9693714063
 30
0.0
 10
5.7936722662
 20
2.9691801424
 30
0.0
 10
5.7916854378
 20
2.9689461569
 30
0.0
 10
5.7889615185
 20
2.9686767801
 30
0.0
 10
5.785790962
 20
2.9684065475
 30
0.0
 10
5.7821810835
 20
2.968135668
 30
0.0
 10
5.7781401049
 20
2.967864361
 30
0.0
 10
5.7736773189
 20
2.9675927113
 30
0.0
 10
5.7669147628
 20
2.9672156307
 30
0.0
 10
5.7574918626
 20
2.9667508891
 30
0.0
 10
5.74508367
 20
2.9662106643
 30
0.0
 10
5.7312941278
 20
2.9656694188
 30
0.0
 10
5.7162504164
 20
2.9651273717
 30
0.0
 10
5.7000913076
 20
2.9645847901
 30
0.0
 10
5.6829658953
 20
2.9640418151
 30
0.0
 10
5.6650321808
 20
2.9634985605
 30
0.0
 10
5.6464556117
 20
2.9629551079
 30
0.0
 10
5.6274075693
 20
2.9624115228
 30
0.0
 10
5.6080637958
 20
2.9618678596
 30
0.0
 10
5.5886027689
 20
2.9613241663
 30
0.0
 10
5.5692040432
 20
2.9607804886
 30
0.0
 10
5.550046593
 20
2.9602368739
 30
0.0
 10
5.5313071643
 20
2.9596933745
 30
0.0
 10
5.5131586508
 20
2.959150052
 30
0.0
 10
5.4957685019
 20
2.9586069816
 30
0.0
 10
5.4792971646
 20
2.9580642657
 30
0.0
 10
5.4638965958
 20
2.9575220322
 30
0.0
 10
5.4497088433
 20
2.9569805174
 30
0.0
 10
5.4368647655
 20
2.9564399109
 30
0.0
 10
5.4270568448
 20
2.9559755913
 30
0.0
 10
5.4199704136
 20
2.9555992902
 30
0.0
 10
5.4152542787
 20
2.9553275116
 30
0.0
 10
5.4109537287
 20
2.955055979
 30
0.0
 10
5.4070787284
 20
2.9547848416
 30
0.0
 10
5.4036381314
 20
2.9545141367
 30
0.0
 10
5.401046868
 20
2.9542809465
 30
0.0
 10
5.3991973168
 20
2.9540920434
 30
0.0
 10
5.3979788695
 20
2.9539560874
 30
0.0
 10
5.3968742972
 20
2.9538202587
 30
0.0
 10
5.3958841708
 20
2.9536845992
 30
0.0
 10
5.3950090182
 20
2.9535491644
 30
0.0
 10
5.3942492863
 20
2.9534140829
 30
0.0
 10
5.3936053732
 20
2.953279395
 30
0.0
 10
5.3931424853
 20
2.9531621736
 30
0.0
 10
5.3928313728
 20
2.9530662815
 30
0.0
 10
5.3926405166
 20
2.9529985413
 30
0.0
 10
5.3924786647
 20
2.9529309205
 30
0.0
 10
5.3923456974
 20
2.9528633931
 30
0.0
 10
5.3922413276
 20
2.9527958605
 30
0.0
 10
5.3921651794
 20
2.9527278194
 30
0.0
 10
5.3921169061
 20
2.9526579392
 30
0.0
 10
5.3921050447
 20
2.9526072711
 30
0.0
 10
5.3921050578
 20
2.952583996
 30
0.0
  0
SPLINE
  5
36A
100
AcDbEntity
  8
0
100
AcDbSpline
 62
7
  6
CONTINUOUS
 70
0
 71
3
 72
19
 73
15
 74
0
 42
0.0000001
 43
0.0000001
 44
0.0000000001
 40
0.0
 40
0.0
 40
0.0
 40
0.0
 40
0.0191608416
 40
0.041313716
 40
0.0684980698
 40
0.1017666576
 40
0.1416348759
 40
0.1883263805
 40
0.2418471794
 40
0.3021084804
 40
0.4422366393
 40
0.6069962642
 40
0.7940604187
 40
1.0
 40
1.0
 40
1.0
 40
1.0
 10
4.8555481773
 20
6.2290551163
 30
0.0
 10
4.8555230584
 20
6.2290468541
 30
0.0
 10
4.8554643271
 20
6.2290416523
 30
0.0
 10
4.8553724415
 20
6.2290692996
 30
0.0
 10
4.85527379
 20
6.2291277751
 30
0.0
 10
4.855167157
 20
6.2292166896
 30
0.0
 10
4.8550523349
 20
6.2293360115
 30
0.0
 10
4.8549296291
 20
6.2294855829
 30
0.0
 10
4.8547994312
 20
6.2296648494
 30
0.0
 10
4.8546067659
 20
6.2299576508
 30
0.0
 10
4.8543541637
 20
6.2303941198
 30
0.0
 10
4.8540437436
 20
6.2309981089
 30
0.0
 10
4.8537185112
 20
6.2316959359
 30
0.0
 10
4.8535045684
 20
6.2321944063
 30
0.0
 10
4.8533958076
 20
6.232456978
 30
0.0
  0
SPLINE
  5
36B
100
AcDbEntity
  8
0
100
AcDbSpline
 62
7
  6
CONTINUOUS
 70
0
 71
3
 72
22
 73
18
 74
0
 42
0.0000001
 43
0.0000001
 44
0.0000000001
 40
0.0
 40
0.0
 40
0.0
 40
0.0
 40
0.0082840086
 40
0.0171778102
 40
0.027169616
 40
0.0386009486
 40
0.0665119113
 40
0.1018280852
 40
0.1447773028
 40
0.1952278206
 40
0.2529036173
 40
0.3173703728
 40
0.3881054225
 40
0.4645077462
 40
0.6314520621
 40
0.8122429075
 40
1.0
 40
1.0
 40
1.0
 40
1.0
 10
4.8898576734
 20
5.9923887789
 30
0.0
 10
4.8898367678
 20
5.9923801239
 30
0.0
 10
4.8897905858
 20
5.9923684479
 30
0.0
 10
4.8897157091
 20
5.9923698604
 30
0.0
 10
4.889634666
 20
5.9923891286
 30
0.0
 10
4.8895100912
 20
5.9924416525
 30
0.0
 10
4.8893395545
 20
5.9925561815
 30
0.0
 10
4.8891237165
 20
5.9927504725
 30
0.0
 10
4.8888856639
 20
5.9930097696
 30
0.0
 10
4.8886274494
 20
5.9933318864
 30
0.0
 10
4.8883516341
 20
5.9937143909
 30
0.0
 10
4.8880608248
 20
5.9941537972
 30
0.0
 10
4.8877579011
 20
5.9946461201
 30
0.0
 10
4.8873291092
 20
5.9953892335
 30
0.0
 10
4.8867879093
 20
5.9964139949
 30
0.0
 10
4.8861568682
 20
5.997733802
 30
0.0
 10
4.8857554356
 20
5.9986571971
 30
0.0
 10
4.8855591853
 20
5.9991309874
 30
0.0
  0
SPLINE
  5
36C
100
AcDbEntity
  8
0
100
AcDbSpline
 62
7
  6
CONTINUOUS
 70
0
 71
3
 72
22
 73
18
 74
0
 42
0.0000001
 43
0.0000001
 44
0.0000000001
 40
0.0
 40
0.0
 40
0.0
 40
0.0
 40
0.0082886057
 40
0.0171896788
 40
0.0271874612
 40
0.0386221858
 40
0.0665297304
 40
0.1018234457
 40
0.1447360833
 40
0.1951413854
 40
0.2527669265
 40
0.3171879622
 40
0.3878857463
 40
0.4642665079
 40
0.6312241776
 40
0.8121033331
 40
1.0
 40
1.0
 40
1.0
 40
1.0
 10
4.8629299974
 20
5.9812349676
 30
0.0
 10
4.8629090705
 20
5.981226306
 30
0.0
 10
4.8628628444
 20
5.9812146071
 30
0.0
 10
4.8627878917
 20
5.9812159206
 30
0.0
 10
4.8627067285
 20
5.9812350165
 30
0.0
 10
4.8625819429
 20
5.9812872242
 30
0.0
 10
4.862411034
 20
5.9814012325
 30
0.0
 10
4.8621945953
 20
5.9815947829
 30
0.0
 10
4.8619558116
 20
5.9818532227
 30
0.0
 10
4.8616967389
 20
5.9821744115
 30
0.0
 10
4.8614199348
 20
5.9825559719
 30
0.0
 10
4.8611280464
 20
5.9829944938
 30
0.0
 10
4.8608239593
 20
5.9834860518
 30
0.0
 10
4.8603934639
 20
5.9842284571
 30
0.0
 10
4.8598501985
 20
5.9852529402
 30
0.0
 10
4.8592172259
 20
5.9865732512
 30
0.0
 10
4.8588150448
 20
5.9874974746
 30
0.0
 10
4.8586185656
 20
5.9879718174
 30
0.0
  0
SPLINE
  5
36D
100
AcDbEntity
  8
0
100
AcDbSpline
 62
7
  6
CONTINUOUS
 70
0
 71
3
 72
19
 73
15
 74
0
 42
0.0000001
 43
0.0000001
 44
0.0000000001
 40
0.0
 40
0.0
 40
0.0
 40
0.0
 40
0.0172690526
 40
0.0382625429
 40
0.0648970654
 40
0.0980604653
 40
0.1381412023
 40
0.1852252851
 40
0.2392586487
 40
0.3001258542
 40
0.4415111466
 40
0.6071995178
 40
0.79444697
 40
1.0
 40
1.0
 40
1.0
 40
1.0
 10
4.9515997889
 20
5.8454245035
 30
0.0
 10
4.9515766798
 20
5.8454133143
 30
0.0
 10
4.9515184521
 20
5.8454026036
 30
0.0
 10
4.9514227893
 20
5.8454229604
 30
0.0
 10
4.9513132539
 20
5.8454736423
 30
0.0
 10
4.951188603
 20
5.8455549832
 30
0.0
 10
4.9510487619
 20
5.8456668582
 30
0.0
 10
4.9508941193
 20
5.8458090128
 30
0.0
 10
4.9507253135
 20
5.8459809015
 30
0.0
 10
4.9504693978
 20
5.8462633222
 30
0.0
 10
4.9501223763
 20
5.8466866096
 30
0.0
 10
4.9496813268
 20
5.8472746923
 30
0.0
 10
4.9492056213
 20
5.8479554366
 30
0.0
 10
4.9488842209
 20
5.8484431388
 30
0.0
 10
4.9487189523
 20
5.8487002119
 30
0.0
  0
SPLINE
  5
36E
100
AcDbEntity
  8
0
100
AcDbSpline
 62
7
  6
CONTINUOUS
 70
0
 71
3
 72
11
 73
7
 74
0
 42
0.0000001
 43
0.0000001
 44
0.0000000001
 40
0.0
 40
0.0
 40
0.0
 40
0.0
 40
0.2481863992
 40
0.5107778957
 40
0.7678729852
 40
1.0
 40
1.0
 40
1.0
 40
1.0
 10
4.9487189523
 20
5.8487002119
 30
0.0
 10
4.9483463601
 20
5.8492797741
 30
0.0
 10
4.9476092392
 20
5.8504917289
 30
0.0
 10
4.9465735473
 20
5.852355511
 30
0.0
 10
4.945631125
 20
5.8542183091
 30
0.0
 10
4.9450711303
 20
5.855456441
 30
0.0
 10
4.9448245236
 20
5.8560518023
 30
0.0
  0
SPLINE
  5
36F
100
AcDbEntity
  8
0
100
AcDbSpline
 62
7
  6
CONTINUOUS
 70
0
 71
3
 72
61
 73
57
 74
0
 42
0.0000001
 43
0.0000001
 44
0.0000000001
 40
0.0
 40
0.0
 40
0.0
 40
0.0
 40
0.0001896577
 40
0.0004053385
 40
0.0006653531
 40
0.0009803696
 40
0.0013563992
 40
0.001796958
 40
0.0028790779
 40
0.0042364156
 40
0.0058729511
 40
0.0077905313
 40
0.0099899447
 40
0.0124710895
 40
0.0152330763
 40
0.0182747658
 40
0.0215948769
 40
0.0290642903
 40
0.0376253682
 40
0.0472594513
 40
0.05794534
 40
0.0823716726
 40
0.1106806329
 40
0.1426110343
 40
0.1778673202
 40
0.2161224121
 40
0.2570211032
 40
0.300183504
 40
0.3452086117
 40
0.3916780308
 40
0.4391597881
 40
0.4872123973
 40
0.5353891402
 40
0.5832421893
 40
0.6303266948
 40
0.676204883
 40
0.7204502853
 40
0.7626517921
 40
0.8024174037
 40
0.839377839
 40
0.8731900038
 40
0.9035404121
 40
0.9301484788
 40
0.9419713829
 40
0.9527694047
 40
0.962518786
 40
0.9711970077
 40
0.9787853581
 40
0.985268047
 40
0.9906322768
 40
0.9928928426
 40
0.994871732
 40
0.9965691152
 40
0.9979865007
 40
0.9991275507
 40
1.0
 40
1.0
 40
1.0
 40
1.0
 10
5.4114350721
 20
2.9771388299
 30
0.0
 10
5.4114350755
 20
2.9771621173
 30
0.0
 10
5.4114456064
 20
2.977212204
 30
0.0
 10
5.4114893268
 20
2.9772824977
 30
0.0
 10
5.4115588474
 20
2.9773510994
 30
0.0
 10
5.4116541727
 20
2.9774191141
 30
0.0
 10
5.4117755946
 20
2.9774870594
 30
0.0
 10
5.4119875957
 20
2.9775844742
 30
0.0
 10
5.412321587
 20
2.9777024562
 30
0.0
 10
5.4128037722
 20
2.9778371267
 30
0.0
 10
5.4133916578
 20
2.9779723606
 30
0.0
 10
5.4140850354
 20
2.9781080944
 30
0.0
 10
5.4148837653
 20
2.9782441197
 30
0.0
 10
5.4157874404
 20
2.9783803644
 30
0.0
 10
5.4167955512
 20
2.9785167746
 30
0.0
 10
5.4179075028
 20
2.9786533184
 30
0.0
 10
5.4195951868
 20
2.9788430372
 30
0.0
 10
5.421959717
 20
2.9790772061
 30
0.0
 10
5.4250992909
 20
2.9793490711
 30
0.0
 10
5.4286350731
 20
2.9796214146
 30
0.0
 10
5.4341161563
 20
2.9800021885
 30
0.0
 10
5.441889538
 20
2.9804698012
 30
0.0
 10
5.4522713177
 20
2.9810112873
 30
0.0
 10
5.4639844025
 20
2.9815540991
 30
0.0
 10
5.4769198593
 20
2.9820979602
 30
0.0
 10
5.4909573649
 20
2.9826424984
 30
0.0
 10
5.5059662942
 20
2.9831875339
 30
0.0
 10
5.5218069946
 20
2.9837329209
 30
0.0
 10
5.5383320839
 20
2.9842785603
 30
0.0
 10
5.5553878055
 20
2.9848243745
 30
0.0
 10
5.5728154458
 20
2.9853703024
 30
0.0
 10
5.590452822
 20
2.9859162917
 30
0.0
 10
5.6081358092
 20
2.986462294
 30
0.0
 10
5.6256998704
 20
2.9870082622
 30
0.0
 10
5.6429815644
 20
2.9875541461
 30
0.0
 10
5.6598200664
 20
2.9880998906
 30
0.0
 10
5.6760586836
 20
2.988645428
 30
0.0
 10
5.691546327
 20
2.9891906729
 30
0.0
 10
5.706138906
 20
2.9897355057
 30
0.0
 10
5.7197006422
 20
2.9902797765
 30
0.0
 10
5.7321053531
 20
2.9908232
 30
0.0
 10
5.7432376343
 20
2.9913655468
 30
0.0
 10
5.7516702704
 20
2.9918324475
 30
0.0
 10
5.7577030712
 20
2.9922115025
 30
0.0
 10
5.7616683758
 20
2.9924842504
 30
0.0
 10
5.7652465872
 20
2.9927566024
 30
0.0
 10
5.7684294624
 20
2.9930285146
 30
0.0
 10
5.771209679
 20
2.9932996741
 30
0.0
 10
5.7735808302
 20
2.9935699035
 30
0.0
 10
5.7752973098
 20
2.9938050025
 30
0.0
 10
5.7764607548
 20
2.993997612
 30
0.0
 10
5.7771770562
 20
2.9941334117
 30
0.0
 10
5.7777877658
 20
2.9942687851
 30
0.0
 10
5.7782929681
 20
2.9944035408
 30
0.0
 10
5.7786925678
 20
2.9945374217
 30
0.0
 10
5.7789192331
 20
2.9946387316
 30
0.0
 10
5.7790119785
 20
2.9946923424
 30
0.0
  0
SPLINE
  5
370
100
AcDbEntity
  8
0
100
AcDbSpline
 62
7
  6
CONTINUOUS
 70
0
 71
3
 72
22
 73
18
 74
0
 42
0.0000001
 43
0.0000001
 44
0.0000000001
 40
0.0
 40
0.0
 40
0.0
 40
0.0
 40
0.0082758621
 40
0.0171611032
 40
0.0271479237
 40
0.0385789721
 40
0.0665052809
 40
0.1018599908
 40
0.1448633737
 40
0.1953766433
 40
0.2531173879
 40
0.3176409952
 40
0.3884193771
 40
0.4648438012
 40
0.6317591821
 40
0.8124272273
 40
1.0
 40
1.0
 40
1.0
 40
1.0
 10
4.9448866665
 20
6.0151825361
 30
0.0
 10
4.9448657902
 20
6.0151738915
 30
0.0
 10
4.94481966
 20
6.0151622502
 30
0.0
 10
4.944744868
 20
6.0151637867
 30
0.0
 10
4.9446639407
 20
6.0151832514
 30
0.0
 10
4.9445395424
 20
6.0152361309
 30
0.0
 10
4.9443693084
 20
6.0153512353
 30
0.0
 10
4.9441539436
 20
6.01554632
 30
0.0
 10
4.9439164528
 20
6.0158065204
 30
0.0
 10
4.9436589
 20
6.0161295959
 30
0.0
 10
4.9433838556
 20
6.016513049
 30
0.0
 10
4.9430939026
 20
6.016953315
 30
0.0
 10
4.9427919224
 20
6.0174463451
 30
0.0
 10
4.9423645676
 20
6.0181900163
 30
0.0
 10
4.9418251638
 20
6.0192148065
 30
0.0
 10
4.9411958801
 20
6.0205337989
 30
0.0
 10
4.9407952029
 20
6.0214561745
 30
0.0
 10
4.940599221
 20
6.0219293167
 30
0.0
  0
LINE
  5
371
100
AcDbEntity
  8
0
100
AcDbLine
 62
7
  6
CONTINUOUS
 10
4.7631139348
 20
6.5296362654
 11
4.7630061142
 21
6.5298083656
  0
SPLINE
  5
372
100
AcDbEntity
  8
0
100
AcDbSpline
 62
7
  6
CONTINUOUS
 70
0
 71
3
 72
61
 73
57
 74
0
 42
0.0000001
 43
0.0000001
 44
0.0000000001
 40
0.0
 40
0.0
 40
0.0
 40
0.0
 40
0.0001896524
 40
0.0004053725
 40
0.0006654846
 40
0.0009806208
 40
0.0013567411
 40
0.001797308
 40
0.0028792107
 40
0.0042363185
 40
0.005872949
 40
0.0077908084
 40
0.0099902837
 40
0.0124711801
 40
0.0152329611
 40
0.0182747902
 40
0.021595173
 40
0.0290643467
 40
0.0376254324
 40
0.0472597334
 40
0.0579452453
 40
0.0823716628
 40
0.1106808181
 40
0.1426113125
 40
0.1778674797
 40
0.2161224008
 40
0.2570210547
 40
0.3001835699
 40
0.3452087598
 40
0.3916781373
 40
0.4391598079
 40
0.4872124193
 40
0.535389214
 40
0.5832422394
 40
0.6303266506
 40
0.6762048187
 40
0.7204503297
 40
0.7626519356
 40
0.8024174783
 40
0.8393777355
 40
0.8731898068
 40
0.9035403375
 40
0.9301486034
 40
0.9419711395
 40
0.9527695768
 40
0.9625186142
 40
0.9711969948
 40
0.9787854304
 40
0.9852678152
 40
0.9906324822
 40
0.9928928777
 40
0.9948714986
 40
0.9965688995
 40
0.997986552
 40
0.999127742
 40
1.0
 40
1.0
 40
1.0
 40
1.0
 10
5.4114349923
 20
2.9414238153
 30
0.0
 10
5.4114349858
 20
2.9414471021
 30
0.0
 10
5.4114455123
 20
2.9414971986
 30
0.0
 10
5.4114892723
 20
2.9415674894
 30
0.0
 10
5.4115588425
 20
2.9416360844
 30
0.0
 10
5.411654217
 20
2.9417040946
 30
0.0
 10
5.4117756705
 20
2.9417720369
 30
0.0
 10
5.411987657
 20
2.9418694474
 30
0.0
 10
5.4123215844
 20
2.9419874467
 30
0.0
 10
5.4128037227
 20
2.9421221288
 30
0.0
 10
5.4133916296
 20
2.9422573508
 30
0.0
 10
5.4140850646
 20
2.9423930701
 30
0.0
 10
5.4148838059
 20
2.9425290956
 30
0.0
 10
5.4157874307
 20
2.942665352
 30
0.0
 10
5.4167955019
 20
2.9428017686
 30
0.0
 10
5.41790748
 20
2.9429383057
 30
0.0
 10
5.4195951875
 20
2.9431280066
 30
0.0
 10
5.4219597203
 20
2.9433622008
 30
0.0
 10
5.4250992939
 20
2.9436340587
 30
0.0
 10
5.4286350589
 20
2.9439063899
 30
0.0
 10
5.4341161323
 20
2.9442871876
 30
0.0
 10
5.4418895047
 20
2.944754783
 30
0.0
 10
5.4522713318
 20
2.9452962722
 30
0.0
 10
5.4639844396
 20
2.945839082
 30
0.0
 10
5.4769198744
 20
2.9463829455
 30
0.0
 10
5.4909573422
 20
2.9469274847
 30
0.0
 10
5.5059662626
 20
2.94747252
 30
0.0
 10
5.5218069854
 20
2.948017906
 30
0.0
 10
5.5383320966
 20
2.9485635452
 30
0.0
 10
5.5553878156
 20
2.94910936
 30
0.0
 10
5.5728154434
 20
2.9496552885
 30
0.0
 10
5.5904528186
 20
2.9502012778
 30
0.0
 10
5.6081358126
 20
2.9507472798
 30
0.0
 10
5.6256998687
 20
2.951293248
 30
0.0
 10
5.6429815488
 20
2.9518391327
 30
0.0
 10
5.659820053
 20
2.9523848778
 30
0.0
 10
5.6760586961
 20
2.9529304149
 30
0.0
 10
5.6915463593
 20
2.9534756589
 30
0.0
 10
5.7061389226
 20
2.9540204917
 30
0.0
 10
5.7197006192
 20
2.9545647646
 30
0.0
 10
5.732105314
 20
2.9551081881
 30
0.0
 10
5.7432376248
 20
2.9556505412
 30
0.0
 10
5.7516702581
 20
2.9561174197
 30
0.0
 10
5.7577030883
 20
2.9564965051
 30
0.0
 10
5.7616683591
 20
2.9567692237
 30
0.0
 10
5.7652465978
 20
2.9570416004
 30
0.0
 10
5.7684294616
 20
2.9573135049
 30
0.0
 10
5.7712096735
 20
2.9575846474
 30
0.0
 10
5.7735808465
 20
2.9578549211
 30
0.0
 10
5.7752973284
 20
2.9580899725
 30
0.0
 10
5.7764607714
 20
2.9582825959
 30
0.0
 10
5.7771770173
 20
2.9584184114
 30
0.0
 10
5.777787728
 20
2.9585537881
 30
0.0
 10
5.7782929877
 20
2.9586885291
 30
0.0
 10
5.7786926236
 20
2.9588223864
 30
0.0
 10
5.7789192772
 20
2.9589237139
 30
0.0
 10
5.7790119912
 20
2.9589773321
 30
0.0
  0
LINE
  5
373
100
AcDbEntity
  8
0
100
AcDbLine
 62
7
  6
CONTINUOUS
 10
5.0414512198
 20
5.6972421672
 11
5.0413640839
 21
5.697628832
  0
SPLINE
  5
374
100
AcDbEntity
  8
0
100
AcDbSpline
 62
7
  6
CONTINUOUS
 70
0
 71
3
 72
18
 73
14
 74
0
 42
0.0000001
 43
0.0000001
 44
0.0000000001
 40
0.0
 40
0.0
 40
0.0
 40
0.0
 40
0.2087972258
 40
0.3968879184
 40
0.5614013303
 40
0.7004973517
 40
0.8129058041
 40
0.8589727923
 40
0.8983411998
 40
0.9312411911
 40
0.9582443038
 40
0.9804856808
 40
1.0
 40
1.0
 40
1.0
 40
1.0
 10
4.9919623013
 20
5.816718991
 30
0.0
 10
4.9918712042
 20
5.8169389191
 30
0.0
 10
4.9917031615
 20
5.817359123
 30
0.0
 10
4.9914836045
 20
5.8179604524
 30
0.0
 10
4.9913116994
 20
5.8184942479
 30
0.0
 10
4.9911895999
 20
5.8189527632
 30
0.0
 10
4.9911260413
 20
5.8192866479
 30
0.0
 10
4.9911049112
 20
5.8195113962
 30
0.0
 10
4.9911032683
 20
5.8196464981
 30
0.0
 10
4.9911147181
 20
5.8197594377
 30
0.0
 10
4.9911395076
 20
5.8198503714
 30
0.0
 10
4.991178544
 20
5.8199197004
 30
0.0
 10
4.9912165737
 20
5.8199508085
 30
0.0
 10
4.9912364475
 20
5.8199608091
 30
0.0
  0
SPLINE
  5
375
100
AcDbEntity
  8
0
100
AcDbSpline
 62
7
  6
CONTINUOUS
 70
0
 71
3
 72
22
 73
18
 74
0
 42
0.0000001
 43
0.0000001
 44
0.0000000001
 40
0.0
 40
0.0
 40
0.0
 40
0.0
 40
0.1876403574
 40
0.3683532924
 40
0.5352790439
 40
0.6116951942
 40
0.6824574723
 40
0.7469600281
 40
0.804676771
 40
0.8551669322
 40
0.898150485
 40
0.9334911938
 40
0.9614122181
 40
0.9728435817
 40
0.9828324312
 40
0.9917210079
 40
1.0
 40
1.0
 40
1.0
 40
1.0
 10
4.9118875467
 20
6.0100365518
 30
0.0
 10
4.9116914653
 20
6.0105099341
 30
0.0
 10
4.9113225021
 20
6.0114459398
 30
0.0
 10
4.910835062
 20
6.0128242579
 30
0.0
 10
4.9104923346
 20
6.0139307797
 30
0.0
 10
4.9102692019
 20
6.0147590566
 30
0.0
 10
4.9101345529
 20
6.0153212806
 30
0.0
 10
4.9100287267
 20
6.0158376274
 30
0.0
 10
4.9099525324
 20
6.0163032137
 30
0.0
 10
4.9099066368
 20
6.0167137065
 30
0.0
 10
4.9098909727
 20
6.0170655419
 30
0.0
 10
4.9099056542
 20
6.0173556931
 30
0.0
 10
4.9099448733
 20
6.0175573885
 30
0.0
 10
4.909995588
 20
6.0176826974
 30
0.0
 10
4.910039133
 20
6.0177536648
 30
0.0
 10
4.9100909888
 20
6.0178076274
 30
0.0
 10
4.9101318628
 20
6.0178320197
 30
0.0
 10
4.910152748
 20
6.0178406739
 30
0.0
  0
SPLINE
  5
376
100
AcDbEntity
  8
0
100
AcDbSpline
 62
7
  6
CONTINUOUS
 70
0
 71
3
 72
24
 73
20
 74
0
 42
0.0000001
 43
0.0000001
 44
0.0000000001
 40
0.0
 40
0.0
 40
0.0
 40
0.0
 40
0.149166523
 40
0.3143412258
 40
0.4833619157
 40
0.5653934101
 40
0.6437356923
 40
0.7169566139
 40
0.7837194999
 40
0.8428291525
 40
0.8932679222
 40
0.9149749336
 40
0.9342333314
 40
0.9510010299
 40
0.9652583788
 40
0.9770349581
 40
0.9864711394
 40
0.9938917159
 40
1.0
 40
1.0
 40
1.0
 40
1.0
 10
4.8318127906
 20
6.2033541119
 30
0.0
 10
4.8315696363
 20
6.2039411382
 30
0.0
 10
4.8310960016
 20
6.2051943016
 30
0.0
 10
4.8304512303
 20
6.2071501412
 30
0.0
 10
4.8299606805
 20
6.2088544219
 30
0.0
 10
4.8296127943
 20
6.2102137873
 30
0.0
 10
4.8293866464
 20
6.2111828606
 30
0.0
 10
4.8291966187
 20
6.2120933211
 30
0.0
 10
4.8290461166
 20
6.2129280622
 30
0.0
 10
4.828937763
 20
6.2136713717
 30
0.0
 10
4.8288811428
 20
6.2142279076
 30
0.0
 10
4.8288609753
 20
6.2146168128
 30
0.0
 10
4.8288581457
 20
6.2148627997
 30
0.0
 10
4.8288666763
 20
6.2150769427
 30
0.0
 10
4.8288864853
 20
6.2152583701
 30
0.0
 10
4.8289174748
 20
6.2154066139
 30
0.0
 10
4.8289597894
 20
6.2155216336
 30
0.0
 10
4.8290141391
 20
6.2156046457
 30
0.0
 10
4.8290640014
 20
6.2156381113
 30
0.0
 10
4.829088708
 20
6.2156462706
 30
0.0
  0
LINE
  5
377
100
AcDbEntity
  8
0
100
AcDbLine
 62
7
  6
CONTINUOUS
 10
4.7823238681
 20
6.3228309341
 11
4.7818382183
 21
6.3242937274
  0
SPLINE
  5
378
100
AcDbEntity
  8
0
100
AcDbSpline
 62
7
  6
CONTINUOUS
 70
0
 71
3
 72
13
 73
9
 74
0
 42
0.0000001
 43
0.0000001
 44
0.0000000001
 40
0.0
 40
0.0
 40
0.0
 40
0.0
 40
0.1028059518
 40
0.2234603553
 40
0.4964136386
 40
0.7712294268
 40
0.8941432682
 40
1.0
 40
1.0
 40
1.0
 40
1.0
 10
4.7818382183
 20
6.3242937274
 30
0.0
 10
4.7817240973
 20
6.3246809505
 30
0.0
 10
4.7814878704
 20
6.3255261055
 30
0.0
 10
4.7809948263
 20
6.3274120469
 30
0.0
 10
4.7803813593
 20
6.3299643067
 30
0.0
 10
4.7798154169
 20
6.3325365774
 30
0.0
 10
4.7794260353
 20
6.3344753467
 30
0.0
 10
4.7792625853
 20
6.3353587358
 30
0.0
 10
4.7791919688
 20
6.3357683626
 30
0.0
  0
LINE
  5
379
100
AcDbEntity
  8
0
100
AcDbLine
 62
7
  6
CONTINUOUS
 10
4.7791919688
 20
6.3357683626
 11
4.7789927363
 21
6.3378590007
  0
LINE
  5
37A
100
AcDbEntity
  8
0
100
AcDbLine
 62
7
  6
CONTINUOUS
 10
5.4116979949
 20
2.9685128196
 11
5.4121425057
 21
2.9687075771
  0
SPLINE
  5
37B
100
AcDbEntity
  8
0
100
AcDbSpline
 62
7
  6
CONTINUOUS
 70
0
 71
3
 72
59
 73
55
 74
0
 42
0.0000001
 43
0.0000001
 44
0.0000000001
 40
0.0
 40
0.0
 40
0.0
 40
0.0
 40
0.001242914
 40
0.0027582444
 40
0.0045482504
 40
0.0066138847
 40
0.0115723378
 40
0.0176286858
 40
0.0247720614
 40
0.0329888912
 40
0.0422609695
 40
0.0525686976
 40
0.0638890025
 40
0.0761964339
 40
0.1036607354
 40
0.134713902
 40
0.1690747286
 40
0.2064316281
 40
0.246445555
 40
0.2887531343
 40
0.3329699597
 40
0.3786940818
 40
0.4255098476
 40
0.5207078898
 40
0.568224669
 40
0.6151099775
 40
0.6609375768
 40
0.7052909217
 40
0.7477669193
 40
0.7879795419
 40
0.825563449
 40
0.860177532
 40
0.8915079751
 40
0.9192711773
 40
0.9432165411
 40
0.9536887967
 40
0.963129505
 40
0.9715174376
 40
0.9788349483
 40
0.982087729
 40
0.9850675232
 40
0.9877729811
 40
0.9902033403
 40
0.9923580933
 40
0.9942370745
 40
0.9958407066
 40
0.9971707942
 40
0.9982316745
 40
0.9986639712
 40
0.9990333035
 40
0.9993431089
 40
0.9995992828
 40
0.9998122827
 40
1.0
 40
1.0
 40
1.0
 40
1.0
 10
5.4121425057
 20
2.9687075771
 30
0.0
 10
5.4122862404
 20
2.9687582706
 30
0.0
 10
5.4126102717
 20
2.9688563411
 30
0.0
 10
5.4131518883
 20
2.9689899359
 30
0.0
 10
5.4137968329
 20
2.9691240375
 30
0.0
 10
5.4148607269
 20
2.9693151246
 30
0.0
 10
5.4164481275
 20
2.9695476581
 30
0.0
 10
5.4186588343
 20
2.9698145604
 30
0.0
 10
5.4212714526
 20
2.9700824765
 30
0.0
 10
5.4242800668
 20
2.9703511923
 30
0.0
 10
5.4276780219
 20
2.9706204451
 30
0.0
 10
5.4314575726
 20
2.9708900483
 30
0.0
 10
5.4356101677
 20
2.9711599427
 30
0.0
 10
5.4418641778
 20
2.9715338864
 30
0.0
 10
5.4505369057
 20
2.9719951691
 30
0.0
 10
5.461913484
 20
2.9725319916
 30
0.0
 10
5.4745043124
 20
2.9730697438
 30
0.0
 10
5.4881948313
 20
2.9736082311
 30
0.0
 10
5.5028604991
 20
2.9741472115
 30
0.0
 10
5.5183678843
 20
2.9746865549
 30
0.0
 10
5.5345758752
 20
2.9752261555
 30
0.0
 10
5.5513369702
 20
2.9757659425
 30
0.0
 10
5.5743469384
 20
2.9764898255
 30
0.0
 10
5.5975770954
 20
2.9772054072
 30
0.0
 10
5.6208156346
 20
2.9779258066
 30
0.0
 10
5.6380028128
 20
2.9784657184
 30
0.0
 10
5.6548018842
 20
2.979005516
 30
0.0
 10
5.6710599838
 20
2.9795451353
 30
0.0
 10
5.6866291632
 20
2.9800845013
 30
0.0
 10
5.701367732
 20
2.980623517
 30
0.0
 10
5.7151415713
 20
2.9811620408
 30
0.0
 10
5.7278253677
 20
2.981699895
 30
0.0
 10
5.7393037783
 20
2.9822367055
 30
0.0
 10
5.7494724035
 20
2.9827722109
 30
0.0
 10
5.7570834371
 20
2.9832346686
 30
0.0
 10
5.7624483974
 20
2.9836112845
 30
0.0
 10
5.7659083719
 20
2.9838805933
 30
0.0
 10
5.768980227
 20
2.9841494433
 30
0.0
 10
5.771293512
 20
2.9843810432
 30
0.0
 10
5.7729444899
 20
2.9845686427
 30
0.0
 10
5.7740321901
 20
2.9847036674
 30
0.0
 10
5.775018212
 20
2.984838572
 30
0.0
 10
5.7759020471
 20
2.9849733174
 30
0.0
 10
5.7766832748
 20
2.9851078354
 30
0.0
 10
5.7773614844
 20
2.985242051
 30
0.0
 10
5.777936472
 20
2.985375783
 30
0.0
 10
5.7784080193
 20
2.9855089826
 30
0.0
 10
5.7787345833
 20
2.9856256811
 30
0.0
 10
5.7789418614
 20
2.985721998
 30
0.0
 10
5.7790606516
 20
2.9857891994
 30
0.0
 10
5.7791539351
 20
2.9858564762
 30
0.0
 10
5.7792219719
 20
2.9859243379
 30
0.0
 10
5.7792647225
 20
2.9859938577
 30
0.0
 10
5.7792749783
 20
2.9860433133
 30
0.0
 10
5.779274971
 20
2.9860663321
 30
0.0
  0
LINE
  5
37C
100
AcDbEntity
  8
0
100
AcDbLine
 62
7
  6
CONTINUOUS
 10
5.3923430244
 20
2.9573237753
 11
5.3927217391
 21
2.9574915554
  0
SPLINE
  5
37D
100
AcDbEntity
  8
0
100
AcDbSpline
 62
7
  6
CONTINUOUS
 70
0
 71
3
 72
63
 73
59
 74
0
 42
0.0000001
 43
0.0000001
 44
0.0000000001
 40
0.0
 40
0.0
 40
0.0
 40
0.0
 40
0.0011250089
 40
0.0025244494
 40
0.0042011162
 40
0.0061562552
 40
0.008389879
 40
0.0109013778
 40
0.0167543091
 40
0.0237055747
 40
0.0317403016
 40
0.0408418021
 40
0.0509897466
 40
0.062161363
 40
0.0743318928
 40
0.1015559673
 40
0.1324146352
 40
0.1666266304
 40
0.2038796043
 40
0.2438330239
 40
0.2861214883
 40
0.3303581806
 40
0.3761383804
 40
0.4230431892
 40
0.470643395
 40
0.5185033563
 40
0.56618502
 40
0.6132520206
 40
0.659273671
 40
0.7038288644
 40
0.7465098934
 40
0.7869262412
 40
0.8247083506
 40
0.8595109458
 40
0.8910161938
 40
0.9189367336
 40
0.9314718578
 40
0.9430186081
 40
0.9535502689
 40
0.9630439254
 40
0.9714779452
 40
0.9788343109
 40
0.9821035858
 40
0.9850977996
 40
0.9878156058
 40
0.9902561095
 40
0.9924186042
 40
0.9943026672
 40
0.9959084216
 40
0.9972373509
 40
0.99779908
 40
0.9982931946
 40
0.9987208315
 40
0.9990837944
 40
0.9993851003
 40
0.9996301166
 40
0.9998289119
 40
1.0
 40
1.0
 40
1.0
 40
1.0
 10
5.3927217391
 20
2.9574915554
 30
0.0
 10
5.3928652269
 20
2.9575431023
 30
0.0
 10
5.3931931442
 20
2.9576420662
 30
0.0
 10
5.3937467096
 20
2.9577757472
 30
0.0
 10
5.3944153586
 20
2.957910024
 30
0.0
 10
5.3951988369
 20
2.9580447269
 30
0.0
 10
5.3960968457
 20
2.9581797358
 30
0.0
 10
5.3975205462
 20
2.9583698648
 30
0.0
 10
5.3995832598
 20
2.9586028963
 30
0.0
 10
5.4023947091
 20
2.9588715398
 30
0.0
 10
5.4056480777
 20
2.9591409623
 30
0.0
 10
5.4093359091
 20
2.9594109685
 30
0.0
 10
5.4134498488
 20
2.959681368
 30
0.0
 10
5.4179805028
 20
2.9599520853
 30
0.0
 10
5.4248231746
 20
2.9603274804
 30
0.0
 10
5.4343330087
 20
2.9607903809
 30
0.0
 10
5.4468296138
 20
2.9613287886
 30
0.0
 10
5.4606864668
 20
2.96186817
 30
0.0
 10
5.4757766936
 20
2.9624083155
 30
0.0
 10
5.4919621068
 20
2.9629489736
 30
0.0
 10
5.5090944639
 20
2.9634900092
 30
0.0
 10
5.5270168552
 20
2.9640313133
 30
0.0
 10
5.5455651405
 20
2.9645728074
 30
0.0
 10
5.5645694475
 20
2.9651144279
 30
0.0
 10
5.5838557222
 20
2.9656561222
 30
0.0
 10
5.6032473198
 20
2.9661978434
 30
0.0
 10
5.6225666276
 20
2.9667395466
 30
0.0
 10
5.6416367033
 20
2.9672811847
 30
0.0
 10
5.6602828968
 20
2.9678227065
 30
0.0
 10
5.6783344338
 20
2.9683640509
 30
0.0
 10
5.6956259716
 20
2.9689051431
 30
0.0
 10
5.711999135
 20
2.9694458812
 30
0.0
 10
5.7273039809
 20
2.9699861378
 30
0.0
 10
5.7414003816
 20
2.9705256779
 30
0.0
 10
5.7541592674
 20
2.9710643129
 30
0.0
 10
5.7639007996
 20
2.9715269521
 30
0.0
 10
5.7709384165
 20
2.9719018922
 30
0.0
 10
5.7756215813
 20
2.9721726758
 30
0.0
 10
5.7798918205
 20
2.9724432147
 30
0.0
 10
5.7837393129
 20
2.9727133621
 30
0.0
 10
5.7871553256
 20
2.9729830742
 30
0.0
 10
5.7897279877
 20
2.9732154153
 30
0.0
 10
5.7915642065
 20
2.9734036285
 30
0.0
 10
5.7927738489
 20
2.9735390851
 30
0.0
 10
5.7938704206
 20
2.973674417
 30
0.0
 10
5.7948533566
 20
2.9738095805
 30
0.0
 10
5.7957221448
 20
2.9739445208
 30
0.0
 10
5.7964763497
 20
2.9740791088
 30
0.0
 10
5.7971155749
 20
2.9742133032
 30
0.0
 10
5.7975750795
 20
2.9743300979
 30
0.0
 10
5.7978839053
 20
2.974425638
 30
0.0
 10
5.7980733647
 20
2.9744931319
 30
0.0
 10
5.7982340346
 20
2.9745605079
 30
0.0
 10
5.7983660361
 20
2.9746277924
 30
0.0
 10
5.7984696539
 20
2.9746950855
 30
0.0
 10
5.7985452608
 20
2.9747628852
 30
0.0
 10
5.7985931827
 20
2.9748325131
 30
0.0
 10
5.7986049522
 20
2.9748829646
 30
0.0
 10
5.7986049423
 20
2.9749061512
 30
0.0
  0
LINE
  5
37E
100
AcDbEntity
  8
0
100
AcDbLine
 62
7
  6
CONTINUOUS
 10
4.9897369546
 20
5.7546215584
 11
4.9878562318
 21
5.7570320642
  0
LINE
  5
37F
100
AcDbEntity
  8
0
100
AcDbLine
 62
7
  6
CONTINUOUS
 10
4.9878562318
 20
5.7570320642
 11
4.9823504491
 21
5.7658731366
  0
LINE
  5
380
100
AcDbEntity
  8
0
100
AcDbLine
 62
7
  6
CONTINUOUS
 10
4.9823504491
 20
5.7658731366
 11
4.9814525159
 21
5.7676240024
  0
LINE
  5
381
100
AcDbEntity
  8
0
100
AcDbLine
 62
7
  6
CONTINUOUS
 10
5.411697933
 20
2.9327978051
 11
5.4122206032
 21
2.9330193503
  0
SPLINE
  5
382
100
AcDbEntity
  8
0
100
AcDbSpline
 62
7
  6
CONTINUOUS
 70
0
 71
3
 72
59
 73
55
 74
0
 42
0.0000001
 43
0.0000001
 44
0.0000000001
 40
0.0
 40
0.0
 40
0.0
 40
0.0
 40
0.001294454
 40
0.0028609979
 40
0.00470179
 40
0.0068178053
 40
0.0118742583
 40
0.018024224
 40
0.0252576353
 40
0.0335592703
 40
0.0429118677
 40
0.053295187
 40
0.064685797
 40
0.0770590509
 40
0.1046387103
 40
0.1357863038
 40
0.1702208428
 40
0.2076309329
 40
0.2476779561
 40
0.2899992827
 40
0.3342115916
 40
0.3799143532
 40
0.4266933751
 40
0.52177825
 40
0.5692223191
 40
0.6160268517
 40
0.6617675962
 40
0.7060300168
 40
0.7484131198
 40
0.7885330355
 40
0.8260264551
 40
0.8605539387
 40
0.891803314
 40
0.9194926907
 40
0.9433730898
 40
0.9538168344
 40
0.9632313573
 40
0.9715958465
 40
0.9788931761
 40
0.9821366449
 40
0.9851079073
 40
0.9878058789
 40
0.9902296185
 40
0.9923784003
 40
0.9942519237
 40
0.9958509634
 40
0.9971775321
 40
0.9982357656
 40
0.9986669971
 40
0.9990354031
 40
0.9993444114
 40
0.9995999613
 40
0.9998125446
 40
1.0
 40
1.0
 40
1.0
 40
1.0
 10
5.4122206032
 20
2.9330193503
 30
0.0
 10
5.4123710937
 20
2.9330697217
 30
0.0
 10
5.4127082525
 20
2.9331674146
 30
0.0
 10
5.4132691184
 20
2.9333009338
 30
0.0
 10
5.4139329934
 20
2.9334349187
 30
0.0
 10
5.4150215298
 20
2.9336254593
 30
0.0
 10
5.4166385748
 20
2.9338576109
 30
0.0
 10
5.4188835809
 20
2.9341242688
 30
0.0
 10
5.4215287193
 20
2.9343918294
 30
0.0
 10
5.424568109
 20
2.9346602245
 30
0.0
 10
5.427994953
 20
2.9349290905
 30
0.0
 10
5.4318015054
 20
2.935198308
 30
0.0
 10
5.4359791991
 20
2.9354678227
 30
0.0
 10
5.442262729
 20
2.9358410473
 30
0.0
 10
5.4509673791
 20
2.936301574
 30
0.0
 10
5.4623762285
 20
2.9368376289
 30
0.0
 10
5.4749914178
 20
2.9373745976
 30
0.0
 10
5.4886985212
 20
2.9379122854
 30
0.0
 10
5.5033731949
 20
2.9384504589
 30
0.0
 10
5.5188823162
 20
2.9389889899
 30
0.0
 10
5.5350852049
 20
2.9395277744
 30
0.0
 10
5.5518348797
 20
2.9400667406
 30
0.0
 10
5.5748187089
 20
2.9407894218
 30
0.0
 10
5.5980163751
 20
2.9415039268
 30
0.0
 10
5.621217019
 20
2.9422233052
 30
0.0
 10
5.6383708827
 20
2.942762389
 30
0.0
 10
5.6551344923
 20
2.9433013585
 30
0.0
 10
5.6713557646
 20
2.9438401501
 30
0.0
 10
5.6868875528
 20
2.9443786888
 30
0.0
 10
5.7015889694
 20
2.9449168773
 30
0.0
 10
5.7153266441
 20
2.945454572
 30
0.0
 10
5.7279759465
 20
2.9459915985
 30
0.0
 10
5.7394221753
 20
2.9465275855
 30
0.0
 10
5.7495615643
 20
2.9470622665
 30
0.0
 10
5.7571503774
 20
2.9475240274
 30
0.0
 10
5.7624994628
 20
2.9479000549
 30
0.0
 10
5.7659490797
 20
2.9481689504
 30
0.0
 10
5.7690116836
 20
2.9484374009
 30
0.0
 10
5.7713179603
 20
2.9486686199
 30
0.0
 10
5.7729639025
 20
2.9488559429
 30
0.0
 10
5.7740482505
 20
2.9489907672
 30
0.0
 10
5.7750312748
 20
2.9491254593
 30
0.0
 10
5.7759124496
 20
2.9492599914
 30
0.0
 10
5.7766912888
 20
2.9493942936
 30
0.0
 10
5.7773673767
 20
2.9495283143
 30
0.0
 10
5.7779405648
 20
2.949661854
 30
0.0
 10
5.7784106861
 20
2.9497948431
 30
0.0
 10
5.7787362932
 20
2.9499113529
 30
0.0
 10
5.7789429583
 20
2.9500075177
 30
0.0
 10
5.7790613805
 20
2.9500746139
 30
0.0
 10
5.7791543482
 20
2.9501417932
 30
0.0
 10
5.7792221295
 20
2.9502095625
 30
0.0
 10
5.779264695
 20
2.9502789816
 30
0.0
 10
5.7792749055
 20
2.9503283404
 30
0.0
 10
5.7792749006
 20
2.950351322
 30
0.0
  0
SPLINE
  5
383
100
AcDbEntity
  8
0
100
AcDbSpline
 62
7
  6
CONTINUOUS
 70
0
 71
3
 72
19
 73
15
 74
0
 42
0.0000001
 43
0.0000001
 44
0.0000000001
 40
0.0
 40
0.0
 40
0.0
 40
0.0
 40
0.0186958238
 40
0.04061138
 40
0.0677466963
 40
0.1011127942
 40
0.1411431172
 40
0.1880085707
 40
0.241743038
 40
0.3022428894
 40
0.4427613436
 40
0.6077029898
 40
0.794452773
 40
1.0
 40
1.0
 40
1.0
 40
1.0
 10
5.0341970662
 20
5.8013625107
 30
0.0
 10
5.0341733368
 20
5.8013505324
 30
0.0
 10
5.0341151319
 20
5.8013369608
 30
0.0
 10
5.0340185157
 20
5.8013514923
 30
0.0
 10
5.0339093563
 20
5.801395889
 30
0.0
 10
5.0337865487
 20
5.8014697496
 30
0.0
 10
5.0336498648
 20
5.8015728316
 30
0.0
 10
5.0334996581
 20
5.8017050118
 30
0.0
 10
5.0333365151
 20
5.8018659155
 30
0.0
 10
5.0330901007
 20
5.8021314986
 30
0.0
 10
5.0327573427
 20
5.8025319526
 30
0.0
 10
5.0323363712
 20
5.8030911943
 30
0.0
 10
5.0318834614
 20
5.8037414212
 30
0.0
 10
5.0315784895
 20
5.8042085112
 30
0.0
 10
5.0314217205
 20
5.8044551454
 30
0.0
  0
SPLINE
  5
384
100
AcDbEntity
  8
0
100
AcDbSpline
 62
7
  6
CONTINUOUS
 70
0
 71
3
 72
11
 73
7
 74
0
 42
0.0000001
 43
0.0000001
 44
0.0000000001
 40
0.0
 40
0.0
 40
0.0
 40
0.0
 40
0.2424341568
 40
0.5012582855
 40
0.7594229953
 40
1.0
 40
1.0
 40
1.0
 40
1.0
 10
5.0314217205
 20
5.8044551454
 30
0.0
 10
5.0310818157
 20
5.8049898949
 30
0.0
 10
5.0304078768
 20
5.8061139831
 30
0.0
 10
5.0294564664
 20
5.8078564832
 30
0.0
 10
5.0285750307
 20
5.8096299891
 30
0.0
 10
5.0280432569
 20
5.8108207374
 30
0.0
 10
5.0278026331
 20
5.8114016548
 30
0.0
  0
SPLINE
  5
385
100
AcDbEntity
  8
0
100
AcDbSpline
 62
7
  6
CONTINUOUS
 70
0
 71
3
 72
15
 73
11
 74
0
 42
0.0000001
 43
0.0000001
 44
0.0000000001
 40
0.0
 40
0.0
 40
0.0
 40
0.0
 40
0.0992905735
 40
0.138230305
 40
0.1836442465
 40
0.2943983547
 40
0.432026348
 40
0.5962745031
 40
0.7860645496
 40
1.0
 40
1.0
 40
1.0
 40
1.0
 10
4.8046601033
 20
6.4300193168
 30
0.0
 10
4.8046022166
 20
6.430004269
 30
0.0
 10
4.8045167225
 20
6.4300631137
 30
0.0
 10
4.8044421012
 20
6.4301403931
 30
0.0
 10
4.8043666252
 20
6.4302318149
 30
0.0
 10
4.8042679803
 20
6.4303784671
 30
0.0
 10
4.8041440994
 20
6.4305943395
 30
0.0
 10
4.8040101371
 20
6.4308585123
 30
0.0
 10
4.8038666963
 20
6.4311692124
 30
0.0
 10
4.8037711459
 20
6.4313928799
 30
0.0
 10
4.8037218294
 20
6.4315119407
 30
0.0
  0
SPLINE
  5
386
100
AcDbEntity
  8
0
100
AcDbSpline
 62
7
  6
CONTINUOUS
 70
0
 71
3
 72
17
 73
13
 74
0
 42
0.0000001
 43
0.0000001
 44
0.0000000001
 40
0.0
 40
0.0
 40
0.0
 40
0.0
 40
0.0290818892
 40
0.052755212
 40
0.0836185289
 40
0.121911457
 40
0.16765
 40
0.2207723232
 40
0.2811793798
 40
0.423154702
 40
0.5917873341
 40
1.0
 40
1.0
 40
1.0
 40
1.0
 10
5.0995534989
 20
5.644864887
 30
0.0
 10
5.0995255703
 20
5.6448488573
 30
0.0
 10
5.0994583213
 20
5.644866617
 30
0.0
 10
5.0993815715
 20
5.6449128158
 30
0.0
 10
5.0992986132
 20
5.6449755849
 30
0.0
 10
5.0992041135
 20
5.6450603021
 30
0.0
 10
5.0990961691
 20
5.6451673849
 30
0.0
 10
5.0989759186
 20
5.6452963697
 30
0.0
 10
5.0987891184
 20
5.6455089121
 30
0.0
 10
5.0985290905
 20
5.6458271023
 30
0.0
 10
5.0980442869
 20
5.6464584422
 30
0.0
 10
5.0976733262
 20
5.6469786702
 30
0.0
 10
5.0974154683
 20
5.64734991
 30
0.0
  0
SPLINE
  5
387
100
AcDbEntity
  8
0
100
AcDbSpline
 62
7
  6
CONTINUOUS
 70
0
 71
3
 72
13
 73
9
 74
0
 42
0.0000001
 43
0.0000001
 44
0.0000000001
 40
0.0
 40
0.0
 40
0.0
 40
0.0
 40
0.117481203
 40
0.2455895426
 40
0.5170100218
 40
0.7796373945
 40
0.897019317
 40
1.0
 40
1.0
 40
1.0
 40
1.0
 10
5.0974154683
 20
5.64734991
 30
0.0
 10
5.0971838595
 20
5.6476833586
 30
0.0
 10
5.0967080496
 20
5.6483862398
 30
0.0
 10
5.095733698
 20
5.6498839577
 30
0.0
 10
5.0945324222
 20
5.6518319923
 30
0.0
 10
5.0934068348
 20
5.6537821538
 30
0.0
 10
5.0926142812
 20
5.6552512183
 30
0.0
 10
5.0922684415
 20
5.6559298299
 30
0.0
 10
5.0921124067
 20
5.656249682
 30
0.0
  0
LINE
  5
388
100
AcDbEntity
  8
0
100
AcDbLine
 62
7
  6
CONTINUOUS
 10
5.0921124067
 20
5.656249682
 11
5.0916399599
 21
5.6572847093
  0
SPLINE
  5
389
100
AcDbEntity
  8
0
100
AcDbSpline
 62
7
  6
CONTINUOUS
 70
0
 71
3
 72
33
 73
29
 74
0
 42
0.0000001
 43
0.0000001
 44
0.0000000001
 40
0.0
 40
0.0
 40
0.0
 40
0.0
 40
0.1912031366
 40
0.2844431639
 40
0.3750109852
 40
0.4620946577
 40
0.5449154354
 40
0.6227271839
 40
0.6948249278
 40
0.760551421
 40
0.8193032501
 40
0.8458909686
 40
0.8705370884
 40
0.893182739
 40
0.9137759043
 40
0.9322679765
 40
0.948614887
 40
0.9627795993
 40
0.9747276782
 40
0.9798623867
 40
0.9844339627
 40
0.9884400143
 40
0.9918787355
 40
0.9947500849
 40
0.9970557621
 40
0.9988006333
 40
0.9994668356
 40
1.0
 40
1.0
 40
1.0
 40
1.0
 10
5.5953549837
 20
2.9377788532
 30
0.0
 10
5.5835891492
 20
2.9375559665
 30
0.0
 10
5.5660857358
 20
2.9372233288
 30
0.0
 10
5.5430094429
 20
2.9367705027
 30
0.0
 10
5.5263403412
 20
2.9364332204
 30
0.0
 10
5.5103126563
 20
2.9360954796
 30
0.0
 10
5.4950702577
 20
2.9357573364
 30
0.0
 10
5.4807504426
 20
2.9354188588
 30
0.0
 10
5.4674830444
 20
2.9350801733
 30
0.0
 10
5.4553891426
 20
2.9347413834
 30
0.0
 10
5.446096034
 20
2.9344504135
 30
0.0
 10
5.439330869
 20
2.9342145553
 30
0.0
 10
5.4347870305
 20
2.9340435622
 30
0.0
 10
5.4306124208
 20
2.9338725445
 30
0.0
 10
5.4268169171
 20
2.9337015578
 30
0.0
 10
5.4234095098
 20
2.9335306636
 30
0.0
 10
5.4203982917
 20
2.9333599763
 30
0.0
 10
5.4177905558
 20
2.9331896253
 30
0.0
 10
5.4158729823
 20
2.9330417796
 30
0.0
 10
5.4145456789
 20
2.9329210901
 30
0.0
 10
5.4137060799
 20
2.9328353002
 30
0.0
 10
5.4129714462
 20
2.9327496857
 30
0.0
 10
5.4123422584
 20
2.9326642759
 30
0.0
 10
5.4118187017
 20
2.9325793557
 30
0.0
 10
5.4114010923
 20
2.9324949196
 30
0.0
 10
5.4111199217
 20
2.9324207048
 30
0.0
 10
5.4109497294
 20
2.9323581827
 30
0.0
 10
5.4108828066
 20
2.9323265171
 30
0.0
 10
5.4108543966
 20
2.9323100957
 30
0.0
  0
SPLINE
  5
38A
100
AcDbEntity
  8
0
100
AcDbSpline
 62
7
  6
CONTINUOUS
 70
0
 71
3
 72
40
 73
36
 74
0
 42
0.0000001
 43
0.0000001
 44
0.0000000001
 40
0.0
 40
0.0
 40
0.0
 40
0.0
 40
0.0003506324
 40
0.0007606974
 40
0.0012691121
 40
0.0018966841
 40
0.0026544063
 40
0.003548432
 40
0.0045824387
 40
0.0057587526
 40
0.0085437077
 40
0.011910381
 40
0.0158609018
 40
0.0203955743
 40
0.0255137406
 40
0.0312140096
 40
0.0374935979
 40
0.0443490904
 40
0.0597732788
 40
0.0774538045
 40
0.0973486569
 40
0.1194126688
 40
0.1435925891
 40
0.1698316311
 40
0.1980669884
 40
0.2282308417
 40
0.2940515181
 40
0.3666623316
 40
0.4453657018
 40
0.529405149
 40
0.6179721549
 40
0.7102159992
 40
0.805245698
 40
0.9021549971
 40
1.0
 40
1.0
 40
1.0
 40
1.0
 10
5.7986049837
 20
3.0106211339
 30
0.0
 10
5.7986049837
 20
3.010597328
 30
0.0
 10
5.7985924622
 20
3.0105453611
 30
0.0
 10
5.7985419374
 20
3.010474028
 30
0.0
 10
5.7984624551
 20
3.0104045778
 30
0.0
 10
5.7983535486
 20
3.0103356214
 30
0.0
 10
5.7982148107
 20
3.0102666521
 30
0.0
 10
5.7980459265
 20
3.0101975779
 30
0.0
 10
5.7978467634
 20
3.0101283764
 30
0.0
 10
5.7975220008
 20
3.0100303876
 30
0.0
 10
5.7970388254
 20
3.0099106364
 30
0.0
 10
5.7963667836
 20
3.0097730539
 30
0.0
 10
5.7955739378
 20
3.0096350406
 30
0.0
 10
5.7946607197
 20
3.009496667
 30
0.0
 10
5.7936275472
 20
3.0093580652
 30
0.0
 10
5.7924749851
 20
3.0092193047
 30
0.0
 10
5.7912037176
 20
3.0090804078
 30
0.0
 10
5.7892743157
 20
3.0088874084
 30
0.0
 10
5.7865716386
 20
3.008649171
 30
0.0
 10
5.7829838688
 20
3.0083726291
 30
0.0
 10
5.7789441474
 20
3.0080955908
 30
0.0
 10
5.7744622561
 20
3.0078182021
 30
0.0
 10
5.7695489013
 20
3.0075405307
 30
0.0
 10
5.764215947
 20
3.0072626689
 30
0.0
 10
5.7584762175
 20
3.00698464
 30
0.0
 10
5.7500510528
 20
3.0066025652
 30
0.0
 10
5.7386141307
 20
3.0061296747
 30
0.0
 10
5.72388229
 20
3.0055764129
 30
0.0
 10
5.707912724
 20
3.0050224972
 30
0.0
 10
5.6908592388
 20
3.00446807
 30
0.0
 10
5.6728859874
 20
3.0039132899
 30
0.0
 10
5.6541662302
 20
3.0033582622
 30
0.0
 10
5.6348798448
 20
3.0028030541
 30
0.0
 10
5.6152130225
 20
3.0022477452
 30
0.0
 10
5.6019954979
 20
3.0018780985
 30
0.0
 10
5.5953549837
 20
3.0016923857
 30
0.0
  0
SPLINE
  5
38B
100
AcDbEntity
  8
0
100
AcDbSpline
 62
7
  6
CONTINUOUS
 70
0
 71
3
 72
31
 73
27
 74
0
 42
0.0000001
 43
0.0000001
 44
0.0000000001
 40
0.0
 40
0.0
 40
0.0
 40
0.0
 40
0.1891792092
 40
0.2816261651
 40
0.3715305975
 40
0.4580758605
 40
0.5404811923
 40
0.6180017139
 40
0.6899373923
 40
0.7556391114
 40
0.8145146303
 40
0.8412247798
 40
0.8660343685
 40
0.8888887353
 40
0.9097365689
 40
0.9285314435
 40
0.9452330508
 40
0.9598042793
 40
0.9722165759
 40
0.982445535
 40
0.9867367318
 40
0.9904781662
 40
0.9936703143
 40
0.9963154584
 40
0.9984202356
 40
1.0
 40
1.0
 40
1.0
 40
1.0
 10
5.5953549837
 20
3.0731224007
 30
0.0
 10
5.5825397117
 20
3.0727640007
 30
0.0
 10
5.5634619447
 20
3.0722305822
 30
0.0
 10
5.538294474
 20
3.0715073599
 30
0.0
 10
5.5200798502
 20
3.0709692355
 30
0.0
 10
5.5025460261
 20
3.0704313217
 30
0.0
 10
5.4858518354
 20
3.0698937086
 30
0.0
 10
5.4701482332
 20
3.0693565022
 30
0.0
 10
5.4555772821
 20
3.0688198892
 30
0.0
 10
5.4422707648
 20
3.0682840329
 30
0.0
 10
5.4320285613
 20
3.0678248646
 30
0.0
 10
5.4245565168
 20
3.0674534081
 30
0.0
 10
5.4195235248
 20
3.0671840764
 30
0.0
 10
5.4148884096
 20
3.0669149606
 30
0.0
 10
5.4106616289
 20
3.0666460996
 30
0.0
 10
5.4068527062
 20
3.0663775796
 30
0.0
 10
5.4034702734
 20
3.066109561
 30
0.0
 10
5.4005218164
 20
3.065842284
 30
0.0
 10
5.3980140055
 20
3.0655759757
 30
0.0
 10
5.3962033425
 20
3.0653441697
 30
0.0
 10
5.3949804144
 20
3.0651540258
 30
0.0
 10
5.3942314979
 20
3.0650202115
 30
0.0
 10
5.3935961168
 20
3.0648868805
 30
0.0
 10
5.3930741458
 20
3.0647542644
 30
0.0
 10
5.3926657693
 20
3.0646226265
 30
0.0
 10
5.3924357875
 20
3.0645223501
 30
0.0
 10
5.3923430984
 20
3.0644687776
 30
0.0
  0
SPLINE
  5
38C
100
AcDbEntity
  8
0
100
AcDbSpline
 62
7
  6
CONTINUOUS
 70
0
 71
3
 72
19
 73
15
 74
0
 42
0.0000001
 43
0.0000001
 44
0.0000000001
 40
0.0
 40
0.0
 40
0.0
 40
0.0
 40
0.0189124536
 40
0.0410007017
 40
0.0683204002
 40
0.1018914721
 40
0.1421629265
 40
0.189317951
 40
0.2433570296
 40
0.3041343575
 40
0.4450666726
 40
0.6100257006
 40
0.7962825839
 40
1.0
 40
1.0
 40
1.0
 40
1.0
 10
4.8795215699
 20
6.2505387018
 30
0.0
 10
4.8794935299
 20
6.250529539
 30
0.0
 10
4.8794275124
 20
6.2505243754
 30
0.0
 10
4.8793243469
 20
6.250556832
 30
0.0
 10
4.8792130824
 20
6.2506244184
 30
0.0
 10
4.8790923746
 20
6.2507267
 30
0.0
 10
4.8789620221
 20
6.250863519
 30
0.0
 10
4.8788224794
 20
6.2510346539
 30
0.0
 10
4.878674358
 20
6.2512394482
 30
0.0
 10
4.878455341
 20
6.2515729809
 30
0.0
 10
4.878168535
 20
6.252068263
 30
0.0
 10
4.8778170773
 20
6.2527509441
 30
0.0
 10
4.8774507587
 20
6.2535353748
 30
0.0
 10
4.8772106092
 20
6.2540943364
 30
0.0
 10
4.8770890103
 20
6.2543879022
 30
0.0
  0
SPLINE
  5
38D
100
AcDbEntity
  8
0
100
AcDbSpline
 62
7
  6
CONTINUOUS
 70
0
 71
3
 72
19
 73
15
 74
0
 42
0.0000001
 43
0.0000001
 44
0.0000000001
 40
0.0
 40
0.0
 40
0.0
 40
0.0
 40
0.0160208222
 40
0.0360586902
 40
0.0619698494
 40
0.0945741041
 40
0.1341685462
 40
0.1808240134
 40
0.2345133587
 40
0.2951381164
 40
0.4363562196
 40
0.6025899741
 40
0.7914123142
 40
1.0
 40
1.0
 40
1.0
 40
1.0
 10
4.9111534318
 20
5.8673145687
 30
0.0
 10
4.9111345898
 20
5.8673056125
 30
0.0
 10
4.9110861129
 20
5.8672981783
 30
0.0
 10
4.9110068067
 20
5.8673178841
 30
0.0
 10
4.9109146386
 20
5.8673632543
 30
0.0
 10
4.9108085899
 20
5.8674349643
 30
0.0
 10
4.9106884719
 20
5.8675327714
 30
0.0
 10
4.9105546427
 20
5.8676565845
 30
0.0
 10
4.9104075708
 20
5.8678060238
 30
0.0
 10
4.9101829594
 20
5.868051609
 30
0.0
 10
4.9098754214
 20
5.8684195243
 30
0.0
 10
4.9094803784
 20
5.8689310938
 30
0.0
 10
4.9090490662
 20
5.8695250795
 30
0.0
 10
4.9087549708
 20
5.8699509523
 30
0.0
 10
4.9086027829
 20
5.8701759357
 30
0.0
  0
SPLINE
  5
38E
100
AcDbEntity
  8
0
100
AcDbSpline
 62
7
  6
CONTINUOUS
 70
0
 71
3
 72
13
 73
9
 74
0
 42
0.0000001
 43
0.0000001
 44
0.0000000001
 40
0.0
 40
0.0
 40
0.0
 40
0.0
 40
0.2503755783
 40
0.5202011856
 40
0.6531287751
 40
0.7797104441
 40
0.8964719548
 40
1.0
 40
1.0
 40
1.0
 40
1.0
 10
4.9086027829
 20
5.8701759357
 30
0.0
 10
4.9081445247
 20
5.8708533908
 30
0.0
 10
4.907231517
 20
5.8722874388
 30
0.0
 10
4.9061578316
 20
5.8741317796
 30
0.0
 10
4.9053346315
 20
5.8756525493
 30
0.0
 10
4.9047741937
 20
5.8767466387
 30
0.0
 10
4.9042841121
 20
5.877768426
 30
0.0
 10
4.9039935233
 20
5.8784269776
 30
0.0
 10
4.9038641034
 20
5.878739425
 30
0.0
  0
SPLINE
  5
38F
100
AcDbEntity
  8
0
100
AcDbSpline
 62
7
  6
CONTINUOUS
 70
0
 71
3
 72
26
 73
22
 74
0
 42
0.0000001
 43
0.0000001
 44
0.0000000001
 40
0.0
 40
0.0
 40
0.0
 40
0.0
 40
0.0359053014
 40
0.0882808619
 40
0.1501383295
 40
0.2176236501
 40
0.2886428178
 40
0.3619688605
 40
0.4367936813
 40
0.5124929134
 40
0.5884755319
 40
0.6640466389
 40
0.7382167743
 40
0.8094189089
 40
0.8431749575
 40
0.8751612749
 40
0.904877816
 40
0.9317657123
 40
0.9552443028
 40
0.9747512516
 40
1.0
 40
1.0
 40
1.0
 40
1.0
 10
5.4669429857
 20
5.6494289824
 30
0.0
 10
5.4696104305
 20
5.6534494115
 30
0.0
 10
5.4761920876
 20
5.6633191286
 30
0.0
 10
5.4874679851
 20
5.6800491816
 30
0.0
 10
5.5012582027
 20
5.7002015488
 30
0.0
 10
5.5166571983
 20
5.7222876578
 30
0.0
 10
5.533184779
 20
5.7454639235
 30
0.0
 10
5.550589521
 20
5.7692234535
 30
0.0
 10
5.5687345619
 20
5.7932164689
 30
0.0
 10
5.5875385102
 20
5.8171531349
 30
0.0
 10
5.6069329709
 20
5.8407450581
 30
0.0
 10
5.6268192292
 20
5.8636544846
 30
0.0
 10
5.6470006475
 20
5.8854383565
 30
0.0
 10
5.6640344266
 20
5.9024570157
 30
0.0
 10
5.6774919441
 20
5.915010507
 30
0.0
 10
5.6870778651
 20
5.9235361875
 30
0.0
 10
5.6961653257
 20
5.9312280809
 30
0.0
 10
5.7045482596
 20
5.9379775216
 30
0.0
 10
5.7119992764
 20
5.9436922806
 30
0.0
 10
5.7193933417
 20
5.9491154085
 30
0.0
 10
5.7243283545
 20
5.9525543929
 30
0.0
 10
5.7271377421
 20
5.9544566977
 30
0.0
  0
SPLINE
  5
390
100
AcDbEntity
  8
0
100
AcDbSpline
 62
7
  6
CONTINUOUS
 70
0
 71
3
 72
37
 73
33
 74
0
 42
0.0000001
 43
0.0000001
 44
0.0000000001
 40
0.0
 40
0.0
 40
0.0
 40
0.0
 40
0.0966264792
 40
0.1924853007
 40
0.286621329
 40
0.3781216807
 40
0.4660924477
 40
0.5496840102
 40
0.6280924273
 40
0.7005688585
 40
0.7664258187
 40
0.7966755183
 40
0.8250436338
 40
0.8514643258
 40
0.8758757639
 40
0.8982230053
 40
0.9184536893
 40
0.9365235826
 40
0.9523914384
 40
0.9660233429
 40
0.9719919233
 40
0.9773910262
 40
0.9822182659
 40
0.9864720648
 40
0.9901511441
 40
0.993254724
 40
0.9957832158
 40
0.9977401535
 40
0.998507036
 40
0.9991355713
 40
0.9996301404
 40
1.0
 40
1.0
 40
1.0
 40
1.0
 10
5.5953549837
 20
2.9377788532
 30
0.0
 10
5.6016682247
 20
2.9378984483
 30
0.0
 10
5.6142445589
 20
2.9381362403
 30
0.0
 10
5.6329713799
 20
2.9384924934
 30
0.0
 10
5.6513631697
 20
2.9388480327
 30
0.0
 10
5.6692394054
 20
2.9392028118
 30
0.0
 10
5.6864264549
 20
2.9395567933
 30
0.0
 10
5.7027577981
 20
2.939909917
 30
0.0
 10
5.7180763857
 20
2.9402620929
 30
0.0
 10
5.7322357441
 20
2.9406132401
 30
0.0
 10
5.7432483049
 20
2.940912676
 30
0.0
 10
5.7513789351
 20
2.9411541673
 30
0.0
 10
5.75693328
 20
2.9413298865
 30
0.0
 10
5.7621059097
 20
2.9415053446
 30
0.0
 10
5.7668848521
 20
2.9416805419
 30
0.0
 10
5.7712590073
 20
2.9418554112
 30
0.0
 10
5.7752184059
 20
2.9420299415
 30
0.0
 10
5.7787539589
 20
2.9422039985
 30
0.0
 10
5.7818577307
 20
2.9423775424
 30
0.0
 10
5.7841707302
 20
2.9425273641
 30
0.0
 10
5.7857998889
 20
2.9426489935
 30
0.0
 10
5.78685463
 20
2.9427360005
 30
0.0
 10
5.7877969056
 20
2.9428228463
 30
0.0
 10
5.7886262745
 20
2.9429094752
 30
0.0
 10
5.7893423305
 20
2.9429958313
 30
0.0
 10
5.7899447997
 20
2.9430816974
 30
0.0
 10
5.7904333766
 20
2.9431670642
 30
0.0
 10
5.7907686842
 20
2.9432419154
 30
0.0
 10
5.7909787339
 20
2.9433043887
 30
0.0
 10
5.791094774
 20
2.9433471945
 30
0.0
 10
5.7911826961
 20
2.9433896607
 30
0.0
 10
5.7912295679
 20
2.9434223707
 30
0.0
 10
5.7912466635
 20
2.9434394562
 30
0.0
  0
SPLINE
  5
391
100
AcDbEntity
  8
0
100
AcDbSpline
 62
7
  6
CONTINUOUS
 70
0
 71
3
 72
22
 73
18
 74
0
 42
0.0000001
 43
0.0000001
 44
0.0000000001
 40
0.0
 40
0.0
 40
0.0
 40
0.0
 40
0.0082748945
 40
0.0171585943
 40
0.0271439506
 40
0.0385737919
 40
0.0664991454
 40
0.1018558644
 40
0.1448633823
 40
0.1953823611
 40
0.253129857
 40
0.3176598627
 40
0.388443746
 40
0.4648716907
 40
0.6317867698
 40
0.8124444742
 40
1.0
 40
1.0
 40
1.0
 40
1.0
 10
4.9728616088
 20
6.0267701371
 30
0.0
 10
4.9728407366
 20
6.0267614937
 30
0.0
 10
4.9727946153
 20
6.0267498562
 30
0.0
 10
4.9727198388
 20
6.0267514087
 30
0.0
 10
4.9726389356
 20
6.026770901
 30
0.0
 10
4.9725145792
 20
6.0268238296
 30
0.0
 10
4.9723444177
 20
6.0269390158
 30
0.0
 10
4.9721291672
 20
6.0271342163
 30
0.0
 10
4.9718918123
 20
6.0273945501
 30
0.0
 10
4.971634417
 20
6.0277177707
 30
0.0
 10
4.9713595497
 20
6.0281013722
 30
0.0
 10
4.9710697867
 20
6.0285417786
 30
0.0
 10
4.9707680074
 20
6.0290349319
 30
0.0
 10
4.9703409393
 20
6.0297787238
 30
0.0
 10
4.9698018749
 20
6.0308035744
 30
0.0
 10
4.9691729
 20
6.0321225113
 30
0.0
 10
4.9687723368
 20
6.0330447736
 30
0.0
 10
4.968576387
 20
6.0335178383
 30
0.0
  0
ENDSEC
  0
SECTION
  2
OBJECTS
  0
DICTIONARY
  5
C
100
AcDbDictionary
280
0
281
1
  3
ACAD_GROUP
350
D
  3
ACAD_MLINESTYLE
350
17
  3
ACAD_LAYOUT
350
1A
  3
ACAD_PLOTSETTINGS
350
19
  3
ACAD_PLOTSTYLENAME
350
E
  0
DICTIONARY
  5
D
102
{ACAD_REACTORS
330
C
102
}
100
AcDbDictionary
280
0
281
1
  0
ACDBDICTIONARYWDFLT
  5
E
102
{ACAD_REACTORS
330
C
102
}
100
AcDbDictionary
281
1
  3
Normal
350
F
100
AcDbDictionaryWithDefault
340
F
  0
DICTIONARY
  5
17
102
{ACAD_REACTORS
330
C
102
}
100
AcDbDictionary
280
0
281
1
  3
Standard
350
18
  0
DICTIONARY
  5
19
102
{ACAD_REACTORS
330
C
102
}
100
AcDbDictionary
281
1
  0
DICTIONARY
  5
1A
102
{ACAD_REACTORS
330
C
102
}
100
AcDbDictionary
281
1
  3
Model
350
392
  3
Layout1
350
393
  0
ACDBPLACEHOLDER
  5
F
102
{ACAD_REACTORS
330
E
102
}
  0
MLINESTYLE
  5
18
102
{ACAD_REACTORS
330
17
102
}
100
AcDbMlineStyle
  2
STANDARD
 70
0
  3

 62
256
 51
90.0
 52
90.0
 71
2
 49
0.5
 62
256
  6
BYLAYER
 49
-0.5
 62
256
  6
BYLAYER
  0
LAYOUT
  5
392
102
{ACAD_REACTORS
330
1A
102
}
100
AcDbPlotSettings
  1

  2
none_device
  4
ANSI_A_(11.00_x_8.50_Inches)
  6

 40
0.0
 41
0.0
 42
0.0
 43
0.0
 44
279.4
 45
215.9
 46
0.0
 47
0.0
 48
0.0
 49
0.0
140
0.0
141
0.0
142
1.0
143
1.0
 70
1024
 72
0
 73
0
 74
0
  7

 75
0
147
1.0
148
0.0
149
0.0
100
AcDbLayout
  1
Model
 70
0
 71
0
 10
0.0
 20
0.0
 11
11.0
 21
8.5
 12
0.0
 22
0.0
 32
0.0
 14
0.0
 24
0.0
 34
0.0
 15
0.0
 25
0.0
 35
0.0
146
0.0
 13
0.0
 23
0.0
 33
0.0
 16
1.0
 26
0.0
 36
0.0
 17
0.0
 27
1.0
 37
0.0
 76
0
330
203
345
0
346
0
  0
LAYOUT
  5
393
102
{ACAD_REACTORS
330
1A
102
}
100
AcDbPlotSettings
  1

  2
none_device
  4
ANSI_A_(11.00_x_8.50_Inches)
  6

 40
0.0
 41
0.0
 42
0.0
 43
0.0
 44
279.4
 45
215.9
 46
0.0
 47
0.0
 48
0.0
 49
0.0
140
0.0
141
0.0
142
1.0
143
1.0
 70
0
 72
0
 73
0
 74
0
  7

 75
0
147
1.0
148
0.0
149
0.0
100
AcDbLayout
  1
Layout1
 70
0
 71
1
 10
0.0
 20
0.0
 11
11.0
 21
8.5
 12
0.0
 22
0.0
 32
0.0
 14
0.0
 24
0.0
 34
0.0
 15
0.0
 25
0.0
 35
0.0
146
0.0
 13
0.0
 23
0.0
 33
0.0
 16
1.0
 26
0.0
 36
0.0
 17
0.0
 27
1.0
 37
0.0
 76
0
330
204
345
0
346
0
  0
ENDSEC
  0
EOF
