999
DXF file: 283-201_top.dxf
999
Pro/ENGINEER 2023134 by Parametric Technology Corporation
  0
SECTION
  2
HEADER
  9
$ACADVER
  1
AC1032
  9
$DWGCODEPAGE
  3
ANSI_1252
  9
$EXTMAX
 10
11.0
 20
8.5
 30
0.0
  9
$EXTMIN
 10
0.0
 20
0.0
 30
0.0
  9
$LIMMIN
 10
0.0
 20
0.0
  9
$LIMMAX
 10
11.0
 20
8.5
  9
$VIEWCTR
 10
5.5
 20
4.25
  9
$VIEWSIZE
 40
8.5
  9
$CLAYER
  8
0
  9
$LTSCALE
 40
0.605
  9
$CELTYPE
  6
BYLAYER
  9
$DIMSCALE
 40
1.0
  9
$DIMASZ
 40
0.1
  9
$DIMEXO
 40
0.03125
  9
$DIMDLI
 40
0.418
  9
$DIMEXE
 40
0.0625
  9
$DIMCEN
 40
0.099
  9
$DIMLFAC
 40
1.0
  9
$DIMBLK
  1
_FILLED
  9
$DIMALT
 70
1
  9
$DIMALTD
 70
2
  9
$DIMALTTD
 70
2
  9
$DIMALTF
 40
25.4
  9
$DIMTXT
 40
0.08
  9
$DIMTOL
 70
1
  9
$DIMLIM
 70
0
  9
$DIMTFAC
 40
1.0
  9
$DIMTP
 40
0.001
  9
$DIMTM
 40
0.001
  9
$DIMGAP
 40
0.09
  9
$DIMDSEP
 70
46
  9
$AUNITS
 70
0
  9
$PDMODE
 70
3
  9
$PDSIZE
 40
0.06
  9
$HANDSEED
  5
26B
  9
$TILEMODE
 70
1
  9
$MEASUREMENT
 70
0
  9
$INSUNITS
 70
1
  0
ENDSEC
  0
SECTION
  2
CLASSES
  0
CLASS
  1
ACDBDICTIONARYWDFLT
  2
AcDbDictionaryWithDefault
  3
AutoCAD 2000
 90
0
 91
1
280
0
281
0
  0
CLASS
  1
ACDBPLACEHOLDER
  2
AcDbPlaceHolder
  3
AutoCAD 2000
 90
0
 91
1
280
0
281
0
  0
CLASS
  1
LAYOUT
  2
AcDbLayout
  3
AutoCAD 2000
 90
0
 91
0
280
0
281
0
  0
ENDSEC
  0
SECTION
  2
TABLES
  0
TABLE
  2
VPORT
  5
8
100
AcDbSymbolTable
 70
2
  0
VPORT
  5
1F4
100
AcDbSymbolTableRecord
100
AcDbViewportTableRecord
  2
*ACTIVE
 70
0
 10
0.0
 20
0.0
 11
1.0
 21
1.0
 12
5.5
 22
4.25
 13
0.0
 23
0.0
 14
1.0
 24
1.0
 15
0.0
 25
0.0
 16
0.0
 26
0.0
 36
1.0
 17
0.0
 27
0.0
 37
0.0
 40
8.5
 41
1.2941176471
 42
50.0
 43
0.0
 44
0.0
 50
0.0
 51
0.0
 71
0
 72
100
 73
1
 74
1
 75
0
 76
0
 77
0
 78
0
  0
ENDTAB
  0
TABLE
  2
LTYPE
  5
5
100
AcDbSymbolTable
 70
6
  0
LTYPE
  5
14
100
AcDbSymbolTableRecord
100
AcDbLinetypeTableRecord
  2
BYBLOCK
 70
0
  3

 72
65
 73
0
 40
0.0
  0
LTYPE
  5
15
100
AcDbSymbolTableRecord
100
AcDbLinetypeTableRecord
  2
BYLAYER
 70
0
  3

 72
65
 73
0
 40
0.0
  0
LTYPE
  5
16
100
AcDbSymbolTableRecord
100
AcDbLinetypeTableRecord
  2
CONTINUOUS
 70
64
  3
Solid line
 72
65
 73
0
 40
0.0
  0
LTYPE
  5
1F5
100
AcDbSymbolTableRecord
100
AcDbLinetypeTableRecord
  2
CENTER
 70
64
  3
____ _ ____ _ ____ _ ____ _ ____ _ ____ _ ____
 72
65
 73
4
 40
0.6
 49
0.375
 74
0
 49
-0.075
 74
0
 49
0.075
 74
0
 49
-0.075
 74
0
  0
LTYPE
  5
1F6
100
AcDbSymbolTableRecord
100
AcDbLinetypeTableRecord
  2
HIDDEN
 70
64
  3
- - - - - - - - - - - - - - - - - - - -
 72
65
 73
2
 40
0.2
 49
0.1
 74
0
 49
-0.1
 74
0
  0
LTYPE
  5
1F7
100
AcDbSymbolTableRecord
100
AcDbLinetypeTableRecord
  2
PHANTOM
 70
64
  3
_____ _ _ _____ _ _ _____ _ _ _____
 72
65
 73
6
 40
0.8
 49
0.45
 74
0
 49
-0.05
 74
0
 49
0.1
 74
0
 49
-0.05
 74
0
 49
0.1
 74
0
 49
-0.05
 74
0
  0
LTYPE
  5
1F8
100
AcDbSymbolTableRecord
100
AcDbLinetypeTableRecord
  2
DOT
 70
64
  3
. . . . . . . . . . . . . . . . . . . .
 72
65
 73
2
 40
0.2
 49
0.1
 74
0
 49
-0.1
 74
0
  0
LTYPE
  5
1F9
100
AcDbSymbolTableRecord
100
AcDbLinetypeTableRecord
  2
DASHED
 70
64
  3
- - - - - - - - - - - - - - - - - - - -
 72
65
 73
2
 40
0.2
 49
0.1
 74
0
 49
-0.1
 74
0
  0
ENDTAB
  0
TABLE
  2
LAYER
  5
2
100
AcDbSymbolTable
 70
36
  0
LAYER
  5
10
100
AcDbSymbolTableRecord
100
AcDbLayerTableRecord
  2
0
 70
0
 62
7
  6
CONTINUOUS
370
-3
390
F
  0
LAYER
  5
1FA
100
AcDbSymbolTableRecord
100
AcDbLayerTableRecord
  2
DEFAULT_1
 70
0
 62
7
  6
CENTER
370
-3
390
F
  0
LAYER
  5
1FB
100
AcDbSymbolTableRecord
100
AcDbLayerTableRecord
  2
DEFAULT_2
 70
0
 62
8
  6
HIDDEN
370
-3
390
F
  0
LAYER
  5
1FC
100
AcDbSymbolTableRecord
100
AcDbLayerTableRecord
  2
DEFAULT_3
 70
0
 62
7
  6
PHANTOM
370
-3
390
F
  0
LAYER
  5
1FD
100
AcDbSymbolTableRecord
100
AcDbLayerTableRecord
  2
DEFAULT_COORDINATE_SYSTEM
 70
0
 62
7
  6
CONTINUOUS
370
-3
390
F
  0
LAYER
  5
1FE
100
AcDbSymbolTableRecord
100
AcDbLayerTableRecord
  2
DEFAULT_DATUM_AXES
 70
0
 62
7
  6
CONTINUOUS
370
-3
390
F
  0
LAYER
  5
1FF
100
AcDbSymbolTableRecord
100
AcDbLayerTableRecord
  2
DEFAULT_DATUM_CURVES
 70
0
 62
7
  6
CONTINUOUS
370
-3
390
F
  0
LAYER
  5
200
100
AcDbSymbolTableRecord
100
AcDbLayerTableRecord
  2
DEFAULT_DATUM_PLANES
 70
0
 62
7
  6
CONTINUOUS
370
-3
390
F
  0
ENDTAB
  0
TABLE
  2
STYLE
  5
3
100
AcDbSymbolTable
 70
1
  0
STYLE
  5
11
100
AcDbSymbolTableRecord
100
AcDbTextStyleTableRecord
  2
STANDARD
 70
0
 40
0.0
 41
0.8
 50
0.0
 71
0
 42
0.2
  3
txt
  4

  0
STYLE
  5
201
100
AcDbSymbolTableRecord
100
AcDbTextStyleTableRecord
  2
TEXTSTYLE_1
 70
0
 40
0.0
 41
0.8
 50
0.0
 71
0
 42
0.2
  3
gdt
  4

  0
ENDTAB
  0
TABLE
  2
VIEW
  5
6
100
AcDbSymbolTable
 70
0
  0
ENDTAB
  0
TABLE
  2
UCS
  5
7
100
AcDbSymbolTable
 70
0
  0
ENDTAB
  0
TABLE
  2
APPID
  5
9
100
AcDbSymbolTable
 70
1
  0
APPID
  5
202
100
AcDbSymbolTableRecord
100
AcDbRegAppTableRecord
  2
ACAD
 70
0
  0
ENDTAB
  0
TABLE
  2
BLOCK_RECORD
  5
1
100
AcDbSymbolTable
 70
0
  0
BLOCK_RECORD
  5
203
100
AcDbSymbolTableRecord
100
AcDbBlockTableRecord
  2
*Model_Space
  0
BLOCK_RECORD
  5
204
100
AcDbSymbolTableRecord
100
AcDbBlockTableRecord
  2
*Paper_Space
  0
BLOCK_RECORD
  5
205
100
AcDbSymbolTableRecord
100
AcDbBlockTableRecord
  2
_FILLED
  0
ENDTAB
  0
TABLE
  2
DIMSTYLE
  5
A
100
AcDbSymbolTable
 70
1
100
AcDbDimStyleTable
 71
0
  0
DIMSTYLE
105
206
100
AcDbSymbolTableRecord
100
AcDbDimStyleTableRecord
  2
STANDARD
 70
0
  3

  4

 40
1.0
 41
0.1
 42
0.03125
 43
0.38
 44
0.0625
 45
0.0
 46
0.0
 47
0.001
 48
0.001
140
0.08
141
0.09
142
0.0
143
25.4
144
1.0
145
0.0
146
1.0
147
0.09
 71
1
 72
0
 73
1
 74
1
 75
0
 76
0
 77
0
 78
4
 79
1
170
1
171
2
172
0
173
0
174
0
175
0
176
0
177
0
178
0
270
2
179
3
271
3
272
3
273
2
274
2
275
0
280
0
281
0
282
0
283
1
284
4
285
0
286
0
287
3
288
0
340
11
278
46
341
205
342
205
343
205
344
205
  0
ENDTAB
  0
ENDSEC
  0
SECTION
  2
BLOCKS
  0
BLOCK
  5
20
100
AcDbEntity
  8
0
100
AcDbBlockBegin
  2
*Model_Space
 70
0
 10
0.0
 20
0.0
 30
0.0
  3
*Model_Space
  1

  0
ENDBLK
  5
21
100
AcDbEntity
  8
0
100
AcDbBlockEnd
  0
BLOCK
  5
1C
100
AcDbEntity
  8
0
100
AcDbBlockBegin
  2
*Paper_Space
 70
0
 10
0.0
 20
0.0
 30
0.0
  3
*Paper_Space
  1

  0
ENDBLK
  5
1D
100
AcDbEntity
  8
0
100
AcDbBlockEnd
  0
BLOCK
  5
207
100
AcDbEntity
  8
0
100
AcDbBlockBegin
  2
_FILLED
 70
64
 10
0.0
 20
0.0
  3
_FILLED
  1

  0
SOLID
  5
208
100
AcDbEntity
  8
0
  6
BYBLOCK
 62
0
100
AcDbTrace
 10
0.0
 20
0.0
 11
-1.0
 21
0.2
 12
-1.0
 22
-0.2
 13
-1.0
 23
-0.2
  0
ENDBLK
  5
209
100
AcDbEntity
  8
0
  6
BYBLOCK
 62
0
100
AcDbBlockEnd
  0
ENDSEC
  0
SECTION
  2
ENTITIES
  0
MTEXT
  5
20A
100
AcDbEntity
  8
0
100
AcDbMText
 62
2
  6
CONTINUOUS
  7
STANDARD
 71
3
 72
1
 10
5.6386986301
 20
3.3562117733
 30
0.0
 11
1.0
 21
0.0
 31
0.0
 73
2
 44
0.9
  1
SCALE .500
 40
0.08
 41
0.64
  0
LINE
  5
20B
100
AcDbEntity
  8
0
100
AcDbLine
 62
7
  6
CONTINUOUS
 10
0.0
 20
0.0
 11
0.0
 21
8.5
  0
LINE
  5
20C
100
AcDbEntity
  8
0
100
AcDbLine
 62
7
  6
CONTINUOUS
 10
0.0
 20
0.0
 11
11.0
 21
0.0
  0
LINE
  5
20D
100
AcDbEntity
  8
0
100
AcDbLine
 62
7
  6
CONTINUOUS
 10
0.0
 20
8.5
 11
11.0
 21
8.5
  0
LINE
  5
20E
100
AcDbEntity
  8
0
100
AcDbLine
 62
7
  6
CONTINUOUS
 10
11.0
 20
0.0
 11
11.0
 21
8.5
  0
LINE
  5
20F
100
AcDbEntity
  8
0
100
AcDbLine
 62
7
  6
CONTINUOUS
 10
4.573202054
 20
4.6839691108
 11
4.5732020556
 21
4.5592453739
  0
LINE
  5
210
100
AcDbEntity
  8
0
100
AcDbLine
 62
7
  6
CONTINUOUS
 10
4.61902374
 20
4.6124848882
 11
4.6194306206
 21
4.6118668997
  0
LINE
  5
211
100
AcDbEntity
  8
0
100
AcDbLine
 62
7
  6
CONTINUOUS
 10
4.6190440589
 20
4.6124868374
 11
4.6194306206
 21
4.6118668997
  0
LINE
  5
212
100
AcDbEntity
  8
0
100
AcDbLine
 62
7
  6
CONTINUOUS
 10
4.7401635
 20
4.5204793867
 11
4.7402366258
 21
4.5204411218
  0
LINE
  5
213
100
AcDbEntity
  8
0
100
AcDbLine
 62
7
  6
CONTINUOUS
 10
4.74022734
 20
4.5204972499
 11
4.7402998392
 21
4.5204588164
  0
LINE
  5
214
100
AcDbEntity
  8
0
100
AcDbLine
 62
7
  6
CONTINUOUS
 10
4.7423548705
 20
4.8276558924
 11
4.9433432733
 21
5.1835778917
  0
LINE
  5
215
100
AcDbEntity
  8
0
100
AcDbLine
 62
7
  6
CONTINUOUS
 10
4.7143387502
 20
4.790833086
 11
4.7145779351
 21
4.7910067135
  0
LINE
  5
216
100
AcDbEntity
  8
0
100
AcDbLine
 62
7
  6
CONTINUOUS
 10
4.7142787822
 20
4.790845464
 11
4.7145224548
 21
4.7910181866
  0
LINE
  5
217
100
AcDbEntity
  8
0
100
AcDbLine
 62
7
  6
CONTINUOUS
 10
4.7422021933
 20
4.8279494157
 11
4.7426530534
 21
4.8281839321
  0
LINE
  5
218
100
AcDbEntity
  8
0
100
AcDbLine
 62
7
  6
CONTINUOUS
 10
4.7421438498
 20
4.8279660076
 11
4.7425980211
 21
4.8281996186
  0
LINE
  5
219
100
AcDbEntity
  8
0
100
AcDbLine
 62
7
  6
CONTINUOUS
 10
5.8696648596
 20
4.7908099181
 11
5.8692684944
 21
4.7910898005
  0
LINE
  5
21A
100
AcDbEntity
  8
0
100
AcDbLine
 62
7
  6
CONTINUOUS
 10
5.8689114124
 20
4.7914042629
 11
5.8696359392
 21
4.7907723555
  0
LWPOLYLINE
  5
21B
100
AcDbEntity
  8
0
100
AcDbPolyline
 62
7
  6
CONTINUOUS
 90
3
 70
0
 10
5.8689114122
 20
4.7914042727
 10
5.8694141359
 20
4.7909615381
 10
5.869637503
 20
4.7907711761
  0
LINE
  5
21C
100
AcDbEntity
  8
0
100
AcDbLine
 62
7
  6
CONTINUOUS
 10
5.8415492338
 20
4.8276559067
 11
5.6405608218
 21
5.1835779008
  0
LINE
  5
21D
100
AcDbEntity
  8
0
100
AcDbLine
 62
7
  6
CONTINUOUS
 10
6.010702054
 20
4.6839691295
 11
6.0107020556
 21
4.5592453926
  0
LINE
  5
21E
100
AcDbEntity
  8
0
100
AcDbLine
 62
7
  6
CONTINUOUS
 10
5.9769006864
 20
4.6606510909
 11
5.9769096181
 21
4.6612171071
  0
LINE
  5
21F
100
AcDbEntity
  8
0
100
AcDbLine
 62
7
  6
CONTINUOUS
 10
5.9769006864
 20
4.6606510909
 11
5.9769169956
 21
4.6612170785
  0
ARC
  5
220
100
AcDbEntity
  8
0
100
AcDbCircle
 62
7
  6
CONTINUOUS
 10
5.2919765064
 20
6.2442250201
 40
1.828612657
100
AcDbArc
 50
269.9992338341
 51
271.5532141553
  0
ARC
  5
221
100
AcDbEntity
  8
0
100
AcDbCircle
 62
7
  6
CONTINUOUS
 10
5.1073178143
 20
5.3106159367
 40
0.8737235699
100
AcDbArc
 50
250.5935719853
 51
250.7420246999
  0
ARC
  5
222
100
AcDbEntity
  8
0
100
AcDbCircle
 62
7
  6
CONTINUOUS
 10
5.1048707586
 20
5.3036643053
 40
0.866353817
100
AcDbArc
 50
250.4534857646
 51
250.5934549124
  0
ARC
  5
223
100
AcDbEntity
  8
0
100
AcDbCircle
 62
7
  6
CONTINUOUS
 10
5.1007076893
 20
5.2561694945
 40
0.8200192442
100
AcDbArc
 50
249.6186111197
 51
250.9558147203
  0
ARC
  5
224
100
AcDbEntity
  8
0
100
AcDbCircle
 62
7
  6
CONTINUOUS
 10
5.291952048
 20
5.1486512404
 40
0.27
100
AcDbArc
 50
43.1309734619
 51
136.8596172673
  0
ARC
  5
225
100
AcDbEntity
  8
0
100
AcDbCircle
 62
7
  6
CONTINUOUS
 10
5.8077148237
 20
4.7293585934
 40
0.1982830732
100
AcDbArc
 50
318.5841554042
 51
320.7332228147
  0
ARC
  5
226
100
AcDbEntity
  8
0
100
AcDbCircle
 62
7
  6
CONTINUOUS
 10
5.8161475197
 20
4.7224697368
 40
0.1873942399
100
AcDbArc
 50
320.7320241784
 51
322.1164775901
  0
ARC
  5
227
100
AcDbEntity
  8
0
100
AcDbCircle
 62
7
  6
CONTINUOUS
 10
5.87247778
 20
4.650952849
 40
0.1070035392
100
AcDbArc
 50
7.0767226887
 51
14.7965444097
  0
ARC
  5
228
100
AcDbEntity
  8
0
100
AcDbCircle
 62
7
  6
CONTINUOUS
 10
5.873899463
 20
4.6532474682
 40
0.1056002468
100
AcDbArc
 50
6.1804649876
 51
16.2630558514
  0
ARC
  5
229
100
AcDbEntity
  8
0
100
AcDbCircle
 62
7
  6
CONTINUOUS
 10
5.8738016661
 20
4.6639053519
 40
0.1031503658
100
AcDbArc
 50
358.5066057566
 51
0.0005556542
  0
ARC
  5
22A
100
AcDbEntity
  8
0
100
AcDbCircle
 62
7
  6
CONTINUOUS
 10
5.8766872274
 20
4.6515408789
 40
0.1027537354
100
AcDbArc
 50
1.5730109902
 51
7.0405044542
  0
ARC
  5
22B
100
AcDbEntity
  8
0
100
AcDbCircle
 62
7
  6
CONTINUOUS
 10
5.8787743384
 20
4.6538663608
 40
0.1006871159
100
AcDbArc
 50
0.1428066169
 51
6.1289863815
  0
ARC
  5
22C
100
AcDbEntity
  8
0
100
AcDbCircle
 62
7
  6
CONTINUOUS
 10
5.8804769049
 20
4.6539072752
 40
0.0989844595
100
AcDbArc
 50
358.6284486792
 51
0.1215803127
  0
ARC
  5
22D
100
AcDbEntity
  8
0
100
AcDbCircle
 62
7
  6
CONTINUOUS
 10
5.8808226545
 20
4.6538985563
 40
0.0986386003
100
AcDbArc
 50
353.6043371083
 51
358.6287046083
  0
ARC
  5
22E
100
AcDbEntity
  8
0
100
AcDbCircle
 62
7
  6
CONTINUOUS
 10
5.8833231054
 20
4.6557833644
 40
0.0963876847
100
AcDbArc
 50
349.0754403724
 51
352.3252469363
  0
SPLINE
  5
22F
100
AcDbEntity
  8
0
100
AcDbSpline
 62
7
  6
CONTINUOUS
 70
0
 71
3
 72
15
 73
11
 74
0
 42
0.0000001
 43
0.0000001
 44
0.0000000001
 40
0.0
 40
0.0
 40
0.0
 40
0.0
 40
0.1066854528
 40
0.2183324389
 40
0.335126383
 40
0.4572155331
 40
0.5847102697
 40
0.7176696568
 40
0.8561062891
 40
1.0
 40
1.0
 40
1.0
 40
1.0
 10
4.6404783394
 20
4.7526152085
 30
0.0
 10
4.6434086853
 20
4.756066507
 30
0.0
 10
4.6496533183
 20
4.7629222404
 30
0.0
 10
4.6598705241
 20
4.7728267023
 30
0.0
 10
4.6711280345
 20
4.7825621837
 30
0.0
 10
4.6834057377
 20
4.7921123639
 30
0.0
 10
4.6966839856
 20
4.801462489
 30
0.0
 10
4.7109413627
 20
4.8105979663
 30
0.0
 10
4.7261543685
 20
4.8195041598
 30
0.0
 10
4.7367148619
 20
4.825170272
 30
0.0
 10
4.7421438498
 20
4.8279660076
 30
0.0
  0
SPLINE
  5
230
100
AcDbEntity
  8
0
100
AcDbSpline
 62
7
  6
CONTINUOUS
 70
0
 71
3
 72
35
 73
31
 74
0
 42
0.0000001
 43
0.0000001
 44
0.0000000001
 40
0.0
 40
0.0
 40
0.0
 40
0.0
 40
0.0611882817
 40
0.1188607603
 40
0.1465761876
 40
0.1736579002
 40
0.200208891
 40
0.2263399237
 40
0.2521680397
 40
0.2778152312
 40
0.3034069864
 40
0.3290702127
 40
0.3549305554
 40
0.3811104973
 40
0.4077269904
 40
0.4348896819
 40
0.4627004804
 40
0.4912524565
 40
0.5206285812
 40
0.5509028609
 40
0.6143777567
 40
0.6477006901
 40
0.682130086
 40
0.7176983379
 40
0.754430595
 40
0.7923468283
 40
0.8314614919
 40
0.8717827152
 40
0.9133146573
 40
1.0
 40
1.0
 40
1.0
 40
1.0
 10
4.6404783394
 20
4.7526152085
 30
0.0
 10
4.6366240972
 20
4.7479154017
 30
0.0
 10
4.6295713109
 20
4.7384156098
 30
0.0
 10
4.6222468844
 20
4.7257882816
 30
0.0
 10
4.617593508
 20
4.7156235598
 30
0.0
 10
4.6147233495
 20
4.708062975
 30
0.0
 10
4.6124307644
 20
4.7004717179
 30
0.0
 10
4.6107183775
 20
4.6928561268
 30
0.0
 10
4.6095877738
 20
4.685223214
 30
0.0
 10
4.6090405438
 20
4.6775799744
 30
0.0
 10
4.609078189
 20
4.6699335867
 30
0.0
 10
4.6097003009
 20
4.6622912878
 30
0.0
 10
4.6109061299
 20
4.6546601218
 30
0.0
 10
4.6126949996
 20
4.6470471841
 30
0.0
 10
4.6150649399
 20
4.6394593756
 30
0.0
 10
4.6180131756
 20
4.6319032708
 30
0.0
 10
4.6215371913
 20
4.6243854753
 30
0.0
 10
4.6256339025
 20
4.6169126072
 30
0.0
 10
4.6302991959
 20
4.6094904438
 30
0.0
 10
4.6373833293
 20
4.5995140153
 30
0.0
 10
4.6455126421
 20
4.5898249133
 30
0.0
 10
4.6545579028
 20
4.5804348992
 30
0.0
 10
4.661996671
 20
4.5733588358
 30
0.0
 10
4.6699728033
 20
4.5663703297
 30
0.0
 10
4.6784798463
 20
4.5594745611
 30
0.0
 10
4.6875107357
 20
4.552677621
 30
0.0
 10
4.6970580489
 20
4.545985454
 30
0.0
 10
4.7071136219
 20
4.5394033149
 30
0.0
 10
4.7213910684
 20
4.5306569431
 30
0.0
 10
4.7325343844
 20
4.524472281
 30
0.0
 10
4.7401635
 20
4.5204793867
 30
0.0
  0
SPLINE
  5
231
100
AcDbEntity
  8
0
100
AcDbSpline
 62
7
  6
CONTINUOUS
 70
0
 71
3
 72
11
 73
7
 74
0
 42
0.0000001
 43
0.0000001
 44
0.0000000001
 40
0.0
 40
0.0
 40
0.0
 40
0.0
 40
0.236927023
 40
0.4826929592
 40
0.7371208673
 40
1.0
 40
1.0
 40
1.0
 40
1.0
 10
4.7402366258
 20
4.5204411218
 30
0.0
 10
4.7459653623
 20
4.5174439879
 30
0.0
 10
4.7577500584
 20
4.5115528082
 30
0.0
 10
4.776037405
 20
4.5031672431
 30
0.0
 10
4.7952306231
 20
4.4950831448
 30
0.0
 10
4.8083972844
 20
4.4899862589
 30
0.0
 10
4.8151215748
 20
4.4874874197
 30
0.0
  0
SPLINE
  5
232
100
AcDbEntity
  8
0
100
AcDbSpline
 62
7
  6
CONTINUOUS
 70
0
 71
3
 72
25
 73
21
 74
0
 42
0.0000001
 43
0.0000001
 44
0.0000000001
 40
0.0
 40
0.0
 40
0.0
 40
0.0
 40
0.085958726
 40
0.1686119861
 40
0.2478899829
 40
0.323746862
 40
0.3961615854
 40
0.465143311
 40
0.5307353278
 40
0.5930198066
 40
0.6521254366
 40
0.7082319325
 40
0.7615792643
 40
0.8124717081
 40
0.8612832465
 40
0.9084567142
 40
0.9315950289
 40
0.9545177415
 40
0.9772953696
 40
1.0
 40
1.0
 40
1.0
 40
1.0
 10
5.8165694349
 20
4.8719824539
 30
0.0
 10
5.8241295683
 20
4.868893156
 30
0.0
 10
5.8388625229
 20
4.8625928381
 30
0.0
 10
5.8601797636
 20
4.8525668745
 30
0.0
 10
5.8802436494
 20
4.8421682782
 30
0.0
 10
5.8990102134
 20
4.8314202223
 30
0.0
 10
5.9164384952
 20
4.820345575
 30
0.0
 10
5.9324905779
 20
4.8089681352
 30
0.0
 10
5.9471316097
 20
4.7973120354
 30
0.0
 10
5.9603293845
 20
4.7854012314
 30
0.0
 10
5.9720551436
 20
4.7732605428
 30
0.0
 10
5.982281944
 20
4.7609138725
 30
0.0
 10
5.9909861364
 20
4.7483864035
 30
0.0
 10
5.9981452842
 20
4.7357025179
 30
0.0
 10
6.003739311
 20
4.7228900819
 30
0.0
 10
6.0071038671
 20
4.7120554633
 30
0.0
 10
6.0089742522
 20
4.7033924173
 30
0.0
 10
6.0099707428
 20
4.6969241793
 30
0.0
 10
6.0105689482
 20
4.6904487686
 30
0.0
 10
6.0107020539
 20
4.6861263047
 30
0.0
 10
6.010702054
 20
4.6839691298
 30
0.0
  0
SPLINE
  5
233
100
AcDbEntity
  8
0
100
AcDbSpline
 62
7
  6
CONTINUOUS
 70
0
 71
3
 72
19
 73
15
 74
0
 42
0.0000001
 43
0.0000001
 44
0.0000000001
 40
0.0
 40
0.0
 40
0.0
 40
0.0
 40
0.1349314809
 40
0.2688772217
 40
0.4008696662
 40
0.5299596464
 40
0.5931338081
 40
0.6552451456
 40
0.7161882874
 40
0.775861605
 40
0.8341682756
 40
0.8910165565
 40
0.9463202759
 40
1.0
 40
1.0
 40
1.0
 40
1.0
 10
5.291952054
 20
4.4156123632
 30
0.0
 10
5.2703595448
 20
4.415612363
 30
0.0
 10
5.2273283646
 20
4.4163716179
 30
0.0
 10
5.163256411
 20
4.4197827901
 30
0.0
 10
5.1002808205
 20
4.4254352156
 30
0.0
 10
5.0487964583
 20
4.4320192383
 30
0.0
 10
5.0085894634
 20
4.4383925953
 30
0.0
 10
4.9792554877
 20
4.4436626903
 30
0.0
 10
4.9505894805
 20
4.4494452437
 30
0.0
 10
4.9226525171
 20
4.4557282085
 30
0.0
 10
4.895504221
 20
4.4624979614
 30
0.0
 10
4.869202394
 20
4.4697400605
 30
0.0
 10
4.8438033917
 20
4.4774390475
 30
0.0
 10
4.8272539684
 20
4.4829499874
 30
0.0
 10
4.8191445111
 20
4.4857832118
 30
0.0
  0
SPLINE
  5
234
100
AcDbEntity
  8
0
100
AcDbSpline
 62
7
  6
CONTINUOUS
 70
0
 71
3
 72
15
 73
11
 74
0
 42
0.0000001
 43
0.0000001
 44
0.0000000001
 40
0.0
 40
0.0
 40
0.0
 40
0.0
 40
0.1444506234
 40
0.2835857617
 40
0.4172348316
 40
0.5452624303
 40
0.6675744564
 40
0.7841211502
 40
0.8949077385
 40
1.0
 40
1.0
 40
1.0
 40
1.0
 10
4.8150130202
 20
4.4872382965
 30
0.0
 10
4.8066853742
 20
4.4901949042
 30
0.0
 10
4.7904241347
 20
4.4962505991
 30
0.0
 10
4.7668118195
 20
4.5059576448
 30
0.0
 10
4.7444808175
 20
4.5160991108
 30
0.0
 10
4.7234855219
 20
4.5266505156
 30
0.0
 10
4.7038765001
 20
4.5375861234
 30
0.0
 10
4.6857009421
 20
4.5488804613
 30
0.0
 10
4.6690032622
 20
4.5605057052
 30
0.0
 10
4.6586117962
 20
4.5686723111
 30
0.0
 10
4.6536910801
 20
4.5728099801
 30
0.0
  0
SPLINE
  5
235
100
AcDbEntity
  8
0
100
AcDbSpline
 62
7
  6
CONTINUOUS
 70
0
 71
3
 72
38
 73
34
 74
0
 42
0.0000001
 43
0.0000001
 44
0.0000000001
 40
0.0
 40
0.0
 40
0.0
 40
0.0
 40
0.031260665
 40
0.0625240923
 40
0.0937856061
 40
0.125048269
 40
0.1563097007
 40
0.187568806
 40
0.2188253159
 40
0.2500771727
 40
0.2813244701
 40
0.3125684263
 40
0.3438094996
 40
0.3750494516
 40
0.4062914056
 40
0.437538535
 40
0.5000203739
 40
0.5625017032
 40
0.5937482344
 40
0.6249892461
 40
0.6562279007
 40
0.6874672295
 40
0.7187084227
 40
0.7499531602
 40
0.7812006419
 40
0.8124518218
 40
0.8437042552
 40
0.8593344879
 40
0.8749654435
 40
0.906221928
 40
0.93747822
 40
0.9687398602
 40
1.0
 40
1.0
 40
1.0
 40
1.0
 10
5.6405608218
 20
5.1835779008
 30
0.0
 10
5.6362459019
 20
5.1912190123
 30
0.0
 10
5.6270924233
 20
5.2062131341
 30
0.0
 10
5.6118691897
 20
5.2277158745
 30
0.0
 10
5.5952205738
 20
5.2481372335
 30
0.0
 10
5.5772268523
 20
5.2673825866
 30
0.0
 10
5.5579728979
 20
5.2853661221
 30
0.0
 10
5.5375503549
 20
5.3020077883
 30
0.0
 10
5.516055984
 20
5.3172350267
 30
0.0
 10
5.4935919892
 20
5.3309850018
 30
0.0
 10
5.4702635728
 20
5.3432030825
 30
0.0
 10
5.4461791551
 20
5.3538455689
 30
0.0
 10
5.4214486265
 20
5.3628788534
 30
0.0
 10
5.3961829562
 20
5.3702803324
 30
0.0
 10
5.3704904846
 20
5.3760378438
 30
0.0
 10
5.3358199159
 20
5.381516011
 30
0.0
 10
5.29193308
 20
5.38425159
 30
0.0
 10
5.2480466581
 20
5.381512078
 30
0.0
 10
5.2133771523
 20
5.3760308732
 30
0.0
 10
5.1876859763
 20
5.37027123
 30
0.0
 10
5.1624220329
 20
5.3628678389
 30
0.0
 10
5.1376938157
 20
5.3538329911
 30
0.0
 10
5.1136120814
 20
5.3431893297
 30
0.0
 10
5.0902870416
 20
5.3309707555
 30
0.0
 10
5.067826817
 20
5.3172209855
 30
0.0
 10
5.0463375598
 20
5.3019953133
 30
0.0
 10
5.0293211993
 20
5.2881280714
 30
0.0
 10
5.0162947848
 20
5.2763654909
 30
0.0
 10
5.003672243
 20
5.2641688785
 30
0.0
 10
4.9886789776
 20
5.2481319106
 30
0.0
 10
4.9720332478
 20
5.2277135886
 30
0.0
 10
4.9568112473
 20
5.2062124168
 30
0.0
 10
4.9476581204
 20
5.191218875
 30
0.0
 10
4.9433432733
 20
5.1835778917
 30
0.0
  0
SPLINE
  5
236
100
AcDbEntity
  8
0
100
AcDbSpline
 62
7
  6
CONTINUOUS
 70
0
 71
3
 72
15
 73
11
 74
0
 42
0.0000001
 43
0.0000001
 44
0.0000000001
 40
0.0
 40
0.0
 40
0.0
 40
0.0
 40
0.0470098971
 40
0.1183793288
 40
0.2133700293
 40
0.3309890056
 40
0.4699438736
 40
0.6288544656
 40
0.8062265081
 40
1.0
 40
1.0
 40
1.0
 40
1.0
 10
4.7150123522
 20
4.7914218686
 30
0.0
 10
4.7155437935
 20
4.7918986038
 30
0.0
 10
4.7168551001
 20
4.7931291586
 30
0.0
 10
4.7191387928
 20
4.7954290827
 30
0.0
 10
4.7220604179
 20
4.7986029918
 30
0.0
 10
4.725520881
 20
4.8026708378
 30
0.0
 10
4.7294118162
 20
4.80764061
 30
0.0
 10
4.7336212001
 20
4.813506114
 30
0.0
 10
4.7380291822
 20
4.8202448037
 30
0.0
 10
4.740907839
 20
4.8250934046
 30
0.0
 10
4.7423548705
 20
4.8276558925
 30
0.0
  0
SPLINE
  5
237
100
AcDbEntity
  8
0
100
AcDbSpline
 62
7
  6
CONTINUOUS
 70
0
 71
3
 72
15
 73
11
 74
0
 42
0.0000001
 43
0.0000001
 44
0.0000000001
 40
0.0
 40
0.0
 40
0.0
 40
0.0
 40
0.1940576697
 40
0.3716355447
 40
0.5306860231
 40
0.6697015027
 40
0.7872898749
 40
0.8821562254
 40
0.953305788
 40
1.0
 40
1.0
 40
1.0
 40
1.0
 10
5.8415492338
 20
4.8276559067
 30
0.0
 10
5.8429992267
 20
4.8250881747
 30
0.0
 10
5.8458835545
 20
4.8202304692
 30
0.0
 10
5.8503002563
 20
4.8134804577
 30
0.0
 10
5.8545169734
 20
4.8076074586
 30
0.0
 10
5.8584132104
 20
4.8026339065
 30
0.0
 10
5.8618762719
 20
4.798566087
 30
0.0
 10
5.8647971047
 20
4.7953957921
 30
0.0
 10
5.8670761811
 20
4.7931027718
 30
0.0
 10
5.868382952
 20
4.7918777562
 30
0.0
 10
5.8689114124
 20
4.7914042629
 30
0.0
  0
SPLINE
  5
238
100
AcDbEntity
  8
0
100
AcDbSpline
 62
7
  6
CONTINUOUS
 70
0
 71
3
 72
14
 73
10
 74
0
 42
0.0000001
 43
0.0000001
 44
0.0000000001
 40
0.0
 40
0.0
 40
0.0
 40
0.0
 40
0.1185777463
 40
0.2378037493
 40
0.3583134005
 40
0.4807178377
 40
0.6055921781
 40
0.733470859
 40
1.0
 40
1.0
 40
1.0
 40
1.0
 10
4.5982020541
 20
4.6770400147
 30
0.0
 10
4.5982020541
 20
4.6743212217
 30
0.0
 10
4.5984215697
 20
4.6688662665
 30
0.0
 10
4.5994074794
 20
4.6607018431
 30
0.0
 10
4.6010492602
 20
4.6525538198
 30
0.0
 10
4.603344953
 20
4.6444313938
 30
0.0
 10
4.6062915659
 20
4.6363416727
 30
0.0
 10
4.611149167
 20
4.625463398
 30
0.0
 10
4.6156751164
 20
4.6175968314
 30
0.0
 10
4.61902374
 20
4.6124848882
 30
0.0
  0
SPLINE
  5
239
100
AcDbEntity
  8
0
100
AcDbSpline
 62
7
  6
CONTINUOUS
 70
0
 71
3
 72
11
 73
7
 74
0
 42
0.0000001
 43
0.0000001
 44
0.0000000001
 40
0.0
 40
0.0
 40
0.0
 40
0.0
 40
0.2343549878
 40
0.4786933996
 40
0.7337228491
 40
1.0
 40
1.0
 40
1.0
 40
1.0
 10
4.6194306206
 20
4.6118668997
 30
0.0
 10
4.6216737401
 20
4.6084771364
 30
0.0
 10
4.6265215064
 20
4.6017262344
 30
0.0
 10
4.6346444029
 20
4.5919185423
 30
0.0
 10
4.6437508074
 20
4.5822420716
 30
0.0
 10
4.6503230355
 20
4.576024631
 30
0.0
 10
4.6537596187
 20
4.5729392515
 30
0.0
  0
SPLINE
  5
23A
100
AcDbEntity
  8
0
100
AcDbSpline
 62
7
  6
CONTINUOUS
 70
0
 71
3
 72
23
 73
19
 74
0
 42
0.0000001
 43
0.0000001
 44
0.0000000001
 40
0.0
 40
0.0
 40
0.0
 40
0.0
 40
0.0488901082
 40
0.0982039436
 40
0.1483521889
 40
0.1997200028
 40
0.2526594728
 40
0.3074821732
 40
0.3644589265
 40
0.4238173243
 40
0.4857460383
 40
0.5503952992
 40
0.6178821872
 40
0.6882926568
 40
0.7616855473
 40
0.8380956698
 40
0.917535658
 40
1.0
 40
1.0
 40
1.0
 40
1.0
 10
5.976952032
 20
4.6639063522
 30
0.0
 10
5.9769519923
 20
4.667392604
 30
0.0
 10
5.9765955133
 20
4.6744004158
 30
0.0
 10
5.9749955199
 20
4.6848742511
 30
0.0
 10
5.9723327427
 20
4.695312179
 30
0.0
 10
5.9686141974
 20
4.7056956873
 30
0.0
 10
5.9638469479
 20
4.7160084332
 30
0.0
 10
5.9580412053
 20
4.7262351929
 30
0.0
 10
5.9512067689
 20
4.7363606406
 30
0.0
 10
5.9433559703
 20
4.7463707562
 30
0.0
 10
5.9345011268
 20
4.7562508951
 30
0.0
 10
5.9246566538
 20
4.7659873417
 30
0.0
 10
5.9138376226
 20
4.77556587
 30
0.0
 10
5.9020608243
 20
4.7849727698
 30
0.0
 10
5.889344274
 20
4.7941942727
 30
0.0
 10
5.8757073129
 20
4.8032167418
 30
0.0
 10
5.8611711056
 20
4.8120269091
 30
0.0
 10
5.8510823827
 20
4.8176457436
 30
0.0
 10
5.8458978748
 20
4.820420544
 30
0.0
  0
SPLINE
  5
23B
100
AcDbEntity
  8
0
100
AcDbSpline
 62
7
  6
CONTINUOUS
 70
0
 71
3
 72
11
 73
7
 74
0
 42
0.0000001
 43
0.0000001
 44
0.0000000001
 40
0.0
 40
0.0
 40
0.0
 40
0.0
 40
0.2437067041
 40
0.4899884169
 40
0.7413206951
 40
1.0
 40
1.0
 40
1.0
 40
1.0
 10
5.9769519648
 20
4.6612164375
 30
0.0
 10
5.976951973
 20
4.657363553
 30
0.0
 10
5.9765160407
 20
4.6496102365
 30
0.0
 10
5.9745588699
 20
4.6380319955
 30
0.0
 10
5.971305108
 20
4.6265042552
 30
0.0
 10
5.9683268014
 20
4.618994848
 30
0.0
 10
5.9666419906
 20
4.6152684299
 30
0.0
  0
SPLINE
  5
23C
100
AcDbEntity
  8
0
100
AcDbSpline
 62
7
  6
CONTINUOUS
 70
0
 71
3
 72
30
 73
26
 74
0
 42
0.0000001
 43
0.0000001
 44
0.0000000001
 40
0.0
 40
0.0
 40
0.0
 40
0.0
 40
0.020957064
 40
0.0426856062
 40
0.0651950594
 40
0.0884900516
 40
0.1125717711
 40
0.1374378339
 40
0.1630824984
 40
0.1894976339
 40
0.2166719506
 40
0.2445922262
 40
0.2732428743
 40
0.3026061918
 40
0.3326630081
 40
0.3633919573
 40
0.4267718556
 40
0.4925505997
 40
0.5605099355
 40
0.6304146262
 40
0.7020149498
 40
0.7750489345
 40
0.8492453694
 40
0.9243226492
 40
1.0
 40
1.0
 40
1.0
 40
1.0
 10
5.9302130308
 20
4.5728099967
 30
0.0
 10
5.9269066244
 20
4.5700297477
 30
0.0
 10
5.9200452031
 20
4.5645163547
 30
0.0
 10
5.909233211
 20
4.5565293424
 30
0.0
 10
5.8977284035
 20
4.5486860328
 30
0.0
 10
5.8855441038
 20
4.5409949055
 30
0.0
 10
5.8726936906
 20
4.533464621
 30
0.0
 10
5.8591915331
 20
4.5261035607
 30
0.0
 10
5.845052787
 20
4.5189196743
 30
0.0
 10
5.8302931028
 20
4.5119213502
 30
0.0
 10
5.8149291277
 20
4.5051160208
 30
0.0
 10
5.7989779582
 20
4.4985115605
 30
0.0
 10
5.7824574755
 20
4.4921153065
 30
0.0
 10
5.7653862317
 20
4.4859342879
 30
0.0
 10
5.7477832287
 20
4.4799756968
 30
0.0
 10
5.7233786724
 20
4.4722566621
 30
0.0
 10
5.6916711089
 20
4.4632330033
 30
0.0
 10
5.6522134293
 20
4.4535000735
 30
0.0
 10
5.6111402033
 20
4.4447978309
 30
0.0
 10
5.56863569
 20
4.4371655137
 30
0.0
 10
5.5248901064
 20
4.4306375967
 30
0.0
 10
5.480099484
 20
4.4252434871
 30
0.0
 10
5.434464852
 20
4.4210076495
 30
0.0
 10
5.3881906585
 20
4.4179489408
 30
0.0
 10
5.3571356977
 20
4.4167072287
 30
0.0
 10
5.3415417489
 20
4.4162842289
 30
0.0
  0
SPLINE
  5
23D
100
AcDbEntity
  8
0
100
AcDbSpline
 62
7
  6
CONTINUOUS
 70
0
 71
3
 72
15
 73
11
 74
0
 42
0.0000001
 43
0.0000001
 44
0.0000000001
 40
0.0
 40
0.0
 40
0.0
 40
0.0
 40
0.1414547105
 40
0.277633605
 40
0.4087545779
 40
0.5350903089
 40
0.6569665362
 40
0.7747686955
 40
0.8889442052
 40
1.0
 40
1.0
 40
1.0
 40
1.0
 10
5.9301444922
 20
4.5729392681
 30
0.0
 10
5.9331788223
 20
4.5756635031
 30
0.0
 10
5.9390123253
 20
4.5811486178
 30
0.0
 10
5.9471810359
 20
4.589648348
 30
0.0
 10
5.9545892425
 20
4.5982522083
 30
0.0
 10
5.961228197
 20
4.6069501492
 30
0.0
 10
5.9670896541
 20
4.6157327539
 30
0.0
 10
5.9721661482
 20
4.624590543
 30
0.0
 10
5.9764510812
 20
4.6335125437
 30
0.0
 10
5.9788049003
 20
4.639572462
 30
0.0
 10
5.9798404941
 20
4.6426018299
 30
0.0
  0
SPLINE
  5
23E
100
AcDbEntity
  8
0
100
AcDbSpline
 62
7
  6
CONTINUOUS
 70
0
 71
3
 72
11
 73
7
 74
0
 42
0.0000001
 43
0.0000001
 44
0.0000000001
 40
0.0
 40
0.0
 40
0.0
 40
0.0
 40
0.2551693671
 40
0.5059401468
 40
0.7537248938
 40
1.0
 40
1.0
 40
1.0
 40
1.0
 10
5.9798404941
 20
4.6426018299
 30
0.0
 10
5.9808057572
 20
4.6454254632
 30
0.0
 10
5.9825059519
 20
4.6511001537
 30
0.0
 10
5.9843487462
 20
4.6597295769
 30
0.0
 10
5.9854555804
 20
4.6683792774
 30
0.0
 10
5.9857020541
 20
4.6741599821
 30
0.0
 10
5.9857020541
 20
4.6770400327
 30
0.0
  0
SPLINE
  5
23F
100
AcDbEntity
  8
0
100
AcDbSpline
 62
7
  6
CONTINUOUS
 70
0
 71
3
 72
25
 73
21
 74
0
 42
0.0000001
 43
0.0000001
 44
0.0000000001
 40
0.0
 40
0.0
 40
0.0
 40
0.0
 40
0.0227046305
 40
0.0454822585
 40
0.068404971
 40
0.0915432857
 40
0.1387167536
 40
0.1875282924
 40
0.2384207363
 40
0.291768068
 40
0.3478745637
 40
0.4069801938
 40
0.4692646726
 40
0.5348566892
 40
0.6038384148
 40
0.6762531382
 40
0.7521100171
 40
0.8313880137
 40
0.9140412738
 40
1.0
 40
1.0
 40
1.0
 40
1.0
 10
4.573202054
 20
4.6839691105
 30
0.0
 10
4.5732020539
 20
4.6861262854
 30
0.0
 10
4.5733351595
 20
4.6904487492
 30
0.0
 10
4.5739333647
 20
4.6969241599
 30
0.0
 10
4.5749298551
 20
4.7033923977
 30
0.0
 10
4.5768002399
 20
4.7120554438
 30
0.0
 10
4.5801647956
 20
4.7228900624
 30
0.0
 10
4.5857588218
 20
4.7357024985
 30
0.0
 10
4.5929179692
 20
4.7483863842
 30
0.0
 10
4.601622161
 20
4.7609138534
 30
0.0
 10
4.6118489609
 20
4.7732605238
 30
0.0
 10
4.6235747194
 20
4.7854012127
 30
0.0
 10
4.6367724936
 20
4.797312017
 30
0.0
 10
4.6514135248
 20
4.8089681171
 30
0.0
 10
4.6674656069
 20
4.8203455572
 30
0.0
 10
4.6848938882
 20
4.831420205
 30
0.0
 10
4.7036604515
 20
4.8421682614
 30
0.0
 10
4.7237243367
 20
4.8525668581
 30
0.0
 10
4.7450415769
 20
4.8625928223
 30
0.0
 10
4.7597745311
 20
4.8688931406
 30
0.0
 10
4.7673346643
 20
4.8719824387
 30
0.0
  0
SPLINE
  5
240
100
AcDbEntity
  8
0
100
AcDbSpline
 62
7
  6
CONTINUOUS
 70
0
 71
3
 72
39
 73
35
 74
0
 42
0.0000001
 43
0.0000001
 44
0.0000000001
 40
0.0
 40
0.0
 40
0.0
 40
0.0
 40
0.0841078631
 40
0.1675303308
 40
0.2495976773
 40
0.2899202762
 40
0.3296624947
 40
0.3687485244
 40
0.4071055699
 40
0.4446640923
 40
0.4813587565
 40
0.5171282208
 40
0.5519164722
 40
0.5856729458
 40
0.6183533121
 40
0.6499207742
 40
0.6803460404
 40
0.7096096703
 40
0.7377020587
 40
0.7646257579
 40
0.7903966407
 40
0.8150454346
 40
0.8386197914
 40
0.8611851917
 40
0.87211737
 40
0.8828311113
 40
0.9036508416
 40
0.9237690615
 40
0.9433201112
 40
0.9624468772
 40
0.9718932037
 40
0.9812826683
 40
0.9906419395
 40
1.0
 40
1.0
 40
1.0
 40
1.0
 10
5.2919520558
 20
4.2718453349
 30
0.0
 10
5.2687254034
 20
4.2718453346
 30
0.0
 10
5.2224564172
 20
4.2727168885
 30
0.0
 10
5.1536249279
 20
4.2766323214
 30
0.0
 10
5.0970328845
 20
4.2820675117
 30
0.0
 10
5.0526141742
 20
4.2877125103
 30
0.0
 10
5.020064231
 20
4.2925432673
 30
0.0
 10
4.9881612379
 20
4.2979844022
 30
0.0
 10
4.9569798972
 20
4.3040237612
 30
0.0
 10
4.9265929638
 20
4.3106481524
 30
0.0
 10
4.8970707452
 20
4.3178428745
 30
0.0
 10
4.8684810359
 20
4.3255928805
 30
0.0
 10
4.8408887443
 20
4.333881824
 30
0.0
 10
4.8143558115
 20
4.3426931228
 30
0.0
 10
4.7889409079
 20
4.3520097954
 30
0.0
 10
4.7646993181
 20
4.3618146452
 30
0.0
 10
4.7416828075
 20
4.3720911606
 30
0.0
 10
4.7199395108
 20
4.3828231611
 30
0.0
 10
4.6995141469
 20
4.3939962185
 30
0.0
 10
4.6804479679
 20
4.4055973082
 30
0.0
 10
4.6627799482
 20
4.417616506
 30
0.0
 10
4.6465465077
 20
4.4300464059
 30
0.0
 10
4.6317855963
 20
4.4428833051
 30
0.0
 10
4.620626895
 20
4.4540355434
 30
0.0
 10
4.6125096647
 20
4.4631595391
 30
0.0
 10
4.6050768431
 20
4.4722335781
 30
0.0
 10
4.5967486887
 20
4.4838390947
 30
0.0
 10
4.588329615
 20
4.4982984127
 30
0.0
 10
4.5816555741
 20
4.5131344351
 30
0.0
 10
4.5776007447
 20
4.5258253897
 30
0.0
 10
4.5753225376
 20
4.5360639423
 30
0.0
 10
4.5741013815
 20
4.5437590744
 30
0.0
 10
4.5733658743
 20
4.5514907615
 30
0.0
 10
4.5732020556
 20
4.556661116
 30
0.0
 10
4.5732020556
 20
4.5592453739
 30
0.0
  0
SPLINE
  5
241
100
AcDbEntity
  8
0
100
AcDbSpline
 62
7
  6
CONTINUOUS
 70
0
 71
3
 72
39
 73
35
 74
0
 42
0.0000001
 43
0.0000001
 44
0.0000000001
 40
0.0
 40
0.0
 40
0.0
 40
0.0
 40
0.0093580938
 40
0.018717346
 40
0.0281067819
 40
0.0375531007
 40
0.0566798879
 40
0.0762309538
 40
0.0963491894
 40
0.1171689299
 40
0.127882684
 40
0.1388148741
 40
0.1613802892
 40
0.1849546651
 40
0.2096034727
 40
0.2353743731
 40
0.2622980823
 40
0.2903904857
 40
0.3196541225
 40
0.3500793976
 40
0.3816468654
 40
0.4143272334
 40
0.448083711
 40
0.4828719594
 40
0.5186414226
 40
0.5553360808
 40
0.5928945959
 40
0.6312516331
 40
0.6703376507
 40
0.7100798575
 40
0.7504024415
 40
0.8324697531
 40
0.9158921808
 40
1.0
 40
1.0
 40
1.0
 40
1.0
 10
6.0107020556
 20
4.5592453926
 30
0.0
 10
6.0107020556
 20
4.5566611253
 30
0.0
 10
6.0105382396
 20
4.5514907669
 30
0.0
 10
6.0098027335
 20
4.5437590834
 30
0.0
 10
6.0085815743
 20
4.5360639672
 30
0.0
 10
6.0063033629
 20
4.5258254199
 30
0.0
 10
6.0022485392
 20
4.5131344551
 30
0.0
 10
5.9955744953
 20
4.4982984172
 30
0.0
 10
5.98715541
 20
4.4838390924
 30
0.0
 10
5.9788272499
 20
4.4722335665
 30
0.0
 10
5.9713944181
 20
4.4631595233
 30
0.0
 10
5.9632771806
 20
4.4540355193
 30
0.0
 10
5.9521184688
 20
4.4428832732
 30
0.0
 10
5.9373575425
 20
4.4300463709
 30
0.0
 10
5.9211240883
 20
4.4176164659
 30
0.0
 10
5.9034560567
 20
4.405597265
 30
0.0
 10
5.8843898643
 20
4.3939961742
 30
0.0
 10
5.8639644906
 20
4.3828231161
 30
0.0
 10
5.8422211837
 20
4.3720911165
 30
0.0
 10
5.8192046659
 20
4.3618146021
 30
0.0
 10
5.7949630696
 20
4.3520097558
 30
0.0
 10
5.7695481622
 20
4.3426930838
 30
0.0
 10
5.7430152264
 20
4.3338817909
 30
0.0
 10
5.7154229344
 20
4.3255928483
 30
0.0
 10
5.6868332261
 20
4.317842848
 30
0.0
 10
5.6573110106
 20
4.3106481288
 30
0.0
 10
5.6269240823
 20
4.3040237408
 30
0.0
 10
5.5957427482
 20
4.2979843871
 30
0.0
 10
5.5638397635
 20
4.2925432536
 30
0.0
 10
5.5312898301
 20
4.2877125018
 30
0.0
 10
5.4868711363
 20
4.2820675056
 30
0.0
 10
5.4302791168
 20
4.27663232
 30
0.0
 10
5.3614476597
 20
4.2727168891
 30
0.0
 10
5.3151786963
 20
4.2718453352
 30
0.0
 10
5.2919520558
 20
4.2718453349
 30
0.0
  0
SPLINE
  5
242
100
AcDbEntity
  8
0
100
AcDbSpline
 62
7
  6
CONTINUOUS
 70
0
 71
3
 72
11
 73
7
 74
0
 42
0.0000001
 43
0.0000001
 44
0.0000000001
 40
0.0
 40
0.0
 40
0.0
 40
0.0
 40
0.2459009714
 40
0.4934915083
 40
0.7443610487
 40
1.0
 40
1.0
 40
1.0
 40
1.0
 10
5.9634520645
 20
4.6716100821
 30
0.0
 10
5.9634520809
 20
4.6745415311
 30
0.0
 10
5.963188342
 20
4.6804279081
 30
0.0
 10
5.9620024529
 20
4.6892332098
 30
0.0
 10
5.9600294261
 20
4.6980148182
 30
0.0
 10
5.9582118284
 20
4.7037814046
 30
0.0
 10
5.9571804108
 20
4.706649098
 30
0.0
  0
SPLINE
  5
243
100
AcDbEntity
  8
0
100
AcDbSpline
 62
7
  6
CONTINUOUS
 70
0
 71
3
 72
13
 73
9
 74
0
 42
0.0000001
 43
0.0000001
 44
0.0000000001
 40
0.0
 40
0.0
 40
0.0
 40
0.0
 40
0.1200224061
 40
0.2405756905
 40
0.3621294512
 40
0.4851396095
 40
0.7371430858
 40
1.0
 40
1.0
 40
1.0
 40
1.0
 10
4.9352962324
 20
5.1547486104
 30
0.0
 10
4.9352962323
 20
5.1559591099
 30
0.0
 10
4.9353809166
 20
5.1583863054
 30
0.0
 10
4.9357611004
 20
5.1620215056
 30
0.0
 10
4.9363941739
 20
5.165652091
 30
0.0
 10
4.9375838055
 20
5.170520276
 30
0.0
 10
4.9397272463
 20
5.1766054503
 30
0.0
 10
4.9420396873
 20
5.181269452
 30
0.0
 10
4.9433432546
 20
5.1835778933
 30
0.0
  0
SPLINE
  5
244
100
AcDbEntity
  8
0
100
AcDbSpline
 62
7
  6
CONTINUOUS
 70
0
 71
3
 72
11
 73
7
 74
0
 42
0.0000001
 43
0.0000001
 44
0.0000000001
 40
0.0
 40
0.0
 40
0.0
 40
0.0
 40
0.2550894553
 40
0.5053642766
 40
0.7529352388
 40
1.0
 40
1.0
 40
1.0
 40
1.0
 10
4.6153733768
 20
4.6182656389
 30
0.0
 10
4.6142563202
 20
4.6216176861
 30
0.0
 10
4.6123501787
 20
4.6283661995
 30
0.0
 10
4.610514547
 20
4.6386496366
 30
0.0
 10
4.6097397416
 20
4.648955839
 30
0.0
 10
4.6099327624
 20
4.6558186358
 30
0.0
 10
4.610203584
 20
4.6592300273
 30
0.0
  0
SPLINE
  5
245
100
AcDbEntity
  8
0
100
AcDbSpline
 62
7
  6
CONTINUOUS
 70
0
 71
3
 72
35
 73
31
 74
0
 42
0.0000001
 43
0.0000001
 44
0.0000000001
 40
0.0
 40
0.0
 40
0.0
 40
0.0
 40
0.0165658662
 40
0.0340433366
 40
0.0531416211
 40
0.0743681329
 40
0.098030927
 40
0.1242810278
 40
0.1531259866
 40
0.1844961275
 40
0.2182453025
 40
0.2541727883
 40
0.2920434389
 40
0.331575982
 40
0.4143906605
 40
0.5
 40
0.5856093395
 40
0.668424018
 40
0.7079565611
 40
0.7458272117
 40
0.7817546975
 40
0.8155038725
 40
0.8468740134
 40
0.8757189722
 40
0.901969073
 40
0.9256318671
 40
0.9468583789
 40
0.9659566634
 40
0.9834341338
 40
1.0
 40
1.0
 40
1.0
 40
1.0
 10
5.3065189745
 20
5.3483518311
 30
0.0
 10
5.3065189745
 20
5.3481683933
 30
0.0
 10
5.3064687195
 20
5.3477899093
 30
0.0
 10
5.3062497033
 20
5.3472384749
 30
0.0
 10
5.3058919098
 20
5.3467030088
 30
0.0
 10
5.3054016917
 20
5.3461876733
 30
0.0
 10
5.3047845547
 20
5.345694946
 30
0.0
 10
5.3040458509
 20
5.3452287027
 30
0.0
 10
5.303192514
 20
5.3447921366
 30
0.0
 10
5.3022320502
 20
5.3443897651
 30
0.0
 10
5.30117352
 20
5.3440250687
 30
0.0
 10
5.3000268534
 20
5.3437014322
 30
0.0
 10
5.2988028471
 20
5.3434222741
 30
0.0
 10
5.2970563232
 20
5.3431076152
 30
0.0
 10
5.2947656171
 20
5.3428465725
 30
0.0
 10
5.2919520454
 20
5.3427421788
 30
0.0
 10
5.2891384738
 20
5.3428465724
 30
0.0
 10
5.2868477677
 20
5.343107615
 30
0.0
 10
5.2851012437
 20
5.3434222739
 30
0.0
 10
5.2838772374
 20
5.343701432
 30
0.0
 10
5.2827305708
 20
5.3440250685
 30
0.0
 10
5.2816720407
 20
5.3443897648
 30
0.0
 10
5.2807115769
 20
5.3447921363
 30
0.0
 10
5.2798582399
 20
5.3452287024
 30
0.0
 10
5.2791195361
 20
5.3456949457
 30
0.0
 10
5.2785023991
 20
5.346187673
 30
0.0
 10
5.278012181
 20
5.3467030085
 30
0.0
 10
5.2776543875
 20
5.3472384746
 30
0.0
 10
5.2774353713
 20
5.3477899089
 30
0.0
 10
5.2773851162
 20
5.3481683929
 30
0.0
 10
5.2773851162
 20
5.3483518307
 30
0.0
  0
SPLINE
  5
246
100
AcDbEntity
  8
0
100
AcDbSpline
 62
7
  6
CONTINUOUS
 70
0
 71
3
 72
39
 73
35
 74
0
 42
0.0000001
 43
0.0000001
 44
0.0000000001
 40
0.0
 40
0.0
 40
0.0
 40
0.0
 40
0.0859444016
 40
0.1711813692
 40
0.2550180525
 40
0.296200469
 40
0.336781281
 40
0.3766807831
 40
0.415821941
 40
0.454130543
 40
0.4915359867
 40
0.5279711569
 40
0.5633733771
 40
0.5976846931
 40
0.630852289
 40
0.6628296592
 40
0.6935766241
 40
0.7230609248
 40
0.7512588092
 40
0.7781562884
 40
0.8037510658
 40
0.8280535677
 40
0.8510898877
 40
0.8729036524
 40
0.8935590215
 40
0.9131438799
 40
0.931772065
 40
0.9495860002
 40
0.9582435511
 40
0.966763965
 40
0.9751726124
 40
0.9834962062
 40
0.9917625199
 40
1.0
 40
1.0
 40
1.0
 40
1.0
 10
5.2919520556
 20
4.2841916663
 30
0.0
 10
5.3154396763
 20
4.2841916665
 30
0.0
 10
5.3622265338
 20
4.2850675706
 30
0.0
 10
5.4318244722
 20
4.2890021224
 30
0.0
 10
5.4890417244
 20
4.2944628027
 30
0.0
 10
5.5339443658
 20
4.3001328483
 30
0.0
 10
5.5668402899
 20
4.3049833046
 30
0.0
 10
5.5990746414
 20
4.3104447655
 30
0.0
 10
5.6305700445
 20
4.3165040225
 30
0.0
 10
5.661250718
 20
4.3231466871
 30
0.0
 10
5.691042996
 20
4.3303564091
 30
0.0
 10
5.7198752784
 20
4.3381160938
 30
0.0
 10
5.7476783874
 20
4.3464068921
 30
0.0
 10
5.7743856556
 20
4.3552087941
 30
0.0
 10
5.799933034
 20
4.3645008858
 30
0.0
 10
5.8242594855
 20
4.374260508
 30
0.0
 10
5.8473067843
 20
4.3844646645
 30
0.0
 10
5.86902004
 20
4.3950887885
 30
0.0
 10
5.8893475916
 20
4.4061076909
 30
0.0
 10
5.9082410714
 20
4.4174956271
 30
0.0
 10
5.925655923
 20
4.4292256281
 30
0.0
 10
5.9415506967
 20
4.4412710857
 30
0.0
 10
5.9558879078
 20
4.4536043204
 30
0.0
 10
5.9686332621
 20
4.4661980103
 30
0.0
 10
5.9797554704
 20
4.4790246544
 30
0.0
 10
5.9892267744
 20
4.4920567327
 30
0.0
 10
5.997020341
 20
4.5052650755
 30
0.0
 10
6.0021467308
 20
4.5165037676
 30
0.0
 10
6.0053509996
 20
4.5255188072
 30
0.0
 10
6.0073015749
 20
4.5322382689
 30
0.0
 10
6.0088200819
 20
4.5389748184
 30
0.0
 10
6.009905425
 20
4.5457244988
 30
0.0
 10
6.0105570585
 20
4.5524825555
 30
0.0
 10
6.0107020556
 20
4.5569941836
 30
0.0
 10
6.0107020556
 20
4.5592453926
 30
0.0
  0
SPLINE
  5
247
100
AcDbEntity
  8
0
100
AcDbSpline
 62
7
  6
CONTINUOUS
 70
0
 71
3
 72
11
 73
7
 74
0
 42
0.0000001
 43
0.0000001
 44
0.0000000001
 40
0.0
 40
0.0
 40
0.0
 40
0.0
 40
0.2534876139
 40
0.5055733492
 40
0.7548647326
 40
1.0
 40
1.0
 40
1.0
 40
1.0
 10
5.291952054
 20
4.4089154031
 30
0.0
 10
5.2726646898
 20
4.4089154029
 30
0.0
 10
5.2341939982
 20
4.4095072339
 30
0.0
 10
5.1768104752
 20
4.412167113
 30
0.0
 10
5.1201723772
 20
4.4165808832
 30
0.0
 10
5.0827722365
 20
4.4207158042
 30
0.0
 10
5.0642708746
 20
4.4230803659
 30
0.0
  0
SPLINE
  5
248
100
AcDbEntity
  8
0
100
AcDbSpline
 62
7
  6
CONTINUOUS
 70
0
 71
3
 72
22
 73
18
 74
0
 42
0.0000001
 43
0.0000001
 44
0.0000000001
 40
0.0
 40
0.0
 40
0.0
 40
0.0
 40
0.1453370707
 40
0.2164175765
 40
0.2862988616
 40
0.3548809546
 40
0.4220685176
 40
0.4877698486
 40
0.5518988861
 40
0.6143740891
 40
0.6751206697
 40
0.7340695023
 40
0.7911595515
 40
0.8463369408
 40
0.899557492
 40
0.9507862156
 40
1.0
 40
1.0
 40
1.0
 40
1.0
 10
5.0642708746
 20
4.4230803659
 30
0.0
 10
5.0451385659
 20
4.4255255656
 30
0.0
 10
5.0167090595
 20
4.4296679093
 30
0.0
 10
4.9792801038
 20
4.4362128039
 30
0.0
 10
4.9519832536
 20
4.4415350565
 30
0.0
 10
4.9253043139
 20
4.4472975239
 30
0.0
 10
4.8992914755
 20
4.4534893634
 30
0.0
 10
4.8739920511
 20
4.4600997374
 30
0.0
 10
4.8494518535
 20
4.4671161584
 30
0.0
 10
4.8257154618
 20
4.4745263382
 30
0.0
 10
4.8028257984
 20
4.4823163377
 30
0.0
 10
4.7808244173
 20
4.4904724851
 30
0.0
 10
4.7597510001
 20
4.4989795394
 30
0.0
 10
4.7396437911
 20
4.5078225359
 30
0.0
 10
4.7205388315
 20
4.5169851459
 30
0.0
 10
4.7024711389
 20
4.5264510594
 30
0.0
 10
4.6909052074
 20
4.5330864387
 30
0.0
 10
4.685310301
 20
4.5364560358
 30
0.0
  0
SPLINE
  5
249
100
AcDbEntity
  8
0
100
AcDbSpline
 62
7
  6
CONTINUOUS
 70
0
 71
3
 72
22
 73
18
 74
0
 42
0.0000001
 43
0.0000001
 44
0.0000000001
 40
0.0
 40
0.0
 40
0.0
 40
0.0
 40
0.0808452576
 40
0.1588244935
 40
0.233954621
 40
0.3062717239
 40
0.3758292343
 40
0.442703285
 40
0.5069931571
 40
0.5688240892
 40
0.6856889858
 40
0.741193608
 40
0.7950459142
 40
0.8475287406
 40
0.8989542465
 40
0.9496595293
 40
1.0
 40
1.0
 40
1.0
 40
1.0
 10
4.685310301
 20
4.5364560358
 30
0.0
 10
4.6808440611
 20
4.5391458804
 30
0.0
 10
4.6721585372
 20
4.5445794638
 30
0.0
 10
4.6596695281
 20
4.553051174
 30
0.0
 10
4.6479700182
 20
4.5616875894
 30
0.0
 10
4.6370744446
 20
4.570477576
 30
0.0
 10
4.6269964869
 20
4.5794110412
 30
0.0
 10
4.6177488305
 20
4.5884766708
 30
0.0
 10
4.6093422364
 20
4.5976649403
 30
0.0
 10
4.5994582846
 20
4.6098317754
 30
0.0
 10
4.5910388442
 20
4.6224392919
 30
0.0
 10
4.5843380022
 20
4.6354119942
 30
0.0
 10
4.5802845004
 20
4.6450423918
 30
0.0
 10
4.5771244957
 20
4.6547258922
 30
0.0
 10
4.5748630321
 20
4.664450662
 30
0.0
 10
4.5735046648
 20
4.6742022924
 30
0.0
 10
4.5732020541
 20
4.6807226664
 30
0.0
 10
4.573202054
 20
4.6839691105
 30
0.0
  0
SPLINE
  5
24A
100
AcDbEntity
  8
0
100
AcDbSpline
 62
7
  6
CONTINUOUS
 70
0
 71
3
 72
35
 73
31
 74
0
 42
0.0000001
 43
0.0000001
 44
0.0000000001
 40
0.0
 40
0.0
 40
0.0
 40
0.0
 40
0.0895264518
 40
0.1324670513
 40
0.1741751026
 40
0.2146434622
 40
0.2538702541
 40
0.2918580909
 40
0.3286145862
 40
0.3641540465
 40
0.3984964161
 40
0.4316691326
 40
0.4637076672
 40
0.4946553097
 40
0.5245653904
 40
0.5815080817
 40
0.6087254326
 40
0.6352215041
 40
0.6611028756
 40
0.6864863536
 40
0.7114974513
 40
0.7362691105
 40
0.7609389087
 40
0.7856465963
 40
0.8105310676
 40
0.8357277263
 40
0.8613657706
 40
0.8875660958
 40
0.9420582304
 40
1.0
 40
1.0
 40
1.0
 40
1.0
 10
5.8240241243
 20
4.858772434
 30
0.0
 10
5.833279178
 20
4.8546468949
 30
0.0
 10
5.8468383349
 20
4.8482290557
 30
0.0
 10
5.8643098889
 20
4.8390940513
 30
0.0
 10
5.8766747306
 20
4.8321870135
 30
0.0
 10
5.888470674
 20
4.8251355304
 30
0.0
 10
5.899686541
 20
4.8179464941
 30
0.0
 10
5.9103114814
 20
4.810626854
 30
0.0
 10
5.9203350529
 20
4.8031833398
 30
0.0
 10
5.929747791
 20
4.7956233894
 30
0.0
 10
5.9385404107
 20
4.7879539459
 30
0.0
 10
5.9467043891
 20
4.7801821854
 30
0.0
 10
5.9542318365
 20
4.7723158773
 30
0.0
 10
5.9611155378
 20
4.7643611976
 30
0.0
 10
5.9692906813
 20
4.7538233794
 30
0.0
 10
5.9763355475
 20
4.7429576866
 30
0.0
 10
5.982080179
 20
4.7318194144
 30
0.0
 10
5.9856516644
 20
4.723540313
 30
0.0
 10
5.9885457473
 20
4.7152200238
 30
0.0
 10
5.9907594405
 20
4.7068666045
 30
0.0
 10
5.9922892311
 20
4.6984885874
 30
0.0
 10
5.9931335834
 20
4.6900949255
 30
0.0
 10
5.9932911961
 20
4.6816945903
 30
0.0
 10
5.9927615179
 20
4.6732967515
 30
0.0
 10
5.9915458747
 20
4.6649104306
 30
0.0
 10
5.9896454382
 20
4.6565446933
 30
0.0
 10
5.9870627544
 20
4.6482080053
 30
0.0
 10
5.9826577916
 20
4.6369980207
 30
0.0
 10
5.9753639487
 20
4.6230479944
 30
0.0
 10
5.9680772249
 20
4.6125749562
 30
0.0
 10
5.9640504312
 20
4.607398759
 30
0.0
  0
SPLINE
  5
24B
100
AcDbEntity
  8
0
100
AcDbSpline
 62
7
  6
CONTINUOUS
 70
0
 71
3
 72
9
 73
5
 74
0
 42
0.0000001
 43
0.0000001
 44
0.0000000001
 40
0.0
 40
0.0
 40
0.0
 40
0.0
 40
0.4858428559
 40
1.0
 40
1.0
 40
1.0
 40
1.0
 10
5.9564128843
 20
4.5981905183
 30
0.0
 10
5.9525037974
 20
4.5937559782
 30
0.0
 10
5.9440651057
 20
4.5849700235
 30
0.0
 10
5.9350012645
 20
4.5768362657
 30
0.0
 10
5.9302130308
 20
4.5728099967
 30
0.0
  0
SPLINE
  5
24C
100
AcDbEntity
  8
0
100
AcDbSpline
 62
7
  6
CONTINUOUS
 70
0
 71
3
 72
24
 73
20
 74
0
 42
0.0000001
 43
0.0000001
 44
0.0000000001
 40
0.0
 40
0.0
 40
0.0
 40
0.0
 40
0.0841537958
 40
0.1651202144
 40
0.2428692442
 40
0.3173925067
 40
0.3887040128
 40
0.4568455627
 40
0.5218880912
 40
0.5839383201
 40
0.6431407571
 40
0.6717366061
 40
0.6996955556
 40
0.7538181237
 40
0.8058083449
 40
0.8560074134
 40
0.9048085152
 40
0.9526489031
 40
1.0
 40
1.0
 40
1.0
 40
1.0
 10
4.7511454968
 20
4.8433278748
 30
0.0
 10
4.7451311835
 20
4.8404634146
 30
0.0
 10
4.7334218291
 20
4.8346478431
 30
0.0
 10
4.7165198437
 20
4.8254766269
 30
0.0
 10
4.7006446432
 20
4.8160396049
 30
0.0
 10
4.6858243917
 20
4.8063537338
 30
0.0
 10
4.6720853688
 20
4.7964354507
 30
0.0
 10
4.6594516653
 20
4.7863022498
 30
0.0
 10
4.6479458201
 20
4.7759708345
 30
0.0
 10
4.6375884334
 20
4.7654594724
 30
0.0
 10
4.6298420623
 20
4.7564617603
 30
0.0
 10
4.6242601839
 20
4.7491921535
 30
0.0
 10
4.6191958672
 20
4.7420407332
 30
0.0
 10
4.6135854184
 20
4.7330159423
 30
0.0
 10
4.6079932519
 20
4.7219589915
 30
0.0
 10
4.6036282918
 20
4.7108114961
 30
0.0
 10
4.6005010393
 20
4.6995940857
 30
0.0
 10
4.5986211841
 20
4.6883301899
 30
0.0
 10
4.598202054
 20
4.680788327
 30
0.0
 10
4.5982020541
 20
4.6770400147
 30
0.0
  0
SPLINE
  5
24D
100
AcDbEntity
  8
0
100
AcDbSpline
 62
7
  6
CONTINUOUS
 70
0
 71
3
 72
15
 73
11
 74
0
 42
0.0000001
 43
0.0000001
 44
0.0000000001
 40
0.0
 40
0.0
 40
0.0
 40
0.0
 40
0.1402185614
 40
0.2750993224
 40
0.4050426041
 40
0.5305254562
 40
0.6521000349
 40
0.770394304
 40
0.8861077958
 40
1.0
 40
1.0
 40
1.0
 40
1.0
 10
5.9483042505
 20
4.7399326629
 30
0.0
 10
5.9509324788
 20
4.7369947833
 30
0.0
 10
5.9559265259
 20
4.7310824464
 30
0.0
 10
5.9627192894
 20
4.7219339603
 30
0.0
 10
5.9686539046
 20
4.7126939654
 30
0.0
 10
5.9737219037
 20
4.7033742986
 30
0.0
 10
5.9779156883
 20
4.6939864158
 30
0.0
 10
5.9812283233
 20
4.6845419497
 30
0.0
 10
5.9836544951
 20
4.6750546607
 30
0.0
 10
5.984683542
 20
4.668671525
 30
0.0
 10
5.9850454538
 20
4.6654902307
 30
0.0
  0
SPLINE
  5
24E
100
AcDbEntity
  8
0
100
AcDbSpline
 62
7
  6
CONTINUOUS
 70
0
 71
3
 72
35
 73
31
 74
0
 42
0.0000001
 43
0.0000001
 44
0.0000000001
 40
0.0
 40
0.0
 40
0.0
 40
0.0
 40
0.0165658662
 40
0.0340433366
 40
0.0531416211
 40
0.0743681329
 40
0.098030927
 40
0.1242810278
 40
0.1531259866
 40
0.1844961275
 40
0.2182453025
 40
0.2541727883
 40
0.2920434389
 40
0.331575982
 40
0.4143906605
 40
0.5
 40
0.5856093395
 40
0.668424018
 40
0.7079565611
 40
0.7458272117
 40
0.7817546975
 40
0.8155038725
 40
0.8468740134
 40
0.8757189722
 40
0.901969073
 40
0.9256318671
 40
0.9468583789
 40
0.9659566634
 40
0.9834341338
 40
1.0
 40
1.0
 40
1.0
 40
1.0
 10
5.2773851162
 20
5.3483518307
 30
0.0
 10
5.2773851162
 20
5.3485352685
 30
0.0
 10
5.2774353713
 20
5.3489137525
 30
0.0
 10
5.2776543875
 20
5.3494651869
 30
0.0
 10
5.2780121809
 20
5.350000653
 30
0.0
 10
5.278502399
 20
5.3505159885
 30
0.0
 10
5.2791195361
 20
5.3510087158
 30
0.0
 10
5.2798582398
 20
5.3514749591
 30
0.0
 10
5.2807115768
 20
5.3519115252
 30
0.0
 10
5.2816720406
 20
5.3523138967
 30
0.0
 10
5.2827305707
 20
5.3526785931
 30
0.0
 10
5.2838772373
 20
5.3530022296
 30
0.0
 10
5.2851012436
 20
5.3532813877
 30
0.0
 10
5.2868477676
 20
5.3535960466
 30
0.0
 10
5.2891384736
 20
5.3538570893
 30
0.0
 10
5.2919520453
 20
5.353961483
 30
0.0
 10
5.294765617
 20
5.3538570894
 30
0.0
 10
5.297056323
 20
5.3535960468
 30
0.0
 10
5.298802847
 20
5.3532813879
 30
0.0
 10
5.3000268533
 20
5.3530022298
 30
0.0
 10
5.3011735199
 20
5.3526785933
 30
0.0
 10
5.3022320501
 20
5.352313897
 30
0.0
 10
5.3031925139
 20
5.3519115255
 30
0.0
 10
5.3040458509
 20
5.3514749594
 30
0.0
 10
5.3047845546
 20
5.3510087161
 30
0.0
 10
5.3054016916
 20
5.3505159888
 30
0.0
 10
5.3058919098
 20
5.3500006533
 30
0.0
 10
5.3062497032
 20
5.3494651872
 30
0.0
 10
5.3064687195
 20
5.3489137529
 30
0.0
 10
5.3065189745
 20
5.3485352689
 30
0.0
 10
5.3065189745
 20
5.3483518311
 30
0.0
  0
SPLINE
  5
24F
100
AcDbEntity
  8
0
100
AcDbSpline
 62
7
  6
CONTINUOUS
 70
0
 71
3
 72
28
 73
24
 74
0
 42
0.0000001
 43
0.0000001
 44
0.0000000001
 40
0.0
 40
0.0
 40
0.0
 40
0.0
 40
0.0211547835
 40
0.0424101035
 40
0.0638563001
 40
0.0855809871
 40
0.1076691369
 40
0.1302020914
 40
0.1532554786
 40
0.1768986758
 40
0.2261758075
 40
0.2784659522
 40
0.3058483093
 40
0.3340926618
 40
0.3932542045
 40
0.456106286
 40
0.5227286209
 40
0.5931431523
 40
0.6673273215
 40
0.7452167255
 40
0.8267143319
 40
0.9116929887
 40
1.0
 40
1.0
 40
1.0
 40
1.0
 10
5.9482955943
 20
4.6716100597
 30
0.0
 10
5.9482955938
 20
4.6692808542
 30
0.0
 10
5.9481252567
 20
4.6646096124
 30
0.0
 10
5.9473604309
 20
4.6576147553
 30
0.0
 10
5.9460869841
 20
4.6506303778
 30
0.0
 10
5.9443057244
 20
4.6436635891
 30
0.0
 10
5.9420181927
 20
4.6367204088
 30
0.0
 10
5.9392271314
 20
4.6298062747
 30
0.0
 10
5.9359349144
 20
4.6229261347
 30
0.0
 10
5.9308104472
 20
4.6136787484
 30
0.0
 10
5.923100859
 20
4.6022149359
 30
0.0
 10
5.9140176901
 20
4.5912747518
 30
0.0
 10
5.9058402825
 20
4.582650384
 30
0.0
 10
5.8967645025
 20
4.5738499413
 30
0.0
 10
5.8842049991
 20
4.563055661
 30
0.0
 10
5.867539371
 20
4.5506373728
 30
0.0
 10
5.8491021772
 20
4.5385959852
 30
0.0
 10
5.8289506132
 20
4.5269663953
 30
0.0
 10
5.8071450394
 20
4.5157840698
 30
0.0
 10
5.783752145
 20
4.5050821427
 30
0.0
 10
5.7588430201
 20
4.4948936088
 30
0.0
 10
5.7324942804
 20
4.4852496587
 30
0.0
 10
5.7143578143
 20
4.4793129279
 30
0.0
 10
5.7050708938
 20
4.4764341648
 30
0.0
  0
SPLINE
  5
250
100
AcDbEntity
  8
0
100
AcDbSpline
 62
7
  6
CONTINUOUS
 70
0
 71
3
 72
11
 73
7
 74
0
 42
0.0000001
 43
0.0000001
 44
0.0000000001
 40
0.0
 40
0.0
 40
0.0
 40
0.0
 40
0.2407212685
 40
0.4878724352
 40
0.741093122
 40
1.0
 40
1.0
 40
1.0
 40
1.0
 10
5.7050708938
 20
4.4764341648
 30
0.0
 10
5.6972792697
 20
4.4740189142
 30
0.0
 10
5.6814224277
 20
4.4693328707
 30
0.0
 10
5.65716787
 20
4.4628117358
 30
0.0
 10
5.6321682238
 20
4.4567161093
 30
0.0
 10
5.6152180581
 20
4.4529837847
 30
0.0
 10
5.6066301072
 20
4.4511882756
 30
0.0
  0
SPLINE
  5
251
100
AcDbEntity
  8
0
100
AcDbSpline
 62
7
  6
CONTINUOUS
 70
0
 71
3
 72
23
 73
19
 74
0
 42
0.0000001
 43
0.0000001
 44
0.0000000001
 40
0.0
 40
0.0
 40
0.0
 40
0.0
 40
0.0588423905
 40
0.1191251082
 40
0.1806588363
 40
0.243246246
 40
0.3066841691
 40
0.3707641709
 40
0.4352742429
 40
0.5000000092
 40
0.564725751
 40
0.629235887
 40
0.693315848
 40
0.7567537504
 40
0.819341202
 40
0.8808748056
 40
0.9411576611
 40
1.0
 40
1.0
 40
1.0
 40
1.0
 10
5.6066301072
 20
4.4511882756
 30
0.0
 10
5.594468898
 20
4.4486456945
 30
0.0
 10
5.5697699695
 20
4.4438688407
 30
0.0
 10
5.5321253968
 20
4.4376832023
 30
0.0
 10
5.4935441942
 20
4.4324078023
 30
0.0
 10
5.4541771729
 20
4.4280628471
 30
0.0
 10
5.4141776077
 20
4.4246657432
 30
0.0
 10
5.3737014597
 20
4.4222297534
 30
0.0
 10
5.33290655
 20
4.4207641374
 30
0.0
 10
5.2919519362
 20
4.4202751239
 30
0.0
 10
5.2509973131
 20
4.4207642406
 30
0.0
 10
5.2102023944
 20
4.4222296315
 30
0.0
 10
5.1697262583
 20
4.4246658489
 30
0.0
 10
5.129726693
 20
4.4280628646
 30
0.0
 10
5.0903596802
 20
4.4324077329
 30
0.0
 10
5.0517785035
 20
4.4376833855
 30
0.0
 10
5.0141338862
 20
4.4438687133
 30
0.0
 10
4.9894349864
 20
4.4486458121
 30
0.0
 10
4.9772737733
 20
4.4511883209
 30
0.0
  0
SPLINE
  5
252
100
AcDbEntity
  8
0
100
AcDbSpline
 62
7
  6
CONTINUOUS
 70
0
 71
3
 72
11
 73
7
 74
0
 42
0.0000001
 43
0.0000001
 44
0.0000000001
 40
0.0
 40
0.0
 40
0.0
 40
0.0
 40
0.2589072674
 40
0.5121276078
 40
0.7592798575
 40
1.0
 40
1.0
 40
1.0
 40
1.0
 10
4.9772737733
 20
4.4511883209
 30
0.0
 10
4.9686857884
 20
4.4529837855
 30
0.0
 10
4.9517355953
 20
4.4567161052
 30
0.0
 10
4.9267359279
 20
4.4628119288
 30
0.0
 10
4.902481276
 20
4.4693327922
 30
0.0
 10
4.8866244919
 20
4.4740191017
 30
0.0
 10
4.8788328884
 20
4.4764343247
 30
0.0
  0
SPLINE
  5
253
100
AcDbEntity
  8
0
100
AcDbSpline
 62
7
  6
CONTINUOUS
 70
0
 71
3
 72
30
 73
26
 74
0
 42
0.0000001
 43
0.0000001
 44
0.0000000001
 40
0.0
 40
0.0
 40
0.0
 40
0.0
 40
0.0892883279
 40
0.1750754076
 40
0.257197466
 40
0.3355184706
 40
0.4099368503
 40
0.4803907571
 40
0.5468634495
 40
0.578621786
 40
0.609404866
 40
0.6392276394
 40
0.6681108459
 40
0.7231512546
 40
0.7493912256
 40
0.7748300007
 40
0.8234945028
 40
0.8468661304
 40
0.8696865001
 40
0.8920365735
 40
0.9140046481
 40
0.9356848462
 40
0.9571758244
 40
0.9785796688
 40
1.0
 40
1.0
 40
1.0
 40
1.0
 10
4.8788328884
 20
4.4764343247
 30
0.0
 10
4.8692037531
 20
4.4794191416
 30
0.0
 10
4.850416753
 20
4.4855806484
 30
0.0
 10
4.8231606797
 20
4.495617942
 30
0.0
 10
4.7974601996
 20
4.506238604
 30
0.0
 10
4.773400457
 20
4.5174079859
 30
0.0
 10
4.751059987
 20
4.5290895681
 30
0.0
 10
4.7305124514
 20
4.5412447784
 30
0.0
 10
4.7147058711
 20
4.5518940957
 30
0.0
 10
4.7030485314
 20
4.5606325666
 30
0.0
 10
4.6949283345
 20
4.5671794605
 30
0.0
 10
4.6873043627
 20
4.5738141482
 30
0.0
 10
4.6779601106
 20
4.5826274015
 30
0.0
 10
4.6694520285
 20
4.591728436
 30
0.0
 10
4.6618929002
 20
4.6011177351
 30
0.0
 10
4.6552514229
 20
4.6103004521
 30
0.0
 10
4.6495317129
 20
4.6197378506
 30
0.0
 10
4.644859006
 20
4.6293812402
 30
0.0
 10
4.6419401191
 20
4.6365547954
 30
0.0
 10
4.6395640638
 20
4.6437594042
 30
0.0
 10
4.6377327882
 20
4.6509890398
 30
0.0
 10
4.6364479856
 20
4.6582372317
 30
0.0
 10
4.6357114435
 20
4.6654977541
 30
0.0
 10
4.6355242181
 20
4.6727634494
 30
0.0
 10
4.6357649905
 20
4.6775979372
 30
0.0
 10
4.635975549
 20
4.6800072262
 30
0.0
  0
SPLINE
  5
254
100
AcDbEntity
  8
0
100
AcDbSpline
 62
7
  6
CONTINUOUS
 70
0
 71
3
 72
13
 73
9
 74
0
 42
0.0000001
 43
0.0000001
 44
0.0000000001
 40
0.0
 40
0.0
 40
0.0
 40
0.0
 40
0.2628569142
 40
0.5148603905
 40
0.6378705488
 40
0.7594243095
 40
0.8799775939
 40
1.0
 40
1.0
 40
1.0
 40
1.0
 10
5.6405608404
 20
5.1835779023
 30
0.0
 10
5.6418644077
 20
5.1812694611
 30
0.0
 10
5.644176849
 20
5.1766054594
 30
0.0
 10
5.6463202898
 20
5.1705202852
 30
0.0
 10
5.6475099216
 20
5.1656521003
 30
0.0
 10
5.6481429951
 20
5.1620215149
 30
0.0
 10
5.6485231791
 20
5.1583863146
 30
0.0
 10
5.6486078634
 20
5.1559591192
 30
0.0
 10
5.6486078634
 20
5.1547486196
 30
0.0
  0
SPLINE
  5
255
100
AcDbEntity
  8
0
100
AcDbSpline
 62
7
  6
CONTINUOUS
 70
0
 71
3
 72
24
 73
20
 74
0
 42
0.0000001
 43
0.0000001
 44
0.0000000001
 40
0.0
 40
0.0
 40
0.0
 40
0.0
 40
0.0473510969
 40
0.0951914848
 40
0.1439925866
 40
0.1941916551
 40
0.2461818763
 40
0.3003044444
 40
0.3282633939
 40
0.3568592429
 40
0.4160616799
 40
0.4781119088
 40
0.5431544373
 40
0.6112959872
 40
0.6826074933
 40
0.7571307558
 40
0.8348797856
 40
0.9158462042
 40
1.0
 40
1.0
 40
1.0
 40
1.0
 10
5.9857020541
 20
4.6770400327
 30
0.0
 10
5.985702054
 20
4.680788345
 30
0.0
 10
5.9852829238
 20
4.6883302079
 30
0.0
 10
5.9834030683
 20
4.6995941036
 30
0.0
 10
5.9802758155
 20
4.7108115139
 30
0.0
 10
5.9759108551
 20
4.7219590092
 30
0.0
 10
5.9703186883
 20
4.7330159599
 30
0.0
 10
5.9647082392
 20
4.7420407506
 30
0.0
 10
5.9596439224
 20
4.7491921708
 30
0.0
 10
5.9540620438
 20
4.7564617775
 30
0.0
 10
5.9463156725
 20
4.7654594893
 30
0.0
 10
5.9359582855
 20
4.7759708512
 30
0.0
 10
5.92445244
 20
4.7863022662
 30
0.0
 10
5.9118187362
 20
4.7964354668
 30
0.0
 10
5.8980797131
 20
4.8063537495
 30
0.0
 10
5.8832594614
 20
4.8160396202
 30
0.0
 10
5.8673842606
 20
4.8254766418
 30
0.0
 10
5.850482275
 20
4.8346478576
 30
0.0
 10
5.8387729204
 20
4.8404634288
 30
0.0
 10
5.8327586071
 20
4.8433278888
 30
0.0
  0
SPLINE
  5
256
100
AcDbEntity
  8
0
100
AcDbSpline
 62
7
  6
CONTINUOUS
 70
0
 71
3
 72
13
 73
9
 74
0
 42
0.0000001
 43
0.0000001
 44
0.0000000001
 40
0.0
 40
0.0
 40
0.0
 40
0.0
 40
0.1183502167
 40
0.2378579926
 40
0.3589249958
 40
0.4819328293
 40
0.7350862776
 40
1.0
 40
1.0
 40
1.0
 40
1.0
 10
4.5988586469
 20
4.6654901446
 30
0.0
 10
4.5991120625
 20
4.6677177443
 30
0.0
 10
4.5997674602
 20
4.6721794333
 30
0.0
 10
4.6011844718
 20
4.6788338083
 30
0.0
 10
4.6030382291
 20
4.6854718902
 30
0.0
 10
4.6061185711
 20
4.6943784813
 30
0.0
 10
4.6111020504
 20
4.705483342
 30
0.0
 10
4.6160718511
 20
4.7139684918
 30
0.0
 10
4.6188114086
 20
4.7181731448
 30
0.0
  0
SPLINE
  5
257
100
AcDbEntity
  8
0
100
AcDbSpline
 62
7
  6
CONTINUOUS
 70
0
 71
3
 72
9
 73
5
 74
0
 42
0.0000001
 43
0.0000001
 44
0.0000000001
 40
0.0
 40
0.0
 40
0.0
 40
0.0
 40
0.5141571441
 40
1.0
 40
1.0
 40
1.0
 40
1.0
 10
4.6536910801
 20
4.5728099801
 30
0.0
 10
4.6489028462
 20
4.5768362491
 30
0.0
 10
4.6398390048
 20
4.5849700066
 30
0.0
 10
4.631400313
 20
4.593755961
 30
0.0
 10
4.627491226
 20
4.598190501
 30
0.0
  0
SPLINE
  5
258
100
AcDbEntity
  8
0
100
AcDbSpline
 62
7
  6
CONTINUOUS
 70
0
 71
3
 72
36
 73
32
 74
0
 42
0.0000001
 43
0.0000001
 44
0.0000000001
 40
0.0
 40
0.0
 40
0.0
 40
0.0
 40
0.0306298345
 40
0.0602050525
 40
0.1164594186
 40
0.143348021
 40
0.1695409493
 40
0.1951585049
 40
0.2203313084
 40
0.2451990711
 40
0.2699079674
 40
0.2946076062
 40
0.3194478208
 40
0.344575354
 40
0.3701308983
 40
0.3962462561
 40
0.4230431069
 40
0.479077183
 40
0.5085272436
 40
0.5390237259
 40
0.5706286499
 40
0.6033928214
 40
0.6373573344
 40
0.6725547822
 40
0.7090087488
 40
0.7467362663
 40
0.7857472125
 40
0.8260452745
 40
0.867629335
 40
0.9104923389
 40
1.0
 40
1.0
 40
1.0
 40
1.0
 10
4.627491226
 20
4.598190501
 30
0.0
 10
4.6251179587
 20
4.600882779
 30
0.0
 10
4.6205892883
 20
4.6062977512
 30
0.0
 10
4.612440296
 20
4.6172485895
 30
0.0
 10
4.6055147295
 20
4.6285474501
 30
0.0
 10
4.6000017116
 20
4.6401219642
 30
0.0
 10
4.5966530719
 20
4.6487234772
 30
0.0
 10
4.594033441
 20
4.657364656
 30
0.0
 10
4.5921465312
 20
4.666036626
 30
0.0
 10
4.5909951838
 20
4.6747294558
 30
0.0
 10
4.5905806736
 20
4.6834331103
 30
0.0
 10
4.5909043277
 20
4.6921374009
 30
0.0
 10
4.5919650225
 20
4.7008321025
 30
0.0
 10
4.5937614454
 20
4.7095071902
 30
0.0
 10
4.5962910732
 20
4.7181526519
 30
0.0
 10
4.5995501535
 20
4.7267596016
 30
0.0
 10
4.6049417605
 20
4.7383409507
 30
0.0
 10
4.6117499483
 20
4.74965163
 30
0.0
 10
4.6197861864
 20
4.7606165136
 30
0.0
 10
4.6266161207
 20
4.7688965839
 30
0.0
 10
4.6341401828
 20
4.7770850505
 30
0.0
 10
4.6423507382
 20
4.7851749212
 30
0.0
 10
4.6512389823
 20
4.793157856
 30
0.0
 10
4.6607958968
 20
4.8010255893
 30
0.0
 10
4.6710112456
 20
4.8087705114
 30
0.0
 10
4.6818746451
 20
4.8163844166
 30
0.0
 10
4.6933747478
 20
4.82385962
 30
0.0
 10
4.7054995223
 20
4.8311885555
 30
0.0
 10
4.7182366905
 20
4.8383634555
 30
0.0
 10
4.7362785728
 20
4.8478518204
 30
0.0
 10
4.7503007504
 20
4.8545023764
 30
0.0
 10
4.7598799791
 20
4.8587724202
 30
0.0
  0
SPLINE
  5
259
100
AcDbEntity
  8
0
100
AcDbSpline
 62
7
  6
CONTINUOUS
 70
0
 71
3
 72
22
 73
18
 74
0
 42
0.0000001
 43
0.0000001
 44
0.0000000001
 40
0.0
 40
0.0
 40
0.0
 40
0.0
 40
0.0503404705
 40
0.101045753
 40
0.1524712588
 40
0.2049540854
 40
0.2588063918
 40
0.3143110141
 40
0.4311759105
 40
0.4930068424
 40
0.5572967145
 40
0.6241707654
 40
0.6937282758
 40
0.7660453786
 40
0.8411755061
 40
0.9191547422
 40
1.0
 40
1.0
 40
1.0
 40
1.0
 10
6.010702054
 20
4.6839691298
 30
0.0
 10
6.0107020541
 20
4.6807226858
 30
0.0
 10
6.0103994436
 20
4.6742023117
 30
0.0
 10
6.0090410765
 20
4.6644506813
 30
0.0
 10
6.0067796132
 20
4.6547259114
 30
0.0
 10
6.0036196088
 20
4.6450424109
 30
0.0
 10
5.9995661073
 20
4.6354120131
 30
0.0
 10
5.9928652656
 20
4.6224393105
 30
0.0
 10
5.9844458256
 20
4.6098317937
 30
0.0
 10
5.9745618741
 20
4.5976649583
 30
0.0
 10
5.9661552802
 20
4.5884766886
 30
0.0
 10
5.9569076241
 20
4.5794110587
 30
0.0
 10
5.9468296665
 20
4.5704775932
 30
0.0
 10
5.9359340932
 20
4.5616876063
 30
0.0
 10
5.9242345835
 20
4.5530511905
 30
0.0
 10
5.9117455746
 20
4.54457948
 30
0.0
 10
5.9030600507
 20
4.5391458963
 30
0.0
 10
5.8985938108
 20
4.5364560515
 30
0.0
  0
SPLINE
  5
25A
100
AcDbEntity
  8
0
100
AcDbSpline
 62
7
  6
CONTINUOUS
 70
0
 71
3
 72
22
 73
18
 74
0
 42
0.0000001
 43
0.0000001
 44
0.0000000001
 40
0.0
 40
0.0
 40
0.0
 40
0.0
 40
0.0492137843
 40
0.1004425077
 40
0.1536630588
 40
0.2088404481
 40
0.2659304975
 40
0.32487933
 40
0.3856259102
 40
0.4481011129
 40
0.5122301507
 40
0.577931482
 40
0.645119045
 40
0.7137011378
 40
0.7835824228
 40
0.8546629288
 40
1.0
 40
1.0
 40
1.0
 40
1.0
 10
5.8985938108
 20
4.5364560515
 30
0.0
 10
5.8929989046
 20
4.5330864543
 30
0.0
 10
5.8814329733
 20
4.5264510748
 30
0.0
 10
5.863365281
 20
4.5169851609
 30
0.0
 10
5.8442603217
 20
4.5078225504
 30
0.0
 10
5.824153113
 20
4.4989795533
 30
0.0
 10
5.8030796961
 20
4.4904724985
 30
0.0
 10
5.7810783153
 20
4.4823163506
 30
0.0
 10
5.7581886522
 20
4.4745263505
 30
0.0
 10
5.7344522607
 20
4.4671161701
 30
0.0
 10
5.7099120634
 20
4.4600997484
 30
0.0
 10
5.6846126391
 20
4.4534893738
 30
0.0
 10
5.6585998009
 20
4.4472975335
 30
0.0
 10
5.6319208614
 20
4.4415350654
 30
0.0
 10
5.6046240115
 20
4.4362128121
 30
0.0
 10
5.5671950559
 20
4.4296679165
 30
0.0
 10
5.5387655496
 20
4.4255255721
 30
0.0
 10
5.5196332409
 20
4.4230803719
 30
0.0
  0
SPLINE
  5
25B
100
AcDbEntity
  8
0
100
AcDbSpline
 62
7
  6
CONTINUOUS
 70
0
 71
3
 72
11
 73
7
 74
0
 42
0.0000001
 43
0.0000001
 44
0.0000000001
 40
0.0
 40
0.0
 40
0.0
 40
0.0
 40
0.2451352667
 40
0.4944266507
 40
0.7465123861
 40
1.0
 40
1.0
 40
1.0
 40
1.0
 10
5.5196332409
 20
4.4230803719
 30
0.0
 10
5.5011318785
 20
4.4207158097
 30
0.0
 10
5.4637317366
 20
4.4165808875
 30
0.0
 10
5.4070936368
 20
4.4121671158
 30
0.0
 10
5.3497101117
 20
4.4095072352
 30
0.0
 10
5.3112394189
 20
4.4089154034
 30
0.0
 10
5.291952054
 20
4.4089154031
 30
0.0
  0
SPLINE
  5
25C
100
AcDbEntity
  8
0
100
AcDbSpline
 62
7
  6
CONTINUOUS
 70
0
 71
3
 72
22
 73
18
 74
0
 42
0.0000001
 43
0.0000001
 44
0.0000000001
 40
0.0
 40
0.0
 40
0.0
 40
0.0
 40
0.0523629196
 40
0.1050297053
 40
0.1582752157
 40
0.2123650548
 40
0.2675558185
 40
0.3240877058
 40
0.4419685625
 40
0.5037413641
 40
0.5675881606
 40
0.6336361117
 40
0.7019910377
 40
0.7727418825
 40
0.845960165
 40
0.9216992724
 40
1.0
 40
1.0
 40
1.0
 40
1.0
 10
5.9482955943
 20
4.6716100597
 30
0.0
 10
5.9482955949
 20
4.674198745
 30
0.0
 10
5.9480850038
 20
4.6793935523
 30
0.0
 10
5.9471397528
 20
4.687168916
 30
0.0
 10
5.9455661091
 20
4.6949292465
 30
0.0
 10
5.9433653044
 20
4.7026647268
 30
0.0
 10
5.94054036
 20
4.71036789
 30
0.0
 10
5.935883024
 20
4.7207278615
 30
0.0
 10
5.9300104572
 20
4.73086386
 30
0.0
 10
5.9230776523
 20
4.7407100751
 30
0.0
 10
5.9171936357
 20
4.7481439892
 30
0.0
 10
5.9107135781
 20
4.7555024096
 30
0.0
 10
5.9036436987
 20
4.7627797568
 30
0.0
 10
5.8959906789
 20
4.7699689226
 30
0.0
 10
5.8877616448
 20
4.7770632236
 30
0.0
 10
5.8789649058
 20
4.7840563183
 30
0.0
 10
5.8728298303
 20
4.7885711287
 30
0.0
 10
5.8696731436
 20
4.7908116273
 30
0.0
  0
SPLINE
  5
25D
100
AcDbEntity
  8
0
100
AcDbSpline
 62
7
  6
CONTINUOUS
 70
0
 71
3
 72
39
 73
35
 74
0
 42
0.0000001
 43
0.0000001
 44
0.0000000001
 40
0.0
 40
0.0
 40
0.0
 40
0.0
 40
0.0082374801
 40
0.0165037939
 40
0.0248273877
 40
0.0332360352
 40
0.0417564491
 40
0.050414
 40
0.0682279353
 40
0.0868561205
 40
0.106440979
 40
0.1270963481
 40
0.1489101129
 40
0.1719464329
 40
0.1962489349
 40
0.2218437124
 40
0.2487411917
 40
0.2769390761
 40
0.3064233769
 40
0.3371703419
 40
0.3691477122
 40
0.4023153081
 40
0.4366266242
 40
0.4720288445
 40
0.5084640148
 40
0.5458694587
 40
0.5841780607
 40
0.6233192188
 40
0.663218721
 40
0.7037995332
 40
0.7449819498
 40
0.828818633
 40
0.914055602
 40
1.0
 40
1.0
 40
1.0
 40
1.0
 10
4.5732020556
 20
4.5592453739
 30
0.0
 10
4.5732020556
 20
4.556994165
 30
0.0
 10
4.5733470529
 20
4.5524825369
 30
0.0
 10
4.5739986866
 20
4.5457244803
 30
0.0
 10
4.5750840299
 20
4.5389747999
 30
0.0
 10
4.576602537
 20
4.5322382504
 30
0.0
 10
4.5785531124
 20
4.5255187888
 30
0.0
 10
4.5817573815
 20
4.5165037494
 30
0.0
 10
4.5868837714
 20
4.5052650575
 30
0.0
 10
4.5946773384
 20
4.4920567149
 30
0.0
 10
4.6041486427
 20
4.4790246369
 30
0.0
 10
4.6152708512
 20
4.4661979931
 30
0.0
 10
4.6280162058
 20
4.4536043037
 30
0.0
 10
4.642353417
 20
4.4412710693
 30
0.0
 10
4.6582481909
 20
4.4292256122
 30
0.0
 10
4.6756630427
 20
4.4174956116
 30
0.0
 10
4.6945565226
 20
4.4061076759
 30
0.0
 10
4.7148840744
 20
4.3950887741
 30
0.0
 10
4.7365973302
 20
4.3844646506
 30
0.0
 10
4.7596446292
 20
4.3742604948
 30
0.0
 10
4.7839710806
 20
4.3645008733
 30
0.0
 10
4.8095184592
 20
4.3552087822
 30
0.0
 10
4.8362257274
 20
4.3464068809
 30
0.0
 10
4.8640288364
 20
4.3381160833
 30
0.0
 10
4.8928611189
 20
4.3303563994
 30
0.0
 10
4.9226533969
 20
4.323146678
 30
0.0
 10
4.9533340703
 20
4.3165040142
 30
0.0
 10
4.9848294734
 20
4.310444758
 30
0.0
 10
5.0170638248
 20
4.304983298
 30
0.0
 10
5.0499597489
 20
4.3001328425
 30
0.0
 10
5.0948623902
 20
4.294462798
 30
0.0
 10
5.1520796424
 20
4.289002119
 30
0.0
 10
5.2216775796
 20
4.285067569
 30
0.0
 10
5.2684644361
 20
4.284191666
 30
0.0
 10
5.2919520556
 20
4.2841916663
 30
0.0
  0
SPLINE
  5
25E
100
AcDbEntity
  8
0
100
AcDbSpline
 62
7
  6
CONTINUOUS
 70
0
 71
3
 72
59
 73
55
 74
0
 42
0.0000001
 43
0.0000001
 44
0.0000000001
 40
0.0
 40
0.0
 40
0.0
 40
0.0
 40
0.0082461662
 40
0.0166098319
 40
0.0251963944
 40
0.0341035816
 40
0.0434176666
 40
0.0532104999
 40
0.0635385834
 40
0.0744460098
 40
0.0859645465
 40
0.0981162783
 40
0.1109141912
 40
0.1243633776
 40
0.1384629752
 40
0.153205589
 40
0.1685797619
 40
0.1845690263
 40
0.2011534582
 40
0.2183098395
 40
0.2360115417
 40
0.2542299399
 40
0.2920856154
 40
0.3316049886
 40
0.3724860132
 40
0.4144058609
 40
0.4570265044
 40
0.5
 40
0.5429734956
 40
0.5855941391
 40
0.6275139868
 40
0.6683950114
 40
0.7079143846
 40
0.7457700601
 40
0.7639884583
 40
0.7816901605
 40
0.7988465418
 40
0.8154309737
 40
0.8314202381
 40
0.846794411
 40
0.8615370248
 40
0.8756366224
 40
0.8890858088
 40
0.9018837217
 40
0.9140354535
 40
0.9255539902
 40
0.9364614166
 40
0.9467895001
 40
0.9565823334
 40
0.9658964184
 40
0.9748036056
 40
0.9833901681
 40
0.9917538338
 40
1.0
 40
1.0
 40
1.0
 40
1.0
 10
5.6486078634
 20
5.1547486196
 30
0.0
 10
5.6486078634
 20
5.1525121759
 30
0.0
 10
5.6483161331
 20
5.1480022526
 30
0.0
 10
5.6470113131
 20
5.141277283
 30
0.0
 10
5.6448424651
 20
5.1345908064
 30
0.0
 10
5.6418187999
 20
5.1279628512
 30
0.0
 10
5.6379513721
 20
5.1214083325
 30
0.0
 10
5.6332514636
 20
5.1149419526
 30
0.0
 10
5.6277326799
 20
5.1085768505
 30
0.0
 10
5.6214080383
 20
5.1023278245
 30
0.0
 10
5.6142937764
 20
5.0962077321
 30
0.0
 10
5.6064064657
 20
5.0902306595
 30
0.0
 10
5.5977649225
 20
5.0844100725
 30
0.0
 10
5.5883897287
 20
5.078759042
 30
0.0
 10
5.5783027735
 20
5.073291482
 30
0.0
 10
5.5675283756
 20
5.0680193945
 30
0.0
 10
5.5560918514
 20
5.0629561128
 30
0.0
 10
5.5440206966
 20
5.0581131179
 30
0.0
 10
5.5313436532
 20
5.0535022272
 30
0.0
 10
5.5180910566
 20
5.0491346862
 30
0.0
 10
5.5042946834
 20
5.0450204248
 30
0.0
 10
5.4849713912
 20
5.0398204002
 30
0.0
 10
5.459683997
 20
5.0340510185
 30
0.0
 10
5.4281098085
 20
5.0283637987
 30
0.0
 10
5.3952297534
 20
5.0238820404
 30
0.0
 10
5.3613593137
 20
5.0206493341
 30
0.0
 10
5.3268229674
 20
5.0186970598
 30
0.0
 10
5.2919520497
 20
5.0180441875
 30
0.0
 10
5.2570811319
 20
5.0186970589
 30
0.0
 10
5.2225447855
 20
5.0206493323
 30
0.0
 10
5.1886743458
 20
5.0238820378
 30
0.0
 10
5.1557942905
 20
5.0283637951
 30
0.0
 10
5.1242201019
 20
5.0340510142
 30
0.0
 10
5.0989327075
 20
5.0398203952
 30
0.0
 10
5.0796094152
 20
5.0450204193
 30
0.0
 10
5.0658130419
 20
5.0491346804
 30
0.0
 10
5.0525604452
 20
5.053502221
 30
0.0
 10
5.0398834016
 20
5.0581131113
 30
0.0
 10
5.0278122468
 20
5.0629561059
 30
0.0
 10
5.0163757225
 20
5.0680193874
 30
0.0
 10
5.0056013244
 20
5.0732914745
 30
0.0
 10
4.9955143691
 20
5.0787590343
 30
0.0
 10
4.9861391751
 20
5.0844100646
 30
0.0
 10
4.9774976317
 20
5.0902306513
 30
0.0
 10
4.9696103209
 20
5.0962077237
 30
0.0
 10
4.9624960588
 20
5.102327816
 30
0.0
 10
4.956171417
 20
5.1085768418
 30
0.0
 10
4.9506526332
 20
5.1149419437
 30
0.0
 10
4.9459527245
 20
5.1214083236
 30
0.0
 10
4.9420852966
 20
5.1279628421
 30
0.0
 10
4.9390616312
 20
5.1345907973
 30
0.0
 10
4.936892783
 20
5.1412772738
 30
0.0
 10
4.9355879629
 20
5.1480022433
 30
0.0
 10
4.9352962324
 20
5.1525121666
 30
0.0
 10
4.9352962324
 20
5.1547486104
 30
0.0
  0
SPLINE
  5
25F
100
AcDbEntity
  8
0
100
AcDbSpline
 62
7
  6
CONTINUOUS
 70
0
 71
3
 72
13
 73
9
 74
0
 42
0.0000001
 43
0.0000001
 44
0.0000000001
 40
0.0
 40
0.0
 40
0.0
 40
0.0
 40
0.2626830475
 40
0.5148743823
 40
0.63798741
 40
0.7595984123
 40
0.8801254623
 40
1.0
 40
1.0
 40
1.0
 40
1.0
 10
5.9608651801
 20
4.6066313596
 30
0.0
 10
5.9633268009
 20
4.61096237
 30
0.0
 10
5.9677226402
 20
4.6197060197
 30
0.0
 10
5.9718946787
 20
4.6310956915
 30
0.0
 10
5.9743008308
 20
4.6402127517
 30
0.0
 10
5.9756425056
 20
4.6470134489
 30
0.0
 10
5.9765343202
 20
4.6538253327
 30
0.0
 10
5.9768289718
 20
4.6583788449
 30
0.0
 10
5.9769006864
 20
4.6606510909
 30
0.0
  0
SPLINE
  5
260
100
AcDbEntity
  8
0
100
AcDbSpline
 62
7
  6
CONTINUOUS
 70
0
 71
3
 72
11
 73
7
 74
0
 42
0.0000001
 43
0.0000001
 44
0.0000000001
 40
0.0
 40
0.0
 40
0.0
 40
0.0
 40
0.2304947398
 40
0.4735991297
 40
0.729957359
 40
1.0
 40
1.0
 40
1.0
 40
1.0
 10
4.6506325495
 20
4.5844913402
 30
0.0
 10
4.6538339473
 20
4.5806033515
 30
0.0
 10
4.660748035
 20
4.5728871858
 30
0.0
 10
4.6722409884
 20
4.5618104927
 30
0.0
 10
4.6850971451
 20
4.5509572773
 30
0.0
 10
4.6943154088
 20
4.5440664732
 30
0.0
 10
4.6991319888
 20
4.5406581005
 30
0.0
  0
SPLINE
  5
261
100
AcDbEntity
  8
0
100
AcDbSpline
 62
7
  6
CONTINUOUS
 70
0
 71
3
 72
26
 73
22
 74
0
 42
0.0000001
 43
0.0000001
 44
0.0000000001
 40
0.0
 40
0.0
 40
0.0
 40
0.0
 40
0.0862978429
 40
0.1693053578
 40
0.2489358303
 40
0.3251254262
 40
0.3978377275
 40
0.4670662936
 40
0.5328410843
 40
0.595232264
 40
0.6543588012
 40
0.7103936103
 40
0.7635734422
 40
0.8142039185
 40
0.8626667711
 40
0.8862346052
 40
0.9094376773
 40
0.9323434399
 40
0.9550226577
 40
0.9775493989
 40
1.0
 40
1.0
 40
1.0
 40
1.0
 10
5.7657703771
 20
4.4861225027
 30
0.0
 10
5.7734336029
 20
4.4891018919
 30
0.0
 10
5.7883750445
 20
4.4951901598
 30
0.0
 10
5.810013009
 20
4.5049141733
 30
0.0
 10
5.8304001092
 20
4.5150336387
 30
0.0
 10
5.8494871394
 20
4.525525019
 30
0.0
 10
5.8672287621
 20
4.5363635908
 30
0.0
 10
5.8835824736
 20
4.5475247368
 30
0.0
 10
5.8985096031
 20
4.5589825715
 30
0.0
 10
5.9119742011
 20
4.5707118347
 30
0.0
 10
5.9239442793
 20
4.5826861632
 30
0.0
 10
5.934389899
 20
4.5948800289
 30
0.0
 10
5.9432850847
 20
4.6072671445
 30
0.0
 10
5.9506042937
 20
4.6198201387
 30
0.0
 10
5.9554175836
 20
4.6304975194
 30
0.0
 10
5.9584262729
 20
4.6390621823
 30
0.0
 10
5.9602581768
 20
4.6454470468
 30
0.0
 10
5.9616845097
 20
4.6518478428
 30
0.0
 10
5.9627040342
 20
4.658260902
 30
0.0
 10
5.9633159338
 20
4.6646818462
 30
0.0
 10
5.9634520591
 20
4.6689682983
 30
0.0
 10
5.9634520747
 20
4.6711072803
 30
0.0
  0
SPLINE
  5
262
100
AcDbEntity
  8
0
100
AcDbSpline
 62
7
  6
CONTINUOUS
 70
0
 71
3
 72
20
 73
16
 74
0
 42
0.0000001
 43
0.0000001
 44
0.0000000001
 40
0.0
 40
0.0
 40
0.0
 40
0.0
 40
0.0496427061
 40
0.1004485837
 40
0.1525835468
 40
0.2061977274
 40
0.2614282473
 40
0.3183979895
 40
0.4379355522
 40
0.5007007752
 40
0.5655375069
 40
0.6324950728
 40
0.701609631
 40
0.8463880561
 40
1.0
 40
1.0
 40
1.0
 40
1.0
 10
5.9571804108
 20
4.706649098
 30
0.0
 10
5.9563452429
 20
4.7091617882
 30
0.0
 10
5.9544745747
 20
4.7141876896
 30
0.0
 10
5.9511283354
 20
4.7216124855
 30
0.0
 10
5.9472161193
 20
4.7289958885
 30
0.0
 10
5.9427417343
 20
4.736330015
 30
0.0
 10
5.9377096301
 20
4.7436088339
 30
0.0
 10
5.930142561
 20
4.753388306
 30
0.0
 10
5.9215671699
 20
4.7628711683
 30
0.0
 10
5.9121067224
 20
4.772054109
 30
0.0
 10
5.9043652779
 20
4.778969763
 30
0.0
 10
5.8961006173
 20
4.7857949714
 30
0.0
 10
5.8842084644
 20
4.7949089369
 30
0.0
 10
5.86804036
 20
4.806017708
 30
0.0
 10
5.8543954854
 20
4.8142290785
 30
0.0
 10
5.8472675231
 20
4.8182693319
 30
0.0
  0
SPLINE
  5
263
100
AcDbEntity
  8
0
100
AcDbSpline
 62
7
  6
CONTINUOUS
 70
0
 71
3
 72
15
 73
11
 74
0
 42
0.0000001
 43
0.0000001
 44
0.0000000001
 40
0.0
 40
0.0
 40
0.0
 40
0.0
 40
0.1385476191
 40
0.2738654386
 40
0.4056048791
 40
0.5334367202
 40
0.657055234
 40
0.776182268
 40
0.8905681317
 40
1.0
 40
1.0
 40
1.0
 40
1.0
 10
5.5555877558
 20
4.4352714345
 30
0.0
 10
5.5673235727
 20
4.4371886255
 30
0.0
 10
5.5904753282
 20
4.4412694288
 30
0.0
 10
5.6245912865
 20
4.4482195115
 30
0.0
 10
5.6576053292
 20
4.455908266
 30
0.0
 10
5.6894079661
 20
4.4643103375
 30
0.0
 10
5.7198941241
 20
4.4733979238
 30
0.0
 10
5.7489635145
 20
4.4831405145
 30
0.0
 10
5.7765194943
 20
4.493506245
 30
0.0
 10
5.7942237149
 20
4.500978838
 30
0.0
 10
5.8027935086
 20
4.5048228006
 30
0.0
  0
SPLINE
  5
264
100
AcDbEntity
  8
0
100
AcDbSpline
 62
7
  6
CONTINUOUS
 70
0
 71
3
 72
24
 73
20
 74
0
 42
0.0000001
 43
0.0000001
 44
0.0000000001
 40
0.0
 40
0.0
 40
0.0
 40
0.0
 40
0.0849014669
 40
0.1665600844
 40
0.2449308904
 40
0.3199919827
 40
0.39174371
 40
0.4602168683
 40
0.5254713303
 40
0.587606325
 40
0.6467601568
 40
0.6752810343
 40
0.7031313062
 40
0.756936376
 40
0.8084826973
 40
0.8581254431
 40
0.906277096
 40
0.9534008578
 40
1.0
 40
1.0
 40
1.0
 40
1.0
 10
5.8027935086
 20
4.5048228006
 30
0.0
 10
5.8090878928
 20
4.5076461332
 30
0.0
 10
5.821346924
 20
4.5133873962
 30
0.0
 10
5.8390590566
 20
4.5224721066
 30
0.0
 10
5.8557081269
 20
4.5318475175
 30
0.0
 10
5.8712621307
 20
4.5414949769
 30
0.0
 10
5.885690836
 20
4.5513970542
 30
0.0
 10
5.898967009
 20
4.5615341833
 30
0.0
 10
5.9110646226
 20
4.5718886605
 30
0.0
 10
5.9219604913
 20
4.5824401216
 30
0.0
 10
5.9301181796
 20
4.5914901898
 30
0.0
 10
5.9359982879
 20
4.5988099335
 30
0.0
 10
5.9413274759
 20
4.6060055005
 30
0.0
 10
5.9472337236
 20
4.615092175
 30
0.0
 10
5.9531268947
 20
4.6262428583
 30
0.0
 10
5.9577289465
 20
4.6374933777
 30
0.0
 10
5.961026469
 20
4.6488215895
 30
0.0
 10
5.9630101023
 20
4.660201172
 30
0.0
 10
5.9634520433
 20
4.6678237145
 30
0.0
 10
5.9634520645
 20
4.6716100821
 30
0.0
  0
SPLINE
  5
265
100
AcDbEntity
  8
0
100
AcDbSpline
 62
7
  6
CONTINUOUS
 70
0
 71
3
 72
14
 73
10
 74
0
 42
0.0000001
 43
0.0000001
 44
0.0000000001
 40
0.0
 40
0.0
 40
0.0
 40
0.0
 40
0.1200197871
 40
0.2405638315
 40
0.3621018119
 40
0.4850901576
 40
0.6099717278
 40
0.7371739325
 40
1.0
 40
1.0
 40
1.0
 40
1.0
 10
5.854235772
 20
4.7822052304
 30
0.0
 10
5.854235772
 20
4.7841138387
 30
0.0
 10
5.85410231
 20
4.7879407148
 30
0.0
 10
5.8535029853
 20
4.7936721004
 30
0.0
 10
5.8525050198
 20
4.7993957912
 30
0.0
 10
5.8511091027
 20
4.80510637
 30
0.0
 10
5.8493159516
 20
4.810799581
 30
0.0
 10
5.8463672556
 20
4.818442769
 30
0.0
 10
5.8436044149
 20
4.8240165531
 30
0.0
 10
5.8415491734
 20
4.8276559009
 30
0.0
  0
SPLINE
  5
266
100
AcDbEntity
  8
0
100
AcDbSpline
 62
7
  6
CONTINUOUS
 70
0
 71
3
 72
13
 73
9
 74
0
 42
0.0000001
 43
0.0000001
 44
0.0000000001
 40
0.0
 40
0.0
 40
0.0
 40
0.0
 40
0.1198297285
 40
0.2404408443
 40
0.3622039401
 40
0.4854756267
 40
0.737794651
 40
1.0
 40
1.0
 40
1.0
 40
1.0
 10
4.7298388976
 20
4.7875024915
 30
0.0
 10
4.729947642
 20
4.7891928577
 30
0.0
 10
4.7302701027
 20
4.7925788093
 30
0.0
 10
4.731064617
 20
4.7976397072
 30
0.0
 10
4.7321705737
 20
4.802691823
 30
0.0
 10
4.7340732773
 20
4.809463394
 30
0.0
 10
4.7372555852
 20
4.817919513
 30
0.0
 10
4.7405325302
 20
4.8244284914
 30
0.0
 10
4.7423550334
 20
4.827655879
 30
0.0
  0
SPLINE
  5
267
100
AcDbEntity
  8
0
100
AcDbSpline
 62
7
  6
CONTINUOUS
 70
0
 71
3
 72
20
 73
16
 74
0
 42
0.0000001
 43
0.0000001
 44
0.0000000001
 40
0.0
 40
0.0
 40
0.0
 40
0.0
 40
0.0520708416
 40
0.1046752102
 40
0.158048021
 40
0.2124114701
 40
0.2679735136
 40
0.3249250817
 40
0.4436174129
 40
0.5056979827
 40
0.5697484659
 40
0.7041146972
 40
0.774621975
 40
0.8474140353
 40
1.0
 40
1.0
 40
1.0
 40
1.0
 10
4.635975549
 20
4.6800072262
 30
0.0
 10
4.636187051
 20
4.6824273124
 30
0.0
 10
4.6367953338
 20
4.6872781786
 30
0.0
 10
4.6382513783
 20
4.6945128879
 30
0.0
 10
4.640252414
 20
4.7017274011
 30
0.0
 10
4.6427960133
 20
4.7089149445
 30
0.0
 10
4.645880169
 20
4.716069748
 30
0.0
 10
4.650775542
 20
4.7256881803
 30
0.0
 10
4.6567081248
 20
4.7350932211
 30
0.0
 10
4.663553606
 20
4.7442407586
 30
0.0
 10
4.6713215809
 20
4.7535934986
 30
0.0
 10
4.6800280193
 20
4.7626547247
 30
0.0
 10
4.6895634935
 20
4.7714265939
 30
0.0
 10
4.7000837961
 20
4.7803686985
 30
0.0
 10
4.7084728961
 20
4.7867262257
 30
0.0
 10
4.7142787822
 20
4.790845464
 30
0.0
  0
SPLINE
  5
268
100
AcDbEntity
  8
0
100
AcDbSpline
 62
7
  6
CONTINUOUS
 70
0
 71
3
 72
72
 73
68
 74
0
 42
0.0000001
 43
0.0000001
 44
0.0000000001
 40
0.0
 40
0.0
 40
0.0
 40
0.0
 40
0.0041328162
 40
0.0082813884
 40
0.01245974
 40
0.0166815421
 40
0.0253043174
 40
0.0342539656
 40
0.0388809073
 40
0.0436211232
 40
0.0534717443
 40
0.0638662787
 40
0.0748486178
 40
0.0864510368
 40
0.0986950531
 40
0.1115933295
 40
0.1251506634
 40
0.1393652264
 40
0.1542294673
 40
0.1697307083
 40
0.1858520915
 40
0.2025726514
 40
0.2198683394
 40
0.2377117234
 40
0.2560730789
 40
0.2749198664
 40
0.294217831
 40
0.3139303987
 40
0.3340197055
 40
0.3751664766
 40
0.4173297758
 40
0.4601637347
 40
0.5033128307
 40
0.5464170707
 40
0.5891170951
 40
0.6102056993
 40
0.6310614037
 40
0.6516417763
 40
0.6719054182
 40
0.6918120732
 40
0.7113229891
 40
0.7304008168
 40
0.7490102469
 40
0.7671176708
 40
0.7846921287
 40
0.8017047515
 40
0.8181300225
 40
0.8339450769
 40
0.8491312477
 40
0.8636733641
 40
0.8775615334
 40
0.8907906381
 40
0.9033623129
 40
0.9152848676
 40
0.9265754306
 40
0.9372604679
 40
0.9473779761
 40
0.9569784589
 40
0.9661266155
 40
0.9705570647
 40
0.9749054
 40
0.9791838173
 40
0.9834052603
 40
0.9875833051
 40
0.9917320659
 40
0.9958660661
 40
1.0
 40
1.0
 40
1.0
 40
1.0
 10
5.854235772
 20
4.7822052304
 30
0.0
 10
5.854235772
 20
4.7804307732
 30
0.0
 10
5.8541204557
 20
4.7768740243
 30
0.0
 10
5.8536025649
 20
4.7715459879
 30
0.0
 10
5.8527400386
 20
4.766223774
 30
0.0
 10
5.8511205636
 20
4.7590923543
 30
0.0
 10
5.8482050039
 20
4.7501753155
 30
0.0
 10
5.8442142485
 20
4.7414974972
 30
0.0
 10
5.8403781243
 20
4.7346288795
 30
0.0
 10
5.8359957101
 20
4.7276338696
 30
0.0
 10
5.8296455273
 20
4.7189672723
 30
0.0
 10
5.8208099511
 20
4.7088636333
 30
0.0
 10
5.8106860267
 20
4.6989455075
 30
0.0
 10
5.7992987887
 20
4.6892362417
 30
0.0
 10
5.7866760857
 20
4.6797570539
 30
0.0
 10
5.772848063
 20
4.6705302532
 30
0.0
 10
5.7578480844
 20
4.6615772246
 30
0.0
 10
5.7417121839
 20
4.6529192829
 30
0.0
 10
5.7244792684
 20
4.6445772109
 30
0.0
 10
5.7061910375
 20
4.6365709355
 30
0.0
 10
5.6868917171
 20
4.6289201606
 30
0.0
 10
5.6666282424
 20
4.6216430749
 30
0.0
 10
5.6454497638
 20
4.6147579284
 30
0.0
 10
5.6234079318
 20
4.6082809434
 30
0.0
 10
5.6005563408
 20
4.6022286248
 30
0.0
 10
5.5769507974
 20
4.5966150629
 30
0.0
 10
5.5526488276
 20
4.5914547889
 30
0.0
 10
5.5277097184
 20
4.5867595921
 30
0.0
 10
5.4934167475
 20
4.5810910594
 30
0.0
 10
5.4493901633
 20
4.5752717864
 30
0.0
 10
5.3954396973
 20
4.5703490488
 30
0.0
 10
5.340480259
 20
4.5674808232
 30
0.0
 10
5.285047915
 20
4.5666954087
 30
0.0
 10
5.2296832975
 20
4.5680006506
 30
0.0
 10
5.1838627911
 20
4.5708311604
 30
0.0
 10
5.147669257
 20
4.5741426235
 30
0.0
 10
5.1209879432
 20
4.5771241253
 30
0.0
 10
5.0947246366
 20
4.580606351
 30
0.0
 10
5.0689433648
 20
4.5845805688
 30
0.0
 10
5.0437071753
 20
4.5890373649
 30
0.0
 10
5.0190776423
 20
4.5939653708
 30
0.0
 10
4.9951149621
 20
4.5993530468
 30
0.0
 10
4.9718775245
 20
4.60518656
 30
0.0
 10
4.9494221126
 20
4.6114523448
 30
0.0
 10
4.9278033178
 20
4.6181342708
 30
0.0
 10
4.9070739525
 20
4.6252168763
 30
0.0
 10
4.8872842318
 20
4.6326819498
 30
0.0
 10
4.8684824705
 20
4.6405122862
 30
0.0
 10
4.8507139718
 20
4.6486878783
 30
0.0
 10
4.8340220651
 20
4.6571899696
 30
0.0
 10
4.8184466761
 20
4.6659971345
 30
0.0
 10
4.8040257297
 20
4.6750893355
 30
0.0
 10
4.7907934484
 20
4.6844442277
 30
0.0
 10
4.7787821005
 20
4.6940408744
 30
0.0
 10
4.7680201922
 20
4.7038566479
 30
0.0
 10
4.7585345055
 20
4.7138700737
 30
0.0
 10
4.7503483986
 20
4.7240589929
 30
0.0
 10
4.7434843057
 20
4.7344004002
 30
0.0
 10
4.7388327291
 20
4.7432217727
 30
0.0
 10
4.7358219201
 20
4.7503094211
 30
0.0
 10
4.7339284894
 20
4.7555897064
 30
0.0
 10
4.732377161
 20
4.7608870175
 30
0.0
 10
4.7311688444
 20
4.7661981534
 30
0.0
 10
4.730304512
 20
4.7715196934
 30
0.0
 10
4.7297851915
 20
4.7768483218
 30
0.0
 10
4.7296110567
 20
4.7821802205
 30
0.0
 10
4.7297249482
 20
4.7857312159
 30
0.0
 10
4.7298388976
 20
4.7875024915
 30
0.0
  0
ENDSEC
  0
SECTION
  2
OBJECTS
  0
DICTIONARY
  5
C
100
AcDbDictionary
280
0
281
1
  3
ACAD_GROUP
350
D
  3
ACAD_MLINESTYLE
350
17
  3
ACAD_LAYOUT
350
1A
  3
ACAD_PLOTSETTINGS
350
19
  3
ACAD_PLOTSTYLENAME
350
E
  0
DICTIONARY
  5
D
102
{ACAD_REACTORS
330
C
102
}
100
AcDbDictionary
280
0
281
1
  0
ACDBDICTIONARYWDFLT
  5
E
102
{ACAD_REACTORS
330
C
102
}
100
AcDbDictionary
281
1
  3
Normal
350
F
100
AcDbDictionaryWithDefault
340
F
  0
DICTIONARY
  5
17
102
{ACAD_REACTORS
330
C
102
}
100
AcDbDictionary
280
0
281
1
  3
Standard
350
18
  0
DICTIONARY
  5
19
102
{ACAD_REACTORS
330
C
102
}
100
AcDbDictionary
281
1
  0
DICTIONARY
  5
1A
102
{ACAD_REACTORS
330
C
102
}
100
AcDbDictionary
281
1
  3
Model
350
269
  3
Layout1
350
26A
  0
ACDBPLACEHOLDER
  5
F
102
{ACAD_REACTORS
330
E
102
}
  0
MLINESTYLE
  5
18
102
{ACAD_REACTORS
330
17
102
}
100
AcDbMlineStyle
  2
STANDARD
 70
0
  3

 62
256
 51
90.0
 52
90.0
 71
2
 49
0.5
 62
256
  6
BYLAYER
 49
-0.5
 62
256
  6
BYLAYER
  0
LAYOUT
  5
269
102
{ACAD_REACTORS
330
1A
102
}
100
AcDbPlotSettings
  1

  2
none_device
  4
ANSI_A_(11.00_x_8.50_Inches)
  6

 40
0.0
 41
0.0
 42
0.0
 43
0.0
 44
279.4
 45
215.9
 46
0.0
 47
0.0
 48
0.0
 49
0.0
140
0.0
141
0.0
142
1.0
143
1.0
 70
1024
 72
0
 73
0
 74
0
  7

 75
0
147
1.0
148
0.0
149
0.0
100
AcDbLayout
  1
Model
 70
0
 71
0
 10
0.0
 20
0.0
 11
11.0
 21
8.5
 12
0.0
 22
0.0
 32
0.0
 14
0.0
 24
0.0
 34
0.0
 15
0.0
 25
0.0
 35
0.0
146
0.0
 13
0.0
 23
0.0
 33
0.0
 16
1.0
 26
0.0
 36
0.0
 17
0.0
 27
1.0
 37
0.0
 76
0
330
203
345
0
346
0
  0
LAYOUT
  5
26A
102
{ACAD_REACTORS
330
1A
102
}
100
AcDbPlotSettings
  1

  2
none_device
  4
ANSI_A_(11.00_x_8.50_Inches)
  6

 40
0.0
 41
0.0
 42
0.0
 43
0.0
 44
279.4
 45
215.9
 46
0.0
 47
0.0
 48
0.0
 49
0.0
140
0.0
141
0.0
142
1.0
143
1.0
 70
0
 72
0
 73
0
 74
0
  7

 75
0
147
1.0
148
0.0
149
0.0
100
AcDbLayout
  1
Layout1
 70
0
 71
1
 10
0.0
 20
0.0
 11
11.0
 21
8.5
 12
0.0
 22
0.0
 32
0.0
 14
0.0
 24
0.0
 34
0.0
 15
0.0
 25
0.0
 35
0.0
146
0.0
 13
0.0
 23
0.0
 33
0.0
 16
1.0
 26
0.0
 36
0.0
 17
0.0
 27
1.0
 37
0.0
 76
0
330
204
345
0
346
0
  0
ENDSEC
  0
EOF
