999
DXF file: 283_FRONT.dxf
999
Pro/ENGINEER 2018400 by Parametric Technology Corporation
  0
SECTION
  2
HEADER
  9
$ACADVER
  1
AC1027
  9
$DWGCODEPAGE
  3
ANSI_1252
  9
$EXTMAX
 10
11.0
 20
8.5
 30
0.0
  9
$EXTMIN
 10
0.0
 20
0.0
 30
0.0
  9
$LIMMIN
 10
0.0
 20
0.0
  9
$LIMMAX
 10
11.0
 20
8.5
  9
$VIEWCTR
 10
5.5
 20
4.25
  9
$VIEWSIZE
 40
8.5
  9
$CLAYER
  8
0
  9
$LTSCALE
 40
0.605
  9
$CELTYPE
  6
BYLAYER
  9
$DIMSCALE
 40
1.0
  9
$DIMASZ
 40
0.1
  9
$DIMEXO
 40
0.0625
  9
$DIMDLI
 40
0.418
  9
$DIMEXE
 40
0.125
  9
$DIMCEN
 40
0.099
  9
$DIMLFAC
 40
1.0
  9
$DIMBLK
  1
_FILLED
  9
$DIMALT
 70
1
  9
$DIMALTD
 70
2
  9
$DIMALTTD
 70
2
  9
$DIMALTF
 40
25.4
  9
$DIMTXT
 40
0.08
  9
$DIMTOL
 70
1
  9
$DIMLIM
 70
0
  9
$DIMTFAC
 40
1.0
  9
$DIMTP
 40
0.001
  9
$DIMTM
 40
0.001
  9
$DIMGAP
 40
0.09
  9
$DIMDSEP
 70
46
  9
$AUNITS
 70
0
  9
$PDMODE
 70
3
  9
$PDSIZE
 40
0.3125
  9
$HANDSEED
  5
301
  9
$TILEMODE
 70
1
  9
$MEASUREMENT
 70
0
  9
$INSUNITS
 70
1
  0
ENDSEC
  0
SECTION
  2
CLASSES
  0
CLASS
  1
ACDBDICTIONARYWDFLT
  2
AcDbDictionaryWithDefault
  3
AutoCAD 2000
 90
0
 91
1
280
0
281
0
  0
CLASS
  1
ACDBPLACEHOLDER
  2
AcDbPlaceHolder
  3
AutoCAD 2000
 90
0
 91
1
280
0
281
0
  0
CLASS
  1
LAYOUT
  2
AcDbLayout
  3
AutoCAD 2000
 90
0
 91
0
280
0
281
0
  0
ENDSEC
  0
SECTION
  2
TABLES
  0
TABLE
  2
VPORT
  5
8
100
AcDbSymbolTable
 70
2
  0
VPORT
  5
1F4
100
AcDbSymbolTableRecord
100
AcDbViewportTableRecord
  2
*ACTIVE
 70
0
 10
0.0
 20
0.0
 11
1.0
 21
1.0
 12
5.5
 22
4.25
 13
0.0
 23
0.0
 14
1.0
 24
1.0
 15
0.0
 25
0.0
 16
0.0
 26
0.0
 36
1.0
 17
0.0
 27
0.0
 37
0.0
 40
8.5
 41
1.2941176471
 42
50.0
 43
0.0
 44
0.0
 50
0.0
 51
0.0
 71
0
 72
100
 73
1
 74
1
 75
0
 76
0
 77
0
 78
0
  0
ENDTAB
  0
TABLE
  2
LTYPE
  5
5
100
AcDbSymbolTable
 70
6
  0
LTYPE
  5
14
100
AcDbSymbolTableRecord
100
AcDbLinetypeTableRecord
  2
BYBLOCK
 70
0
  3

 72
65
 73
0
 40
0.0
  0
LTYPE
  5
15
100
AcDbSymbolTableRecord
100
AcDbLinetypeTableRecord
  2
BYLAYER
 70
0
  3

 72
65
 73
0
 40
0.0
  0
LTYPE
  5
16
100
AcDbSymbolTableRecord
100
AcDbLinetypeTableRecord
  2
CONTINUOUS
 70
64
  3
Solid line
 72
65
 73
0
 40
0.0
  0
LTYPE
  5
1F5
100
AcDbSymbolTableRecord
100
AcDbLinetypeTableRecord
  2
CENTER
 70
64
  3
____ _ ____ _ ____ _ ____ _ ____ _ ____ _ ____
 72
65
 73
4
 40
0.6
 49
0.375
 74
0
 49
-0.075
 74
0
 49
0.075
 74
0
 49
-0.075
 74
0
  0
LTYPE
  5
1F6
100
AcDbSymbolTableRecord
100
AcDbLinetypeTableRecord
  2
HIDDEN
 70
64
  3
- - - - - - - - - - - - - - - - - - - -
 72
65
 73
2
 40
0.2
 49
0.1
 74
0
 49
-0.1
 74
0
  0
LTYPE
  5
1F7
100
AcDbSymbolTableRecord
100
AcDbLinetypeTableRecord
  2
PHANTOM
 70
64
  3
_____ _ _ _____ _ _ _____ _ _ _____
 72
65
 73
6
 40
0.8
 49
0.45
 74
0
 49
-0.05
 74
0
 49
0.1
 74
0
 49
-0.05
 74
0
 49
0.1
 74
0
 49
-0.05
 74
0
  0
LTYPE
  5
1F8
100
AcDbSymbolTableRecord
100
AcDbLinetypeTableRecord
  2
DOT
 70
64
  3
. . . . . . . . . . . . . . . . . . . .
 72
65
 73
2
 40
0.2
 49
0.1
 74
0
 49
-0.1
 74
0
  0
LTYPE
  5
1F9
100
AcDbSymbolTableRecord
100
AcDbLinetypeTableRecord
  2
DASHED
 70
64
  3
- - - - - - - - - - - - - - - - - - - -
 72
65
 73
2
 40
0.2
 49
0.1
 74
0
 49
-0.1
 74
0
  0
ENDTAB
  0
TABLE
  2
LAYER
  5
2
100
AcDbSymbolTable
 70
36
  0
LAYER
  5
10
100
AcDbSymbolTableRecord
100
AcDbLayerTableRecord
  2
0
 70
0
 62
7
  6
CONTINUOUS
370
-3
390
F
  0
LAYER
  5
1FA
100
AcDbSymbolTableRecord
100
AcDbLayerTableRecord
  2
DEFAULT_1
 70
0
 62
7
  6
CENTER
370
-3
390
F
  0
LAYER
  5
1FB
100
AcDbSymbolTableRecord
100
AcDbLayerTableRecord
  2
DEFAULT_2
 70
0
 62
8
  6
HIDDEN
370
-3
390
F
  0
LAYER
  5
1FC
100
AcDbSymbolTableRecord
100
AcDbLayerTableRecord
  2
DEFAULT_3
 70
0
 62
7
  6
PHANTOM
370
-3
390
F
  0
LAYER
  5
1FD
100
AcDbSymbolTableRecord
100
AcDbLayerTableRecord
  2
ALL_ASSEMBLY_MEMBERS
 70
0
 62
7
  6
CONTINUOUS
370
-3
390
F
  0
LAYER
  5
1FE
100
AcDbSymbolTableRecord
100
AcDbLayerTableRecord
  2
ALL_FEATURES
 70
0
 62
7
  6
CONTINUOUS
370
-3
390
F
  0
LAYER
  5
1FF
100
AcDbSymbolTableRecord
100
AcDbLayerTableRecord
  2
AXES_FEATURES
 70
0
 62
7
  6
CONTINUOUS
370
-3
390
F
  0
LAYER
  5
200
100
AcDbSymbolTableRecord
100
AcDbLayerTableRecord
  2
CHAMFER_FEATURES
 70
0
 62
7
  6
CONTINUOUS
370
-3
390
F
  0
LAYER
  5
201
100
AcDbSymbolTableRecord
100
AcDbLayerTableRecord
  2
COSMETIC_SKETCHES
 70
0
 62
7
  6
CONTINUOUS
370
-3
390
F
  0
LAYER
  5
202
100
AcDbSymbolTableRecord
100
AcDbLayerTableRecord
  2
CURVE
 70
0
 62
7
  6
CONTINUOUS
370
-3
390
F
  0
LAYER
  5
203
100
AcDbSymbolTableRecord
100
AcDbLayerTableRecord
  2
CUT_FEATURES
 70
0
 62
7
  6
CONTINUOUS
370
-3
390
F
  0
LAYER
  5
204
100
AcDbSymbolTableRecord
100
AcDbLayerTableRecord
  2
DATUM_CURVES
 70
0
 62
7
  6
CONTINUOUS
370
-3
390
F
  0
LAYER
  5
205
100
AcDbSymbolTableRecord
100
AcDbLayerTableRecord
  2
DATUM_PLANES
 70
0
 62
7
  6
CONTINUOUS
370
-3
390
F
  0
LAYER
  5
206
100
AcDbSymbolTableRecord
100
AcDbLayerTableRecord
  2
DEFAULT_COORDINATE_SYSTEM
 70
0
 62
7
  6
CONTINUOUS
370
-3
390
F
  0
LAYER
  5
207
100
AcDbSymbolTableRecord
100
AcDbLayerTableRecord
  2
DEFAULT_DATUM_AXES
 70
0
 62
7
  6
CONTINUOUS
370
-3
390
F
  0
LAYER
  5
208
100
AcDbSymbolTableRecord
100
AcDbLayerTableRecord
  2
DEFAULT_DATUM_CURVES
 70
0
 62
7
  6
CONTINUOUS
370
-3
390
F
  0
LAYER
  5
209
100
AcDbSymbolTableRecord
100
AcDbLayerTableRecord
  2
DEFAULT_DATUM_PLANES
 70
0
 62
7
  6
CONTINUOUS
370
-3
390
F
  0
LAYER
  5
20A
100
AcDbSymbolTableRecord
100
AcDbLayerTableRecord
  2
DEFAULT_SURFACES
 70
0
 62
7
  6
CONTINUOUS
370
-3
390
F
  0
LAYER
  5
20B
100
AcDbSymbolTableRecord
100
AcDbLayerTableRecord
  2
DIMENSIONS
 70
0
 62
7
  6
CONTINUOUS
370
-3
390
F
  0
LAYER
  5
20C
100
AcDbSymbolTableRecord
100
AcDbLayerTableRecord
  2
PART_REFERENCE_DIMENSIONS
 70
0
 62
7
  6
CONTINUOUS
370
-3
390
F
  0
LAYER
  5
20D
100
AcDbSymbolTableRecord
100
AcDbLayerTableRecord
  2
PLATING_AREA
 70
0
 62
7
  6
CONTINUOUS
370
-3
390
F
  0
LAYER
  5
20E
100
AcDbSymbolTableRecord
100
AcDbLayerTableRecord
  2
PLATTED_SURFACE_AREA
 70
0
 62
7
  6
CONTINUOUS
370
-3
390
F
  0
LAYER
  5
20F
100
AcDbSymbolTableRecord
100
AcDbLayerTableRecord
  2
PROTRUSION_FEATURES
 70
0
 62
7
  6
CONTINUOUS
370
-3
390
F
  0
LAYER
  5
210
100
AcDbSymbolTableRecord
100
AcDbLayerTableRecord
  2
QUILT
 70
0
 62
7
  6
CONTINUOUS
370
-3
390
F
  0
LAYER
  5
211
100
AcDbSymbolTableRecord
100
AcDbLayerTableRecord
  2
QUILTS
 70
0
 62
7
  6
CONTINUOUS
370
-3
390
F
  0
LAYER
  5
212
100
AcDbSymbolTableRecord
100
AcDbLayerTableRecord
  2
REFERENCE_DIMENSIONS
 70
0
 62
7
  6
CONTINUOUS
370
-3
390
F
  0
ENDTAB
  0
TABLE
  2
STYLE
  5
3
100
AcDbSymbolTable
 70
1
  0
STYLE
  5
11
100
AcDbSymbolTableRecord
100
AcDbTextStyleTableRecord
  2
STANDARD
 70
0
 40
0.0
 41
0.8
 50
0.0
 71
0
 42
0.2
  3
txt
  4

  0
STYLE
  5
213
100
AcDbSymbolTableRecord
100
AcDbTextStyleTableRecord
  2
TEXTSTYLE_1
 70
0
 40
0.0
 41
0.8
 50
0.0
 71
0
 42
0.2
  3
gdt
  4

  0
ENDTAB
  0
TABLE
  2
VIEW
  5
6
100
AcDbSymbolTable
 70
0
  0
ENDTAB
  0
TABLE
  2
UCS
  5
7
100
AcDbSymbolTable
 70
0
  0
ENDTAB
  0
TABLE
  2
APPID
  5
9
100
AcDbSymbolTable
 70
1
  0
APPID
  5
214
100
AcDbSymbolTableRecord
100
AcDbRegAppTableRecord
  2
ACAD
 70
0
  0
ENDTAB
  0
TABLE
  2
BLOCK_RECORD
  5
1
100
AcDbSymbolTable
 70
0
  0
BLOCK_RECORD
  5
215
100
AcDbSymbolTableRecord
100
AcDbBlockTableRecord
  2
*Model_Space
  0
BLOCK_RECORD
  5
216
100
AcDbSymbolTableRecord
100
AcDbBlockTableRecord
  2
*Paper_Space
  0
BLOCK_RECORD
  5
217
100
AcDbSymbolTableRecord
100
AcDbBlockTableRecord
  2
_FILLED
  0
ENDTAB
  0
TABLE
  2
DIMSTYLE
  5
A
100
AcDbSymbolTable
 70
1
100
AcDbDimStyleTable
 71
0
  0
DIMSTYLE
105
218
100
AcDbSymbolTableRecord
100
AcDbDimStyleTableRecord
  2
STANDARD
 70
0
  3

  4

 40
1.0
 41
0.1
 42
0.0625
 43
0.38
 44
0.125
 45
0.0
 46
0.0
 47
0.001
 48
0.001
140
0.08
141
0.09
142
0.0
143
25.4
144
1.0
145
0.0
146
1.0
147
0.09
 71
1.0
 72
0.0
 73
1
 74
1
 75
0
 76
0
 77
0
 78
4
 79
1
170
1
171
2
172
0
173
0
174
0
175
0
176
0
177
0
178
0
270
2
179
3
271
3
272
3
273
2
274
2
275
0
280
0
281
0
282
0
283
1
284
4
285
0
286
0
287
3
288
0
340
11
278
46
341
217
342
217
343
217
344
217
  0
ENDTAB
  0
ENDSEC
  0
SECTION
  2
BLOCKS
  0
BLOCK
  5
20
100
AcDbEntity
  8
0
100
AcDbBlockBegin
  2
*Model_Space
 70
0
 10
0.0
 20
0.0
 30
0.0
  3
*Model_Space
  1

  0
ENDBLK
  5
21
100
AcDbEntity
  8
0
100
AcDbBlockEnd
  0
BLOCK
  5
1C
100
AcDbEntity
  8
0
100
AcDbBlockBegin
  2
*Paper_Space
 70
0
 10
0.0
 20
0.0
 30
0.0
  3
*Paper_Space
  1

  0
ENDBLK
  5
1D
100
AcDbEntity
  8
0
100
AcDbBlockEnd
  0
BLOCK
  5
219
100
AcDbEntity
  8
0
100
AcDbBlockBegin
  2
_FILLED
 70
64
 10
0.0
 20
0.0
  3
_FILLED
  1

  0
SOLID
  5
21A
100
AcDbEntity
  8
0
  6
BYBLOCK
 62
0
100
AcDbTrace
 10
0.0
 20
0.0
 11
-1.0
 21
0.2
 12
-1.0
 22
-0.2
 13
-1.0
 23
-0.2
  0
ENDBLK
  5
21B
100
AcDbEntity
  8
0
  6
BYBLOCK
 62
0
100
AcDbBlockEnd
  0
ENDSEC
  0
SECTION
  2
ENTITIES
  0
MTEXT
  5
21C
100
AcDbEntity
  8
0
100
AcDbMText
 62
2
  6
CONTINUOUS
  7
STANDARD
 71
3
 72
1
 10
5.4087728067
 20
0.6535092139
 30
0.0
 11
1.0
 21
0.0
 31
0.0
 73
2
 44
0.9
  1
SCALE  .750
 40
0.08
 41
0.704
  0
LINE
  5
21D
100
AcDbEntity
  8
0
100
AcDbLine
 62
7
  6
CONTINUOUS
 10
0.0
 20
0.0
 11
0.0
 21
8.5
  0
LINE
  5
21E
100
AcDbEntity
  8
0
100
AcDbLine
 62
7
  6
CONTINUOUS
 10
0.0
 20
0.0
 11
11.0
 21
0.0
  0
LINE
  5
21F
100
AcDbEntity
  8
0
100
AcDbLine
 62
7
  6
CONTINUOUS
 10
0.0
 20
8.5
 11
11.0
 21
8.5
  0
LINE
  5
220
100
AcDbEntity
  8
0
100
AcDbLine
 62
7
  6
CONTINUOUS
 10
11.0
 20
0.0
 11
11.0
 21
8.5
  0
LINE
  5
221
100
AcDbEntity
  8
ALL_ASSEMBLY_MEMBERS
100
AcDbLine
 62
7
  6
CONTINUOUS
 10
4.9797506158
 20
1.6321351936
 11
4.9793791178
 21
1.6321245099
  0
LINE
  5
222
100
AcDbEntity
  8
ALL_ASSEMBLY_MEMBERS
100
AcDbLine
 62
7
  6
CONTINUOUS
 10
4.7864056643
 20
1.5313974127
 11
5.3301461603
 21
1.5313974127
  0
LINE
  5
223
100
AcDbEntity
  8
ALL_ASSEMBLY_MEMBERS
100
AcDbLine
 62
7
  6
CONTINUOUS
 10
4.7763451503
 20
1.6063974127
 11
5.3558017364
 21
1.6063974127
  0
LINE
  5
224
100
AcDbEntity
  8
ALL_ASSEMBLY_MEMBERS
100
AcDbLine
 62
7
  6
CONTINUOUS
 10
5.0474760267
 20
1.7244155228
 11
5.0582344964
 21
1.724745862
  0
LINE
  5
225
100
AcDbEntity
  8
ALL_ASSEMBLY_MEMBERS
100
AcDbLine
 62
7
  6
CONTINUOUS
 10
4.9943687662
 20
1.6928224099
 11
4.9941192227
 21
1.6928152744
  0
LINE
  5
226
100
AcDbEntity
  8
ALL_ASSEMBLY_MEMBERS
100
AcDbLine
 62
7
  6
CONTINUOUS
 10
5.0582759123
 20
1.694611862
 11
5.0305021328
 21
1.6938388105
  0
LINE
  5
227
100
AcDbEntity
  8
ALL_ASSEMBLY_MEMBERS
100
AcDbLine
 62
7
  6
CONTINUOUS
 10
4.780529321
 20
1.7563974127
 11
5.3650249799
 21
1.7563974127
  0
LINE
  5
228
100
AcDbEntity
  8
ALL_ASSEMBLY_MEMBERS
100
AcDbLine
 62
7
  6
CONTINUOUS
 10
4.6832759123
 20
1.8313974127
 11
5.4332759123
 21
1.8313974127
  0
LINE
  5
229
100
AcDbEntity
  8
ALL_ASSEMBLY_MEMBERS
100
AcDbLine
 62
7
  6
CONTINUOUS
 10
4.7518807881
 20
1.620539133
 11
4.7763441811
 21
1.6063974127
  0
LINE
  5
22A
100
AcDbEntity
  8
ALL_ASSEMBLY_MEMBERS
100
AcDbLine
 62
7
  6
CONTINUOUS
 10
4.6832759123
 20
1.9251474127
 11
5.4332759123
 21
1.9251474127
  0
LINE
  5
22B
100
AcDbEntity
  8
ALL_ASSEMBLY_MEMBERS
100
AcDbLine
 62
7
  6
CONTINUOUS
 10
4.7518807873
 20
1.674111605
 11
4.7805209123
 21
1.6575551002
  0
LINE
  5
22C
100
AcDbEntity
  8
ALL_ASSEMBLY_MEMBERS
100
AcDbLine
 62
7
  6
CONTINUOUS
 10
4.7518807883
 20
1.7276841015
 11
4.7805209131
 21
1.7111275967
  0
LINE
  5
22D
100
AcDbEntity
  8
ALL_ASSEMBLY_MEMBERS
100
AcDbLine
 62
7
  6
CONTINUOUS
 10
5.3558009847
 20
1.6063974127
 11
5.3360309114
 21
1.6178266833
  0
LINE
  5
22E
100
AcDbEntity
  8
ALL_ASSEMBLY_MEMBERS
100
AcDbLine
 62
7
  6
CONTINUOUS
 10
5.3646710366
 20
1.6548426427
 11
5.3360309119
 21
1.6713991476
  0
LINE
  5
22F
100
AcDbEntity
  8
ALL_ASSEMBLY_MEMBERS
100
AcDbLine
 62
7
  6
CONTINUOUS
 10
5.3646710362
 20
1.7084151665
 11
5.3360309109
 21
1.7249716718
  0
LINE
  5
230
100
AcDbEntity
  8
ALL_ASSEMBLY_MEMBERS
100
AcDbLine
 62
7
  6
CONTINUOUS
 10
4.7515259123
 20
1.7280942727
 11
4.7518807883
 21
1.7276841015
  0
LINE
  5
231
100
AcDbEntity
  8
ALL_ASSEMBLY_MEMBERS
100
AcDbLine
 62
7
  6
CONTINUOUS
 10
5.3646710366
 20
1.6548426427
 11
5.3650259123
 21
1.6544324719
  0
LINE
  5
232
100
AcDbEntity
  8
ALL_ASSEMBLY_MEMBERS
100
AcDbLine
 62
7
  6
CONTINUOUS
 10
5.3646710362
 20
1.7084151665
 11
5.3650259123
 21
1.7080049952
  0
LINE
  5
233
100
AcDbEntity
  8
ALL_ASSEMBLY_MEMBERS
100
AcDbLine
 62
7
  6
CONTINUOUS
 10
4.5364524516
 20
6.6853328337
 11
4.5366573284
 21
6.6859231677
  0
LINE
  5
234
100
AcDbEntity
  8
ALL_ASSEMBLY_MEMBERS
100
AcDbLine
 62
7
  6
CONTINUOUS
 10
4.5658772553
 20
6.6785047843
 11
4.5656723785
 21
6.6779144503
  0
LINE
  5
235
100
AcDbEntity
  8
ALL_ASSEMBLY_MEMBERS
100
AcDbLine
 62
7
  6
CONTINUOUS
 10
4.6766808884
 20
6.6915988757
 11
4.6769728196
 21
6.6923264633
  0
LINE
  5
236
100
AcDbEntity
  8
ALL_ASSEMBLY_MEMBERS
100
AcDbLine
 62
7
  6
CONTINUOUS
 10
4.7056659427
 20
6.6835138315
 11
4.7053740115
 21
6.682786244
  0
LINE
  5
237
100
AcDbEntity
  8
ALL_ASSEMBLY_MEMBERS
100
AcDbLine
 62
7
  6
CONTINUOUS
 10
4.3082759123
 20
6.9921182783
 11
4.3082759123
 21
6.8104047592
  0
LINE
  5
238
100
AcDbEntity
  8
ALL_ASSEMBLY_MEMBERS
100
AcDbLine
 62
7
  6
CONTINUOUS
 10
4.3082759123
 20
6.5642432783
 11
4.3082759123
 21
6.5968682783
  0
LINE
  5
239
100
AcDbEntity
  8
ALL_ASSEMBLY_MEMBERS
100
AcDbLine
 62
7
  6
CONTINUOUS
 10
4.6832759123
 20
1.8313974127
 11
4.6832759123
 21
4.8313974127
  0
LINE
  5
23A
100
AcDbEntity
  8
ALL_ASSEMBLY_MEMBERS
100
AcDbLine
 62
7
  6
CONTINUOUS
 10
4.7515259123
 20
1.7347912587
 11
4.7515259123
 21
1.7280942727
  0
LINE
  5
23B
100
AcDbEntity
  8
ALL_ASSEMBLY_MEMBERS
100
AcDbLine
 62
7
  6
CONTINUOUS
 10
4.7515259123
 20
1.6812187295
 11
4.7515259123
 21
1.6745217751
  0
LINE
  5
23C
100
AcDbEntity
  8
ALL_ASSEMBLY_MEMBERS
100
AcDbLine
 62
7
  6
CONTINUOUS
 10
4.7515259123
 20
1.6276462329
 11
4.7515259123
 21
1.6209493039
  0
LINE
  5
23D
100
AcDbEntity
  8
ALL_ASSEMBLY_MEMBERS
100
AcDbLine
 62
7
  6
CONTINUOUS
 10
4.7805209137
 20
1.7563974127
 11
4.7805209137
 21
1.7517579352
  0
LINE
  5
23E
100
AcDbEntity
  8
ALL_ASSEMBLY_MEMBERS
100
AcDbLine
 62
7
  6
CONTINUOUS
 10
4.7805209131
 20
1.7113540011
 11
4.7805209131
 21
1.6981854058
  0
LINE
  5
23F
100
AcDbEntity
  8
ALL_ASSEMBLY_MEMBERS
100
AcDbLine
 62
7
  6
CONTINUOUS
 10
4.7805209123
 20
1.657781504
 11
4.7805209123
 21
1.644612908
  0
LINE
  5
240
100
AcDbEntity
  8
ALL_ASSEMBLY_MEMBERS
100
AcDbLine
 62
7
  6
CONTINUOUS
 10
4.7864009123
 20
1.8313974127
 11
4.7864009123
 21
1.7563974127
  0
LINE
  5
241
100
AcDbEntity
  8
ALL_ASSEMBLY_MEMBERS
100
AcDbLine
 62
7
  6
CONTINUOUS
 10
4.7864009123
 20
1.5313974127
 11
4.7864009123
 21
1.6063974127
  0
LINE
  5
242
100
AcDbEntity
  8
ALL_ASSEMBLY_MEMBERS
100
AcDbLine
 62
7
  6
CONTINUOUS
 10
4.8707759123
 20
4.8313974127
 11
4.8707759123
 21
5.9354015768
  0
LINE
  5
243
100
AcDbEntity
  8
ALL_ASSEMBLY_MEMBERS
100
AcDbLine
 62
7
  6
CONTINUOUS
 10
5.2457759123
 20
4.8313974127
 11
5.2457759123
 21
5.9354015768
  0
LINE
  5
244
100
AcDbEntity
  8
ALL_ASSEMBLY_MEMBERS
100
AcDbLine
 62
7
  6
CONTINUOUS
 10
4.6832775214
 20
4.7376474127
 11
5.4332743031
 21
4.7376474127
  0
LINE
  5
245
100
AcDbEntity
  8
ALL_ASSEMBLY_MEMBERS
100
AcDbLine
 62
7
  6
CONTINUOUS
 10
5.3301509123
 20
1.8313974127
 11
5.3301509123
 21
1.7563974127
  0
LINE
  5
246
100
AcDbEntity
  8
ALL_ASSEMBLY_MEMBERS
100
AcDbLine
 62
7
  6
CONTINUOUS
 10
5.3301509123
 20
1.5313974127
 11
5.3301509123
 21
1.6063974127
  0
LINE
  5
247
100
AcDbEntity
  8
ALL_ASSEMBLY_MEMBERS
100
AcDbLine
 62
7
  6
CONTINUOUS
 10
5.3360309114
 20
1.6176002791
 11
5.3360309114
 21
1.6307688751
  0
LINE
  5
248
100
AcDbEntity
  8
ALL_ASSEMBLY_MEMBERS
100
AcDbLine
 62
7
  6
CONTINUOUS
 10
5.3360309119
 20
1.6711727432
 11
5.3360309119
 21
1.684341339
  0
LINE
  5
249
100
AcDbEntity
  8
ALL_ASSEMBLY_MEMBERS
100
AcDbLine
 62
7
  6
CONTINUOUS
 10
5.3360309109
 20
1.7247452671
 11
5.3360309109
 21
1.7379138626
  0
LINE
  5
24A
100
AcDbEntity
  8
ALL_ASSEMBLY_MEMBERS
100
AcDbLine
 62
7
  6
CONTINUOUS
 10
5.3650259123
 20
1.7563974127
 11
5.3650259123
 21
1.754880539
  0
LINE
  5
24B
100
AcDbEntity
  8
ALL_ASSEMBLY_MEMBERS
100
AcDbLine
 62
7
  6
CONTINUOUS
 10
5.3650259123
 20
1.7080049952
 11
5.3650259123
 21
1.7013080145
  0
LINE
  5
24C
100
AcDbEntity
  8
ALL_ASSEMBLY_MEMBERS
100
AcDbLine
 62
7
  6
CONTINUOUS
 10
5.3650259123
 20
1.6544324719
 11
5.3650259123
 21
1.6477355507
  0
LINE
  5
24D
100
AcDbEntity
  8
ALL_ASSEMBLY_MEMBERS
100
AcDbLine
 62
7
  6
CONTINUOUS
 10
5.4332759123
 20
1.8313974127
 11
5.4332759123
 21
4.8313974127
  0
LINE
  5
24E
100
AcDbEntity
  8
ALL_ASSEMBLY_MEMBERS
100
AcDbLine
 62
7
  6
CONTINUOUS
 10
4.6832775214
 20
4.8313974127
 11
5.4332743031
 21
4.8313974127
  0
LINE
  5
24F
100
AcDbEntity
  8
ALL_ASSEMBLY_MEMBERS
100
AcDbLine
 62
7
  6
CONTINUOUS
 10
4.8707759123
 20
4.9641474127
 11
5.2457759123
 21
4.9641474127
  0
LINE
  5
250
100
AcDbEntity
  8
ALL_ASSEMBLY_MEMBERS
100
AcDbLine
 62
7
  6
CONTINUOUS
 10
5.8082759123
 20
6.9921182783
 11
5.8082759123
 21
6.8105432119
  0
LINE
  5
251
100
AcDbEntity
  8
ALL_ASSEMBLY_MEMBERS
100
AcDbLine
 62
7
  6
CONTINUOUS
 10
5.8082759123
 20
6.5642432783
 11
5.8082759123
 21
6.5968682783
  0
LINE
  5
252
100
AcDbEntity
  8
ALL_ASSEMBLY_MEMBERS
100
AcDbLine
 62
7
  6
CONTINUOUS
 10
5.2956167933
 20
6.6243349215
 11
5.2955084918
 21
6.6246324174
  0
LINE
  5
253
100
AcDbEntity
  8
ALL_ASSEMBLY_MEMBERS
100
AcDbLine
 62
7
  6
CONTINUOUS
 10
5.324626579
 20
6.6323696859
 11
5.3247348805
 21
6.63207219
  0
LINE
  5
254
100
AcDbEntity
  8
ALL_ASSEMBLY_MEMBERS
100
AcDbLine
 62
7
  6
CONTINUOUS
 10
5.4310328134
 20
6.6218531038
 11
5.4305760092
 21
6.6234186679
  0
LINE
  5
255
100
AcDbEntity
  8
ALL_ASSEMBLY_MEMBERS
100
AcDbLine
 62
7
  6
CONTINUOUS
 10
5.4600815444
 20
6.6297466082
 11
5.4605383486
 21
6.6281810441
  0
LINE
  5
256
100
AcDbEntity
  8
ALL_ASSEMBLY_MEMBERS
100
AcDbLine
 62
7
  6
CONTINUOUS
 10
5.5509031233
 20
6.6778378985
 11
5.5506975892
 21
6.6784303565
  0
LINE
  5
257
100
AcDbEntity
  8
ALL_ASSEMBLY_MEMBERS
100
AcDbLine
 62
7
  6
CONTINUOUS
 10
5.5799182345
 20
6.6858464163
 11
5.5801237685
 21
6.6852539583
  0
LINE
  5
258
100
AcDbEntity
  8
ALL_ASSEMBLY_MEMBERS
100
AcDbLine
 62
7
  6
CONTINUOUS
 10
4.7518807883
 20
1.6816289007
 11
4.7515259123
 21
1.6812187295
  0
LINE
  5
259
100
AcDbEntity
  8
ALL_ASSEMBLY_MEMBERS
100
AcDbLine
 62
7
  6
CONTINUOUS
 10
5.3646710366
 20
1.7008978437
 11
5.3650259123
 21
1.7013080145
  0
LINE
  5
25A
100
AcDbEntity
  8
ALL_ASSEMBLY_MEMBERS
100
AcDbLine
 62
7
  6
CONTINUOUS
 10
5.364671037
 20
1.6473253803
 11
5.3650259123
 21
1.6477355507
  0
LINE
  5
25B
100
AcDbEntity
  8
ALL_ASSEMBLY_MEMBERS
100
AcDbLine
 62
7
  6
CONTINUOUS
 10
4.7809126861
 20
1.751984443
 11
4.7518807881
 21
1.7352014297
  0
LINE
  5
25C
100
AcDbEntity
  8
ALL_ASSEMBLY_MEMBERS
100
AcDbLine
 62
7
  6
CONTINUOUS
 10
4.7809126857
 20
1.6984119137
 11
4.7518807883
 21
1.6816289007
  0
LINE
  5
25D
100
AcDbEntity
  8
ALL_ASSEMBLY_MEMBERS
100
AcDbLine
 62
7
  6
CONTINUOUS
 10
4.7809126837
 20
1.6448394153
 11
4.7518807873
 21
1.628056403
  0
LINE
  5
25E
100
AcDbEntity
  8
ALL_ASSEMBLY_MEMBERS
100
AcDbLine
 62
7
  6
CONTINUOUS
 10
5.3356391384
 20
1.7376873544
 11
5.3646710362
 21
1.7544703677
  0
LINE
  5
25F
100
AcDbEntity
  8
ALL_ASSEMBLY_MEMBERS
100
AcDbLine
 62
7
  6
CONTINUOUS
 10
5.3356391398
 20
1.6841148311
 11
5.3646710366
 21
1.7008978437
  0
LINE
  5
260
100
AcDbEntity
  8
ALL_ASSEMBLY_MEMBERS
100
AcDbLine
 62
7
  6
CONTINUOUS
 10
5.3356391397
 20
1.6305423674
 11
5.364671037
 21
1.6473253803
  0
ARC
  5
261
100
AcDbEntity
  8
ALL_ASSEMBLY_MEMBERS
100
AcDbCircle
 62
7
  6
CONTINUOUS
 10
4.8711951455
 20
6.5642289326
 40
0.5629192335
100
AcDbArc
 50
176.6812182062
 51
179.9985398544
  0
ARC
  5
262
100
AcDbEntity
  8
ALL_ASSEMBLY_MEMBERS
100
AcDbCircle
 62
7
  6
CONTINUOUS
 10
5.2456758762
 20
6.5642381838
 40
0.5626000361
100
AcDbArc
 50
0.0005188228
 51
3.3197231167
  0
ARC
  5
263
100
AcDbEntity
  8
ALL_ASSEMBLY_MEMBERS
100
AcDbCircle
 62
7
  6
CONTINUOUS
 10
4.972039002
 20
6.7767371716
 40
0.2889025738
100
AcDbArc
 50
195.325236465
 51
196.2080787724
  0
ARC
  5
264
100
AcDbEntity
  8
ALL_ASSEMBLY_MEMBERS
100
AcDbCircle
 62
7
  6
CONTINUOUS
 10
5.0783973632
 20
6.4422313438
 40
0.2142345061
100
AcDbArc
 50
66.4596199607
 51
68.7174747573
  0
ARC
  5
265
100
AcDbEntity
  8
ALL_ASSEMBLY_MEMBERS
100
AcDbCircle
 62
7
  6
CONTINUOUS
 10
4.996257031
 20
6.4522490707
 40
0.1416390493
100
AcDbArc
 50
118.1882713239
 51
118.7375749518
  0
LINE
  5
266
100
AcDbEntity
  8
ALL_ASSEMBLY_MEMBERS
100
AcDbLine
 62
7
  6
CONTINUOUS
 10
4.7515259398
 20
1.6209493037
 11
4.7518812045
 21
1.6205391325
  0
LINE
  5
267
100
AcDbEntity
  8
ALL_ASSEMBLY_MEMBERS
100
AcDbLine
 62
7
  6
CONTINUOUS
 10
4.751525931
 20
1.7347912584
 11
4.751881074
 21
1.7352014304
  0
LINE
  5
268
100
AcDbEntity
  8
ALL_ASSEMBLY_MEMBERS
100
AcDbLine
 62
7
  6
CONTINUOUS
 10
5.3650260522
 20
1.7548805379
 11
5.3646710878
 21
1.7544703652
  0
LINE
  5
269
100
AcDbEntity
  8
ALL_ASSEMBLY_MEMBERS
100
AcDbLine
 62
7
  6
CONTINUOUS
 10
4.7518807995
 20
1.6741116048
 11
4.7515262181
 21
1.6745217758
  0
LINE
  5
26A
100
AcDbEntity
  8
ALL_ASSEMBLY_MEMBERS
100
AcDbLine
 62
7
  6
CONTINUOUS
 10
4.7518812779
 20
1.6280564027
 11
4.7515262181
 21
1.6276462336
  0
LINE
  5
26B
100
AcDbEntity
  8
ALL_ASSEMBLY_MEMBERS
100
AcDbLine
 62
7
  6
CONTINUOUS
 10
5.3646710878
 20
1.7544703652
 11
5.3636790641
 21
1.754081249
  0
SPLINE
  5
26C
100
AcDbEntity
  8
ALL_ASSEMBLY_MEMBERS
100
AcDbSpline
 62
7
  6
CONTINUOUS
 70
0
 71
3
 72
64
 73
60
 74
0
 42
0.0000001
 43
0.0000001
 44
0.0000000001
 40
0.0
 40
0.0
 40
0.0
 40
0.0
 40
0.0012988319
 40
0.0028717305
 40
0.0047204412
 40
0.0068452025
 40
0.0092454202
 40
0.0119202053
 40
0.0180890104
 40
0.0253418342
 40
0.0336640736
 40
0.043036199
 40
0.0534381236
 40
0.0648482243
 40
0.0772395689
 40
0.1048526037
 40
0.1360307609
 40
0.1704917757
 40
0.207923801
 40
0.2479894914
 40
0.290324565
 40
0.3345472825
 40
0.3802560692
 40
0.4270375678
 40
0.4744678529
 40
0.5221173787
 40
0.5695544686
 40
0.6163495656
 40
0.662078807
 40
0.7063277434
 40
0.7486965306
 40
0.7888001249
 40
0.8262773592
 40
0.8607874941
 40
0.8920196756
 40
0.9063168691
 40
0.9196920619
 40
0.9321137625
 40
0.9435542115
 40
0.9539892521
 40
0.9633949919
 40
0.9717494936
 40
0.9790364754
 40
0.9822750327
 40
0.9852412412
 40
0.9879334176
 40
0.9903503954
 40
0.9924917916
 40
0.9943575526
 40
0.9959480975
 40
0.997264715
 40
0.9978212412
 40
0.9983107153
 40
0.9987342179
 40
0.9990935149
 40
0.9993916608
 40
0.9996340554
 40
0.9998307248
 40
1.0
 40
1.0
 40
1.0
 40
1.0
 10
5.3636790641
 20
1.754081249
 30
0.0
 10
5.3634245841
 20
1.7540056787
 30
0.0
 10
5.3628558279
 20
1.7538592162
 30
0.0
 10
5.3619118689
 20
1.7536590696
 30
0.0
 10
5.360796041
 20
1.7534582671
 30
0.0
 10
5.3595089139
 20
1.7532569547
 30
0.0
 10
5.3580512039
 20
1.7530552656
 30
0.0
 10
5.3557705409
 20
1.7527723763
 30
0.0
 10
5.3524988281
 20
1.7524248286
 30
0.0
 10
5.3480727339
 20
1.7520234339
 30
0.0
 10
5.3429896713
 20
1.7516211216
 30
0.0
 10
5.3372612857
 20
1.7512179484
 30
0.0
 10
5.3309004232
 20
1.7508142494
 30
0.0
 10
5.3239213735
 20
1.7504101965
 30
0.0
 10
5.3134278286
 20
1.7498506127
 30
0.0
 10
5.2988953584
 20
1.7491601241
 30
0.0
 10
5.2798527648
 20
1.7483563779
 30
0.0
 10
5.2588017505
 20
1.747551252
 30
0.0
 10
5.2359330794
 20
1.7467450283
 30
0.0
 10
5.2114541536
 20
1.7459381254
 30
0.0
 10
5.1855866134
 20
1.7451306393
 30
0.0
 10
5.1585651769
 20
1.7443228144
 30
0.0
 10
5.1306345696
 20
1.7435146936
 30
0.0
 10
5.1020481171
 20
1.7427064087
 30
0.0
 10
5.0730648513
 20
1.741898016
 30
0.0
 10
5.0439475407
 20
1.7410895923
 30
0.0
 10
5.0149601032
 20
1.7402811987
 30
0.0
 10
4.9863652968
 20
1.7394729063
 30
0.0
 10
4.9584223652
 20
1.7386647974
 30
0.0
 10
4.9313844925
 20
1.7378569349
 30
0.0
 10
4.9054969447
 20
1.7370494909
 30
0.0
 10
4.8809941315
 20
1.7362425148
 30
0.0
 10
4.8580984125
 20
1.7354363524
 30
0.0
 10
4.8370170678
 20
1.7346310944
 30
0.0
 10
4.8206724975
 20
1.7339426395
 30
0.0
 10
4.8086460402
 20
1.7333863766
 30
0.0
 10
4.8004613273
 20
1.7329817896
 30
0.0
 10
4.7928612458
 20
1.7325774186
 30
0.0
 10
4.7858629918
 20
1.7321733074
 30
0.0
 10
4.7794822498
 20
1.7317696192
 30
0.0
 10
4.773733571
 20
1.7313665145
 30
0.0
 10
4.7686300345
 20
1.7309639938
 30
0.0
 10
4.7647866826
 20
1.730617278
 30
0.0
 10
4.76204346
 20
1.730336415
 30
0.0
 10
4.7602362813
 20
1.7301342914
 30
0.0
 10
4.7585981436
 20
1.7299323582
 30
0.0
 10
4.7571299599
 20
1.7297306486
 30
0.0
 10
4.7558324094
 20
1.7295292685
 30
0.0
 10
4.7547059411
 20
1.7293284055
 30
0.0
 10
4.7537510382
 20
1.729128155
 30
0.0
 10
4.7530644802
 20
1.7289538896
 30
0.0
 10
4.7526030041
 20
1.7288113269
 30
0.0
 10
4.7523199266
 20
1.7287106156
 30
0.0
 10
4.7520799236
 20
1.7286100827
 30
0.0
 10
4.7518828228
 20
1.7285096748
 30
0.0
 10
4.751728173
 20
1.728409248
 30
0.0
 10
4.7516153766
 20
1.7283080613
 30
0.0
 10
4.7515439035
 20
1.728204154
 30
0.0
 10
4.7515263709
 20
1.7281288697
 30
0.0
 10
4.7515263994
 20
1.7280942721
 30
0.0
  0
SPLINE
  5
26D
100
AcDbEntity
  8
ALL_ASSEMBLY_MEMBERS
100
AcDbSpline
 62
7
  6
CONTINUOUS
 70
0
 71
3
 72
38
 73
34
 74
0
 42
0.0000001
 43
0.0000001
 44
0.0000000001
 40
0.0
 40
0.0
 40
0.0
 40
0.0
 40
0.0004219311
 40
0.0008891131
 40
0.0014355149
 40
0.0020826822
 40
0.0028435913
 40
0.003726166
 40
0.0058739795
 40
0.0085504649
 40
0.011766751
 40
0.0155288069
 40
0.0198399087
 40
0.0247007869
 40
0.030110625
 40
0.0360680504
 40
0.0425713307
 40
0.0572072371
 40
0.0740007377
 40
0.0929264558
 40
0.1139499693
 40
0.137035695
 40
0.1621474943
 40
0.2182722965
 40
0.2819309059
 40
0.3526886438
 40
0.4300479225
 40
0.5134757626
 40
0.6023860884
 40
0.6961635023
 40
0.7941502209
 40
0.8956660705
 40
1.0
 40
1.0
 40
1.0
 40
1.0
 10
4.7805209564
 20
1.7113540015
 30
0.0
 10
4.7805209786
 20
1.711384134
 30
0.0
 10
4.780532552
 20
1.7114479939
 30
0.0
 10
4.7805816497
 20
1.7115393408
 30
0.0
 10
4.7806605395
 20
1.7116288726
 30
0.0
 10
4.7807688464
 20
1.7117175808
 30
0.0
 10
4.7809067384
 20
1.7118060846
 30
0.0
 10
4.7811464793
 20
1.7119324337
 30
0.0
 10
4.7815249275
 20
1.7120859177
 30
0.0
 10
4.7820720229
 20
1.712261134
 30
0.0
 10
4.7827389876
 20
1.7124370042
 30
0.0
 10
4.7835258116
 20
1.7126134516
 30
0.0
 10
4.7844325276
 20
1.7127902438
 30
0.0
 10
4.7854587984
 20
1.712967313
 30
0.0
 10
4.7866041525
 20
1.713144589
 30
0.0
 10
4.7878680305
 20
1.7133220341
 30
0.0
 10
4.7897874182
 20
1.71356861
 30
0.0
 10
4.792479398
 20
1.7138730596
 30
0.0
 10
4.7960582282
 20
1.7142263969
 30
0.0
 10
4.8000951405
 20
1.7145802743
 30
0.0
 10
4.8045829032
 20
1.7149346658
 30
0.0
 10
4.8095136648
 20
1.715289435
 30
0.0
 10
4.8169477122
 20
1.7157811763
 30
0.0
 10
4.8272778426
 20
1.7163879852
 30
0.0
 10
4.8408672323
 20
1.7170938909
 30
0.0
 10
4.855974874
 20
1.7178008841
 30
0.0
 10
4.8724956971
 20
1.7185089281
 30
0.0
 10
4.8903139727
 20
1.7192175453
 30
0.0
 10
4.9093056032
 20
1.7199267227
 30
0.0
 10
4.9293376385
 20
1.7206362091
 30
0.0
 10
4.950270433
 20
1.7213460167
 30
0.0
 10
4.9719575396
 20
1.72205599
 30
0.0
 10
4.9866510088
 20
1.7225241192
 30
0.0
 10
4.9940983921
 20
1.7227590909
 30
0.0
  0
LINE
  5
26E
100
AcDbEntity
  8
ALL_ASSEMBLY_MEMBERS
100
AcDbLine
 62
7
  6
CONTINUOUS
 10
4.9940983921
 20
1.7227590909
 11
4.9990272453
 21
1.7229142738
  0
LINE
  5
26F
100
AcDbEntity
  8
ALL_ASSEMBLY_MEMBERS
100
AcDbLine
 62
7
  6
CONTINUOUS
 10
4.9990272453
 20
1.7229142738
 11
5.0103267129
 21
1.7232678082
  0
LINE
  5
270
100
AcDbEntity
  8
ALL_ASSEMBLY_MEMBERS
100
AcDbLine
 62
7
  6
CONTINUOUS
 10
5.0103267129
 20
1.7232678082
 11
5.0474760267
 21
1.7244155228
  0
SPLINE
  5
271
100
AcDbEntity
  8
ALL_ASSEMBLY_MEMBERS
100
AcDbSpline
 62
7
  6
CONTINUOUS
 70
0
 71
3
 72
31
 73
27
 74
0
 42
0.0000001
 43
0.0000001
 44
0.0000000001
 40
0.0
 40
0.0
 40
0.0
 40
0.0
 40
0.1886041816
 40
0.2807881786
 40
0.3704517333
 40
0.4567876455
 40
0.5390234884
 40
0.6164173
 40
0.6882783917
 40
0.7539595087
 40
0.8128737137
 40
0.8644956979
 40
0.8874248022
 40
0.9083630184
 40
0.9272672745
 40
0.9440951475
 40
0.9588082714
 40
0.9713803979
 40
0.9817896119
 40
0.9861775971
 40
0.990019544
 40
0.9933169705
 40
0.9960733798
 40
0.998295767
 40
0.999211201
 40
1.0
 40
1.0
 40
1.0
 40
1.0
 10
5.0582344964
 20
1.724745862
 30
0.0
 10
5.0756956194
 20
1.7252818709
 30
0.0
 10
5.1016912175
 20
1.7260796744
 30
0.0
 10
5.135987038
 20
1.7271612337
 30
0.0
 10
5.1608143331
 20
1.7279660182
 30
0.0
 10
5.184719697
 20
1.7287705207
 30
0.0
 10
5.2074879305
 20
1.7295745355
 30
0.0
 10
5.2289145839
 20
1.7303779983
 30
0.0
 10
5.2488067517
 20
1.7311805771
 30
0.0
 10
5.2669858134
 20
1.7319819373
 30
0.0
 10
5.2832883026
 20
1.7327817186
 30
0.0
 10
5.295631416
 20
1.7334702599
 30
0.0
 10
5.304458413
 20
1.7340292754
 30
0.0
 10
5.3102587063
 20
1.7344314718
 30
0.0
 10
5.315492437
 20
1.7348330821
 30
0.0
 10
5.3201477479
 20
1.7352339804
 30
0.0
 10
5.3242142322
 20
1.7356338732
 30
0.0
 10
5.3276829976
 20
1.7360324215
 30
0.0
 10
5.3301946885
 20
1.7363790128
 30
0.0
 10
5.3318977413
 20
1.7366629711
 30
0.0
 10
5.3329466139
 20
1.736863269
 30
0.0
 10
5.3338414431
 20
1.7370628815
 30
0.0
 10
5.3345820022
 20
1.7372617427
 30
0.0
 10
5.335100299
 20
1.7374356509
 30
0.0
 10
5.3354348486
 20
1.7375787726
 30
0.0
 10
5.3355755531
 20
1.7376508019
 30
0.0
 10
5.3356388148
 20
1.7376873536
 30
0.0
  0
SPLINE
  5
272
100
AcDbEntity
  8
ALL_ASSEMBLY_MEMBERS
100
AcDbSpline
 62
7
  6
CONTINUOUS
 70
0
 71
3
 72
35
 73
31
 74
0
 42
0.0000001
 43
0.0000001
 44
0.0000000001
 40
0.0
 40
0.0
 40
0.0
 40
0.0
 40
0.000498497
 40
0.0010317796
 40
0.0016284315
 40
0.002309057
 40
0.0039714057
 40
0.0060866643
 40
0.0086850388
 40
0.0117823361
 40
0.0153875519
 40
0.0195061318
 40
0.0241415142
 40
0.0292956005
 40
0.0411596207
 40
0.055093605
 40
0.0710879026
 40
0.0891305527
 40
0.1092078958
 40
0.1312995922
 40
0.1553799364
 40
0.2094011703
 40
0.271052115
 40
0.3400580633
 40
0.4161187988
 40
0.4989065865
 40
0.5880490114
 40
0.6831631947
 40
0.7838247239
 40
1.0
 40
1.0
 40
1.0
 40
1.0
 10
4.7805209941
 20
1.6577815046
 30
0.0
 10
4.7805210165
 20
1.6578053321
 30
0.0
 10
4.7805280172
 20
1.6578548606
 30
0.0
 10
4.7805584723
 20
1.6579272229
 30
0.0
 10
4.7806081309
 20
1.6579987025
 30
0.0
 10
4.780706174
 20
1.6580999831
 30
0.0
 10
4.7808818702
 20
1.6582232504
 30
0.0
 10
4.7811534309
 20
1.6583624201
 30
0.0
 10
4.7815001435
 20
1.6585020394
 30
0.0
 10
4.7819222728
 20
1.6586420605
 30
0.0
 10
4.7824202435
 20
1.6587824291
 30
0.0
 10
4.7829941055
 20
1.6589230494
 30
0.0
 10
4.7836438731
 20
1.6590638725
 30
0.0
 10
4.7846599658
 20
1.6592611854
 30
0.0
 10
4.7861196693
 20
1.6595037558
 30
0.0
 10
4.7880976524
 20
1.659784002
 30
0.0
 10
4.7903734362
 20
1.6600648962
 30
0.0
 10
4.7929447406
 20
1.6603463252
 30
0.0
 10
4.7958090115
 20
1.6606280616
 30
0.0
 10
4.7989631047
 20
1.6609100695
 30
0.0
 10
4.8037362317
 20
1.6613015365
 30
0.0
 10
4.8103988751
 20
1.6617847737
 30
0.0
 10
4.8192084776
 20
1.6623460938
 30
0.0
 10
4.829073378
 20
1.6629084377
 30
0.0
 10
4.8399500197
 20
1.6634715597
 30
0.0
 10
4.851790313
 20
1.6640351446
 30
0.0
 10
4.8645422656
 20
1.664599223
 30
0.0
 10
4.8781493296
 20
1.6651635504
 30
0.0
 10
4.897824997
 20
1.6659348045
 30
0.0
 10
4.912959466
 20
1.6664846922
 30
0.0
 10
4.9232860179
 20
1.6668474079
 30
0.0
  0
SPLINE
  5
273
100
AcDbEntity
  8
ALL_ASSEMBLY_MEMBERS
100
AcDbSpline
 62
7
  6
CONTINUOUS
 70
0
 71
3
 72
37
 73
33
 74
0
 42
0.0000001
 43
0.0000001
 44
0.0000000001
 40
0.0
 40
0.0
 40
0.0
 40
0.0
 40
0.0768761858
 40
0.1577518709
 40
0.241334919
 40
0.32628877
 40
0.4112555415
 40
0.4948775437
 40
0.5758178962
 40
0.6527825719
 40
0.7245425841
 40
0.7581095
 40
0.7899525146
 40
0.8199445694
 40
0.8479679644
 40
0.873907887
 40
0.8976639179
 40
0.919141298
 40
0.9382532763
 40
0.9549287124
 40
0.962331344
 40
0.9691003835
 40
0.9752306463
 40
0.9807173879
 40
0.9855562022
 40
0.9897432378
 40
0.9932762436
 40
0.9961570892
 40
0.997354878
 40
0.9983926621
 40
0.9992729364
 40
1.0
 40
1.0
 40
1.0
 40
1.0
 10
4.9232860179
 20
1.6668474079
 30
0.0
 10
4.9338599977
 20
1.6672188143
 30
0.0
 10
4.9555590286
 20
1.6679537236
 30
0.0
 10
4.9887568279
 20
1.6690234544
 30
0.0
 10
5.0230668963
 20
1.6700937548
 30
0.0
 10
5.0579402795
 20
1.6711643442
 30
0.0
 10
5.0928190267
 20
1.6722349367
 30
0.0
 10
5.1271451411
 20
1.6733052553
 30
0.0
 10
5.1603693977
 20
1.6743749694
 30
0.0
 10
5.1919602322
 20
1.6754437744
 30
0.0
 10
5.2170326903
 20
1.6763521738
 30
0.0
 10
5.2358971979
 20
1.6770857561
 30
0.0
 10
5.249016409
 20
1.6776234524
 30
0.0
 10
5.2613719966
 20
1.6781609268
 30
0.0
 10
5.2729143402
 20
1.678698022
 30
0.0
 10
5.2835974392
 20
1.6792347912
 30
0.0
 10
5.2933784079
 20
1.6797709917
 30
0.0
 10
5.3022181573
 20
1.6803063739
 30
0.0
 10
5.3100814645
 20
1.6808409196
 30
0.0
 10
5.316008027
 20
1.6813013109
 30
0.0
 10
5.3202371243
 20
1.6816745744
 30
0.0
 10
5.3230183918
 20
1.681943114
 30
0.0
 10
5.3255346627
 20
1.6822113571
 30
0.0
 10
5.3277836638
 20
1.6824792126
 30
0.0
 10
5.3297631619
 20
1.6827465482
 30
0.0
 10
5.3314711669
 20
1.6830130322
 30
0.0
 10
5.3329059867
 20
1.6832786125
 30
0.0
 10
5.3339282351
 20
1.6835102495
 30
0.0
 10
5.3346063657
 20
1.6837005381
 30
0.0
 10
5.3350140854
 20
1.6838340753
 30
0.0
 10
5.3353531271
 20
1.6839672282
 30
0.0
 10
5.3355522238
 20
1.6840647699
 30
0.0
 10
5.3356388677
 20
1.6841148302
 30
0.0
  0
SPLINE
  5
274
100
AcDbEntity
  8
ALL_ASSEMBLY_MEMBERS
100
AcDbSpline
 62
7
  6
CONTINUOUS
 70
0
 71
3
 72
40
 73
36
 74
0
 42
0.0000001
 43
0.0000001
 44
0.0000000001
 40
0.0
 40
0.0
 40
0.0
 40
0.0
 40
0.0003486489
 40
0.0007570225
 40
0.0012639969
 40
0.0018903
 40
0.0026468739
 40
0.0035398501
 40
0.0045729037
 40
0.0057483706
 40
0.0085320428
 40
0.0118981838
 40
0.015848594
 40
0.0203831208
 40
0.0255006566
 40
0.0311995336
 40
0.0374777343
 40
0.0443328944
 40
0.0597577928
 40
0.0774368399
 40
0.0973306273
 40
0.1193956093
 40
0.143576334
 40
0.1698147632
 40
0.1980515654
 40
0.2282175317
 40
0.2940394379
 40
0.366652461
 40
0.4453552678
 40
0.5293938675
 40
0.6179653806
 40
0.7102061095
 40
0.8052372483
 40
0.9021743458
 40
1.0
 40
1.0
 40
1.0
 40
1.0
 10
4.7515262181
 20
1.6745217758
 30
0.0
 10
4.7515262576
 20
1.6745575001
 30
0.0
 10
4.7515452549
 20
1.6746355235
 30
0.0
 10
4.7516215547
 20
1.6747424937
 30
0.0
 10
4.7517414793
 20
1.6748466426
 30
0.0
 10
4.751905779
 20
1.67495006
 30
0.0
 10
4.7521150801
 20
1.675053504
 30
0.0
 10
4.7523698692
 20
1.6751571087
 30
0.0
 10
4.7526703554
 20
1.6752609065
 30
0.0
 10
4.7531604202
 20
1.6754078987
 30
0.0
 10
4.7538896083
 20
1.6755875312
 30
0.0
 10
4.7549039052
 20
1.6757938814
 30
0.0
 10
4.7561005974
 20
1.6760008857
 30
0.0
 10
4.7574789157
 20
1.6762084342
 30
0.0
 10
4.7590381131
 20
1.6764163301
 30
0.0
 10
4.7607773445
 20
1.6766244849
 30
0.0
 10
4.7626957423
 20
1.6768328441
 30
0.0
 10
4.7656076457
 20
1.677122332
 30
0.0
 10
4.769686575
 20
1.6774796308
 30
0.0
 10
4.7751011955
 20
1.6778944873
 30
0.0
 10
4.7811979047
 20
1.6783100529
 30
0.0
 10
4.7879621509
 20
1.6787261152
 30
0.0
 10
4.7953775882
 20
1.6791426203
 30
0.0
 10
4.8034263151
 20
1.6795594602
 30
0.0
 10
4.8120890699
 20
1.6799764976
 30
0.0
 10
4.8248048748
 20
1.6805496023
 30
0.0
 10
4.8420660827
 20
1.6812589875
 30
0.0
 10
4.8642996815
 20
1.6820888524
 30
0.0
 10
4.8884010118
 20
1.682919722
 30
0.0
 10
4.9141384042
 20
1.6837513701
 30
0.0
 10
4.9412636279
 20
1.6845835056
 30
0.0
 10
4.9695156959
 20
1.6854160597
 30
0.0
 10
4.9986252944
 20
1.6862489234
 30
0.0
 10
5.0283073779
 20
1.6870818993
 30
0.0
 10
5.0482560639
 20
1.6876363833
 30
0.0
 10
5.0582759123
 20
1.6879148918
 30
0.0
  0
SPLINE
  5
275
100
AcDbEntity
  8
ALL_ASSEMBLY_MEMBERS
100
AcDbSpline
 62
7
  6
CONTINUOUS
 70
0
 71
3
 72
40
 73
36
 74
0
 42
0.0000001
 43
0.0000001
 44
0.0000000001
 40
0.0
 40
0.0
 40
0.0
 40
0.0
 40
0.0006838361
 40
0.001558274
 40
0.0026288506
 40
0.0038983688
 40
0.0053683474
 40
0.0070396299
 40
0.0109868329
 40
0.0157373722
 40
0.0212857024
 40
0.027625404
 40
0.0347489967
 40
0.0426455616
 40
0.0513029392
 40
0.0708504388
 40
0.0932766957
 40
0.1184467893
 40
0.1462110113
 40
0.1764013941
 40
0.2088376662
 40
0.2433233267
 40
0.2796520289
 40
0.3176037003
 40
0.3974554054
 40
0.4809566367
 40
0.5660973839
 40
0.6508280375
 40
0.7331089201
 40
0.8109596308
 40
0.8825063774
 40
0.9153683419
 40
0.9460289978
 40
0.9743024953
 40
1.0
 40
1.0
 40
1.0
 40
1.0
 10
4.751881074
 20
1.7352014304
 30
0.0
 10
4.7519913757
 20
1.7352651462
 30
0.0
 10
4.7522560505
 20
1.7353868224
 30
0.0
 10
4.7527183457
 20
1.735549035
 30
0.0
 10
4.7532948416
 20
1.7357121079
 30
0.0
 10
4.753985562
 20
1.7358757993
 30
0.0
 10
4.7547907322
 20
1.736039944
 30
0.0
 10
4.7560906355
 20
1.7362722695
 30
0.0
 10
4.7580015222
 20
1.7365561494
 30
0.0
 10
4.760635182
 20
1.7368827415
 30
0.0
 10
4.7637173032
 20
1.7372103852
 30
0.0
 10
4.7672435057
 20
1.7375388932
 30
0.0
 10
4.7712087566
 20
1.7378678644
 30
0.0
 10
4.7756070214
 20
1.7381972771
 30
0.0
 10
4.7823162332
 20
1.7386556827
 30
0.0
 10
4.7917308
 20
1.7392204787
 30
0.0
 10
4.8042209454
 20
1.7398758985
 30
0.0
 10
4.8182434663
 20
1.7405326358
 30
0.0
 10
4.8337136254
 20
1.7411903506
 30
0.0
 10
4.8505383812
 20
1.7418488035
 30
0.0
 10
4.8686160428
 20
1.7425077339
 30
0.0
 10
4.8878378174
 20
1.7431670923
 30
0.0
 10
4.9080875371
 20
1.7438267227
 30
0.0
 10
4.9367846271
 20
1.7447217603
 30
0.0
 10
4.9742664358
 20
1.7458286006
 30
0.0
 10
5.020536243
 20
1.7471369096
 30
0.0
 10
5.0677152173
 20
1.7484457574
 30
0.0
 10
5.1146667858
 20
1.749754488
 30
0.0
 10
5.1602598954
 20
1.7510622277
 30
0.0
 10
5.2033961615
 20
1.7523682243
 30
0.0
 10
5.2373284067
 20
1.75348284
 30
0.0
 10
5.2624722832
 20
1.7543873641
 30
0.0
 10
5.2795589919
 20
1.7550459662
 30
0.0
 10
5.2953100912
 20
1.7557039808
 30
0.0
 10
5.3053530568
 20
1.7561646102
 30
0.0
 10
5.3101342091
 20
1.7563974127
 30
0.0
  0
SPLINE
  5
276
100
AcDbEntity
  8
ALL_ASSEMBLY_MEMBERS
100
AcDbSpline
 62
7
  6
CONTINUOUS
 70
0
 71
3
 72
22
 73
18
 74
0
 42
0.0000001
 43
0.0000001
 44
0.0000000001
 40
0.0
 40
0.0
 40
0.0
 40
0.0
 40
0.006996683
 40
0.0155029855
 40
0.0255619858
 40
0.0371965081
 40
0.0652359033
 40
0.0996727885
 40
0.1405147097
 40
0.1877514677
 40
0.2413565788
 40
0.3012811136
 40
0.3674703203
 40
0.4398673412
 40
0.6030375214
 40
0.7900650686
 40
1.0
 40
1.0
 40
1.0
 40
1.0
 10
4.7809127643
 20
1.7519844419
 30
0.0
 10
4.7810014557
 20
1.7520357463
 30
0.0
 10
4.7812059252
 20
1.7521356071
 30
0.0
 10
4.7815548895
 20
1.7522716545
 30
0.0
 10
4.7819757823
 20
1.7524081075
 30
0.0
 10
4.7826777583
 20
1.7526027239
 30
0.0
 10
4.7837375206
 20
1.7528394723
 30
0.0
 10
4.7852261869
 20
1.7531108862
 30
0.0
 10
4.7869997267
 20
1.7533833157
 30
0.0
 10
4.7890566037
 20
1.7536565874
 30
0.0
 10
4.7913950162
 20
1.7539303332
 30
0.0
 10
4.7940125978
 20
1.7542044908
 30
0.0
 10
4.7969066921
 20
1.7544789737
 30
0.0
 10
4.8013092127
 20
1.7548606816
 30
0.0
 10
4.8074800295
 20
1.7553313897
 30
0.0
 10
4.8156646209
 20
1.7558776943
 30
0.0
 10
4.8214676264
 20
1.7562229959
 30
0.0
 10
4.8245370164
 20
1.7563974127
 30
0.0
  0
SPLINE
  5
277
100
AcDbEntity
  8
ALL_ASSEMBLY_MEMBERS
100
AcDbSpline
 62
7
  6
CONTINUOUS
 70
0
 71
3
 72
40
 73
36
 74
0
 42
0.0000001
 43
0.0000001
 44
0.0000000001
 40
0.0
 40
0.0
 40
0.0
 40
0.0
 40
0.0003486081
 40
0.0007570343
 40
0.0012642515
 40
0.0018909601
 40
0.0026480329
 40
0.0035415204
 40
0.0045750146
 40
0.0057507676
 40
0.0085342197
 40
0.0118991966
 40
0.0158489226
 40
0.0203838053
 40
0.0255022338
 40
0.0312019862
 40
0.0374804881
 40
0.044334934
 40
0.0597590378
 40
0.0774397587
 40
0.0973339869
 40
0.1193976491
 40
0.1435795336
 40
0.1698190348
 40
0.1980547225
 40
0.2282212401
 40
0.2940438561
 40
0.3666576383
 40
0.4453611457
 40
0.529400994
 40
0.6179711325
 40
0.7102111402
 40
0.805238969
 40
0.9021718226
 40
1.0
 40
1.0
 40
1.0
 40
1.0
 10
5.3650259108
 20
1.7080049953
 30
0.0
 10
5.3650259164
 20
1.7079692751
 30
0.0
 10
5.365006963
 20
1.707891225
 30
0.0
 10
5.3649306116
 20
1.7077842513
 30
0.0
 10
5.3648105868
 20
1.7076801087
 30
0.0
 10
5.3646461454
 20
1.7075766954
 30
0.0
 10
5.3644366823
 20
1.7074732527
 30
0.0
 10
5.364181733
 20
1.7073696477
 30
0.0
 10
5.3638811131
 20
1.7072658487
 30
0.0
 10
5.3633909894
 20
1.7071188719
 30
0.0
 10
5.3626619195
 20
1.7069392339
 30
0.0
 10
5.3616478485
 20
1.7067328296
 30
0.0
 10
5.3604513103
 20
1.7065258214
 30
0.0
 10
5.3590729294
 20
1.7063182905
 30
0.0
 10
5.3575135094
 20
1.7061104065
 30
0.0
 10
5.3557740617
 20
1.7059022612
 30
0.0
 10
5.3538556138
 20
1.7056939095
 30
0.0
 10
5.3509438352
 20
1.7054043896
 30
0.0
 10
5.3468648866
 20
1.705047069
 30
0.0
 10
5.3414501215
 20
1.7046322635
 30
0.0
 10
5.3353533256
 20
1.7042166918
 30
0.0
 10
5.3285890473
 20
1.7038005787
 30
0.0
 10
5.3211735076
 20
1.7033841063
 30
0.0
 10
5.3131246578
 20
1.7029672814
 30
0.0
 10
5.3044618446
 20
1.702550204
 30
0.0
 10
5.2917460117
 20
1.7019771232
 30
0.0
 10
5.2744845812
 20
1.7012677218
 30
0.0
 10
5.252250739
 20
1.7004378636
 30
0.0
 10
5.2281491092
 20
1.6996069727
 30
0.0
 10
5.2024116335
 20
1.6987753377
 30
0.0
 10
5.1752864715
 20
1.6979431958
 30
0.0
 10
5.1470349306
 20
1.6971106629
 30
0.0
 10
5.1179261527
 20
1.6962778214
 30
0.0
 10
5.0882445568
 20
1.6954448581
 30
0.0
 10
5.0682960284
 20
1.6948903782
 30
0.0
 10
5.0582759123
 20
1.694611862
 30
0.0
  0
LINE
  5
278
100
AcDbEntity
  8
ALL_ASSEMBLY_MEMBERS
100
AcDbLine
 62
7
  6
CONTINUOUS
 10
4.7809131144
 20
1.698411913
 11
4.7821698296
 21
1.6988885254
  0
SPLINE
  5
279
100
AcDbEntity
  8
ALL_ASSEMBLY_MEMBERS
100
AcDbSpline
 62
7
  6
CONTINUOUS
 70
0
 71
3
 72
62
 73
58
 74
0
 42
0.0000001
 43
0.0000001
 44
0.0000000001
 40
0.0
 40
0.0
 40
0.0
 40
0.0
 40
0.0014755365
 40
0.0032224528
 40
0.0052414803
 40
0.0075326297
 40
0.0129293061
 40
0.0194067069
 40
0.0269527492
 40
0.0355505311
 40
0.0451824808
 40
0.0558291649
 40
0.067465701
 40
0.0800659652
 40
0.1080479356
 40
0.1395237421
 40
0.1742148997
 40
0.2118088043
 40
0.2519704546
 40
0.2943393872
 40
0.3385358896
 40
0.3841644029
 40
0.4308151357
 40
0.4780705519
 40
0.5255064407
 40
0.5726979282
 40
0.6192214333
 40
0.6646606071
 40
0.7086070293
 40
0.7506681651
 40
0.7904657941
 40
0.8276443879
 40
0.8618709992
 40
0.8928386603
 40
0.920272854
 40
0.9325859733
 40
0.9439268104
 40
0.9542710294
 40
0.9635945666
 40
0.9718771889
 40
0.9791031164
 40
0.9823151503
 40
0.9852574897
 40
0.987928611
 40
0.9903278332
 40
0.9924548851
 40
0.9943098308
 40
0.9958933027
 40
0.9972069725
 40
0.9977637916
 40
0.9982549045
 40
0.9986816155
 40
0.9990460599
 40
0.9993517054
 40
0.9996044443
 40
0.9998146566
 40
1.0
 40
1.0
 40
1.0
 40
1.0
 10
4.7821698296
 20
1.6988885254
 30
0.0
 10
4.7824325192
 20
1.6989626406
 30
0.0
 10
4.783011061
 20
1.6991073064
 30
0.0
 10
4.7839599761
 20
1.6993069873
 30
0.0
 10
4.7850625034
 20
1.6995072136
 30
0.0
 10
4.7868357101
 20
1.6997903652
 30
0.0
 10
4.789433404
 20
1.7001366111
 30
0.0
 10
4.7930037264
 20
1.7005350212
 30
0.0
 10
4.7971692129
 20
1.700934639
 30
0.0
 10
4.8019204239
 20
1.7013353504
 30
0.0
 10
4.8072469427
 20
1.7017367067
 30
0.0
 10
4.8131369657
 20
1.7021384677
 30
0.0
 10
4.8195771994
 20
1.7025406387
 30
0.0
 10
4.829220631
 20
1.7030968841
 30
0.0
 10
4.8425323511
 20
1.7037835331
 30
0.0
 10
4.8599296964
 20
1.7045836311
 30
0.0
 10
4.8791067018
 20
1.7053848964
 30
0.0
 10
4.8998916473
 20
1.7061872487
 30
0.0
 10
4.9220977867
 20
1.7069902382
 30
0.0
 10
4.9455260071
 20
1.7077937481
 30
0.0
 10
4.9699660419
 20
1.7085976226
 30
0.0
 10
4.9951985289
 20
1.7094017333
 30
0.0
 10
5.0209971273
 20
1.7102060309
 30
0.0
 10
5.0471302112
 20
1.7110104045
 30
0.0
 10
5.0733633697
 20
1.71181482
 30
0.0
 10
5.0994610771
 20
1.7126191841
 30
0.0
 10
5.1251892579
 20
1.713423463
 30
0.0
 10
5.1503168746
 20
1.7142275356
 30
0.0
 10
5.1746186157
 20
1.7150313763
 30
0.0
 10
5.197876206
 20
1.7158348
 30
0.0
 10
5.2198811192
 20
1.7166377263
 30
0.0
 10
5.2404358065
 20
1.7174399245
 30
0.0
 10
5.2593558419
 20
1.7182410345
 30
0.0
 10
5.2764716449
 20
1.7190408676
 30
0.0
 10
5.2895345818
 20
1.7197278192
 30
0.0
 10
5.2989684874
 20
1.7202845904
 30
0.0
 10
5.305244637
 20
1.720686688
 30
0.0
 10
5.3109665717
 20
1.7210883331
 30
0.0
 10
5.3161213168
 20
1.7214894585
 30
0.0
 10
5.3206973418
 20
1.7218899782
 30
0.0
 10
5.3241431998
 20
1.7222349416
 30
0.0
 10
5.3266024994
 20
1.7225143797
 30
0.0
 10
5.3282226401
 20
1.722715496
 30
0.0
 10
5.329691188
 20
1.7229164446
 30
0.0
 10
5.3310074132
 20
1.7231171587
 30
0.0
 10
5.3321707642
 20
1.7233175526
 30
0.0
 10
5.3331808283
 20
1.7235174526
 30
0.0
 10
5.3340371473
 20
1.7237167691
 30
0.0
 10
5.3346525233
 20
1.723890185
 30
0.0
 10
5.3350658543
 20
1.7240319452
 30
0.0
 10
5.3353196661
 20
1.7241322153
 30
0.0
 10
5.3355348809
 20
1.7242323627
 30
0.0
 10
5.3357116891
 20
1.7243324506
 30
0.0
 10
5.3358504656
 20
1.7244326765
 30
0.0
 10
5.335951642
 20
1.7245337752
 30
0.0
 10
5.3360151763
 20
1.7246373394
 30
0.0
 10
5.3360304095
 20
1.7247109826
 30
0.0
 10
5.336030396
 20
1.7247452674
 30
0.0
  0
LINE
  5
27A
100
AcDbEntity
  8
ALL_ASSEMBLY_MEMBERS
100
AcDbLine
 62
7
  6
CONTINUOUS
 10
4.7809132143
 20
1.6448394154
 11
4.7815486392
 21
1.6451200528
  0
SPLINE
  5
27B
100
AcDbEntity
  8
ALL_ASSEMBLY_MEMBERS
100
AcDbSpline
 62
7
  6
CONTINUOUS
 70
0
 71
3
 72
63
 73
59
 74
0
 42
0.0000001
 43
0.0000001
 44
0.0000000001
 40
0.0
 40
0.0
 40
0.0
 40
0.0
 40
0.0012230262
 40
0.0027186721
 40
0.0044898128
 40
0.006537327
 40
0.0088609949
 40
0.0114601763
 40
0.0174812449
 40
0.0245917503
 40
0.0327778741
 40
0.0420205534
 40
0.0523000271
 40
0.0635951158
 40
0.0758791845
 40
0.1033010229
 40
0.1343203182
 40
0.1686547282
 40
0.2059926118
 40
0.2459956158
 40
0.2882984724
 40
0.3325179805
 40
0.378250445
 40
0.4250805438
 40
0.4725816018
 40
0.5203215207
 40
0.567865526
 40
0.6147811997
 40
0.6606411916
 40
0.7050283053
 40
0.7475389888
 40
0.7877855109
 40
0.8254035807
 40
0.8600491459
 40
0.8914097536
 40
0.9191997418
 40
0.9316765599
 40
0.9431684088
 40
0.9536512177
 40
0.963101807
 40
0.971497742
 40
0.978821937
 40
0.982077853
 40
0.9850607865
 40
0.9877692174
 40
0.9902017976
 40
0.992357945
 40
0.994237899
 40
0.9958424823
 40
0.997173554
 40
0.9977377391
 40
0.9982353561
 40
0.9986677051
 40
0.9990368366
 40
0.9993461331
 40
0.9996014882
 40
0.99981344
 40
1.0
 40
1.0
 40
1.0
 40
1.0
 10
4.7815486392
 20
1.6451200528
 30
0.0
 10
4.78176193
 20
1.6451962747
 30
0.0
 10
4.7822438998
 20
1.6453436183
 30
0.0
 10
4.7830510675
 20
1.6455440787
 30
0.0
 10
4.7840146797
 20
1.645745243
 30
0.0
 10
4.7851342933
 20
1.6459469536
 30
0.0
 10
4.7864093427
 20
1.6461490692
 30
0.0
 10
4.7884162072
 20
1.6464330308
 30
0.0
 10
4.7913088582
 20
1.646781563
 30
0.0
 10
4.7952364199
 20
1.6471837678
 30
0.0
 10
4.7997632203
 20
1.6475869489
 30
0.0
 10
4.8048788445
 20
1.6479910443
 30
0.0
 10
4.8105717976
 20
1.6483956973
 30
0.0
 10
4.816829263
 20
1.6488007185
 30
0.0
 10
4.8262578495
 20
1.6493619993
 30
0.0
 10
4.8393377831
 20
1.6500543827
 30
0.0
 10
4.8565007262
 20
1.6508600027
 30
0.0
 10
4.8755018452
 20
1.6516670621
 30
0.0
 10
4.8961680364
 20
1.6524752383
 30
0.0
 10
4.9183109795
 20
1.6532841228
 30
0.0
 10
4.9417291562
 20
1.6540936036
 30
0.0
 10
4.9662090036
 20
1.6549034298
 30
0.0
 10
4.9915277141
 20
1.6557135662
 30
0.0
 10
5.0174544554
 20
1.6565238652
 30
0.0
 10
5.043753146
 20
1.6573342825
 30
0.0
 10
5.0701841113
 20
1.6581447284
 30
0.0
 10
5.0965066149
 20
1.6589551524
 30
0.0
 10
5.1224807983
 20
1.6597654688
 30
0.0
 10
5.1478700504
 20
1.6605756146
 30
0.0
 10
5.1724430929
 20
1.6613855002
 30
0.0
 10
5.1959759651
 20
1.6621949837
 30
0.0
 10
5.2182544705
 20
1.6630039834
 30
0.0
 10
5.2390753902
 20
1.6638121939
 30
0.0
 10
5.2582493793
 20
1.6646194146
 30
0.0
 10
5.2756015333
 20
1.6654252017
 30
0.0
 10
5.288848788
 20
1.6661173932
 30
0.0
 10
5.2984179578
 20
1.6666782616
 30
0.0
 10
5.3047854323
 20
1.6670834192
 30
0.0
 10
5.3105912541
 20
1.6674881469
 30
0.0
 10
5.315822247
 20
1.6678922735
 30
0.0
 10
5.3204663762
 20
1.6682957929
 30
0.0
 10
5.3239636022
 20
1.6686434032
 30
0.0
 10
5.326459646
 20
1.6689249619
 30
0.0
 10
5.3281042548
 20
1.6691276099
 30
0.0
 10
5.3295951508
 20
1.6693300552
 30
0.0
 10
5.3309314168
 20
1.6695322729
 30
0.0
 10
5.3321123475
 20
1.6697341896
 30
0.0
 10
5.3331375423
 20
1.6699356088
 30
0.0
 10
5.3340066457
 20
1.6701364421
 30
0.0
 10
5.3346312551
 20
1.6703111796
 30
0.0
 10
5.3350508804
 20
1.6704540164
 30
0.0
 10
5.3353086199
 20
1.6705550457
 30
0.0
 10
5.335527232
 20
1.6706559368
 30
0.0
 10
5.335706873
 20
1.6707567561
 30
0.0
 10
5.3358478791
 20
1.6708577069
 30
0.0
 10
5.3359506611
 20
1.6709595441
 30
0.0
 10
5.3360152103
 20
1.6710638978
 30
0.0
 10
5.3360306672
 20
1.6711381937
 30
0.0
 10
5.3360306274
 20
1.671172744
 30
0.0
  0
SPLINE
  5
27C
100
AcDbEntity
  8
ALL_ASSEMBLY_MEMBERS
100
AcDbSpline
 62
7
  6
CONTINUOUS
 70
0
 71
3
 72
38
 73
34
 74
0
 42
0.0000001
 43
0.0000001
 44
0.0000000001
 40
0.0
 40
0.0
 40
0.0
 40
0.0
 40
0.1048881111
 40
0.2068594849
 40
0.3051215797
 40
0.3990252452
 40
0.4879608689
 40
0.5713341531
 40
0.6485709011
 40
0.7191602979
 40
0.7826234797
 40
0.8385444253
 40
0.8635541828
 40
0.8865426491
 40
0.9074738746
 40
0.9263123014
 40
0.9430255681
 40
0.9575917643
 40
0.9640640516
 40
0.9699929927
 40
0.9753768161
 40
0.9802141222
 40
0.9845044482
 40
0.9882494336
 40
0.9914524365
 40
0.9941194708
 40
0.996261828
 40
0.9971432909
 40
0.9979042576
 40
0.9985527521
 40
0.9991018449
 40
0.9995730623
 40
1.0
 40
1.0
 40
1.0
 40
1.0
 10
5.1288438743
 20
1.6063974127
 30
0.0
 10
5.1361073492
 20
1.6066279462
 30
0.0
 10
5.1504321633
 20
1.6070874329
 30
0.0
 10
5.1715608906
 20
1.6077848754
 30
0.0
 10
5.1919281403
 20
1.6084822322
 30
0.0
 10
5.2113916774
 20
1.6091791814
 30
0.0
 10
5.2298229676
 20
1.6098758155
 30
0.0
 10
5.2470986476
 20
1.6105718902
 30
0.0
 10
5.2631021354
 20
1.6112674378
 30
0.0
 10
5.2777248069
 20
1.6119619167
 30
0.0
 10
5.2908688367
 20
1.6126553638
 30
0.0
 10
5.3008554701
 20
1.6132514705
 30
0.0
 10
5.3080392749
 20
1.6137346017
 30
0.0
 10
5.3128023284
 20
1.6140830735
 30
0.0
 10
5.3171365877
 20
1.6144311724
 30
0.0
 10
5.3210345833
 20
1.6147787813
 30
0.0
 10
5.3244896695
 20
1.6151258922
 30
0.0
 10
5.327088283
 20
1.6154249374
 30
0.0
 10
5.3289409816
 20
1.6156671404
 30
0.0
 10
5.3301608577
 20
1.6158414383
 30
0.0
 10
5.3312662242
 20
1.6160155698
 30
0.0
 10
5.3322565491
 20
1.616189503
 30
0.0
 10
5.3331314468
 20
1.6163631856
 30
0.0
 10
5.3338906766
 20
1.6165365131
 30
0.0
 10
5.3345343192
 20
1.6167092814
 30
0.0
 10
5.3350623496
 20
1.6168814168
 30
0.0
 10
5.3354275568
 20
1.6170321942
 30
0.0
 10
5.3356588424
 20
1.6171562683
 30
0.0
 10
5.335791936
 20
1.6172432291
 30
0.0
 10
5.3358964633
 20
1.617330403
 30
0.0
 10
5.3359725634
 20
1.6174183891
 30
0.0
 10
5.3360198366
 20
1.6175081101
 30
0.0
 10
5.336030914
 20
1.6175706989
 30
0.0
 10
5.3360309106
 20
1.6176002791
 30
0.0
  0
SPLINE
  5
27D
100
AcDbEntity
  8
ALL_ASSEMBLY_MEMBERS
100
AcDbSpline
 62
7
  6
CONTINUOUS
 70
0
 71
3
 72
46
 73
42
 74
0
 42
0.0000001
 43
0.0000001
 44
0.0000000001
 40
0.0
 40
0.0
 40
0.0
 40
0.0
 40
0.0062203802
 40
0.0133890475
 40
0.0214905996
 40
0.0305092073
 40
0.0404273298
 40
0.0512250483
 40
0.0753779325
 40
0.1027850162
 40
0.1332315194
 40
0.1664799918
 40
0.2022718027
 40
0.2403265991
 40
0.2803483081
 40
0.3650256901
 40
0.4536616858
 40
0.5434898524
 40
0.6317063739
 40
0.67434519
 40
0.7155579004
 40
0.7550210044
 40
0.792427866
 40
0.8274843914
 40
0.8599188663
 40
0.8894766271
 40
0.9159288273
 40
0.9390694408
 40
0.9493414465
 40
0.9587198584
 40
0.9671883242
 40
0.9747313537
 40
0.9813339227
 40
0.9869847795
 40
0.9916769615
 40
0.9936620416
 40
0.9954059991
 40
0.9969091096
 40
0.9981729575
 40
0.9992009907
 40
1.0
 40
1.0
 40
1.0
 40
1.0
 10
4.7896193749
 20
1.6063974127
 30
0.0
 10
4.7907448515
 20
1.6065335116
 30
0.0
 10
4.7931704914
 20
1.6068008002
 30
0.0
 10
4.7970693985
 20
1.6071745662
 30
0.0
 10
4.801480272
 20
1.6075492066
 30
0.0
 10
4.8063937937
 20
1.6079243474
 30
0.0
 10
4.8117999664
 20
1.6082997724
 30
0.0
 10
4.8199608198
 20
1.6088203555
 30
0.0
 10
4.8313076029
 20
1.6094624999
 30
0.0
 10
4.8462348263
 20
1.6102093492
 30
0.0
 10
4.8628215298
 20
1.6109575319
 30
0.0
 10
4.8809377231
 20
1.6117067425
 30
0.0
 10
4.9004416066
 20
1.6124566329
 30
0.0
 10
4.9211807534
 20
1.6132071119
 30
0.0
 10
4.9508254029
 20
1.6142274363
 30
0.0
 10
4.9896857794
 20
1.615485618
 30
0.0
 10
5.0376208046
 20
1.6169707652
 30
0.0
 10
5.0862011291
 20
1.6184564758
 30
0.0
 10
5.1264016456
 20
1.6197075392
 30
0.0
 10
5.157744994
 20
1.6207207016
 30
0.0
 10
5.1802067635
 20
1.6214717238
 30
0.0
 10
5.2017144569
 20
1.6222224701
 30
0.0
 10
5.2220994765
 20
1.6229727376
 30
0.0
 10
5.2412026193
 20
1.6237224916
 30
0.0
 10
5.2588741055
 20
1.6244714024
 30
0.0
 10
5.2749759702
 20
1.6252192136
 30
0.0
 10
5.2893820645
 20
1.6259655147
 30
0.0
 10
5.3002737497
 20
1.626608257
 30
0.0
 10
5.3080550694
 20
1.6271298909
 30
0.0
 10
5.3131660717
 20
1.6275051359
 30
0.0
 10
5.3177782896
 20
1.6278798711
 30
0.0
 10
5.3218828107
 20
1.628253948
 30
0.0
 10
5.3254715508
 20
1.6286270597
 30
0.0
 10
5.3285375878
 20
1.6289990557
 30
0.0
 10
5.3307614297
 20
1.6293224261
 30
0.0
 10
5.332273327
 20
1.6295870902
 30
0.0
 10
5.3332085296
 20
1.6297739924
 30
0.0
 10
5.3340093946
 20
1.6299603758
 30
0.0
 10
5.3346760563
 20
1.6301460332
 30
0.0
 10
5.3352085419
 20
1.630330653
 30
0.0
 10
5.3355125743
 20
1.6304694803
 30
0.0
 10
5.3356386414
 20
1.6305423674
 30
0.0
  0
SPLINE
  5
27E
100
AcDbEntity
  8
ALL_ASSEMBLY_MEMBERS
100
AcDbSpline
 62
7
  6
CONTINUOUS
 70
0
 71
3
 72
40
 73
36
 74
0
 42
0.0000001
 43
0.0000001
 44
0.0000000001
 40
0.0
 40
0.0
 40
0.0
 40
0.0
 40
0.0003485893
 40
0.0007569803
 40
0.001264153
 40
0.0018908126
 40
0.0026478342
 40
0.0035412703
 40
0.0045747142
 40
0.0057504187
 40
0.0085337837
 40
0.0118986922
 40
0.015848368
 40
0.0203831859
 40
0.0255015358
 40
0.0312012028
 40
0.0374796198
 40
0.0443339886
 40
0.0597579546
 40
0.0774384762
 40
0.0973325083
 40
0.1193960392
 40
0.1435777349
 40
0.1698170248
 40
0.1980525615
 40
0.2282188827
 40
0.2940411427
 40
0.3666547279
 40
0.4453576122
 40
0.529396542
 40
0.6179669076
 40
0.7102079891
 40
0.8052375634
 40
0.9021715918
 40
1.0
 40
1.0
 40
1.0
 40
1.0
 10
5.3650259078
 20
1.654432472
 30
0.0
 10
5.3650259174
 20
1.6543967537
 30
0.0
 10
5.3650069766
 20
1.6543187064
 30
0.0
 10
5.3649306397
 20
1.6542117338
 30
0.0
 10
5.3648106301
 20
1.6541075938
 30
0.0
 10
5.3646462043
 20
1.6540041832
 30
0.0
 10
5.3644367571
 20
1.6539007434
 30
0.0
 10
5.3641818235
 20
1.6537971412
 30
0.0
 10
5.363881219
 20
1.6536933449
 30
0.0
 10
5.3633911142
 20
1.6535463712
 30
0.0
 10
5.3626620648
 20
1.6533667368
 30
0.0
 10
5.3616480146
 20
1.6531603363
 30
0.0
 10
5.3604514948
 20
1.6529533313
 30
0.0
 10
5.3590731338
 20
1.652745801
 30
0.0
 10
5.3575137374
 20
1.6525379169
 30
0.0
 10
5.3557743154
 20
1.6523297708
 30
0.0
 10
5.353855893
 20
1.652121418
 30
0.0
 10
5.3509441453
 20
1.6518318965
 30
0.0
 10
5.3468652391
 20
1.6514745762
 30
0.0
 10
5.3414505285
 20
1.6510597705
 30
0.0
 10
5.3353537863
 20
1.6506441997
 30
0.0
 10
5.3285895605
 20
1.6502280894
 30
0.0
 10
5.321174075
 20
1.6498116171
 30
0.0
 10
5.3131252814
 20
1.6493947921
 30
0.0
 10
5.3044625249
 20
1.6489777165
 30
0.0
 10
5.2917467636
 20
1.6484046361
 30
0.0
 10
5.2744854091
 20
1.6476952354
 30
0.0
 10
5.2522516862
 20
1.6468653799
 30
0.0
 10
5.2281502334
 20
1.6460344932
 30
0.0
 10
5.2024128912
 20
1.6452028599
 30
0.0
 10
5.1752876886
 20
1.6443707174
 30
0.0
 10
5.1470358344
 20
1.6435381738
 30
0.0
 10
5.1179266459
 20
1.6427053213
 30
0.0
 10
5.0882447259
 20
1.6418723494
 30
0.0
 10
5.0682960526
 20
1.6413178661
 30
0.0
 10
5.0582759123
 20
1.6410393495
 30
0.0
  0
SPLINE
  5
27F
100
AcDbEntity
  8
ALL_ASSEMBLY_MEMBERS
100
AcDbSpline
 62
7
  6
CONTINUOUS
 70
0
 71
3
 72
33
 73
29
 74
0
 42
0.0000001
 43
0.0000001
 44
0.0000000001
 40
0.0
 40
0.0
 40
0.0
 40
0.0
 40
0.1892181667
 40
0.2816824555
 40
0.371597812
 40
0.4581598745
 40
0.540574739
 40
0.6181013797
 40
0.6900411197
 40
0.7557435541
 40
0.8146188464
 40
0.8413252922
 40
0.8661316192
 40
0.8889823746
 40
0.909823509
 40
0.9286107808
 40
0.9453047735
 40
0.9598670046
 40
0.972267535
 40
0.9776507513
 40
0.9824862002
 40
0.9867720211
 40
0.9905069375
 40
0.9936914998
 40
0.9963290501
 40
0.9984264772
 40
0.9992771986
 40
1.0
 40
1.0
 40
1.0
 40
1.0
 10
5.0582759123
 20
1.6343424299
 30
0.0
 10
5.0776211089
 20
1.6348801429
 30
0.0
 10
5.1064196325
 20
1.6356804393
 30
0.0
 10
5.1444100565
 20
1.6367654756
 30
0.0
 10
5.171904763
 20
1.6375728369
 30
0.0
 10
5.1983711984
 20
1.6383798396
 30
0.0
 10
5.2235699529
 20
1.6391864333
 30
0.0
 10
5.2472723942
 20
1.6399923851
 30
0.0
 10
5.2692645215
 20
1.6407974286
 30
0.0
 10
5.2893476983
 20
1.6416014067
 30
0.0
 10
5.3048053374
 20
1.6422902439
 30
0.0
 10
5.316081754
 20
1.6428476044
 30
0.0
 10
5.3236767132
 20
1.6432516813
 30
0.0
 10
5.330670892
 20
1.6436554032
 30
0.0
 10
5.3370483694
 20
1.6440587888
 30
0.0
 10
5.3427948035
 20
1.6444616666
 30
0.0
 10
5.3478973776
 20
1.6448636958
 30
0.0
 10
5.3523445116
 20
1.6452647938
 30
0.0
 10
5.3556347159
 20
1.6456120077
 30
0.0
 10
5.3579308782
 20
1.645894561
 30
0.0
 10
5.3594006553
 20
1.6460961105
 30
0.0
 10
5.3607001566
 20
1.6462972856
 30
0.0
 10
5.3618285935
 20
1.6464980202
 30
0.0
 10
5.3627856305
 20
1.6466980158
 30
0.0
 10
5.3635709678
 20
1.646897143
 30
0.0
 10
5.3641158463
 20
1.6470715848
 30
0.0
 10
5.36446273
 20
1.6472157582
 30
0.0
 10
5.364606632
 20
1.647288399
 30
0.0
 10
5.3646706436
 20
1.6473253797
 30
0.0
  0
LINE
  5
280
100
AcDbEntity
  8
ALL_ASSEMBLY_MEMBERS
100
AcDbLine
 62
7
  6
CONTINUOUS
 10
5.0582759123
 20
1.6879148918
 11
5.1680530771
 21
1.6910354279
  0
LINE
  5
281
100
AcDbEntity
  8
ALL_ASSEMBLY_MEMBERS
100
AcDbLine
 62
7
  6
CONTINUOUS
 10
5.1680530771
 20
1.6910354279
 11
5.1707959401
 21
1.6911172274
  0
LINE
  5
282
100
AcDbEntity
  8
ALL_ASSEMBLY_MEMBERS
100
AcDbLine
 62
7
  6
CONTINUOUS
 10
5.1707959401
 20
1.6911172274
 11
5.1878901684
 21
1.6916344733
  0
SPLINE
  5
283
100
AcDbEntity
  8
ALL_ASSEMBLY_MEMBERS
100
AcDbSpline
 62
7
  6
CONTINUOUS
 70
0
 71
3
 72
30
 73
26
 74
0
 42
0.0000001
 43
0.0000001
 44
0.0000000001
 40
0.0
 40
0.0
 40
0.0
 40
0.0
 40
0.2058288002
 40
0.3024985802
 40
0.3944052939
 40
0.4811313404
 40
0.5622704679
 40
0.6374564543
 40
0.7063387348
 40
0.7686035735
 40
0.8239686002
 40
0.8721768253
 40
0.8935319978
 40
0.9130212708
 40
0.9306211408
 40
0.9463150529
 40
0.9600898109
 40
0.9719335773
 40
0.9818369832
 40
0.9860602803
 40
0.9897994501
 40
0.9930570021
 40
0.9958371192
 40
0.9981470236
 40
1.0
 40
1.0
 40
1.0
 40
1.0
 10
5.1878901684
 20
1.6916344733
 30
0.0
 10
5.2000395711
 20
1.6920070644
 30
0.0
 10
5.2178945923
 20
1.6925709264
 30
0.0
 10
5.2411727439
 20
1.6933567428
 30
0.0
 10
5.2574203687
 20
1.6939335678
 30
0.0
 10
5.2727502426
 20
1.6945100576
 30
0.0
 10
5.2870919519
 20
1.6950862932
 30
0.0
 10
5.3003790199
 20
1.6956620132
 30
0.0
 10
5.312550371
 20
1.6962371784
 30
0.0
 10
5.3235498284
 20
1.6968114851
 30
0.0
 10
5.3333266004
 20
1.6973846314
 30
0.0
 10
5.3406877721
 20
1.6978786815
 30
0.0
 10
5.3459314805
 20
1.6982793897
 30
0.0
 10
5.3493708801
 20
1.6985673787
 30
0.0
 10
5.3524747049
 20
1.6988550564
 30
0.0
 10
5.3552394979
 20
1.699142315
 30
0.0
 10
5.3576624135
 20
1.6994288763
 30
0.0
 10
5.3597407253
 20
1.6997145921
 30
0.0
 10
5.361254519
 20
1.6999627168
 30
0.0
 10
5.3622900112
 20
1.7001654042
 30
0.0
 10
5.3629369474
 20
1.700309019
 30
0.0
 10
5.3634963687
 20
1.7004523096
 30
0.0
 10
5.3639684308
 20
1.7005951863
 30
0.0
 10
5.3643531966
 20
1.7007374936
 30
0.0
 10
5.3645759794
 20
1.7008431053
 30
0.0
 10
5.3646707315
 20
1.700897843
 30
0.0
  0
LINE
  5
284
100
AcDbEntity
  8
ALL_ASSEMBLY_MEMBERS
100
AcDbLine
 62
7
  6
CONTINUOUS
 10
5.0582759123
 20
1.6343424299
 11
5.0162482232
 21
1.6331705551
  0
LINE
  5
285
100
AcDbEntity
  8
ALL_ASSEMBLY_MEMBERS
100
AcDbLine
 62
7
  6
CONTINUOUS
 10
5.0162482232
 20
1.6331705551
 11
5.0018635598
 21
1.632765433
  0
LINE
  5
286
100
AcDbEntity
  8
ALL_ASSEMBLY_MEMBERS
100
AcDbLine
 62
7
  6
CONTINUOUS
 10
5.0018635598
 20
1.632765433
 11
4.9797506158
 21
1.6321351936
  0
SPLINE
  5
287
100
AcDbEntity
  8
ALL_ASSEMBLY_MEMBERS
100
AcDbSpline
 62
7
  6
CONTINUOUS
 70
0
 71
3
 72
36
 73
32
 74
0
 42
0.0000001
 43
0.0000001
 44
0.0000000001
 40
0.0
 40
0.0
 40
0.0
 40
0.0
 40
0.1050515144
 40
0.2070928462
 40
0.3054329131
 40
0.3994093976
 40
0.4883942774
 40
0.5717941797
 40
0.6490481538
 40
0.719642799
 40
0.7831028548
 40
0.8390108276
 40
0.8869901933
 40
0.9079087378
 40
0.9267333144
 40
0.9434311287
 40
0.957979019
 40
0.9644409518
 40
0.9703586321
 40
0.9757301527
 40
0.9805539161
 40
0.9848291927
 40
0.9885571381
 40
0.9917403489
 40
0.9931291902
 40
0.994383983
 40
0.995506074
 40
0.9964974045
 40
0.9973608607
 40
0.9981008983
 40
1.0
 40
1.0
 40
1.0
 40
1.0
 10
4.9793791178
 20
1.6321245099
 30
0.0
 10
4.9713826681
 20
1.6318945063
 30
0.0
 10
4.9556190405
 20
1.6314362337
 30
0.0
 10
4.9323704839
 20
1.6307405062
 30
0.0
 10
4.9099656834
 20
1.6300449641
 30
0.0
 10
4.8885556311
 20
1.6293497031
 30
0.0
 10
4.868283901
 20
1.6286547919
 30
0.0
 10
4.8492863765
 20
1.6279603921
 30
0.0
 10
4.8316902576
 20
1.6272666069
 30
0.0
 10
4.8156138119
 20
1.6265737683
 30
0.0
 10
4.801164465
 20
1.6258822034
 30
0.0
 10
4.788439416
 20
1.6251924401
 30
0.0
 10
4.778953859
 20
1.6245961439
 30
0.0
 10
4.7722913336
 20
1.6241106409
 30
0.0
 10
4.7680072617
 20
1.6237638721
 30
0.0
 10
4.7642100489
 20
1.6234176481
 30
0.0
 10
4.7613539846
 20
1.623119331
 30
0.0
 10
4.7593176872
 20
1.6228777028
 30
0.0
 10
4.7579771198
 20
1.6227038415
 30
0.0
 10
4.7567624172
 20
1.6225301511
 30
0.0
 10
4.755674158
 20
1.6223566599
 30
0.0
 10
4.7547127644
 20
1.6221834412
 30
0.0
 10
4.7538785234
 20
1.6220105637
 30
0.0
 10
4.7532642156
 20
1.6218609875
 30
0.0
 10
4.7528373838
 20
1.6217394675
 30
0.0
 10
4.752564084
 20
1.6216526306
 30
0.0
 10
4.7523224998
 20
1.6215657376
 30
0.0
 10
4.7521133665
 20
1.6214793756
 30
0.0
 10
4.7519342491
 20
1.6213917444
 30
0.0
 10
4.7517106706
 20
1.6212603525
 30
0.0
 10
4.751525853
 20
1.6210939218
 30
0.0
 10
4.7515259398
 20
1.6209493037
 30
0.0
  0
SPLINE
  5
288
100
AcDbEntity
  8
ALL_ASSEMBLY_MEMBERS
100
AcDbSpline
 62
7
  6
CONTINUOUS
 70
0
 71
3
 72
34
 73
30
 74
0
 42
0.0000001
 43
0.0000001
 44
0.0000000001
 40
0.0
 40
0.0
 40
0.0
 40
0.0
 40
0.0950116518
 40
0.1892181728
 40
0.2816829667
 40
0.3715965662
 40
0.4581575354
 40
0.5405715428
 40
0.6180983744
 40
0.6900386141
 40
0.7557427709
 40
0.8146183835
 40
0.8413257946
 40
0.8661314069
 40
0.8889820213
 40
0.9098247547
 40
0.9286114815
 40
0.9453044626
 40
0.9598678938
 40
0.9722685353
 40
0.9776510028
 40
0.98248575
 40
0.9867713539
 40
0.9905069457
 40
0.9936925977
 40
0.9963303866
 40
0.9984272743
 40
0.999277597
 40
1.0
 40
1.0
 40
1.0
 40
1.0
 10
5.0582759123
 20
1.6410393495
 30
0.0
 10
5.0485621587
 20
1.6407693491
 30
0.0
 10
5.0292169661
 20
1.6402316388
 30
0.0
 10
5.0004186057
 20
1.6394239283
 30
0.0
 10
4.9721418639
 20
1.6386163028
 30
0.0
 10
4.9446474037
 20
1.6378089541
 30
0.0
 10
4.9181813537
 20
1.6370019638
 30
0.0
 10
4.8929827852
 20
1.6361953737
 30
0.0
 10
4.869280366
 20
1.6353894371
 30
0.0
 10
4.8472879982
 20
1.6345843657
 30
0.0
 10
4.8272045653
 20
1.6337804061
 30
0.0
 10
4.8117466237
 20
1.6330915293
 30
0.0
 10
4.80047015
 20
1.632534198
 30
0.0
 10
4.7928751826
 20
1.6321300977
 30
0.0
 10
4.7858809308
 20
1.6317263521
 30
0.0
 10
4.7795033586
 20
1.6313230115
 30
0.0
 10
4.7737569223
 20
1.630920119
 30
0.0
 10
4.7686543901
 20
1.6305180413
 30
0.0
 10
4.7642072221
 20
1.6301169935
 30
0.0
 10
4.7609169588
 20
1.6297697931
 30
0.0
 10
4.7586209384
 20
1.6294872119
 30
0.0
 10
4.7571513351
 20
1.6292856529
 30
0.0
 10
4.7558518617
 20
1.629084463
 30
0.0
 10
4.7547232647
 20
1.6288837306
 30
0.0
 10
4.7537660082
 20
1.6286837845
 30
0.0
 10
4.7529805841
 20
1.6284846689
 30
0.0
 10
4.7524357829
 20
1.6283102128
 30
0.0
 10
4.7520890519
 20
1.6281660272
 30
0.0
 10
4.7519452422
 20
1.6280933836
 30
0.0
 10
4.7518812779
 20
1.6280564027
 30
0.0
  0
LINE
  5
289
100
AcDbEntity
  8
ALL_ASSEMBLY_MEMBERS
100
AcDbLine
 62
7
  6
CONTINUOUS
 10
5.0305021328
 20
1.6938388105
 11
5.0103438452
 21
1.6932740741
  0
LINE
  5
28A
100
AcDbEntity
  8
ALL_ASSEMBLY_MEMBERS
100
AcDbLine
 62
7
  6
CONTINUOUS
 10
5.0103438452
 20
1.6932740741
 11
4.9943687563
 21
1.6928224078
  0
LINE
  5
28B
100
AcDbEntity
  8
ALL_ASSEMBLY_MEMBERS
100
AcDbLine
 62
7
  6
CONTINUOUS
 10
4.9941178118
 20
1.6928152755
 11
4.9915465526
 21
1.6927421208
  0
LINE
  5
28C
100
AcDbEntity
  8
ALL_ASSEMBLY_MEMBERS
100
AcDbLine
 62
7
  6
CONTINUOUS
 10
4.9915465526
 20
1.6927421208
 11
4.970383227
 21
1.6921340954
  0
LINE
  5
28D
100
AcDbEntity
  8
ALL_ASSEMBLY_MEMBERS
100
AcDbLine
 62
7
  6
CONTINUOUS
 10
4.970383227
 20
1.6921340954
 11
4.9476408758
 21
1.6914657714
  0
LINE
  5
28E
100
AcDbEntity
  8
ALL_ASSEMBLY_MEMBERS
100
AcDbLine
 62
7
  6
CONTINUOUS
 10
4.9476408758
 20
1.6914657714
 11
4.945747356
 21
1.6914092683
  0
LINE
  5
28F
100
AcDbEntity
  8
ALL_ASSEMBLY_MEMBERS
100
AcDbLine
 62
7
  6
CONTINUOUS
 10
4.945747356
 20
1.6914092683
 11
4.9287981428
 21
1.6908964615
  0
SPLINE
  5
290
100
AcDbEntity
  8
ALL_ASSEMBLY_MEMBERS
100
AcDbSpline
 62
7
  6
CONTINUOUS
 70
0
 71
3
 72
30
 73
26
 74
0
 42
0.0000001
 43
0.0000001
 44
0.0000000001
 40
0.0
 40
0.0
 40
0.0
 40
0.0
 40
0.2058202549
 40
0.3024875781
 40
0.3943915476
 40
0.4811157803
 40
0.5622550518
 40
0.6374420106
 40
0.7063268925
 40
0.7685940198
 40
0.8239621268
 40
0.8721729253
 40
0.8935291912
 40
0.9130197207
 40
0.9306208773
 40
0.9463155699
 40
0.9600907982
 40
0.9719349458
 40
0.9818388345
 40
0.9860621982
 40
0.9898012221
 40
0.9930584628
 40
0.9958381496
 40
0.9981475514
 40
1.0
 40
1.0
 40
1.0
 40
1.0
 10
4.9287981428
 20
1.6908964615
 30
0.0
 10
4.9166398837
 20
1.690523684
 30
0.0
 10
4.8987717545
 20
1.6899595465
 30
0.0
 10
4.8754764761
 20
1.6891733801
 30
0.0
 10
4.8592167441
 20
1.6885962986
 30
0.0
 10
4.8438753156
 20
1.6880195561
 30
0.0
 10
4.8295225922
 20
1.6874430766
 30
0.0
 10
4.8162250615
 20
1.6868670969
 30
0.0
 10
4.8040439785
 20
1.6862916899
 30
0.0
 10
4.7930355673
 20
1.6857171199
 30
0.0
 10
4.7832507828
 20
1.6851437271
 30
0.0
 10
4.7758835305
 20
1.6846494568
 30
0.0
 10
4.7706354815
 20
1.684248566
 30
0.0
 10
4.7671932091
 20
1.6839604474
 30
0.0
 10
4.7640867872
 20
1.6836726454
 30
0.0
 10
4.7613197046
 20
1.6833852542
 30
0.0
 10
4.7588948151
 20
1.6830985604
 30
0.0
 10
4.7568148116
 20
1.6828127073
 30
0.0
 10
4.7552997827
 20
1.6825644739
 30
0.0
 10
4.7542634567
 20
1.6823616914
 30
0.0
 10
4.7536160363
 20
1.6822180085
 30
0.0
 10
4.7530562273
 20
1.68207465
 30
0.0
 10
4.7525838655
 20
1.6819317057
 30
0.0
 10
4.7521988796
 20
1.6817893312
 30
0.0
 10
4.7519759788
 20
1.6816836668
 30
0.0
 10
4.7518811814
 20
1.6816289013
 30
0.0
  0
SPLINE
  5
291
100
AcDbEntity
  8
ALL_ASSEMBLY_MEMBERS
100
AcDbSpline
 62
7
  6
CONTINUOUS
 70
0
 71
3
 72
25
 73
21
 74
0
 42
0.0000001
 43
0.0000001
 44
0.0000000001
 40
0.0
 40
0.0
 40
0.0
 40
0.0
 40
0.0202890092
 40
0.0407229292
 40
0.0614438679
 40
0.0825854657
 40
0.1265576681
 40
0.1734800091
 40
0.2239155422
 40
0.2781800166
 40
0.3364159012
 40
0.3985844026
 40
0.4645248599
 40
0.5339699412
 40
0.6065434449
 40
0.6818246183
 40
0.7593538974
 40
0.8386436543
 40
0.9190973954
 40
1.0
 40
1.0
 40
1.0
 40
1.0
 10
4.8707776148
 20
5.8078974127
 30
0.0
 10
4.8707776148
 20
5.806362199
 30
0.0
 10
4.8709291294
 20
5.8032786945
 30
0.0
 10
4.871609773
 20
5.7986725398
 30
0.0
 10
4.8727443348
 20
5.794089795
 30
0.0
 10
4.8748840133
 20
5.7879491587
 30
0.0
 10
4.8787370775
 20
5.7803487546
 30
0.0
 10
4.8850263274
 20
5.7716542543
 30
0.0
 10
4.8929723458
 20
5.7633360546
 30
0.0
 10
4.9024875457
 20
5.7554583887
 30
0.0
 10
4.9134878948
 20
5.7480965776
 30
0.0
 10
4.9258651621
 20
5.7413090564
 30
0.0
 10
4.939505616
 20
5.7351609293
 30
0.0
 10
4.9542798569
 20
5.7297114096
 30
0.0
 10
4.970045036
 20
5.725005242
 30
0.0
 10
4.986654225
 20
5.7210946593
 30
0.0
 10
5.0039522199
 20
5.7180109398
 30
0.0
 10
5.0217760248
 20
5.7157888159
 30
0.0
 10
5.039942765
 20
5.7144485873
 30
0.0
 10
5.0521542339
 20
5.7141474127
 30
0.0
 10
5.0582759123
 20
5.7141474127
 30
0.0
  0
SPLINE
  5
292
100
AcDbEntity
  8
ALL_ASSEMBLY_MEMBERS
100
AcDbSpline
 62
7
  6
CONTINUOUS
 70
0
 71
3
 72
25
 73
21
 74
0
 42
0.0000001
 43
0.0000001
 44
0.0000000001
 40
0.0
 40
0.0
 40
0.0
 40
0.0
 40
0.0809026046
 40
0.1613563457
 40
0.2406461026
 40
0.3181753817
 40
0.3934565551
 40
0.4660300588
 40
0.5354751401
 40
0.6014155974
 40
0.6635840988
 40
0.7218199834
 40
0.7760844578
 40
0.8265199909
 40
0.8734423319
 40
0.9174145343
 40
0.9385561321
 40
0.9592770708
 40
0.9797109908
 40
1.0
 40
1.0
 40
1.0
 40
1.0
 10
5.0582759123
 20
5.7141474127
 30
0.0
 10
5.0643975906
 20
5.7141474127
 30
0.0
 10
5.0766090595
 20
5.7144485873
 30
0.0
 10
5.0947757998
 20
5.7157888159
 30
0.0
 10
5.1125996046
 20
5.7180109398
 30
0.0
 10
5.1298975996
 20
5.7210946593
 30
0.0
 10
5.1465067885
 20
5.725005242
 30
0.0
 10
5.1622719676
 20
5.7297114096
 30
0.0
 10
5.1770462086
 20
5.7351609293
 30
0.0
 10
5.1906866624
 20
5.7413090564
 30
0.0
 10
5.2030639297
 20
5.7480965776
 30
0.0
 10
5.2140642788
 20
5.7554583887
 30
0.0
 10
5.2235794787
 20
5.7633360546
 30
0.0
 10
5.2315254971
 20
5.7716542543
 30
0.0
 10
5.237814747
 20
5.7803487546
 30
0.0
 10
5.2416678112
 20
5.7879491587
 30
0.0
 10
5.2438074897
 20
5.794089795
 30
0.0
 10
5.2449420515
 20
5.7986725398
 30
0.0
 10
5.2456226951
 20
5.8032786945
 30
0.0
 10
5.2457742097
 20
5.806362199
 30
0.0
 10
5.2457742097
 20
5.8078974127
 30
0.0
  0
SPLINE
  5
293
100
AcDbEntity
  8
ALL_ASSEMBLY_MEMBERS
100
AcDbSpline
 62
7
  6
CONTINUOUS
 70
0
 71
3
 72
29
 73
25
 74
0
 42
0.0000001
 43
0.0000001
 44
0.0000000001
 40
0.0
 40
0.0
 40
0.0
 40
0.0
 40
0.0579329965
 40
0.1167348659
 40
0.176758806
 40
0.2074048783
 40
0.2384942584
 40
0.2700293378
 40
0.3019881676
 40
0.3343391305
 40
0.3670431409
 40
0.4332081481
 40
0.5
 40
0.5667918519
 40
0.6329568591
 40
0.6656608695
 40
0.6980118324
 40
0.7299706622
 40
0.7615057416
 40
0.7925951217
 40
0.823241194
 40
0.8832651341
 40
0.9420670035
 40
1.0
 40
1.0
 40
1.0
 40
1.0
 10
5.0732759123
 20
6.5642432783
 30
0.0
 10
5.0732759123
 20
6.5650924017
 30
0.0
 10
5.0730773681
 20
6.5668091758
 30
0.0
 10
5.0722128022
 20
6.5692723849
 30
0.0
 10
5.0710463059
 20
6.5711480877
 30
0.0
 10
5.0698831807
 20
6.5725046715
 30
0.0
 10
5.0688918866
 20
6.5734495157
 30
0.0
 10
5.0677989987
 20
6.574305746
 30
0.0
 10
5.06661523
 20
6.575065877
 30
0.0
 10
5.0653511699
 20
6.5757215832
 30
0.0
 10
5.0635687757
 20
6.5764497752
 30
0.0
 10
5.0612070546
 20
6.5770686698
 30
0.0
 10
5.0582759123
 20
6.5773157097
 30
0.0
 10
5.0553447699
 20
6.5770686698
 30
0.0
 10
5.0529830489
 20
6.5764497752
 30
0.0
 10
5.0512006547
 20
6.5757215832
 30
0.0
 10
5.0499365945
 20
6.575065877
 30
0.0
 10
5.0487528258
 20
6.574305746
 30
0.0
 10
5.0476599379
 20
6.5734495157
 30
0.0
 10
5.0466686439
 20
6.5725046715
 30
0.0
 10
5.0455055186
 20
6.5711480877
 30
0.0
 10
5.0443390223
 20
6.5692723849
 30
0.0
 10
5.0434744565
 20
6.5668091758
 30
0.0
 10
5.0432759123
 20
6.5650924017
 30
0.0
 10
5.0432759123
 20
6.5642432783
 30
0.0
  0
SPLINE
  5
294
100
AcDbEntity
  8
ALL_ASSEMBLY_MEMBERS
100
AcDbSpline
 62
7
  6
CONTINUOUS
 70
0
 71
3
 72
23
 73
19
 74
0
 42
0.0000001
 43
0.0000001
 44
0.0000000001
 40
0.0
 40
0.0
 40
0.0
 40
0.0
 40
0.0587200982
 40
0.1175738152
 40
0.1766844166
 40
0.2361732206
 40
0.2961452982
 40
0.3566918887
 40
0.4178858439
 40
0.4797806837
 40
0.5424094777
 40
0.6057846678
 40
0.6698984335
 40
0.7347235958
 40
0.8002149411
 40
0.866310878
 40
0.9329353586
 40
1.0
 40
1.0
 40
1.0
 40
1.0
 10
5.8082759123
 20
6.5968682783
 30
0.0
 10
5.8082759123
 20
6.6146850061
 30
0.0
 10
5.8065772881
 20
6.6503821268
 30
0.0
 10
5.7989551854
 20
6.703523664
 30
0.0
 10
5.7863096123
 20
6.7559423894
 30
0.0
 10
5.7687297982
 20
6.8072745039
 30
0.0
 10
5.7463363702
 20
6.8571731431
 30
0.0
 10
5.7192843358
 20
6.9052994193
 30
0.0
 10
5.6877593247
 20
6.9513279387
 30
0.0
 10
5.651977294
 20
6.9949480657
 30
0.0
 10
5.6121824254
 20
7.0358660229
 30
0.0
 10
5.5686455627
 20
7.0738066755
 30
0.0
 10
5.5216623716
 20
7.1085152649
 30
0.0
 10
5.4715512137
 20
7.1397589831
 30
0.0
 10
5.4186514825
 20
7.1673283043
 30
0.0
 10
5.3633196773
 20
7.1910387509
 30
0.0
 10
5.3059335007
 20
7.210730436
 30
0.0
 10
5.2666645698
 20
7.2210647313
 30
0.0
 10
5.2468119247
 20
7.2255299828
 30
0.0
  0
SPLINE
  5
295
100
AcDbEntity
  8
ALL_ASSEMBLY_MEMBERS
100
AcDbSpline
 62
7
  6
CONTINUOUS
 70
0
 71
3
 72
33
 73
29
 74
0
 42
0.0000001
 43
0.0000001
 44
0.0000000001
 40
0.0
 40
0.0
 40
0.0
 40
0.0
 40
0.0329348765
 40
0.0659608773
 40
0.0990523184
 40
0.1321828368
 40
0.1984335396
 40
0.264518855
 40
0.3302313995
 40
0.3953797764
 40
0.4597972484
 40
0.5233499182
 40
0.5547827902
 40
0.585968138
 40
0.6169016261
 40
0.647582035
 40
0.6780115418
 40
0.7081956267
 40
0.7381431101
 40
0.7678662216
 40
0.7973803187
 40
0.8267038255
 40
0.8558581956
 40
0.884867465
 40
0.9137570418
 40
0.9425555386
 40
0.9712957318
 40
1.0
 40
1.0
 40
1.0
 40
1.0
 10
5.2468119247
 20
7.2255299828
 30
0.0
 10
5.2329915015
 20
7.2286384687
 30
0.0
 10
5.205151043
 20
7.2341698262
 30
0.0
 10
5.1629860328
 20
7.2403812295
 30
0.0
 10
5.1204790954
 20
7.2445027531
 30
0.0
 10
5.0635455898
 20
7.2471920005
 30
0.0
 10
4.9922758103
 20
7.2452801326
 30
0.0
 10
4.9076291709
 20
7.2345856276
 30
0.0
 10
4.8249221788
 20
7.2156286534
 30
0.0
 10
4.7452265557
 20
7.1886493924
 30
0.0
 10
4.6695763902
 20
7.1539957885
 30
0.0
 10
4.6104832547
 20
7.1189460025
 30
0.0
 10
4.5662135185
 20
7.0875191288
 30
0.0
 10
4.5347237854
 20
7.0624348698
 30
0.0
 10
4.5049352256
 20
7.0358366506
 30
0.0
 10
4.4769442531
 20
7.0078092699
 30
0.0
 10
4.4508417343
 20
6.9784444579
 30
0.0
 10
4.4267131334
 20
6.9478369621
 30
0.0
 10
4.4046374034
 20
6.9160860458
 30
0.0
 10
4.3846860599
 20
6.8832951936
 30
0.0
 10
4.3669253194
 20
6.8495704031
 30
0.0
 10
4.3514126477
 20
6.8150217418
 30
0.0
 10
4.3381990052
 20
6.7797614513
 30
0.0
 10
4.3273287006
 20
6.7439043112
 30
0.0
 10
4.3188359633
 20
6.7075678415
 30
0.0
 10
4.3127496055
 20
6.6708683503
 30
0.0
 10
4.3090907459
 20
6.6339295794
 30
0.0
 10
4.3082759123
 20
6.6092143326
 30
0.0
 10
4.3082759123
 20
6.5968682783
 30
0.0
  0
SPLINE
  5
296
100
AcDbEntity
  8
ALL_ASSEMBLY_MEMBERS
100
AcDbSpline
 62
7
  6
CONTINUOUS
 70
0
 71
3
 72
61
 73
57
 74
0
 42
0.0000001
 43
0.0000001
 44
0.0000000001
 40
0.0
 40
0.0
 40
0.0
 40
0.0
 40
0.0144856113
 40
0.0289859127
 40
0.0435078847
 40
0.0580634889
 40
0.0726645502
 40
0.0873210111
 40
0.1020422787
 40
0.1168372845
 40
0.1317141119
 40
0.1466798361
 40
0.1617405914
 40
0.1769015018
 40
0.1921666197
 40
0.2075389438
 40
0.2230203525
 40
0.2386116957
 40
0.2543126977
 40
0.2701221101
 40
0.2860376062
 40
0.3020559644
 40
0.3181729758
 40
0.3343836289
 40
0.3670535578
 40
0.4000187463
 40
0.4332140771
 40
0.4665670092
 40
0.5
 40
0.5334329908
 40
0.5667859229
 40
0.5999812537
 40
0.6329464422
 40
0.6656163711
 40
0.6818270242
 40
0.6979440356
 40
0.7139623938
 40
0.7298778899
 40
0.7456873023
 40
0.7613883043
 40
0.7769796475
 40
0.7924610562
 40
0.8078333803
 40
0.8230984982
 40
0.8382594086
 40
0.8533201639
 40
0.8682858881
 40
0.8831627155
 40
0.8979577213
 40
0.9126789889
 40
0.9273354498
 40
0.9419365111
 40
0.9564921153
 40
0.9710140873
 40
0.9855143887
 40
1.0
 40
1.0
 40
1.0
 40
1.0
 10
5.8082759123
 20
6.5642432783
 30
0.0
 10
5.8082759123
 20
6.5536166296
 30
0.0
 10
5.8076722763
 20
6.5323476606
 30
0.0
 10
5.8049618723
 20
6.5005292917
 30
0.0
 10
5.800449958
 20
6.4688631712
 30
0.0
 10
5.7941493078
 20
6.4374289634
 30
0.0
 10
5.7860745597
 20
6.4063012144
 30
0.0
 10
5.776245962
 20
6.3755545948
 30
0.0
 10
5.7646865621
 20
6.3452638635
 30
0.0
 10
5.7514249956
 20
6.3155019581
 30
0.0
 10
5.7364932929
 20
6.2863405761
 30
0.0
 10
5.7199274731
 20
6.257850074
 30
0.0
 10
5.7017680281
 20
6.2300988466
 30
0.0
 10
5.6820583249
 20
6.2031540939
 30
0.0
 10
5.6608467891
 20
6.1770800469
 30
0.0
 10
5.6381837734
 20
6.151940178
 30
0.0
 10
5.6141249943
 20
6.1277940013
 30
0.0
 10
5.5887275007
 20
6.1047005958
 30
0.0
 10
5.5620535613
 20
6.0827143034
 30
0.0
 10
5.5341665638
 20
6.0618891192
 30
0.0
 10
5.5051345146
 20
6.0422738712
 30
0.0
 10
5.4750268606
 20
6.0239168329
 30
0.0
 10
5.4439158881
 20
6.0068607999
 30
0.0
 10
5.4010929892
 20
5.9858586906
 30
0.0
 10
5.3454407559
 20
5.9630916185
 30
0.0
 10
5.2760937305
 20
5.9416302757
 30
0.0
 10
5.2046570021
 20
5.9261524201
 30
0.0
 10
5.1318187763
 20
5.9168068237
 30
0.0
 10
5.0582759123
 20
5.9136816781
 30
0.0
 10
4.9847330483
 20
5.9168068237
 30
0.0
 10
4.9118948225
 20
5.9261524201
 30
0.0
 10
4.840458094
 20
5.9416302757
 30
0.0
 10
4.7711110686
 20
5.9630916185
 30
0.0
 10
4.7154588353
 20
5.9858586906
 30
0.0
 10
4.6726359364
 20
6.0068607999
 30
0.0
 10
4.6415249639
 20
6.0239168329
 30
0.0
 10
4.6114173099
 20
6.0422738712
 30
0.0
 10
4.5823852607
 20
6.0618891192
 30
0.0
 10
4.5544982632
 20
6.0827143034
 30
0.0
 10
4.5278243238
 20
6.1047005958
 30
0.0
 10
4.5024268302
 20
6.1277940013
 30
0.0
 10
4.4783680511
 20
6.151940178
 30
0.0
 10
4.4557050354
 20
6.1770800469
 30
0.0
 10
4.4344934996
 20
6.2031540939
 30
0.0
 10
4.4147837964
 20
6.2300988466
 30
0.0
 10
4.3966243514
 20
6.257850074
 30
0.0
 10
4.3800585317
 20
6.2863405761
 30
0.0
 10
4.3651268289
 20
6.3155019581
 30
0.0
 10
4.3518652625
 20
6.3452638635
 30
0.0
 10
4.3403058625
 20
6.3755545948
 30
0.0
 10
4.3304772649
 20
6.4063012144
 30
0.0
 10
4.3224025168
 20
6.4374289634
 30
0.0
 10
4.3161018665
 20
6.4688631712
 30
0.0
 10
4.3115899522
 20
6.5005292917
 30
0.0
 10
4.3088795483
 20
6.5323476606
 30
0.0
 10
4.3082759123
 20
6.5536166296
 30
0.0
 10
4.3082759123
 20
6.5642432783
 30
0.0
  0
SPLINE
  5
297
100
AcDbEntity
  8
ALL_ASSEMBLY_MEMBERS
100
AcDbSpline
 62
7
  6
CONTINUOUS
 70
0
 71
3
 72
11
 73
7
 74
0
 42
0.0000001
 43
0.0000001
 44
0.0000000001
 40
0.0
 40
0.0
 40
0.0
 40
0.0
 40
0.2486169793
 40
0.5
 40
0.7513830207
 40
1.0
 40
1.0
 40
1.0
 40
1.0
 10
5.0520689895
 20
6.5760425161
 30
0.0
 10
5.0530473331
 20
6.5756577033
 30
0.0
 10
5.0550945681
 20
6.5750723615
 30
0.0
 10
5.0582759123
 20
6.5747809607
 30
0.0
 10
5.0614572564
 20
6.5750723615
 30
0.0
 10
5.0635044915
 20
6.5756577033
 30
0.0
 10
5.064482835
 20
6.5760425161
 30
0.0
  0
SPLINE
  5
298
100
AcDbEntity
  8
ALL_ASSEMBLY_MEMBERS
100
AcDbSpline
 62
7
  6
CONTINUOUS
 70
0
 71
3
 72
57
 73
53
 74
0
 42
0.0000001
 43
0.0000001
 44
0.0000000001
 40
0.0
 40
0.0
 40
0.0
 40
0.0
 40
0.014466024
 40
0.0289528443
 40
0.0434716372
 40
0.0580335759
 40
0.0726480421
 40
0.0873238655
 40
0.1020694877
 40
0.116892648
 40
0.1318001394
 40
0.1467979441
 40
0.1618910972
 40
0.1770837337
 40
0.1923789685
 40
0.2077789804
 40
0.2388883316
 40
0.2704187539
 40
0.2863411985
 40
0.3023613997
 40
0.334669592
 40
0.3673086294
 40
0.4002252887
 40
0.4167723228
 40
0.4333650045
 40
0.4666450625
 40
0.5
 40
0.5333549375
 40
0.5666349955
 40
0.5832276772
 40
0.5997747113
 40
0.6326913706
 40
0.665330408
 40
0.6976386003
 40
0.7136588015
 40
0.7295812461
 40
0.7611116684
 40
0.7922210196
 40
0.8076210315
 40
0.8229162663
 40
0.8381089028
 40
0.8532020559
 40
0.8681998606
 40
0.883107352
 40
0.8979305123
 40
0.9126761345
 40
0.9273519579
 40
0.9419664241
 40
0.9565283628
 40
0.9710471557
 40
0.985533976
 40
1.0
 40
1.0
 40
1.0
 40
1.0
 10
5.8073318368
 20
6.5968170501
 30
0.0
 10
5.8067357607
 20
6.6070975665
 30
0.0
 10
5.8049782871
 20
6.6276451154
 30
0.0
 10
5.800655544
 20
6.6583022127
 30
0.0
 10
5.7946561301
 20
6.688746188
 30
0.0
 10
5.7869928732
 20
6.7189078496
 30
0.0
 10
5.7776842353
 20
6.7487200087
 30
0.0
 10
5.7667500405
 20
6.7781144099
 30
0.0
 10
5.7542163729
 20
6.8070249924
 30
0.0
 10
5.7401107807
 20
6.8353861065
 30
0.0
 10
5.724466086
 20
6.8631341403
 30
0.0
 10
5.7073170884
 20
6.8902060174
 30
0.0
 10
5.6887032174
 20
6.9165410722
 30
0.0
 10
5.6686663769
 20
6.9420794623
 30
0.0
 10
5.6472516306
 20
6.9667643989
 30
0.0
 10
5.6168290209
 20
6.9985671151
 30
0.0
 10
5.575565307
 20
7.0358956395
 30
0.0
 10
5.5307070968
 20
7.0694321884
 30
0.0
 10
5.4927532684
 20
7.0939737793
 30
0.0
 10
5.4532582382
 20
7.1170668053
 30
0.0
 10
5.4015996912
 20
7.1428125756
 30
0.0
 10
5.3367138212
 20
7.1683953888
 30
0.0
 10
5.2806423623
 20
7.1851517025
 30
0.0
 10
5.234820334
 20
7.1957622877
 30
0.0
 10
5.1883412696
 20
7.2045013594
 30
0.0
 10
5.1294734827
 20
7.2118106968
 30
0.0
 10
5.0582759123
 20
7.2147392448
 30
0.0
 10
4.9870783418
 20
7.2118106968
 30
0.0
 10
4.928210555
 20
7.2045013594
 30
0.0
 10
4.8817314905
 20
7.1957622877
 30
0.0
 10
4.8359094622
 20
7.1851517025
 30
0.0
 10
4.7798380033
 20
7.1683953888
 30
0.0
 10
4.7149521333
 20
7.1428125756
 30
0.0
 10
4.6632935864
 20
7.1170668053
 30
0.0
 10
4.6237985562
 20
7.0939737793
 30
0.0
 10
4.5858447278
 20
7.0694321884
 30
0.0
 10
4.5409865176
 20
7.0358956395
 30
0.0
 10
4.4997228036
 20
6.9985671151
 30
0.0
 10
4.4693001939
 20
6.9667643989
 30
0.0
 10
4.4478854477
 20
6.9420794623
 30
0.0
 10
4.4278486071
 20
6.9165410722
 30
0.0
 10
4.4092347361
 20
6.8902060174
 30
0.0
 10
4.3920857386
 20
6.8631341403
 30
0.0
 10
4.3764410438
 20
6.8353861065
 30
0.0
 10
4.3623354516
 20
6.8070249924
 30
0.0
 10
4.3498017841
 20
6.7781144099
 30
0.0
 10
4.3388675892
 20
6.7487200087
 30
0.0
 10
4.3295589513
 20
6.7189078496
 30
0.0
 10
4.3218956944
 20
6.688746188
 30
0.0
 10
4.3158962805
 20
6.6583022127
 30
0.0
 10
4.3115735374
 20
6.6276451154
 30
0.0
 10
4.3098160638
 20
6.6070975665
 30
0.0
 10
4.3092199877
 20
6.5968170501
 30
0.0
  0
SPLINE
  5
299
100
AcDbEntity
  8
ALL_ASSEMBLY_MEMBERS
100
AcDbSpline
 62
7
  6
CONTINUOUS
 70
0
 71
3
 72
29
 73
25
 74
0
 42
0.0000001
 43
0.0000001
 44
0.0000000001
 40
0.0
 40
0.0
 40
0.0
 40
0.0
 40
0.0579329965
 40
0.1167348659
 40
0.176758806
 40
0.2074048783
 40
0.2384942584
 40
0.2700293378
 40
0.3019881676
 40
0.3343391305
 40
0.3670431409
 40
0.4332081481
 40
0.5
 40
0.5667918519
 40
0.6329568591
 40
0.6656608695
 40
0.6980118324
 40
0.7299706622
 40
0.7615057416
 40
0.7925951217
 40
0.823241194
 40
0.8832651341
 40
0.9420670035
 40
1.0
 40
1.0
 40
1.0
 40
1.0
 10
5.0432759123
 20
6.5642432783
 30
0.0
 10
5.0432759123
 20
6.5633941549
 30
0.0
 10
5.0434744565
 20
6.5616773807
 30
0.0
 10
5.0443390223
 20
6.5592141717
 30
0.0
 10
5.0455055186
 20
6.5573384689
 30
0.0
 10
5.0466686439
 20
6.555981885
 30
0.0
 10
5.0476599379
 20
6.5550370408
 30
0.0
 10
5.0487528258
 20
6.5541808105
 30
0.0
 10
5.0499365945
 20
6.5534206796
 30
0.0
 10
5.0512006547
 20
6.5527649733
 30
0.0
 10
5.0529830489
 20
6.5520367814
 30
0.0
 10
5.0553447699
 20
6.5514178867
 30
0.0
 10
5.0582759123
 20
6.5511708468
 30
0.0
 10
5.0612070546
 20
6.5514178867
 30
0.0
 10
5.0635687757
 20
6.5520367814
 30
0.0
 10
5.0653511699
 20
6.5527649733
 30
0.0
 10
5.06661523
 20
6.5534206796
 30
0.0
 10
5.0677989987
 20
6.5541808105
 30
0.0
 10
5.0688918866
 20
6.5550370408
 30
0.0
 10
5.0698831807
 20
6.555981885
 30
0.0
 10
5.0710463059
 20
6.5573384689
 30
0.0
 10
5.0722128022
 20
6.5592141717
 30
0.0
 10
5.0730773681
 20
6.5616773807
 30
0.0
 10
5.0732759123
 20
6.5633941549
 30
0.0
 10
5.0732759123
 20
6.5642432783
 30
0.0
  0
SPLINE
  5
29A
100
AcDbEntity
  8
ALL_ASSEMBLY_MEMBERS
100
AcDbSpline
 62
7
  6
CONTINUOUS
 70
0
 71
3
 72
37
 73
33
 74
0
 42
0.0000001
 43
0.0000001
 44
0.0000000001
 40
0.0
 40
0.0
 40
0.0
 40
0.0
 40
0.0329870544
 40
0.0659746103
 40
0.0989319008
 40
0.131833648
 40
0.1646663443
 40
0.1974183872
 40
0.2300771693
 40
0.262628324
 40
0.2950582264
 40
0.3273553297
 40
0.3595097556
 40
0.3915128804
 40
0.4550202252
 40
0.5178533524
 40
0.5490208495
 40
0.5800167516
 40
0.6108434361
 40
0.6415049924
 40
0.6720072315
 40
0.7023571737
 40
0.7325636224
 40
0.7626367263
 40
0.7925876629
 40
0.8224292416
 40
0.8521750418
 40
0.8818394698
 40
0.911438124
 40
0.9409867931
 40
0.9705017662
 40
1.0
 40
1.0
 40
1.0
 40
1.0
 10
5.0582759123
 20
7.3175459974
 30
0.0
 10
5.0708889941
 20
7.3175459974
 30
0.0
 10
5.0961186663
 20
7.3170046448
 30
0.0
 10
5.1338796772
 20
7.3145760183
 30
0.0
 10
5.1714703189
 20
7.3105348328
 30
0.0
 10
5.2087932003
 20
7.3048862674
 30
0.0
 10
5.2457605105
 20
7.2976467532
 30
0.0
 10
5.2822883645
 20
7.2888304358
 30
0.0
 10
5.3182926546
 20
7.2784559023
 30
0.0
 10
5.3536896839
 20
7.2665485602
 30
0.0
 10
5.388394458
 20
7.2531313009
 30
0.0
 10
5.4223244907
 20
7.2382341288
 30
0.0
 10
5.4554015856
 20
7.2218913324
 30
0.0
 10
5.4981429758
 20
7.1982817989
 30
0.0
 10
5.5490703562
 20
7.1653664164
 30
0.0
 10
5.5964051592
 20
7.1279696507
 30
0.0
 10
5.6316551876
 20
7.0956698382
 30
0.0
 10
5.6566637249
 20
7.0703737843
 30
0.0
 10
5.6802495418
 20
7.0440058126
 30
0.0
 10
5.7023516342
 20
7.016623729
 30
0.0
 10
5.7229122025
 20
6.9882906594
 30
0.0
 10
5.7418806264
 20
6.9590747613
 30
0.0
 10
5.7592031704
 20
6.929042793
 30
0.0
 10
5.7748346546
 20
6.8982677094
 30
0.0
 10
5.788734478
 20
6.8668248307
 30
0.0
 10
5.8008597129
 20
6.834789417
 30
0.0
 10
5.8111801941
 20
6.802242624
 30
0.0
 10
5.8196662915
 20
6.7692656854
 30
0.0
 10
5.8262899503
 20
6.7359415901
 30
0.0
 10
5.8310372015
 20
6.7023562142
 30
0.0
 10
5.8338909681
 20
6.6685967229
 30
0.0
 10
5.8345249648
 20
6.6460270085
 30
0.0
 10
5.8345250826
 20
6.6347479282
 30
0.0
  0
SPLINE
  5
29B
100
AcDbEntity
  8
ALL_ASSEMBLY_MEMBERS
100
AcDbSpline
 62
7
  6
CONTINUOUS
 70
0
 71
3
 72
15
 73
11
 74
0
 42
0.0000001
 43
0.0000001
 44
0.0000000001
 40
0.0
 40
0.0
 40
0.0
 40
0.0
 40
0.1261851869
 40
0.251908378
 40
0.3772269384
 40
0.5022016986
 40
0.6268985463
 40
0.7513841957
 40
0.8757274647
 40
1.0
 40
1.0
 40
1.0
 40
1.0
 10
4.3421527049
 20
6.3710207192
 30
0.0
 10
4.3372289733
 20
6.3813799546
 30
0.0
 10
4.3279528425
 20
6.4023289888
 30
0.0
 10
4.3157922979
 20
6.434406301
 30
0.0
 10
4.3054412412
 20
6.4669982025
 30
0.0
 10
4.2969299427
 20
6.5000219013
 30
0.0
 10
4.2902865239
 20
6.5333943797
 30
0.0
 10
4.2855250854
 20
6.5670292933
 30
0.0
 10
4.2826627573
 20
6.6008391082
 30
0.0
 10
4.2820268599
 20
6.6234426569
 30
0.0
 10
4.282026742
 20
6.6347386283
 30
0.0
  0
SPLINE
  5
29C
100
AcDbEntity
  8
ALL_ASSEMBLY_MEMBERS
100
AcDbSpline
 62
7
  6
CONTINUOUS
 70
0
 71
3
 72
15
 73
11
 74
0
 42
0.0000001
 43
0.0000001
 44
0.0000000001
 40
0.0
 40
0.0
 40
0.0
 40
0.0
 40
0.1242737234
 40
0.2486181837
 40
0.3731048619
 40
0.4978022414
 40
0.6227771068
 40
0.7480951669
 40
0.8738169703
 40
1.0
 40
1.0
 40
1.0
 40
1.0
 10
5.8345250826
 20
6.6347479282
 30
0.0
 10
5.8345252004
 20
6.6234644349
 30
0.0
 10
5.8338911766
 20
6.6008858455
 30
0.0
 10
5.8310352952
 20
6.5671131555
 30
0.0
 10
5.8262851457
 20
6.5335146659
 30
0.0
 10
5.819656786
 20
6.5001777213
 30
0.0
 10
5.8111643474
 20
6.4671884351
 30
0.0
 10
5.8008365428
 20
6.4346293368
 30
0.0
 10
5.7887025367
 20
6.4025832661
 30
0.0
 10
5.7794465458
 20
6.3816536216
 30
0.0
 10
5.7745334793
 20
6.3713036852
 30
0.0
  0
SPLINE
  5
29D
100
AcDbEntity
  8
ALL_ASSEMBLY_MEMBERS
100
AcDbSpline
 62
7
  6
CONTINUOUS
 70
0
 71
3
 72
38
 73
34
 74
0
 42
0.0000001
 43
0.0000001
 44
0.0000000001
 40
0.0
 40
0.0
 40
0.0
 40
0.0
 40
0.0294975815
 40
0.05901194
 40
0.0885600293
 40
0.1181580928
 40
0.1478219699
 40
0.1775672471
 40
0.2074082874
 40
0.2373587252
 40
0.2674313404
 40
0.297637293
 40
0.3279867746
 40
0.3584885519
 40
0.389149643
 40
0.4199758767
 40
0.4509713204
 40
0.4821383581
 40
0.5449705439
 40
0.5766501854
 40
0.6084943079
 40
0.6404969289
 40
0.6726508442
 40
0.7049474247
 40
0.7373767921
 40
0.7699273839
 40
0.8025855737
 40
0.8353370063
 40
0.8681690889
 40
0.9010702044
 40
0.9340268254
 40
0.9670136716
 40
1.0
 40
1.0
 40
1.0
 40
1.0
 10
4.282026742
 20
6.6347386283
 30
0.0
 10
4.2820266242
 20
6.6460177467
 30
0.0
 10
4.2826601561
 20
6.6685875728
 30
0.0
 10
4.285513821
 20
6.7023472276
 30
0.0
 10
4.2902602999
 20
6.7359328886
 30
0.0
 10
4.2968835383
 20
6.7692572908
 30
0.0
 10
4.3053694727
 20
6.8022345027
 30
0.0
 10
4.3156892935
 20
6.8347817707
 30
0.0
 10
4.3278144153
 20
6.8668175303
 30
0.0
 10
4.3417139924
 20
6.8982608283
 30
0.0
 10
4.3573450626
 20
6.9290364781
 30
0.0
 10
4.3746676706
 20
6.959068794
 30
0.0
 10
4.3936359046
 20
6.9882852208
 30
0.0
 10
4.4141963191
 20
7.0166188494
 30
0.0
 10
4.4362985819
 20
7.0440012967
 30
0.0
 10
4.4598842732
 20
7.0703697762
 30
0.0
 10
4.4848931311
 20
7.0956664741
 30
0.0
 10
4.5201421621
 20
7.1279659032
 30
0.0
 10
4.5579199426
 20
7.1578119741
 30
0.0
 10
4.5978704712
 20
7.1850069757
 30
0.0
 10
4.6290050946
 20
7.2041349478
 30
0.0
 10
4.6611481123
 20
7.221890212
 30
0.0
 10
4.6942249731
 20
7.238233008
 30
0.0
 10
4.7281553993
 20
7.2531305189
 30
0.0
 10
4.7628604276
 20
7.2665479204
 30
0.0
 10
4.7982577277
 20
7.2784554465
 30
0.0
 10
4.8342622623
 20
7.2888301334
 30
0.0
 10
4.8707903651
 20
7.2976465457
 30
0.0
 10
4.9077579133
 20
7.3048861454
 30
0.0
 10
4.9450810179
 20
7.3105347725
 30
0.0
 10
4.9826718513
 20
7.3145759934
 30
0.0
 10
5.0204330203
 20
7.3170046411
 30
0.0
 10
5.0456627866
 20
7.3175459974
 30
0.0
 10
5.0582759123
 20
7.3175459974
 30
0.0
  0
SPLINE
  5
29E
100
AcDbEntity
  8
ALL_ASSEMBLY_MEMBERS
100
AcDbSpline
 62
7
  6
CONTINUOUS
 70
0
 71
3
 72
34
 73
30
 74
0
 42
0.0000001
 43
0.0000001
 44
0.0000000001
 40
0.0
 40
0.0
 40
0.0
 40
0.0
 40
0.0668653916
 40
0.1335721955
 40
0.1999623833
 40
0.2658929479
 40
0.3312327359
 40
0.3636540487
 40
0.3958880813
 40
0.4279247867
 40
0.4597557785
 40
0.4913746093
 40
0.5227766045
 40
0.5539593037
 40
0.5849221045
 40
0.615666771
 40
0.6461969851
 40
0.6765188288
 40
0.7066403201
 40
0.7365717785
 40
0.7663254061
 40
0.7959154818
 40
0.825358013
 40
0.8546707461
 40
0.8838728814
 40
0.912984928
 40
0.9420284521
 40
0.971025831
 40
1.0
 40
1.0
 40
1.0
 40
1.0
 10
5.0582759123
 20
7.6416373311
 30
0.0
 10
5.0828021462
 20
7.6416373311
 30
0.0
 10
5.1318221059
 20
7.6395546011
 30
0.0
 10
5.2046559779
 20
7.6302093122
 30
0.0
 10
5.2760940292
 20
7.614731104
 30
0.0
 10
5.345440674
 20
7.5932699888
 30
0.0
 10
5.4010929521
 20
7.5705027385
 30
0.0
 10
5.4439158926
 20
7.5495007811
 30
0.0
 10
5.4750267938
 20
7.5324446174
 30
0.0
 10
5.5051345409
 20
7.5140877345
 30
0.0
 10
5.5341664659
 20
7.4944723121
 30
0.0
 10
5.5620536047
 20
7.4736473207
 30
0.0
 10
5.5887273873
 20
7.4516608363
 30
0.0
 10
5.6141250438
 20
7.4285676195
 30
0.0
 10
5.6381836539
 20
7.4044212691
 30
0.0
 10
5.6608468273
 20
7.3792815559
 30
0.0
 10
5.6820582169
 20
7.3532073815
 30
0.0
 10
5.7017680402
 20
7.3262627293
 30
0.0
 10
5.719927385
 20
7.2985114301
 30
0.0
 10
5.736493265
 20
7.2700209836
 30
0.0
 10
5.7514249646
 20
7.2408595795
 30
0.0
 10
5.7646864828
 20
7.2110976434
 30
0.0
 10
5.7762459133
 20
7.1808069752
 30
0.0
 10
5.7860744731
 20
7.1500604193
 30
0.0
 10
5.7941494749
 20
7.1189324789
 30
0.0
 10
5.800449665
 20
7.0874980196
 30
0.0
 10
5.8049617396
 20
7.0558329757
 30
0.0
 10
5.8076723788
 20
7.024014879
 30
0.0
 10
5.8082759123
 20
7.0027460071
 30
0.0
 10
5.8082759123
 20
6.9921182783
 30
0.0
  0
SPLINE
  5
29F
100
AcDbEntity
  8
ALL_ASSEMBLY_MEMBERS
100
AcDbSpline
 62
7
  6
CONTINUOUS
 70
0
 71
3
 72
34
 73
30
 74
0
 42
0.0000001
 43
0.0000001
 44
0.0000000001
 40
0.0
 40
0.0
 40
0.0
 40
0.0
 40
0.0668653916
 40
0.1335721955
 40
0.1999623833
 40
0.2658929479
 40
0.3312327359
 40
0.3636540487
 40
0.3958880813
 40
0.4279247867
 40
0.4597557785
 40
0.4913746093
 40
0.5227766045
 40
0.5539593037
 40
0.5849221045
 40
0.615666771
 40
0.6461969851
 40
0.6765188288
 40
0.7066403201
 40
0.7365717785
 40
0.7663254061
 40
0.7959154818
 40
0.825358013
 40
0.8546707461
 40
0.8838728814
 40
0.912984928
 40
0.9420284521
 40
0.971025831
 40
1.0
 40
1.0
 40
1.0
 40
1.0
 10
5.0582759123
 20
7.6416373311
 30
0.0
 10
5.0337496783
 20
7.6416373311
 30
0.0
 10
4.9847297186
 20
7.6395546011
 30
0.0
 10
4.9118958467
 20
7.6302093122
 30
0.0
 10
4.8404577954
 20
7.614731104
 30
0.0
 10
4.7711111505
 20
7.5932699888
 30
0.0
 10
4.7154588724
 20
7.5705027385
 30
0.0
 10
4.6726359319
 20
7.5495007811
 30
0.0
 10
4.6415250308
 20
7.5324446174
 30
0.0
 10
4.6114172837
 20
7.5140877345
 30
0.0
 10
4.5823853587
 20
7.4944723121
 30
0.0
 10
4.5544982198
 20
7.4736473207
 30
0.0
 10
4.5278244372
 20
7.4516608363
 30
0.0
 10
4.5024267807
 20
7.4285676195
 30
0.0
 10
4.4783681707
 20
7.4044212691
 30
0.0
 10
4.4557049972
 20
7.3792815559
 30
0.0
 10
4.4344936077
 20
7.3532073815
 30
0.0
 10
4.4147837843
 20
7.3262627293
 30
0.0
 10
4.3966244396
 20
7.2985114301
 30
0.0
 10
4.3800585596
 20
7.2700209836
 30
0.0
 10
4.3651268599
 20
7.2408595795
 30
0.0
 10
4.3518653417
 20
7.2110976434
 30
0.0
 10
4.3403059113
 20
7.1808069752
 30
0.0
 10
4.3304773515
 20
7.1500604193
 30
0.0
 10
4.3224023496
 20
7.1189324789
 30
0.0
 10
4.3161021596
 20
7.0874980196
 30
0.0
 10
4.3115900849
 20
7.0558329757
 30
0.0
 10
4.3088794457
 20
7.024014879
 30
0.0
 10
4.3082759123
 20
7.0027460071
 30
0.0
 10
4.3082759123
 20
6.9921182783
 30
0.0
  0
SPLINE
  5
2A0
100
AcDbEntity
  8
ALL_ASSEMBLY_MEMBERS
100
AcDbSpline
 62
7
  6
CONTINUOUS
 70
0
 71
3
 72
18
 73
14
 74
0
 42
0.0000001
 43
0.0000001
 44
0.0000000001
 40
0.0
 40
0.0
 40
0.0
 40
0.0
 40
0.1273550432
 40
0.1909761085
 40
0.2544989556
 40
0.3811302021
 40
0.5070588653
 40
0.5697042027
 40
0.6320970237
 40
0.7560141463
 40
0.8175244954
 40
0.8787055963
 40
1.0
 40
1.0
 40
1.0
 40
1.0
 10
5.0582759123
 20
7.3219959782
 30
0.0
 10
5.0801832809
 20
7.3219959782
 30
0.0
 10
5.1130525754
 20
7.3207480513
 30
0.0
 10
5.1566411757
 20
7.3165954037
 30
0.0
 10
5.199918467
 20
7.3108003029
 30
0.0
 10
5.2533631361
 20
7.3004989558
 30
0.0
 10
5.3057104159
 20
7.2861468289
 30
0.0
 10
5.3466121274
 20
7.2723033914
 30
0.0
 10
5.3866121977
 20
7.2569835159
 30
0.0
 10
5.4254947386
 20
7.2393749089
 30
0.0
 10
5.4630092928
 20
7.2195490585
 30
0.0
 10
5.4992904348
 20
7.1984338104
 30
0.0
 10
5.5254301552
 20
7.1809690535
 30
0.0
 10
5.5422697356
 20
7.1686495719
 30
0.0
  0
SPLINE
  5
2A1
100
AcDbEntity
  8
ALL_ASSEMBLY_MEMBERS
100
AcDbSpline
 62
7
  6
CONTINUOUS
 70
0
 71
3
 72
18
 73
14
 74
0
 42
0.0000001
 43
0.0000001
 44
0.0000000001
 40
0.0
 40
0.0
 40
0.0
 40
0.0
 40
0.1273581898
 40
0.1909807112
 40
0.2545048883
 40
0.3811382402
 40
0.5070680126
 40
0.569713475
 40
0.6321060892
 40
0.7560216848
 40
0.817530728
 40
0.8787101415
 40
1.0
 40
1.0
 40
1.0
 40
1.0
 10
5.0582759123
 20
7.3219959782
 30
0.0
 10
5.0363529796
 20
7.3219959782
 30
0.0
 10
5.0034603274
 20
7.3207462795
 30
0.0
 10
4.9598410914
 20
7.3165877317
 30
0.0
 10
4.9165338264
 20
7.3107844315
 30
0.0
 10
4.8630530637
 20
7.3004685738
 30
0.0
 10
4.8106720226
 20
7.2860963206
 30
0.0
 10
4.7697453665
 20
7.2722336269
 30
0.0
 10
4.7297222155
 20
7.2568926357
 30
0.0
 10
4.6908189276
 20
7.2392599599
 30
0.0
 10
4.6532865053
 20
7.2194072844
 30
0.0
 10
4.6169899401
 20
7.1982638707
 30
0.0
 10
4.5908409177
 20
7.180776027
 30
0.0
 10
4.5739963664
 20
7.1684404375
 30
0.0
  0
ELLIPSE
  5
2A2
100
AcDbEntity
  8
ALL_ASSEMBLY_MEMBERS
100
AcDbEllipse
 62
7
  6
CONTINUOUS
 10
5.5654106789
 20
6.6818421574
 30
0.0
 11
0.0152127676
 21
0.0003686481
 31
0.0
 40
0.8544571183
 41
0.2847538154
 42
3.3787149604
  0
ELLIPSE
  5
2A3
100
AcDbEntity
  8
ALL_ASSEMBLY_MEMBERS
100
AcDbEllipse
 62
7
  6
CONTINUOUS
 10
5.3101216861
 20
6.6283523037
 30
0.0
 11
0.0152092816
 21
0.0004000655
 31
0.0
 40
0.8547594357
 41
0.2833041786
 42
3.4008823778
  0
ELLIPSE
  5
2A4
100
AcDbEntity
  8
ALL_ASSEMBLY_MEMBERS
100
AcDbEllipse
 62
7
  6
CONTINUOUS
 10
4.6911734155
 20
6.6875563536
 30
0.0
 11
0.0151952414
 21
-0.0005029352
 31
0.0
 40
0.855994505
 41
-0.2772418016
 42
2.8050393919
  0
ELLIPSE
  5
2A5
100
AcDbEntity
  8
ALL_ASSEMBLY_MEMBERS
100
AcDbEllipse
 62
7
  6
CONTINUOUS
 10
5.4455571789
 20
6.625799856
 30
0.0
 11
0.0152222902
 21
0.000260466
 31
0.0
 40
0.8536396135
 41
0.2886098958
 42
3.3058026875
  0
ELLIPSE
  5
2A6
100
AcDbEntity
  8
ALL_ASSEMBLY_MEMBERS
100
AcDbEllipse
 62
7
  6
CONTINUOUS
 10
4.5416074037
 20
6.5880478954
 30
0.0
 11
0.0152313991
 21
-0.0000005857
 31
0.0
 40
0.8528685358
 41
-2.1768640361
 42
-1.5489705585
  0
ELLIPSE
  5
2A7
100
AcDbEntity
  8
ALL_ASSEMBLY_MEMBERS
100
AcDbEllipse
 62
7
  6
CONTINUOUS
 10
5.5749444529
 20
6.5877823744
 30
0.0
 11
0.0152313992
 21
-0.0000002801
 31
0.0
 40
0.8528685328
 41
-1.5920950176
 42
-0.9652623812
  0
ELLIPSE
  5
2A8
100
AcDbEntity
  8
ALL_ASSEMBLY_MEMBERS
100
AcDbEllipse
 62
7
  6
CONTINUOUS
 10
5.5573627401
 20
6.7036009304
 30
0.0
 11
0.0152127676
 21
0.0003686481
 31
0.0
 40
0.8544571183
 41
-1.7802747258
 42
-0.7922953516
  0
ELLIPSE
  5
2A9
100
AcDbEntity
  8
ALL_ASSEMBLY_MEMBERS
100
AcDbEllipse
 62
7
  6
CONTINUOUS
 10
4.6929488298
 20
6.9042729008
 30
0.0
 11
0.0151003345
 21
-0.0007984955
 31
0.0
 40
0.8653182601
 41
-2.5339044312
 42
-1.0521700438
  0
ELLIPSE
  5
2AA
100
AcDbEntity
  8
ALL_ASSEMBLY_MEMBERS
100
AcDbEllipse
 62
7
  6
CONTINUOUS
 10
4.6108323313
 20
6.8115990863
 30
0.0
 11
0.0151632935
 21
-0.0006596963
 31
0.0
 40
0.8589212788
 41
-2.4636781834
 42
-1.2010536223
  0
ELLIPSE
  5
2AB
100
AcDbEntity
  8
ALL_ASSEMBLY_MEMBERS
100
AcDbEllipse
 62
7
  6
CONTINUOUS
 10
4.8443903369
 20
6.7067840443
 30
0.0
 11
0.0151523472
 21
-0.0006978798
 31
0.0
 40
0.8599665727
 41
-2.4787760726
 42
-1.1747480662
  0
ELLIPSE
  5
2AC
100
AcDbEntity
  8
ALL_ASSEMBLY_MEMBERS
100
AcDbEllipse
 62
7
  6
CONTINUOUS
 10
5.3021283892
 20
6.6499425565
 30
0.0
 11
0.0152092816
 21
0.0004000655
 31
0.0
 40
0.8547594357
 41
-1.7962653022
 42
-0.7794944328
  0
ELLIPSE
  5
2AD
100
AcDbEntity
  8
ALL_ASSEMBLY_MEMBERS
100
AcDbEllipse
 62
7
  6
CONTINUOUS
 10
4.6989410245
 20
6.7085721429
 30
0.0
 11
0.0151952414
 21
-0.0005029352
 31
0.0
 40
0.855994505
 41
-2.4017965097
 42
-1.294263701
  0
ELLIPSE
  5
2AE
100
AcDbEntity
  8
ALL_ASSEMBLY_MEMBERS
100
AcDbEllipse
 62
7
  6
CONTINUOUS
 10
4.7736615255
 20
6.8129384501
 30
0.0
 11
0.0151112832
 21
-0.0007881857
 31
0.0
 40
0.8641300135
 41
-2.52431146
 42
-1.0774042918
  0
ELLIPSE
  5
2AF
100
AcDbEntity
  8
ALL_ASSEMBLY_MEMBERS
100
AcDbEllipse
 62
7
  6
CONTINUOUS
 10
5.5057645756
 20
6.8115314518
 30
0.0
 11
0.0151633333
 21
0.0006595453
 31
0.0
 40
0.8589175209
 41
-1.9404321862
 42
-0.6779843752
  0
ELLIPSE
  5
2B0
100
AcDbEntity
  8
ALL_ASSEMBLY_MEMBERS
100
AcDbEllipse
 62
7
  6
CONTINUOUS
 10
5.4373626025
 20
6.6481223657
 30
0.0
 11
0.0152222902
 21
0.000260466
 31
0.0
 40
0.8536396135
 41
-1.7267292535
 42
-0.8376078295
  0
ELLIPSE
  5
2B1
100
AcDbEntity
  8
ALL_ASSEMBLY_MEMBERS
100
AcDbEllipse
 62
7
  6
CONTINUOUS
 10
5.4236667552
 20
6.9042176768
 30
0.0
 11
0.0151003761
 21
0.000798468
 31
0.0
 40
0.8653136622
 41
-2.0893253508
 42
-0.6077124495
  0
ELLIPSE
  5
2B2
100
AcDbEntity
  8
ALL_ASSEMBLY_MEMBERS
100
AcDbEllipse
 62
7
  6
CONTINUOUS
 10
5.3166648515
 20
6.975342355
 30
0.0
 11
0.015044803
 21
0.0007283869
 31
0.0
 40
0.8721112709
 41
4.0511493621
 42
5.7011402334
  0
ELLIPSE
  5
2B3
100
AcDbEntity
  8
ALL_ASSEMBLY_MEMBERS
100
AcDbEllipse
 62
7
  6
CONTINUOUS
 10
5.1920518341
 20
7.0200578143
 30
0.0
 11
0.0150106953
 21
0.000438477
 31
0.0
 40
0.8773838874
 41
3.9200901214
 42
5.6789762297
  0
ELLIPSE
  5
2B4
100
AcDbEntity
  8
ALL_ASSEMBLY_MEMBERS
100
AcDbEllipse
 62
7
  6
CONTINUOUS
 10
5.0583210001
 20
7.0353163663
 30
0.0
 11
0.015
 21
0.0000001555
 31
0.0
 40
0.8793852413
 41
3.8141448586
 42
5.6106858744
  0
ELLIPSE
  5
2B5
100
AcDbEntity
  8
ALL_ASSEMBLY_MEMBERS
100
AcDbEllipse
 62
7
  6
CONTINUOUS
 10
4.924587093
 20
7.020078028
 30
0.0
 11
0.0150106807
 21
-0.000438221
 31
0.0
 40
0.8773864671
 41
3.7458366531
 42
5.5047634148
  0
ELLIPSE
  5
2B6
100
AcDbEntity
  8
ALL_ASSEMBLY_MEMBERS
100
AcDbEllipse
 62
7
  6
CONTINUOUS
 10
4.7999650659
 20
6.9753814045
 30
0.0
 11
0.0150447723
 21
-0.0007282642
 31
0.0
 40
0.8721155153
 41
3.723628173
 42
5.3737208591
  0
ELLIPSE
  5
2B7
100
AcDbEntity
  8
ALL_ASSEMBLY_MEMBERS
100
AcDbEllipse
 62
7
  6
CONTINUOUS
 10
4.559212416
 20
6.7036763656
 30
0.0
 11
0.0152127435
 21
-0.0003688766
 31
0.0
 40
0.8544592042
 41
-2.3493847545
 42
-1.361208148
  0
ELLIPSE
  5
2B8
100
AcDbEntity
  8
ALL_ASSEMBLY_MEMBERS
100
AcDbEllipse
 62
7
  6
CONTINUOUS
 10
4.5511648535
 20
6.681918809
 30
0.0
 11
0.0152127435
 21
-0.0003688766
 31
0.0
 40
0.8544592042
 41
-0.2372816238
 42
2.8568488009
  0
ELLIPSE
  5
2B9
100
AcDbEntity
  8
ALL_ASSEMBLY_MEMBERS
100
AcDbEllipse
 62
7
  6
CONTINUOUS
 10
4.6728667545
 20
6.5901984991
 30
0.0
 11
0.0152313855
 21
-0.0000101856
 31
0.0
 40
0.8528696814
 41
-2.1828853935
 42
-1.543047888
  0
ELLIPSE
  5
2BA
100
AcDbEntity
  8
ALL_ASSEMBLY_MEMBERS
100
AcDbEllipse
 62
7
  6
CONTINUOUS
 10
5.0202919913
 20
6.6891088027
 30
0.0
 11
0.0150155494
 21
-0.0005118409
 31
0.0
 40
0.8765463804
 41
3.7373998654
 42
5.4796371434
  0
ELLIPSE
  5
2BB
100
AcDbEntity
  8
ALL_ASSEMBLY_MEMBERS
100
AcDbEllipse
 62
7
  6
CONTINUOUS
 10
5.1577191083
 20
6.6504383634
 30
0.0
 11
0.0151385402
 21
0.0007372425
 31
0.0
 40
0.8613207556
 41
-1.9998832721
 42
-0.6447953315
  0
ELLIPSE
  5
2BC
100
AcDbEntity
  8
ALL_ASSEMBLY_MEMBERS
100
AcDbEllipse
 62
7
  6
CONTINUOUS
 10
4.9353573621
 20
6.5878682783
 30
0.0
 11
0.0152313992
 21
-0.0
 31
0.0
 40
0.852868532
 41
-2.1765036213
 42
-1.5493266557
  0
ELLIPSE
  5
2BD
100
AcDbEntity
  8
ALL_ASSEMBLY_MEMBERS
100
AcDbEllipse
 62
7
  6
CONTINUOUS
 10
4.9525914446
 20
6.7880540267
 30
0.0
 11
0.0150296205
 21
-0.0006470019
 31
0.0
 40
0.8743022302
 41
3.7247537112
 42
5.4227986398
  0
ELLIPSE
  5
2BE
100
AcDbEntity
  8
ALL_ASSEMBLY_MEMBERS
100
AcDbEllipse
 62
7
  6
CONTINUOUS
 10
5.0943520638
 20
6.8057561448
 30
0.0
 11
0.0150031
 21
0.0002491134
 31
0.0
 40
0.8787795956
 41
3.8686486272
 42
5.6545398895
  0
ELLIPSE
  5
2BF
100
AcDbEntity
  8
ALL_ASSEMBLY_MEMBERS
100
AcDbEllipse
 62
7
  6
CONTINUOUS
 10
5.2246569028
 20
6.7542691899
 30
0.0
 11
0.0150835784
 21
0.0008016683
 31
0.0
 40
0.8672171798
 41
-2.1309334869
 42
-0.5960494246
  0
ELLIPSE
  5
2C0
100
AcDbEntity
  8
ALL_ASSEMBLY_MEMBERS
100
AcDbEllipse
 62
7
  6
CONTINUOUS
 10
5.3865472724
 20
6.7627654758
 30
0.0
 11
0.0151568545
 21
0.0006829426
 31
0.0
 40
0.8595332712
 41
-1.956415014
 42
-0.6680411731
  0
ELLIPSE
  5
2C1
100
AcDbEntity
  8
ALL_ASSEMBLY_MEMBERS
100
AcDbEllipse
 62
7
  6
CONTINUOUS
 10
5.2912996265
 20
6.8537358309
 30
0.0
 11
0.0150693586
 21
0.000790306
 31
0.0
 40
0.8689190014
 41
-2.1647589353
 42
-0.588037337
  0
ELLIPSE
  5
2C2
100
AcDbEntity
  8
ALL_ASSEMBLY_MEMBERS
100
AcDbEllipse
 62
7
  6
CONTINUOUS
 10
5.1645116623
 20
6.9087203753
 30
0.0
 11
0.0150122005
 21
0.0004635676
 31
0.0
 40
0.8771200922
 41
3.9274255209
 42
5.6826100435
  0
ELLIPSE
  5
2C3
100
AcDbEntity
  8
ALL_ASSEMBLY_MEMBERS
100
AcDbEllipse
 62
7
  6
CONTINUOUS
 10
5.0233444346
 20
6.9202768191
 30
0.0
 11
0.0150012518
 21
-0.0001604972
 31
0.0
 40
0.8791378583
 41
3.7858709829
 42
5.57824649
  0
ELLIPSE
  5
2C4
100
AcDbEntity
  8
ALL_ASSEMBLY_MEMBERS
100
AcDbEllipse
 62
7
  6
CONTINUOUS
 10
4.8869052662
 20
6.8868409699
 30
0.0
 11
0.0150343802
 21
-0.0006776285
 31
0.0
 40
0.8735932504
 41
3.7247356665
 42
5.4073601045
  0
ELLIPSE
  5
2C5
100
AcDbEntity
  8
ALL_ASSEMBLY_MEMBERS
100
AcDbEllipse
 62
7
  6
CONTINUOUS
 10
4.8041073621
 20
6.5878682783
 30
0.0
 11
0.0152313992
 21
0.0
 31
0.0
 40
0.852868532
 41
-2.1765012906
 42
-1.5493282896
  0
ELLIPSE
  5
2C6
100
AcDbEntity
  8
ALL_ASSEMBLY_MEMBERS
100
AcDbEllipse
 62
7
  6
CONTINUOUS
 10
4.5511648535
 20
6.681918809
 30
0.0
 11
0.0152127435
 21
-0.0003688766
 31
0.0
 40
0.8544592042
 41
2.9043110297
 42
5.9984414545
  0
ELLIPSE
  5
2C7
100
AcDbEntity
  8
ALL_ASSEMBLY_MEMBERS
100
AcDbEllipse
 62
7
  6
CONTINUOUS
 10
5.3101216861
 20
6.6283523037
 30
0.0
 11
0.0152092816
 21
0.0004000655
 31
0.0
 40
0.8547594357
 41
-2.858288475
 42
0.2592897242
  0
ELLIPSE
  5
2C8
100
AcDbEntity
  8
ALL_ASSEMBLY_MEMBERS
100
AcDbEllipse
 62
7
  6
CONTINUOUS
 10
5.3206568727
 20
6.1704337765
 30
0.0
 11
0.0150447354
 21
-0.0007281167
 31
0.0
 40
0.8721206076
 41
0.0
 42
6.2831853072
  0
ELLIPSE
  5
2C9
100
AcDbEntity
  8
ALL_ASSEMBLY_MEMBERS
100
AcDbEllipse
 62
7
  6
CONTINUOUS
 10
5.4294162524
 20
6.242669203
 30
0.0
 11
0.0151002844
 21
-0.0007985284
 31
0.0
 40
0.8653237778
 41
0.0
 42
6.2831853072
  0
ELLIPSE
  5
2CA
100
AcDbEntity
  8
ALL_ASSEMBLY_MEMBERS
100
AcDbEllipse
 62
7
  6
CONTINUOUS
 10
4.9224313169
 20
7.003422552
 30
0.0
 11
0.0150106807
 21
-0.000438221
 31
0.0
 40
0.8773864671
 41
0.0
 42
6.2831853072
  0
ELLIPSE
  5
2CB
100
AcDbEntity
  8
ALL_ASSEMBLY_MEMBERS
100
AcDbEllipse
 62
7
  6
CONTINUOUS
 10
5.5128796782
 20
6.3368222766
 30
0.0
 11
0.0151632457
 21
-0.0006598773
 31
0.0
 40
0.8589257895
 41
0.0
 42
6.2831853072
  0
ELLIPSE
  5
2CC
100
AcDbEntity
  8
ALL_ASSEMBLY_MEMBERS
100
AcDbEllipse
 62
7
  6
CONTINUOUS
 10
4.6911734155
 20
6.6875563536
 30
0.0
 11
0.0151952414
 21
-0.0005029352
 31
0.0
 40
0.855994505
 41
2.864350852
 42
5.9466320455
  0
ELLIPSE
  5
2CD
100
AcDbEntity
  8
ALL_ASSEMBLY_MEMBERS
100
AcDbEllipse
 62
7
  6
CONTINUOUS
 10
4.7957997187
 20
6.9580051808
 30
0.0
 11
0.0150447723
 21
-0.0007282642
 31
0.0
 40
0.8721155153
 41
0.0
 42
6.2831853072
  0
ELLIPSE
  5
2CE
100
AcDbEntity
  8
ALL_ASSEMBLY_MEMBERS
100
AcDbEllipse
 62
7
  6
CONTINUOUS
 10
4.9222366067
 20
6.1251092093
 30
0.0
 11
0.0150107129
 21
0.000438784
 31
0.0
 40
0.8773807899
 41
0.0
 42
6.2831853072
  0
ELLIPSE
  5
2CF
100
AcDbEntity
  8
ALL_ASSEMBLY_MEMBERS
100
AcDbEllipse
 62
7
  6
CONTINUOUS
 10
4.837379332
 20
6.6870570117
 30
0.0
 11
0.0151523472
 21
-0.0006978798
 31
0.0
 40
0.8599665727
 41
0.0
 42
6.2831853072
  0
ELLIPSE
  5
2D0
100
AcDbEntity
  8
ALL_ASSEMBLY_MEMBERS
100
AcDbEllipse
 62
7
  6
CONTINUOUS
 10
4.6870578108
 20
6.8857500291
 30
0.0
 11
0.0151003345
 21
-0.0007984955
 31
0.0
 40
0.8653182601
 41
0.0
 42
6.2831853072
  0
ELLIPSE
  5
2D1
100
AcDbEntity
  8
ALL_ASSEMBLY_MEMBERS
100
AcDbEllipse
 62
7
  6
CONTINUOUS
 10
5.5653585013
 20
6.4464757704
 30
0.0
 11
0.0152127146
 21
-0.0003691508
 31
0.0
 40
0.8544617089
 41
0.0
 42
6.2831853072
  0
ELLIPSE
  5
2D2
100
AcDbEntity
  8
ALL_ASSEMBLY_MEMBERS
100
AcDbEllipse
 62
7
  6
CONTINUOUS
 10
4.9491271889
 20
6.7709909618
 30
0.0
 11
0.0150296205
 21
-0.0006470019
 31
0.0
 40
0.8743022302
 41
0.0
 42
6.2831853072
  0
ELLIPSE
  5
2D3
100
AcDbEntity
  8
ALL_ASSEMBLY_MEMBERS
100
AcDbEllipse
 62
7
  6
CONTINUOUS
 10
4.6036171568
 20
6.791581819
 30
0.0
 11
0.0151632935
 21
-0.0006596963
 31
0.0
 40
0.8589212788
 41
0.0
 42
6.2831853072
  0
ELLIPSE
  5
2D4
100
AcDbEntity
  8
ALL_ASSEMBLY_MEMBERS
100
AcDbEllipse
 62
7
  6
CONTINUOUS
 10
5.0955346123
 20
6.7892733417
 30
0.0
 11
0.0150031
 21
0.0002491134
 31
0.0
 40
0.8787795956
 41
0.0
 42
6.2831853072
  0
ELLIPSE
  5
2D5
100
AcDbEntity
  8
ALL_ASSEMBLY_MEMBERS
100
AcDbEllipse
 62
7
  6
CONTINUOUS
 10
5.4455571789
 20
6.625799856
 30
0.0
 11
0.0152222902
 21
0.000260466
 31
0.0
 40
0.8536396135
 41
-2.8529827578
 42
0.164210034
  0
ELLIPSE
  5
2D6
100
AcDbEntity
  8
ALL_ASSEMBLY_MEMBERS
100
AcDbEllipse
 62
7
  6
CONTINUOUS
 10
5.2301107439
 20
6.736098684
 30
0.0
 11
0.0150835784
 21
0.0008016683
 31
0.0
 40
0.8672171798
 41
0.0
 42
6.2831853072
  0
ELLIPSE
  5
2D7
100
AcDbEntity
  8
ALL_ASSEMBLY_MEMBERS
100
AcDbEllipse
 62
7
  6
CONTINUOUS
 10
5.4450515172
 20
6.5003467179
 30
0.0
 11
0.0152215872
 21
-0.0002701286
 31
0.0
 40
0.8536995654
 41
0.0
 42
6.2831853072
  0
ELLIPSE
  5
2D8
100
AcDbEntity
  8
ALL_ASSEMBLY_MEMBERS
100
AcDbEllipse
 62
7
  6
CONTINUOUS
 10
4.5332759546
 20
6.5644257918
 30
0.0
 11
0.0152313991
 21
-0.0000005857
 31
0.0
 40
0.8528685358
 41
0.0
 42
6.2831853072
  0
ELLIPSE
  5
2D9
100
AcDbEntity
  8
ALL_ASSEMBLY_MEMBERS
100
AcDbEllipse
 62
7
  6
CONTINUOUS
 10
5.0177174318
 20
6.6723459106
 30
0.0
 11
0.0150155494
 21
-0.0005118409
 31
0.0
 40
0.8765463804
 41
0.0
 42
6.2831853072
  0
ELLIPSE
  5
2DA
100
AcDbEntity
  8
ALL_ASSEMBLY_MEMBERS
100
AcDbEllipse
 62
7
  6
CONTINUOUS
 10
5.3921948501
 20
6.3835421325
 30
0.0
 11
0.0151552222
 21
-0.0006884756
 31
0.0
 40
0.8596897124
 41
0.0
 42
6.2831853072
  0
ELLIPSE
  5
2DB
100
AcDbEntity
  8
ALL_ASSEMBLY_MEMBERS
100
AcDbEllipse
 62
7
  6
CONTINUOUS
 10
5.512980477
 20
6.7915130939
 30
0.0
 11
0.0151633333
 21
0.0006595453
 31
0.0
 40
0.8589175209
 41
0.0
 42
6.2831853072
  0
ELLIPSE
  5
2DC
100
AcDbEntity
  8
ALL_ASSEMBLY_MEMBERS
100
AcDbEllipse
 62
7
  6
CONTINUOUS
 10
5.3936433926
 20
6.7429211637
 30
0.0
 11
0.0151568545
 21
0.0006829426
 31
0.0
 40
0.8595332712
 41
0.0
 42
6.2831853072
  0
ELLIPSE
  5
2DD
100
AcDbEntity
  8
ALL_ASSEMBLY_MEMBERS
100
AcDbEllipse
 62
7
  6
CONTINUOUS
 10
5.5832759026
 20
6.5641559892
 30
0.0
 11
0.0152313992
 21
-0.0000002801
 31
0.0
 40
0.8528685328
 41
0.0
 42
6.2831853072
  0
ELLIPSE
  5
2DE
100
AcDbEntity
  8
ALL_ASSEMBLY_MEMBERS
100
AcDbEllipse
 62
7
  6
CONTINUOUS
 10
5.2941414542
 20
6.2911958804
 30
0.0
 11
0.0150678757
 21
-0.0007882488
 31
0.0
 40
0.8691019695
 41
0.0
 42
6.2831853072
  0
ELLIPSE
  5
2DF
100
AcDbEntity
  8
ALL_ASSEMBLY_MEMBERS
100
AcDbEllipse
 62
7
  6
CONTINUOUS
 10
5.1644593928
 20
6.6310543793
 30
0.0
 11
0.0151385402
 21
0.0007372425
 31
0.0
 40
0.8613207556
 41
0.0
 42
6.2831853072
  0
ELLIPSE
  5
2E0
100
AcDbEntity
  8
ALL_ASSEMBLY_MEMBERS
100
AcDbEllipse
 62
7
  6
CONTINUOUS
 10
4.5511127167
 20
6.4467363858
 30
0.0
 11
0.0152127966
 21
0.0003683739
 31
0.0
 40
0.8544546169
 41
0.0
 42
6.2831853072
  0
ELLIPSE
  5
2E1
100
AcDbEntity
  8
ALL_ASSEMBLY_MEMBERS
100
AcDbEllipse
 62
7
  6
CONTINUOUS
 10
5.2963368137
 20
6.8358579912
 30
0.0
 11
0.0150693586
 21
0.000790306
 31
0.0
 40
0.8689190014
 41
0.0
 42
6.2831853072
  0
ELLIPSE
  5
2E2
100
AcDbEntity
  8
ALL_ASSEMBLY_MEMBERS
100
AcDbEllipse
 62
7
  6
CONTINUOUS
 10
5.1641630916
 20
6.2358072483
 30
0.0
 11
0.0150115822
 21
-0.0004535553
 31
0.0
 40
0.877227994
 41
0.0
 42
6.2831853072
  0
ELLIPSE
  5
2E3
100
AcDbEntity
  8
ALL_ASSEMBLY_MEMBERS
100
AcDbEllipse
 62
7
  6
CONTINUOUS
 10
5.3101604119
 20
6.5002484611
 30
0.0
 11
0.0152093596
 21
-0.0003993949
 31
0.0
 40
0.8547526493
 41
0.0
 42
6.2831853072
  0
ELLIPSE
  5
2E4
100
AcDbEntity
  8
ALL_ASSEMBLY_MEMBERS
100
AcDbEllipse
 62
7
  6
CONTINUOUS
 10
5.0581201416
 20
6.1095799613
 30
0.0
 11
0.015
 21
0.0000005287
 31
0.0
 40
0.8793852389
 41
0.0
 42
6.2831853072
  0
ELLIPSE
  5
2E5
100
AcDbEntity
  8
ALL_ASSEMBLY_MEMBERS
100
AcDbEllipse
 62
7
  6
CONTINUOUS
 10
5.4295588024
 20
6.8856939146
 30
0.0
 11
0.0151003761
 21
0.000798468
 31
0.0
 40
0.8653136622
 41
0.0
 42
6.2831853072
  0
ELLIPSE
  5
2E6
100
AcDbEntity
  8
ALL_ASSEMBLY_MEMBERS
100
AcDbEllipse
 62
7
  6
CONTINUOUS
 10
5.0198526455
 20
6.2248732202
 30
0.0
 11
0.0150014527
 21
0.0001726363
 31
0.0
 40
0.879098518
 41
0.0
 42
6.2831853072
  0
ELLIPSE
  5
2E7
100
AcDbEntity
  8
ALL_ASSEMBLY_MEMBERS
100
AcDbEllipse
 62
7
  6
CONTINUOUS
 10
5.1668081211
 20
6.8920311161
 30
0.0
 11
0.0150122005
 21
0.0004635676
 31
0.0
 40
0.8771200922
 41
0.0
 42
6.2831853072
  0
ELLIPSE
  5
2E8
100
AcDbEntity
  8
ALL_ASSEMBLY_MEMBERS
100
AcDbEllipse
 62
7
  6
CONTINUOUS
 10
5.5654106789
 20
6.6818421574
 30
0.0
 11
0.0152127676
 21
0.0003686481
 31
0.0
 40
0.8544571183
 41
-2.8568388382
 42
0.2371223068
  0
ELLIPSE
  5
2E9
100
AcDbEntity
  8
ALL_ASSEMBLY_MEMBERS
100
AcDbEllipse
 62
7
  6
CONTINUOUS
 10
5.2302146241
 20
6.3924658146
 30
0.0
 11
0.0150836977
 21
-0.0008017049
 31
0.0
 40
0.8672032855
 41
0.0
 42
6.2831853072
  0
ELLIPSE
  5
2EA
100
AcDbEntity
  8
ALL_ASSEMBLY_MEMBERS
100
AcDbEllipse
 62
7
  6
CONTINUOUS
 10
4.8807428806
 20
6.2598737432
 30
0.0
 11
0.0150354686
 21
0.0006838917
 31
0.0
 40
0.8734341548
 41
0.0
 42
6.2831853072
  0
ELLIPSE
  5
2EB
100
AcDbEntity
  8
ALL_ASSEMBLY_MEMBERS
100
AcDbEllipse
 62
7
  6
CONTINUOUS
 10
4.6035163945
 20
6.337055942
 30
0.0
 11
0.015163381
 21
0.0006593641
 31
0.0
 40
0.8589130125
 41
0.0
 42
6.2831853072
  0
ELLIPSE
  5
2EC
100
AcDbEntity
  8
ALL_ASSEMBLY_MEMBERS
100
AcDbEllipse
 62
7
  6
CONTINUOUS
 10
5.1644593928
 20
6.4974321772
 30
0.0
 11
0.0151385402
 21
-0.0007372425
 31
0.0
 40
0.8613207556
 41
0.0
 42
6.2831853072
  0
ELLIPSE
  5
2ED
100
AcDbEntity
  8
ALL_ASSEMBLY_MEMBERS
100
AcDbEllipse
 62
7
  6
CONTINUOUS
 10
5.0225893338
 20
6.9038373712
 30
0.0
 11
0.0150012518
 21
-0.0001604972
 31
0.0
 40
0.8791378583
 41
0.0
 42
6.2831853072
  0
ELLIPSE
  5
2EE
100
AcDbEntity
  8
ALL_ASSEMBLY_MEMBERS
100
AcDbEllipse
 62
7
  6
CONTINUOUS
 10
5.3208314579
 20
6.9579655015
 30
0.0
 11
0.015044803
 21
0.0007283869
 31
0.0
 40
0.8721112709
 41
0.0
 42
6.2831853072
  0
ELLIPSE
  5
2EF
100
AcDbEntity
  8
ALL_ASSEMBLY_MEMBERS
100
AcDbEllipse
 62
7
  6
CONTINUOUS
 10
5.0956706603
 20
6.3392301406
 30
0.0
 11
0.0150031231
 21
-0.0002499953
 31
0.0
 40
0.878775178
 41
0.0
 42
6.2831853072
  0
ELLIPSE
  5
2F0
100
AcDbEntity
  8
ALL_ASSEMBLY_MEMBERS
100
AcDbEllipse
 62
7
  6
CONTINUOUS
 10
4.7656626372
 20
6.3360714125
 30
0.0
 11
0.0151129809
 21
0.0007860487
 31
0.0
 40
0.863949107
 41
0.0
 42
6.2831853072
  0
ELLIPSE
  5
2F1
100
AcDbEntity
  8
ALL_ASSEMBLY_MEMBERS
100
AcDbEllipse
 62
7
  6
CONTINUOUS
 10
4.6901883022
 20
6.4431526909
 30
0.0
 11
0.015196514
 21
0.000494796
 31
0.0
 40
0.8558813654
 41
0.0
 42
6.2831853072
  0
ELLIPSE
  5
2F2
100
AcDbEntity
  8
ALL_ASSEMBLY_MEMBERS
100
AcDbEllipse
 62
7
  6
CONTINUOUS
 10
4.8832008105
 20
6.8696787517
 30
0.0
 11
0.0150343802
 21
-0.0006776285
 31
0.0
 40
0.8735932504
 41
0.0
 42
6.2831853072
  0
ELLIPSE
  5
2F3
100
AcDbEntity
  8
ALL_ASSEMBLY_MEMBERS
100
AcDbEllipse
 62
7
  6
CONTINUOUS
 10
5.0177174318
 20
6.4561406459
 30
0.0
 11
0.0150155494
 21
0.0005118409
 31
0.0
 40
0.8765463804
 41
0.0
 42
6.2831853072
  0
ELLIPSE
  5
2F4
100
AcDbEntity
  8
ALL_ASSEMBLY_MEMBERS
100
AcDbEllipse
 62
7
  6
CONTINUOUS
 10
4.9492522035
 20
6.3574461296
 30
0.0
 11
0.0150295455
 21
0.0006464732
 31
0.0
 40
0.8743135824
 41
0.0
 42
6.2831853072
  0
ELLIPSE
  5
2F5
100
AcDbEntity
  8
ALL_ASSEMBLY_MEMBERS
100
AcDbEllipse
 62
7
  6
CONTINUOUS
 10
4.6869152907
 20
6.2428599922
 30
0.0
 11
0.0151004262
 21
0.0007984348
 31
0.0
 40
0.865308145
 41
0.0
 42
6.2831853072
  0
ELLIPSE
  5
2F6
100
AcDbEntity
  8
ALL_ASSEMBLY_MEMBERS
100
AcDbEllipse
 62
7
  6
CONTINUOUS
 10
5.1942090147
 20
7.0034020124
 30
0.0
 11
0.0150106953
 21
0.000438477
 31
0.0
 40
0.8773838874
 41
0.0
 42
6.2831853072
  0
ELLIPSE
  5
2F7
100
AcDbEntity
  8
ALL_ASSEMBLY_MEMBERS
100
AcDbEllipse
 62
7
  6
CONTINUOUS
 10
4.6645355077
 20
6.5666238706
 30
0.0
 11
0.0152313855
 21
-0.0000101856
 31
0.0
 40
0.8528696814
 41
0.0
 42
6.2831853072
  0
ELLIPSE
  5
2F8
100
AcDbEntity
  8
ALL_ASSEMBLY_MEMBERS
100
AcDbEllipse
 62
7
  6
CONTINUOUS
 10
4.7675091219
 20
6.7941787085
 30
0.0
 11
0.0151112832
 21
-0.0007881857
 31
0.0
 40
0.8641300135
 41
0.0
 42
6.2831853072
  0
ELLIPSE
  5
2F9
100
AcDbEntity
  8
ALL_ASSEMBLY_MEMBERS
100
AcDbEllipse
 62
7
  6
CONTINUOUS
 10
5.1940142935
 20
6.1250393747
 30
0.0
 11
0.0150106632
 21
-0.0004379138
 31
0.0
 40
0.8773895606
 41
0.0
 42
6.2831853072
  0
ELLIPSE
  5
2FA
100
AcDbEntity
  8
ALL_ASSEMBLY_MEMBERS
100
AcDbEllipse
 62
7
  6
CONTINUOUS
 10
4.8374536154
 20
6.4413293962
 30
0.0
 11
0.0151522235
 21
0.0006982748
 31
0.0
 40
0.8599785243
 41
0.0
 42
6.2831853072
  0
ELLIPSE
  5
2FB
100
AcDbEntity
  8
ALL_ASSEMBLY_MEMBERS
100
AcDbEllipse
 62
7
  6
CONTINUOUS
 10
4.9270259123
 20
6.5642432783
 30
0.0
 11
0.0152313992
 21
0.0
 31
0.0
 40
0.852868532
 41
0.0
 42
6.2831853072
  0
ELLIPSE
  5
2FC
100
AcDbEntity
  8
ALL_ASSEMBLY_MEMBERS
100
AcDbEllipse
 62
7
  6
CONTINUOUS
 10
5.0583217272
 20
7.0189066135
 30
0.0
 11
0.015
 21
0.0000001555
 31
0.0
 40
0.8793852413
 41
0.0
 42
6.2831853072
  0
ELLIPSE
  5
2FD
100
AcDbEntity
  8
ALL_ASSEMBLY_MEMBERS
100
AcDbEllipse
 62
7
  6
CONTINUOUS
 10
4.7956251546
 20
6.170568686
 30
0.0
 11
0.0150448399
 21
0.0007285341
 31
0.0
 40
0.8721061768
 41
0.0
 42
6.2831853072
  0
ELLIPSE
  5
2FE
100
AcDbEntity
  8
ALL_ASSEMBLY_MEMBERS
100
AcDbEllipse
 62
7
  6
CONTINUOUS
 10
4.7957759123
 20
6.5642432783
 30
0.0
 11
0.0152313992
 21
-0.0
 31
0.0
 40
0.852868532
 41
0.0
 42
6.2831853072
  0
ENDSEC
  0
SECTION
  2
OBJECTS
  0
DICTIONARY
  5
C
100
AcDbDictionary
280
0
281
1
  3
ACAD_GROUP
350
D
  3
ACAD_MLINESTYLE
350
17
  3
ACAD_LAYOUT
350
1A
  3
ACAD_PLOTSETTINGS
350
19
  3
ACAD_PLOTSTYLENAME
350
E
  0
DICTIONARY
  5
D
102
{ACAD_REACTORS
330
C
102
}
100
AcDbDictionary
280
0
281
1
  0
ACDBDICTIONARYWDFLT
  5
E
102
{ACAD_REACTORS
330
C
102
}
100
AcDbDictionary
281
1
  3
Normal
350
F
100
AcDbDictionaryWithDefault
340
F
  0
DICTIONARY
  5
17
102
{ACAD_REACTORS
330
C
102
}
100
AcDbDictionary
280
0
281
1
  3
Standard
350
18
  0
DICTIONARY
  5
19
102
{ACAD_REACTORS
330
C
102
}
100
AcDbDictionary
281
1
  0
DICTIONARY
  5
1A
102
{ACAD_REACTORS
330
C
102
}
100
AcDbDictionary
281
1
  3
Model
350
2FF
  3
Layout1
350
300
  0
ACDBPLACEHOLDER
  5
F
102
{ACAD_REACTORS
330
E
102
}
  0
MLINESTYLE
  5
18
102
{ACAD_REACTORS
330
17
102
}
100
AcDbMlineStyle
  2
STANDARD
 70
0
  3

 62
256
 51
90.0
 52
90.0
 71
2
 49
0.5
 62
256
  6
BYLAYER
 49
-0.5
 62
256
  6
BYLAYER
  0
LAYOUT
  5
2FF
102
{ACAD_REACTORS
330
1A
102
}
100
AcDbPlotSettings
  1

  2
none_device
  4
ANSI_A_(11.00_x_8.50_Inches)
  6

 40
0.0
 41
0.0
 42
0.0
 43
0.0
 44
279.4
 45
215.9
 46
0.0
 47
0.0
 48
0.0
 49
0.0
140
0.0
141
0.0
142
1.0
143
1.0
 70
1024
 72
0
 73
0
 74
0
  7

 75
0
147
1.0
148
0.0
149
0.0
100
AcDbLayout
  1
Model
 70
0
 71
0
 10
0.0
 20
0.0
 11
11.0
 21
8.5
 12
0.0
 22
0.0
 32
0.0
 14
0.0
 24
0.0
 34
0.0
 15
0.0
 25
0.0
 35
0.0
146
0.0
 13
0.0
 23
0.0
 33
0.0
 16
1.0
 26
0.0
 36
0.0
 17
0.0
 27
1.0
 37
0.0
 76
0
330
215
345
0
346
0
  0
LAYOUT
  5
300
102
{ACAD_REACTORS
330
1A
102
}
100
AcDbPlotSettings
  1

  2
none_device
  4
ANSI_A_(11.00_x_8.50_Inches)
  6

 40
0.0
 41
0.0
 42
0.0
 43
0.0
 44
279.4
 45
215.9
 46
0.0
 47
0.0
 48
0.0
 49
0.0
140
0.0
141
0.0
142
1.0
143
1.0
 70
0
 72
0
 73
0
 74
0
  7

 75
0
147
1.0
148
0.0
149
0.0
100
AcDbLayout
  1
Layout1
 70
0
 71
1
 10
0.0
 20
0.0
 11
11.0
 21
8.5
 12
0.0
 22
0.0
 32
0.0
 14
0.0
 24
0.0
 34
0.0
 15
0.0
 25
0.0
 35
0.0
146
0.0
 13
0.0
 23
0.0
 33
0.0
 16
1.0
 26
0.0
 36
0.0
 17
0.0
 27
1.0
 37
0.0
 76
0
330
216
345
0
346
0
  0
ENDSEC
  0
EOF
