999
DXF file: 285-5_front.dxf
999
Pro/ENGINEER 2023134 by Parametric Technology Corporation
  0
SECTION
  2
HEADER
  9
$ACADVER
  1
AC1032
  9
$DWGCODEPAGE
  3
ANSI_1252
  9
$EXTMAX
 10
11.0
 20
8.5
 30
0.0
  9
$EXTMIN
 10
0.0
 20
0.0
 30
0.0
  9
$LIMMIN
 10
0.0
 20
0.0
  9
$LIMMAX
 10
11.0
 20
8.5
  9
$VIEWCTR
 10
5.5
 20
4.25
  9
$VIEWSIZE
 40
8.5
  9
$CLAYER
  8
0
  9
$LTSCALE
 40
0.605
  9
$CELTYPE
  6
BYLAYER
  9
$DIMSCALE
 40
1.0
  9
$DIMASZ
 40
0.1
  9
$DIMEXO
 40
0.03125
  9
$DIMDLI
 40
0.418
  9
$DIMEXE
 40
0.0625
  9
$DIMCEN
 40
0.099
  9
$DIMLFAC
 40
1.0
  9
$DIMBLK
  1
_FILLED
  9
$DIMALT
 70
1
  9
$DIMALTD
 70
2
  9
$DIMALTTD
 70
2
  9
$DIMALTF
 40
25.4
  9
$DIMTXT
 40
0.08
  9
$DIMTOL
 70
1
  9
$DIMLIM
 70
0
  9
$DIMTFAC
 40
1.0
  9
$DIMTP
 40
0.001
  9
$DIMTM
 40
0.001
  9
$DIMGAP
 40
0.09
  9
$DIMDSEP
 70
46
  9
$AUNITS
 70
0
  9
$PDMODE
 70
3
  9
$PDSIZE
 40
0.06
  9
$HANDSEED
  5
272
  9
$TILEMODE
 70
1
  9
$MEASUREMENT
 70
0
  9
$INSUNITS
 70
1
  0
ENDSEC
  0
SECTION
  2
CLASSES
  0
CLASS
  1
ACDBDICTIONARYWDFLT
  2
AcDbDictionaryWithDefault
  3
AutoCAD 2000
 90
0
 91
1
280
0
281
0
  0
CLASS
  1
ACDBPLACEHOLDER
  2
AcDbPlaceHolder
  3
AutoCAD 2000
 90
0
 91
1
280
0
281
0
  0
CLASS
  1
LAYOUT
  2
AcDbLayout
  3
AutoCAD 2000
 90
0
 91
0
280
0
281
0
  0
ENDSEC
  0
SECTION
  2
TABLES
  0
TABLE
  2
VPORT
  5
8
100
AcDbSymbolTable
 70
2
  0
VPORT
  5
1F4
100
AcDbSymbolTableRecord
100
AcDbViewportTableRecord
  2
*ACTIVE
 70
0
 10
0.0
 20
0.0
 11
1.0
 21
1.0
 12
5.5
 22
4.25
 13
0.0
 23
0.0
 14
1.0
 24
1.0
 15
0.0
 25
0.0
 16
0.0
 26
0.0
 36
1.0
 17
0.0
 27
0.0
 37
0.0
 40
8.5
 41
1.2941176471
 42
50.0
 43
0.0
 44
0.0
 50
0.0
 51
0.0
 71
0
 72
100
 73
1
 74
1
 75
0
 76
0
 77
0
 78
0
  0
ENDTAB
  0
TABLE
  2
LTYPE
  5
5
100
AcDbSymbolTable
 70
6
  0
LTYPE
  5
14
100
AcDbSymbolTableRecord
100
AcDbLinetypeTableRecord
  2
BYBLOCK
 70
0
  3

 72
65
 73
0
 40
0.0
  0
LTYPE
  5
15
100
AcDbSymbolTableRecord
100
AcDbLinetypeTableRecord
  2
BYLAYER
 70
0
  3

 72
65
 73
0
 40
0.0
  0
LTYPE
  5
16
100
AcDbSymbolTableRecord
100
AcDbLinetypeTableRecord
  2
CONTINUOUS
 70
64
  3
Solid line
 72
65
 73
0
 40
0.0
  0
LTYPE
  5
1F5
100
AcDbSymbolTableRecord
100
AcDbLinetypeTableRecord
  2
CENTER
 70
64
  3
____ _ ____ _ ____ _ ____ _ ____ _ ____ _ ____
 72
65
 73
4
 40
0.6
 49
0.375
 74
0
 49
-0.075
 74
0
 49
0.075
 74
0
 49
-0.075
 74
0
  0
LTYPE
  5
1F6
100
AcDbSymbolTableRecord
100
AcDbLinetypeTableRecord
  2
HIDDEN
 70
64
  3
- - - - - - - - - - - - - - - - - - - -
 72
65
 73
2
 40
0.2
 49
0.1
 74
0
 49
-0.1
 74
0
  0
LTYPE
  5
1F7
100
AcDbSymbolTableRecord
100
AcDbLinetypeTableRecord
  2
PHANTOM
 70
64
  3
_____ _ _ _____ _ _ _____ _ _ _____
 72
65
 73
6
 40
0.8
 49
0.45
 74
0
 49
-0.05
 74
0
 49
0.1
 74
0
 49
-0.05
 74
0
 49
0.1
 74
0
 49
-0.05
 74
0
  0
LTYPE
  5
1F8
100
AcDbSymbolTableRecord
100
AcDbLinetypeTableRecord
  2
DOT
 70
64
  3
. . . . . . . . . . . . . . . . . . . .
 72
65
 73
2
 40
0.2
 49
0.1
 74
0
 49
-0.1
 74
0
  0
LTYPE
  5
1F9
100
AcDbSymbolTableRecord
100
AcDbLinetypeTableRecord
  2
DASHED
 70
64
  3
- - - - - - - - - - - - - - - - - - - -
 72
65
 73
2
 40
0.2
 49
0.1
 74
0
 49
-0.1
 74
0
  0
ENDTAB
  0
TABLE
  2
LAYER
  5
2
100
AcDbSymbolTable
 70
36
  0
LAYER
  5
10
100
AcDbSymbolTableRecord
100
AcDbLayerTableRecord
  2
0
 70
0
 62
7
  6
CONTINUOUS
370
-3
390
F
  0
LAYER
  5
1FA
100
AcDbSymbolTableRecord
100
AcDbLayerTableRecord
  2
DEFAULT_1
 70
0
 62
7
  6
CENTER
370
-3
390
F
  0
LAYER
  5
1FB
100
AcDbSymbolTableRecord
100
AcDbLayerTableRecord
  2
DEFAULT_2
 70
0
 62
8
  6
HIDDEN
370
-3
390
F
  0
LAYER
  5
1FC
100
AcDbSymbolTableRecord
100
AcDbLayerTableRecord
  2
DEFAULT_3
 70
0
 62
7
  6
PHANTOM
370
-3
390
F
  0
LAYER
  5
1FD
100
AcDbSymbolTableRecord
100
AcDbLayerTableRecord
  2
DEFAULT_COORDINATE_SYSTEM
 70
0
 62
7
  6
CONTINUOUS
370
-3
390
F
  0
LAYER
  5
1FE
100
AcDbSymbolTableRecord
100
AcDbLayerTableRecord
  2
DEFAULT_DATUM_AXES
 70
0
 62
7
  6
CONTINUOUS
370
-3
390
F
  0
LAYER
  5
1FF
100
AcDbSymbolTableRecord
100
AcDbLayerTableRecord
  2
DEFAULT_DATUM_CURVES
 70
0
 62
7
  6
CONTINUOUS
370
-3
390
F
  0
LAYER
  5
200
100
AcDbSymbolTableRecord
100
AcDbLayerTableRecord
  2
DEFAULT_DATUM_PLANES
 70
0
 62
7
  6
CONTINUOUS
370
-3
390
F
  0
ENDTAB
  0
TABLE
  2
STYLE
  5
3
100
AcDbSymbolTable
 70
1
  0
STYLE
  5
11
100
AcDbSymbolTableRecord
100
AcDbTextStyleTableRecord
  2
STANDARD
 70
0
 40
0.0
 41
0.8
 50
0.0
 71
0
 42
0.2
  3
txt
  4

  0
STYLE
  5
201
100
AcDbSymbolTableRecord
100
AcDbTextStyleTableRecord
  2
TEXTSTYLE_1
 70
0
 40
0.0
 41
0.8
 50
0.0
 71
0
 42
0.2
  3
gdt
  4

  0
ENDTAB
  0
TABLE
  2
VIEW
  5
6
100
AcDbSymbolTable
 70
0
  0
ENDTAB
  0
TABLE
  2
UCS
  5
7
100
AcDbSymbolTable
 70
0
  0
ENDTAB
  0
TABLE
  2
APPID
  5
9
100
AcDbSymbolTable
 70
1
  0
APPID
  5
202
100
AcDbSymbolTableRecord
100
AcDbRegAppTableRecord
  2
ACAD
 70
0
  0
ENDTAB
  0
TABLE
  2
BLOCK_RECORD
  5
1
100
AcDbSymbolTable
 70
0
  0
BLOCK_RECORD
  5
203
100
AcDbSymbolTableRecord
100
AcDbBlockTableRecord
  2
*Model_Space
  0
BLOCK_RECORD
  5
204
100
AcDbSymbolTableRecord
100
AcDbBlockTableRecord
  2
*Paper_Space
  0
BLOCK_RECORD
  5
205
100
AcDbSymbolTableRecord
100
AcDbBlockTableRecord
  2
_FILLED
  0
ENDTAB
  0
TABLE
  2
DIMSTYLE
  5
A
100
AcDbSymbolTable
 70
1
100
AcDbDimStyleTable
 71
0
  0
DIMSTYLE
105
206
100
AcDbSymbolTableRecord
100
AcDbDimStyleTableRecord
  2
STANDARD
 70
0
  3

  4

 40
1.0
 41
0.1
 42
0.03125
 43
0.38
 44
0.0625
 45
0.0
 46
0.0
 47
0.001
 48
0.001
140
0.08
141
0.09
142
0.0
143
25.4
144
1.0
145
0.0
146
1.0
147
0.09
 71
1
 72
0
 73
1
 74
1
 75
0
 76
0
 77
0
 78
4
 79
1
170
1
171
2
172
0
173
0
174
0
175
0
176
0
177
0
178
0
270
2
179
3
271
3
272
3
273
2
274
2
275
0
280
0
281
0
282
0
283
1
284
4
285
0
286
0
287
3
288
0
340
11
278
46
341
205
342
205
343
205
344
205
  0
ENDTAB
  0
ENDSEC
  0
SECTION
  2
BLOCKS
  0
BLOCK
  5
20
100
AcDbEntity
  8
0
100
AcDbBlockBegin
  2
*Model_Space
 70
0
 10
0.0
 20
0.0
 30
0.0
  3
*Model_Space
  1

  0
ENDBLK
  5
21
100
AcDbEntity
  8
0
100
AcDbBlockEnd
  0
BLOCK
  5
1C
100
AcDbEntity
  8
0
100
AcDbBlockBegin
  2
*Paper_Space
 70
0
 10
0.0
 20
0.0
 30
0.0
  3
*Paper_Space
  1

  0
ENDBLK
  5
1D
100
AcDbEntity
  8
0
100
AcDbBlockEnd
  0
BLOCK
  5
207
100
AcDbEntity
  8
0
100
AcDbBlockBegin
  2
_FILLED
 70
64
 10
0.0
 20
0.0
  3
_FILLED
  1

  0
SOLID
  5
208
100
AcDbEntity
  8
0
  6
BYBLOCK
 62
0
100
AcDbTrace
 10
0.0
 20
0.0
 11
-1.0
 21
0.2
 12
-1.0
 22
-0.2
 13
-1.0
 23
-0.2
  0
ENDBLK
  5
209
100
AcDbEntity
  8
0
  6
BYBLOCK
 62
0
100
AcDbBlockEnd
  0
ENDSEC
  0
SECTION
  2
ENTITIES
  0
MTEXT
  5
20A
100
AcDbEntity
  8
0
100
AcDbMText
 62
2
  6
CONTINUOUS
  7
STANDARD
 71
3
 72
1
 10
5.8005136986
 20
2.4447715864
 30
0.0
 11
1.0
 21
0.0
 31
0.0
 73
2
 44
0.9
  1
SCALE 1.000
 40
0.08
 41
0.704
  0
LINE
  5
20B
100
AcDbEntity
  8
0
100
AcDbLine
 62
7
  6
CONTINUOUS
 10
0.0
 20
0.0
 11
0.0
 21
8.5
  0
LINE
  5
20C
100
AcDbEntity
  8
0
100
AcDbLine
 62
7
  6
CONTINUOUS
 10
0.0
 20
0.0
 11
11.0
 21
0.0
  0
LINE
  5
20D
100
AcDbEntity
  8
0
100
AcDbLine
 62
7
  6
CONTINUOUS
 10
0.0
 20
8.5
 11
11.0
 21
8.5
  0
LINE
  5
20E
100
AcDbEntity
  8
0
100
AcDbLine
 62
7
  6
CONTINUOUS
 10
11.0
 20
0.0
 11
11.0
 21
8.5
  0
LINE
  5
20F
100
AcDbEntity
  8
0
100
AcDbLine
 62
7
  6
CONTINUOUS
 10
5.0385342466
 20
3.4644291207
 11
5.7765342466
 21
3.4644291207
  0
LINE
  5
210
100
AcDbEntity
  8
0
100
AcDbLine
 62
7
  6
CONTINUOUS
 10
5.7438379016
 20
3.4657691207
 11
5.2523746177
 21
3.4657691207
  0
LINE
  5
211
100
AcDbEntity
  8
0
100
AcDbLine
 62
7
  6
CONTINUOUS
 10
5.7527910949
 20
3.5044291207
 11
5.4966028968
 21
3.5044291207
  0
LINE
  5
212
100
AcDbEntity
  8
0
100
AcDbLine
 62
7
  6
CONTINUOUS
 10
5.0371942466
 20
3.5239543873
 11
4.9990074141
 21
3.5460297263
  0
LINE
  5
213
100
AcDbEntity
  8
0
100
AcDbLine
 62
7
  6
CONTINUOUS
 10
5.0371942466
 20
3.5953843873
 11
4.9990074141
 21
3.6174597263
  0
LINE
  5
214
100
AcDbEntity
  8
0
100
AcDbLine
 62
7
  6
CONTINUOUS
 10
5.0114376728
 20
3.4915256945
 11
5.0385342466
 21
3.4644291207
  0
LINE
  5
215
100
AcDbEntity
  8
0
100
AcDbLine
 62
7
  6
CONTINUOUS
 10
5.0371942466
 20
3.6668143873
 11
4.9990074141
 21
3.6888897263
  0
LINE
  5
216
100
AcDbEntity
  8
0
100
AcDbLine
 62
7
  6
CONTINUOUS
 10
4.9985342466
 20
3.6974291207
 11
5.0955170132
 21
3.6974291207
  0
LINE
  5
217
100
AcDbEntity
  8
0
100
AcDbLine
 62
7
  6
CONTINUOUS
 10
5.0371942466
 20
3.7360891207
 11
5.3281914213
 21
3.7360891207
  0
LINE
  5
218
100
AcDbEntity
  8
0
100
AcDbLine
 62
7
  6
CONTINUOUS
 10
5.0425342466
 20
3.7414291207
 11
5.7725342466
 21
3.7414291207
  0
LINE
  5
219
100
AcDbEntity
  8
0
100
AcDbLine
 62
7
  6
CONTINUOUS
 10
4.9075342466
 20
3.8214291207
 11
5.9075342466
 21
3.8214291207
  0
LINE
  5
21A
100
AcDbEntity
  8
0
100
AcDbLine
 62
7
  6
CONTINUOUS
 10
5.7778742466
 20
3.4709831316
 11
5.7808501913
 21
3.469262567
  0
LINE
  5
21B
100
AcDbEntity
  8
0
100
AcDbLine
 62
7
  6
CONTINUOUS
 10
5.7778742466
 20
3.5424131316
 11
5.8160610791
 21
3.5203377922
  0
LINE
  5
21C
100
AcDbEntity
  8
0
100
AcDbLine
 62
7
  6
CONTINUOUS
 10
5.7778742466
 20
3.6138431316
 11
5.8160610791
 21
3.5917677922
  0
LINE
  5
21D
100
AcDbEntity
  8
0
100
AcDbLine
 62
7
  6
CONTINUOUS
 10
5.7778742466
 20
3.6852731316
 11
5.8160610791
 21
3.6631977922
  0
LINE
  5
21E
100
AcDbEntity
  8
0
100
AcDbLine
 62
7
  6
CONTINUOUS
 10
4.9075342466
 20
3.8214291207
 11
4.9075342466
 21
4.8214291207
  0
LINE
  5
21F
100
AcDbEntity
  8
0
100
AcDbLine
 62
7
  6
CONTINUOUS
 10
4.9985342466
 20
3.6974291207
 11
4.9985342466
 21
3.6894366207
  0
LINE
  5
220
100
AcDbEntity
  8
0
100
AcDbLine
 62
7
  6
CONTINUOUS
 10
4.9985342466
 20
3.6269358979
 11
4.9985342466
 21
3.6180066207
  0
LINE
  5
221
100
AcDbEntity
  8
0
100
AcDbLine
 62
7
  6
CONTINUOUS
 10
4.9985342466
 20
3.5555058979
 11
4.9985342466
 21
3.5465766207
  0
LINE
  5
222
100
AcDbEntity
  8
0
100
AcDbLine
 62
7
  6
CONTINUOUS
 10
5.0371942466
 20
3.5066981316
 11
5.0371942466
 21
3.5242562593
  0
LINE
  5
223
100
AcDbEntity
  8
0
100
AcDbLine
 62
7
  6
CONTINUOUS
 10
5.0371942466
 20
3.5781281316
 11
5.0371942466
 21
3.5956862593
  0
LINE
  5
224
100
AcDbEntity
  8
0
100
AcDbLine
 62
7
  6
CONTINUOUS
 10
5.0371942466
 20
3.6495581316
 11
5.0371942466
 21
3.6671162593
  0
LINE
  5
225
100
AcDbEntity
  8
0
100
AcDbLine
 62
7
  6
CONTINUOUS
 10
5.0371942466
 20
3.7209881316
 11
5.0371942466
 21
3.7360891207
  0
LINE
  5
226
100
AcDbEntity
  8
0
100
AcDbLine
 62
7
  6
CONTINUOUS
 10
5.0425342466
 20
3.8214291207
 11
5.0425342466
 21
3.7414291207
  0
LINE
  5
227
100
AcDbEntity
  8
0
100
AcDbLine
 62
7
  6
CONTINUOUS
 10
5.7725342466
 20
3.7414291207
 11
5.7989588858
 21
3.7150044814
  0
LINE
  5
228
100
AcDbEntity
  8
0
100
AcDbLine
 62
7
  6
CONTINUOUS
 10
5.7725342466
 20
3.8214291207
 11
5.7725342466
 21
3.7414291207
  0
LINE
  5
229
100
AcDbEntity
  8
0
100
AcDbLine
 62
7
  6
CONTINUOUS
 10
5.7778742466
 20
3.7025293873
 11
5.7778742466
 21
3.6849712593
  0
LINE
  5
22A
100
AcDbEntity
  8
0
100
AcDbLine
 62
7
  6
CONTINUOUS
 10
5.7778742466
 20
3.6310993873
 11
5.7778742466
 21
3.6135412593
  0
LINE
  5
22B
100
AcDbEntity
  8
0
100
AcDbLine
 62
7
  6
CONTINUOUS
 10
5.7778742466
 20
3.5596693873
 11
5.7778742466
 21
3.5421112593
  0
LINE
  5
22C
100
AcDbEntity
  8
0
100
AcDbLine
 62
7
  6
CONTINUOUS
 10
5.7778742466
 20
3.4882393873
 11
5.7778742466
 21
3.4706812593
  0
LINE
  5
22D
100
AcDbEntity
  8
0
100
AcDbLine
 62
7
  6
CONTINUOUS
 10
5.0425342466
 20
3.7414291207
 11
5.0371942466
 21
3.7360891207
  0
LINE
  5
22E
100
AcDbEntity
  8
0
100
AcDbLine
 62
7
  6
CONTINUOUS
 10
5.0007506852
 20
3.6996455593
 11
4.9985342466
 21
3.6974291207
  0
LINE
  5
22F
100
AcDbEntity
  8
0
100
AcDbLine
 62
7
  6
CONTINUOUS
 10
5.8165342466
 20
3.6626508979
 11
5.8165342466
 21
3.6537216207
  0
LINE
  5
230
100
AcDbEntity
  8
0
100
AcDbLine
 62
7
  6
CONTINUOUS
 10
5.8165342466
 20
3.5912208979
 11
5.8165342466
 21
3.5822916207
  0
LINE
  5
231
100
AcDbEntity
  8
0
100
AcDbLine
 62
7
  6
CONTINUOUS
 10
5.8165342466
 20
3.5197908979
 11
5.8165342466
 21
3.5108616207
  0
LINE
  5
232
100
AcDbEntity
  8
0
100
AcDbLine
 62
7
  6
CONTINUOUS
 10
5.9075342466
 20
3.8214291207
 11
5.9075342466
 21
4.8214291203
  0
LINE
  5
233
100
AcDbEntity
  8
0
100
AcDbLine
 62
7
  6
CONTINUOUS
 10
5.0025331342
 20
3.7009507458
 11
5.0377166094
 21
3.721290142
  0
LINE
  5
234
100
AcDbEntity
  8
0
100
AcDbLine
 62
7
  6
CONTINUOUS
 10
4.9990074141
 20
3.6274827922
 11
5.0377166094
 21
3.649860142
  0
LINE
  5
235
100
AcDbEntity
  8
0
100
AcDbLine
 62
7
  6
CONTINUOUS
 10
4.9990074141
 20
3.5560527922
 11
5.0377166094
 21
3.578430142
  0
LINE
  5
236
100
AcDbEntity
  8
0
100
AcDbLine
 62
7
  6
CONTINUOUS
 10
5.0115680883
 20
3.4918833659
 11
5.0377166094
 21
3.507000142
  0
LINE
  5
237
100
AcDbEntity
  8
0
100
AcDbLine
 62
7
  6
CONTINUOUS
 10
5.7988269312
 20
3.7146425558
 11
5.7773518838
 21
3.7022273765
  0
LINE
  5
238
100
AcDbEntity
  8
0
100
AcDbLine
 62
7
  6
CONTINUOUS
 10
5.7803303159
 20
3.46822519
 11
5.7765342466
 21
3.4644291207
  0
LINE
  5
239
100
AcDbEntity
  8
0
100
AcDbLine
 62
7
  6
CONTINUOUS
 10
5.8160610791
 20
3.6531747263
 11
5.7773518838
 21
3.6307973765
  0
LINE
  5
23A
100
AcDbEntity
  8
0
100
AcDbLine
 62
7
  6
CONTINUOUS
 10
5.8160610791
 20
3.5817447263
 11
5.7773518838
 21
3.5593673765
  0
LINE
  5
23B
100
AcDbEntity
  8
0
100
AcDbLine
 62
7
  6
CONTINUOUS
 10
5.8160610791
 20
3.5103147263
 11
5.7773518838
 21
3.4879373765
  0
ARC
  5
23C
100
AcDbEntity
  8
0
100
AcDbCircle
 62
7
  6
CONTINUOUS
 10
5.4075342466
 20
4.8214291207
 40
0.875
100
AcDbArc
 50
304.8547759592
 51
235.1452240408
  0
ARC
  5
23D
100
AcDbEntity
  8
0
100
AcDbCircle
 62
7
  6
CONTINUOUS
 10
5.4075342466
 20
4.8214291207
 40
0.855
100
AcDbArc
 50
305.7949571292
 51
234.2050428919
  0
ARC
  5
23E
100
AcDbEntity
  8
0
100
AcDbCircle
 62
7
  6
CONTINUOUS
 10
5.4075342466
 20
4.8214291207
 40
0.5
100
AcDbArc
 50
0.0
 51
180.0
  0
LINE
  5
23F
100
AcDbEntity
  8
0
100
AcDbLine
 62
7
  6
CONTINUOUS
 10
4.9985347697
 20
3.5465766203
 11
4.9990077501
 21
3.546029727
  0
LINE
  5
240
100
AcDbEntity
  8
0
100
AcDbLine
 62
7
  6
CONTINUOUS
 10
4.9985345814
 20
3.5555058971
 11
4.9990074463
 21
3.5560527925
  0
LINE
  5
241
100
AcDbEntity
  8
0
100
AcDbLine
 62
7
  6
CONTINUOUS
 10
5.8165339887
 20
3.5108616204
 11
5.8160606384
 21
3.5103147273
  0
LINE
  5
242
100
AcDbEntity
  8
0
100
AcDbLine
 62
7
  6
CONTINUOUS
 10
5.8165339226
 20
3.5197908986
 11
5.8160605055
 21
3.5203377919
  0
SPLINE
  5
243
100
AcDbEntity
  8
0
100
AcDbSpline
 62
7
  6
CONTINUOUS
 70
0
 71
3
 72
14
 73
10
 74
0
 42
0.0000001
 43
0.0000001
 44
0.0000000001
 40
0.0
 40
0.0
 40
0.0
 40
0.0
 40
0.3311597482
 40
0.459871237
 40
0.5696876902
 40
0.6683490018
 40
0.7662779953
 40
0.8741111571
 40
1.0
 40
1.0
 40
1.0
 40
1.0
 10
5.7988267159
 20
3.714642556
 30
0.0
 10
5.7988713423
 20
3.7146683754
 30
0.0
 10
5.7989318467
 20
3.7147084969
 30
0.0
 10
5.798991753
 20
3.7147745546
 30
0.0
 10
5.7990177017
 20
3.7148209018
 30
0.0
 10
5.7990274741
 20
3.7148685345
 30
0.0
 10
5.7990199834
 20
3.714916298
 30
0.0
 10
5.7989961173
 20
3.7149628128
 30
0.0
 10
5.7989722358
 20
3.71499062
 30
0.0
 10
5.7989583791
 20
3.7150044808
 30
0.0
  0
LINE
  5
244
100
AcDbEntity
  8
0
100
AcDbLine
 62
7
  6
CONTINUOUS
 10
5.8160609456
 20
3.5817447269
 11
5.81653372
 21
3.5822916208
  0
LINE
  5
245
100
AcDbEntity
  8
0
100
AcDbLine
 62
7
  6
CONTINUOUS
 10
4.9990075984
 20
3.6174597269
 11
4.9985347835
 21
3.6180066207
  0
LINE
  5
246
100
AcDbEntity
  8
0
100
AcDbLine
 62
7
  6
CONTINUOUS
 10
5.8160608947
 20
3.5917677916
 11
5.8165337096
 21
3.5912208979
  0
LINE
  5
247
100
AcDbEntity
  8
0
100
AcDbLine
 62
7
  6
CONTINUOUS
 10
5.8165340385
 20
3.6626508986
 11
5.8160604721
 21
3.6631977923
  0
LINE
  5
248
100
AcDbEntity
  8
0
100
AcDbLine
 62
7
  6
CONTINUOUS
 10
5.8165340831
 20
3.6537216214
 11
5.8160609043
 21
3.6531747256
  0
LINE
  5
249
100
AcDbEntity
  8
0
100
AcDbLine
 62
7
  6
CONTINUOUS
 10
4.9985348825
 20
3.6894366212
 11
4.9990075757
 21
3.6888897271
  0
LINE
  5
24A
100
AcDbEntity
  8
0
100
AcDbLine
 62
7
  6
CONTINUOUS
 10
5.0025333178
 20
3.7009507445
 11
5.0007516549
 21
3.6996455529
  0
LINE
  5
24B
100
AcDbEntity
  8
0
100
AcDbLine
 62
7
  6
CONTINUOUS
 10
4.9990075983
 20
3.6274827916
 11
4.9985347834
 21
3.6269358979
  0
SPLINE
  5
24C
100
AcDbEntity
  8
0
100
AcDbSpline
 62
7
  6
CONTINUOUS
 70
0
 71
3
 72
14
 73
10
 74
0
 42
0.0000001
 43
0.0000001
 44
0.0000000001
 40
0.0
 40
0.0
 40
0.0
 40
0.0
 40
0.1257720359
 40
0.2335119374
 40
0.331393469
 40
0.4300631612
 40
0.5399313012
 40
0.6687143538
 40
1.0
 40
1.0
 40
1.0
 40
1.0
 10
5.0114379718
 20
3.4915256953
 30
0.0
 10
5.0114242961
 20
3.4915393924
 30
0.0
 10
5.0114007317
 20
3.4915668739
 30
0.0
 10
5.0113772162
 20
3.4916128495
 30
0.0
 10
5.0113698978
 20
3.4916600567
 30
0.0
 10
5.011379641
 20
3.4917071243
 30
0.0
 10
5.0114053604
 20
3.4917529195
 30
0.0
 10
5.0114646578
 20
3.491818192
 30
0.0
 10
5.0115245012
 20
3.4918578457
 30
0.0
 10
5.0115686368
 20
3.4918833663
 30
0.0
  0
SPLINE
  5
24D
100
AcDbEntity
  8
0
100
AcDbSpline
 62
7
  6
CONTINUOUS
 70
0
 71
3
 72
14
 73
10
 74
0
 42
0.0000001
 43
0.0000001
 44
0.0000000001
 40
0.0
 40
0.0
 40
0.0
 40
0.0
 40
0.3312532821
 40
0.4599528256
 40
0.5697122996
 40
0.6683041593
 40
0.76619457
 40
0.8740438522
 40
1.0
 40
1.0
 40
1.0
 40
1.0
 10
5.7808501266
 20
3.4692625679
 30
0.0
 10
5.7808969495
 20
3.4692355138
 30
0.0
 10
5.7809604342
 20
3.469193483
 30
0.0
 10
5.7810233016
 20
3.4691242565
 30
0.0
 10
5.7810505138
 20
3.4690756821
 30
0.0
 10
5.781060727
 20
3.4690257517
 30
0.0
 10
5.7810528056
 20
3.4689756914
 30
0.0
 10
5.7810277012
 20
3.4689269499
 30
0.0
 10
5.7810026127
 20
3.4688978156
 30
0.0
 10
5.780988058
 20
3.468883291
 30
0.0
  0
LINE
  5
24E
100
AcDbEntity
  8
0
100
AcDbLine
 62
7
  6
CONTINUOUS
 10
5.4075342466
 20
3.5644341207
 11
5.5313018338
 21
3.5679291207
  0
SPLINE
  5
24F
100
AcDbEntity
  8
0
100
AcDbSpline
 62
7
  6
CONTINUOUS
 70
0
 71
3
 72
36
 73
32
 74
0
 42
0.0000001
 43
0.0000001
 44
0.0000000001
 40
0.0
 40
0.0
 40
0.0
 40
0.0
 40
0.0950188731
 40
0.1892185231
 40
0.2816795147
 40
0.3715950296
 40
0.4581554288
 40
0.5405710548
 40
0.6180984724
 40
0.6900397396
 40
0.7557423473
 40
0.7860678601
 40
0.814615152
 40
0.8413224494
 40
0.8661294095
 40
0.8889780836
 40
0.9098199833
 40
0.9286092343
 40
0.9453018593
 40
0.9598641271
 40
0.9722670745
 40
0.9776503559
 40
0.9824847982
 40
0.986769551
 40
0.9905043808
 40
0.9936899883
 40
0.9963287902
 40
0.9974449525
 40
0.9984271827
 40
0.9992776609
 40
1.0
 40
1.0
 40
1.0
 40
1.0
 10
5.4075342466
 20
3.6447933979
 30
0.0
 10
5.3945815699
 20
3.6444333693
 30
0.0
 10
5.3687878903
 20
3.6437164202
 30
0.0
 10
5.3303904852
 20
3.6426394821
 30
0.0
 10
5.2926892957
 20
3.6415626799
 30
0.0
 10
5.256030291
 20
3.6404862305
 30
0.0
 10
5.2207417636
 20
3.6394102138
 30
0.0
 10
5.1871433952
 20
3.6383347744
 30
0.0
 10
5.1555396765
 20
3.6372601587
 30
0.0
 10
5.1262164724
 20
3.6361866815
 30
0.0
 10
5.1033288178
 20
3.6352706838
 30
0.0
 10
5.086356598
 20
3.6345315325
 30
0.0
 10
5.0746985307
 20
3.6339922191
 30
0.0
 10
5.0637938676
 20
3.6334531889
 30
0.0
 10
5.0536673191
 20
3.6329144926
 30
0.0
 10
5.0443418323
 20
3.6323761146
 30
0.0
 10
5.0358384265
 20
3.6318382788
 30
0.0
 10
5.0281763093
 20
3.6313011955
 30
0.0
 10
5.0213727856
 20
3.6307650653
 30
0.0
 10
5.0154431239
 20
3.630230205
 30
0.0
 10
5.0110558212
 20
3.6297673565
 30
0.0
 10
5.007994068
 20
3.6293906024
 30
0.0
 10
5.006034637
 20
3.6291218466
 30
0.0
 10
5.0043022891
 20
3.6288535536
 30
0.0
 10
5.0027976691
 20
3.6285859392
 30
0.0
 10
5.0015214701
 20
3.6283191377
 30
0.0
 10
5.0006033562
 20
3.6280869845
 30
0.0
 10
4.999985744
 20
3.6278970951
 30
0.0
 10
4.9996064834
 20
3.6277629092
 30
0.0
 10
4.9992846347
 20
3.6276289568
 30
0.0
 10
4.9990928697
 20
3.6275321073
 30
0.0
 10
4.9990075983
 20
3.6274827916
 30
0.0
  0
SPLINE
  5
250
100
AcDbEntity
  8
0
100
AcDbSpline
 62
7
  6
CONTINUOUS
 70
0
 71
3
 72
30
 73
26
 74
0
 42
0.0000001
 43
0.0000001
 44
0.0000000001
 40
0.0
 40
0.0
 40
0.0
 40
0.0
 40
0.2018657298
 40
0.2975954174
 40
0.3890974035
 40
0.4758626993
 40
0.5573932082
 40
0.6332099367
 40
0.7028827938
 40
0.766008436
 40
0.8222301464
 40
0.871221845
 40
0.892920969
 40
0.9127119454
 40
0.9305672083
 40
0.9464653018
 40
0.9603858298
 40
0.9723098792
 40
0.9822262669
 40
0.986431126
 40
0.990134318
 40
0.9933374669
 40
0.9960439018
 40
0.9982601783
 40
1.0
 40
1.0
 40
1.0
 40
1.0
 10
5.5313018338
 20
3.5679291207
 30
0.0
 10
5.5504905244
 20
3.5684887208
 30
0.0
 10
5.5787784335
 20
3.5693324186
 30
0.0
 10
5.6157620514
 20
3.5705002023
 30
0.0
 10
5.6418041893
 20
3.5713601623
 30
0.0
 10
5.6664952676
 20
3.5722197538
 30
0.0
 10
5.6896937894
 20
3.573078784
 30
0.0
 10
5.7112657059
 20
3.5739372301
 30
0.0
 10
5.731085922
 20
3.5747946741
 30
0.0
 10
5.7490408745
 20
3.5756508987
 30
0.0
 10
5.765026712
 20
3.5765053342
 30
0.0
 10
5.7770734391
 20
3.577241778
 30
0.0
 10
5.7856572753
 20
3.5778393075
 30
0.0
 10
5.7912845351
 20
3.5782687586
 30
0.0
 10
5.7963584192
 20
3.5786977055
 30
0.0
 10
5.8008718906
 20
3.579125951
 30
0.0
 10
5.804818625
 20
3.579553048
 30
0.0
 10
5.8081928111
 20
3.579978861
 30
0.0
 10
5.8106423034
 20
3.5803490369
 30
0.0
 10
5.8123102265
 20
3.5806517737
 30
0.0
 10
5.8133451175
 20
3.5808657784
 30
0.0
 10
5.8142341742
 20
3.5810792052
 30
0.0
 10
5.8149775197
 20
3.5812918513
 30
0.0
 10
5.8155750785
 20
3.5815034166
 30
0.0
 10
5.8159177199
 20
3.5816618971
 30
0.0
 10
5.8160609456
 20
3.5817447269
 30
0.0
  0
SPLINE
  5
251
100
AcDbEntity
  8
0
100
AcDbSpline
 62
7
  6
CONTINUOUS
 70
0
 71
3
 72
40
 73
36
 74
0
 42
0.0000001
 43
0.0000001
 44
0.0000000001
 40
0.0
 40
0.0
 40
0.0
 40
0.0
 40
0.0978322627
 40
0.194762844
 40
0.2897908348
 40
0.3820334277
 40
0.4706040983
 40
0.5546449729
 40
0.6333486608
 40
0.7059610253
 40
0.7717828768
 40
0.8019470527
 40
0.8301819384
 40
0.8564219478
 40
0.8806021147
 40
0.9026650091
 40
0.9225609053
 40
0.940240989
 40
0.9556641676
 40
0.9625195831
 40
0.9687992113
 40
0.9744995065
 40
0.979617281
 40
0.9841509744
 40
0.9881003343
 40
0.9914660651
 40
0.9942506156
 40
0.9954267935
 40
0.9964605
 40
0.9973538968
 40
0.9981105579
 40
0.9987366935
 40
0.9992433694
 40
0.999651461
 40
1.0
 40
1.0
 40
1.0
 40
1.0
 10
5.4075342466
 20
3.5644341207
 30
0.0
 10
5.3941735404
 20
3.5640627506
 30
0.0
 10
5.3675752683
 20
3.5633234383
 30
0.0
 10
5.3279995572
 20
3.5622128139
 30
0.0
 10
5.2891878078
 20
3.5611023554
 30
0.0
 10
5.2515186575
 20
3.5599923048
 30
0.0
 10
5.2153512274
 20
3.5588827529
 30
0.0
 10
5.1810343726
 20
3.557773906
 30
0.0
 10
5.1488989111
 20
3.5566660525
 30
0.0
 10
5.1192540779
 20
3.5555595441
 30
0.0
 10
5.0962394638
 20
3.5546137581
 30
0.0
 10
5.0792855642
 20
3.5538496218
 30
0.0
 10
5.0677355123
 20
3.5532935326
 30
0.0
 10
5.0570039896
 20
3.5527378341
 30
0.0
 10
5.0471168801
 20
3.5521825115
 30
0.0
 10
5.0380979607
 20
3.5516276668
 30
0.0
 10
5.0299688618
 20
3.551073658
 30
0.0
 10
5.0227491651
 20
3.5505205621
 30
0.0
 10
5.0173106582
 20
3.550044058
 30
0.0
 10
5.0134281242
 20
3.5496580714
 30
0.0
 10
5.0108698313
 20
3.5493802788
 30
0.0
 10
5.008550427
 20
3.5491027689
 30
0.0
 10
5.0064713822
 20
3.5488255754
 30
0.0
 10
5.0046338544
 20
3.5485488182
 30
0.0
 10
5.0030385874
 20
3.548272781
 30
0.0
 10
5.0016862835
 20
3.5479975949
 30
0.0
 10
5.0007138637
 20
3.5477581066
 30
0.0
 10
5.0000601154
 20
3.5475621467
 30
0.0
 10
4.9996592059
 20
3.5474237591
 30
0.0
 10
4.9993193102
 20
3.5472856316
 30
0.0
 10
4.9990401889
 20
3.5471477049
 30
0.0
 10
4.9988211847
 20
3.5470098082
 30
0.0
 10
4.9986614269
 20
3.5468709285
 30
0.0
 10
4.9985598934
 20
3.5467282612
 30
0.0
 10
4.9985347495
 20
3.5466242378
 30
0.0
 10
4.9985347697
 20
3.5465766203
 30
0.0
  0
LINE
  5
252
100
AcDbEntity
  8
0
100
AcDbLine
 62
7
  6
CONTINUOUS
 10
5.5313018338
 20
3.5054283979
 11
5.4966028968
 21
3.5044291207
  0
SPLINE
  5
253
100
AcDbEntity
  8
0
100
AcDbSpline
 62
7
  6
CONTINUOUS
 70
0
 71
3
 72
39
 73
35
 74
0
 42
0.0000001
 43
0.0000001
 44
0.0000000001
 40
0.0
 40
0.0
 40
0.0
 40
0.0
 40
0.1061618009
 40
0.2090337784
 40
0.3078809612
 40
0.4021031435
 40
0.4911331846
 40
0.5744176141
 40
0.6514286565
 40
0.721693891
 40
0.784774816
 40
0.8402852741
 40
0.8650904281
 40
0.8878799764
 40
0.9086189338
 40
0.9272734277
 40
0.9438176417
 40
0.9582308665
 40
0.964632351
 40
0.9704940689
 40
0.9758141358
 40
0.9805919349
 40
0.9848279463
 40
0.9885234358
 40
0.991680977
 40
0.9943055194
 40
0.9954209083
 40
0.9964074199
 40
0.9972680598
 40
0.9980074587
 40
0.9986330652
 40
0.9991574005
 40
0.9996016655
 40
1.0
 40
1.0
 40
1.0
 40
1.0
 10
5.5313018338
 20
3.5054283979
 30
0.0
 10
5.541419876
 20
3.5057234705
 30
0.0
 10
5.5613422072
 20
3.5063116308
 30
0.0
 10
5.5906845045
 20
3.5072059109
 30
0.0
 10
5.6188878377
 20
3.5081000486
 30
0.0
 10
5.6457706916
 20
3.5089936866
 30
0.0
 10
5.6711688175
 20
3.5098868942
 30
0.0
 10
5.694924842
 20
3.5107794123
 30
0.0
 10
5.7168903509
 20
3.5116711965
 30
0.0
 10
5.736927836
 20
3.512561668
 30
0.0
 10
5.7549131086
 20
3.513450732
 30
0.0
 10
5.7685644931
 20
3.514215247
 30
0.0
 10
5.7783758868
 20
3.514834848
 30
0.0
 10
5.7848760899
 20
3.5152815891
 30
0.0
 10
5.7907883664
 20
3.5157278444
 30
0.0
 10
5.7961033514
 20
3.5161735558
 30
0.0
 10
5.8008128822
 20
3.5166185583
 30
0.0
 10
5.8043544798
 20
3.5170019471
 30
0.0
 10
5.806879045
 20
3.5173124969
 30
0.0
 10
5.8085406659
 20
3.5175359393
 30
0.0
 10
5.8100459755
 20
3.517759188
 30
0.0
 10
5.811394451
 20
3.5179821895
 30
0.0
 10
5.8125857354
 20
3.5182048461
 30
0.0
 10
5.8136196475
 20
3.5184269799
 30
0.0
 10
5.8144959557
 20
3.518648499
 30
0.0
 10
5.8151252841
 20
3.5188412007
 30
0.0
 10
5.8155477065
 20
3.5189985993
 30
0.0
 10
5.8158074117
 20
3.5191100614
 30
0.0
 10
5.8160276982
 20
3.5192214142
 30
0.0
 10
5.816208737
 20
3.5193327576
 30
0.0
 10
5.8163508314
 20
3.5194443534
 30
0.0
 10
5.8164542962
 20
3.5195569831
 30
0.0
 10
5.8165187804
 20
3.5196720708
 30
0.0
 10
5.8165339615
 20
3.5197529182
 30
0.0
 10
5.8165339226
 20
3.5197908986
 30
0.0
  0
SPLINE
  5
254
100
AcDbEntity
  8
0
100
AcDbSpline
 62
7
  6
CONTINUOUS
 70
0
 71
3
 72
31
 73
27
 74
0
 42
0.0000001
 43
0.0000001
 44
0.0000000001
 40
0.0
 40
0.0
 40
0.0
 40
0.0
 40
0.1887312169
 40
0.2796290913
 40
0.3673643709
 40
0.45135259
 40
0.5310252736
 40
0.6058667302
 40
0.6753991014
 40
0.7391952043
 40
0.7968695906
 40
0.8233064843
 40
0.8480909616
 40
0.8711920312
 40
0.8925805966
 40
0.9122286157
 40
0.93011449
 40
0.9462232802
 40
0.9605426612
 40
0.9730655217
 40
0.9786551119
 40
0.9837990349
 40
0.9885002021
 40
0.9927628429
 40
0.996593098
 40
1.0
 40
1.0
 40
1.0
 40
1.0
 10
5.3281914213
 20
3.7360891207
 30
0.0
 10
5.3076057522
 20
3.7345824316
 30
0.0
 10
5.2771063965
 20
3.7323372672
 30
0.0
 10
5.2370449283
 20
3.7292911452
 30
0.0
 10
5.208410769
 20
3.7270488678
 30
0.0
 10
5.1810070384
 20
3.7248204325
 30
0.0
 10
5.1550171694
 20
3.7226055511
 30
0.0
 10
5.1306130724
 20
3.7204046651
 30
0.0
 10
5.1079514972
 20
3.7182176848
 30
0.0
 10
5.087175354
 20
3.7160451352
 30
0.0
 10
5.0711047623
 20
3.7141975728
 30
0.0
 10
5.0592880488
 20
3.7127132744
 30
0.0
 10
5.0512313481
 20
3.7116357913
 30
0.0
 10
5.0437315242
 20
3.7105617228
 30
0.0
 10
5.0367990712
 20
3.7094911519
 30
0.0
 10
5.0304437092
 20
3.7084240605
 30
0.0
 10
5.0246739344
 20
3.7073605841
 30
0.0
 10
5.0194968691
 20
3.706301213
 30
0.0
 10
5.0149189656
 20
3.7052461891
 30
0.0
 10
5.0114887608
 20
3.7043399824
 30
0.0
 10
5.0090525385
 20
3.7036084779
 30
0.0
 10
5.0074485661
 20
3.7030817469
 30
0.0
 10
5.005997719
 20
3.7025559669
 30
0.0
 10
5.0047002239
 20
3.7020311057
 30
0.0
 10
5.0035563436
 20
3.7015072136
 30
0.0
 10
5.0028558687
 20
3.7011372665
 30
0.0
 10
5.0025333178
 20
3.7009507445
 30
0.0
  0
SPLINE
  5
255
100
AcDbEntity
  8
0
100
AcDbSpline
 62
7
  6
CONTINUOUS
 70
0
 71
3
 72
36
 73
32
 74
0
 42
0.0000001
 43
0.0000001
 44
0.0000000001
 40
0.0
 40
0.0
 40
0.0
 40
0.0
 40
0.0007229031
 40
0.0015738323
 40
0.0025562444
 40
0.0036723108
 40
0.0063103783
 40
0.0094950475
 40
0.0132293763
 40
0.0175146641
 40
0.022350269
 40
0.0277340558
 40
0.0401357209
 40
0.0546973274
 40
0.0713917053
 40
0.0901802179
 40
0.1110211168
 40
0.1338712056
 40
0.1586779806
 40
0.1853842452
 40
0.213932358
 40
0.2442581409
 40
0.3099602159
 40
0.3819014331
 40
0.4594291118
 40
0.5418445357
 40
0.6284053984
 40
0.7183195154
 40
0.810781313
 40
0.9049839655
 40
1.0
 40
1.0
 40
1.0
 40
1.0
 10
5.8160609043
 20
3.6531747256
 30
0.0
 10
5.815975542
 20
3.6531254134
 30
0.0
 10
5.815783616
 20
3.653028578
 30
0.0
 10
5.8154615892
 20
3.6528946319
 30
0.0
 10
5.8150822539
 20
3.6527604399
 30
0.0
 10
5.814464734
 20
3.6525705528
 30
0.0
 10
5.813546875
 20
3.6523383783
 30
0.0
 10
5.8122709825
 20
3.6520715558
 30
0.0
 10
5.8107664899
 20
3.6518039267
 30
0.0
 10
5.8090339731
 20
3.6515356558
 30
0.0
 10
5.8070742337
 20
3.6512669388
 30
0.0
 10
5.8040124257
 20
3.6508902044
 30
0.0
 10
5.7996253283
 20
3.6504272864
 30
0.0
 10
5.793695694
 20
3.6498924051
 30
0.0
 10
5.7868921145
 20
3.649356376
 30
0.0
 10
5.7792300003
 20
3.6488192359
 30
0.0
 10
5.770726641
 20
3.648281367
 30
0.0
 10
5.7614011199
 20
3.647743052
 30
0.0
 10
5.7512745462
 20
3.647204337
 30
0.0
 10
5.7403699394
 20
3.6466652757
 30
0.0
 10
5.7287118632
 20
3.6461259953
 30
0.0
 10
5.7117395683
 20
3.6453868395
 30
0.0
 10
5.6888519581
 20
3.6444708309
 30
0.0
 10
5.6595287993
 20
3.6433973565
 30
0.0
 10
5.6279250807
 20
3.642322752
 30
0.0
 10
5.5943266434
 20
3.6412472957
 30
0.0
 10
5.5590382726
 20
3.6401712944
 30
0.0
 10
5.5223792875
 20
3.6390948404
 30
0.0
 10
5.4846777714
 20
3.6380180297
 30
0.0
 10
5.4462802361
 20
3.6369410885
 30
0.0
 10
5.4204865356
 20
3.6362241385
 30
0.0
 10
5.4075342466
 20
3.6358641207
 30
0.0
  0
SPLINE
  5
256
100
AcDbEntity
  8
0
100
AcDbSpline
 62
7
  6
CONTINUOUS
 70
0
 71
3
 72
13
 73
9
 74
0
 42
0.0000001
 43
0.0000001
 44
0.0000000001
 40
0.0
 40
0.0
 40
0.0
 40
0.0
 40
0.0986512114
 40
0.2076015671
 40
0.3255574981
 40
0.4511851885
 40
0.7194998453
 40
1.0
 40
1.0
 40
1.0
 40
1.0
 10
5.0955170132
 20
3.6974291207
 30
0.0
 10
5.1057757383
 20
3.697703031
 30
0.0
 10
5.1273651592
 20
3.6982434374
 30
0.0
 10
5.1612231485
 20
3.6990141292
 30
0.0
 10
5.1978880328
 20
3.6997872985
 30
0.0
 10
5.2511287483
 20
3.7008443537
 30
0.0
 10
5.3212769125
 20
3.7021435729
 30
0.0
 10
5.378359352
 20
3.7031611835
 30
0.0
 10
5.4075342466
 20
3.7036832801
 30
0.0
  0
SPLINE
  5
257
100
AcDbEntity
  8
0
100
AcDbSpline
 62
7
  6
CONTINUOUS
 70
0
 71
3
 72
30
 73
26
 74
0
 42
0.0000001
 43
0.0000001
 44
0.0000000001
 40
0.0
 40
0.0
 40
0.0
 40
0.0
 40
0.0018187218
 40
0.0041215553
 40
0.0069229088
 40
0.0102293645
 40
0.0140440428
 40
0.0183683083
 40
0.0285460483
 40
0.0407595248
 40
0.0549967783
 40
0.071235203
 40
0.0894497002
 40
0.1096143365
 40
0.1316983721
 40
0.1814701227
 40
0.2384454781
 40
0.3022472871
 40
0.3724598567
 40
0.448618077
 40
0.5302251528
 40
0.6167327353
 40
0.7075694163
 40
0.8021547904
 40
1.0
 40
1.0
 40
1.0
 40
1.0
 10
5.0377169307
 20
3.7212901411
 30
0.0
 10
5.0378696671
 20
3.7213785004
 30
0.0
 10
5.038233305
 20
3.7215479873
 30
0.0
 10
5.0388658719
 20
3.7217748382
 30
0.0
 10
5.0396498594
 20
3.7220027308
 30
0.0
 10
5.0405851738
 20
3.722231419
 30
0.0
 10
5.0416718389
 20
3.7224607011
 30
0.0
 10
5.0434192628
 20
3.7227847972
 30
0.0
 10
5.0459812254
 20
3.7231812527
 30
0.0
 10
5.049505731
 20
3.7236374927
 30
0.0
 10
5.0536222903
 20
3.7240950174
 30
0.0
 10
5.0583240116
 20
3.7245537564
 30
0.0
 10
5.0636031547
 20
3.7250132435
 30
0.0
 10
5.0694513108
 20
3.7254732876
 30
0.0
 10
5.0783562928
 20
3.7261129207
 30
0.0
 10
5.0908308836
 20
3.7269013338
 30
0.0
 10
5.1073524067
 20
3.7278164985
 30
0.0
 10
5.1258597105
 20
3.7287335348
 30
0.0
 10
5.1462301274
 20
3.7296518807
 30
0.0
 10
5.16832958
 20
3.7305712706
 30
0.0
 10
5.1920112233
 20
3.7314912841
 30
0.0
 10
5.2171179634
 20
3.7324118732
 30
0.0
 10
5.2434846521
 20
3.7333328437
 30
0.0
 10
5.280648534
 20
3.7345799849
 30
0.0
 10
5.3090058461
 20
3.7354861752
 30
0.0
 10
5.3281914213
 20
3.7360891207
 30
0.0
  0
SPLINE
  5
258
100
AcDbEntity
  8
0
100
AcDbSpline
 62
7
  6
CONTINUOUS
 70
0
 71
3
 72
40
 73
36
 74
0
 42
0.0000001
 43
0.0000001
 44
0.0000000001
 40
0.0
 40
0.0
 40
0.0
 40
0.0
 40
0.0003485682
 40
0.0007567161
 40
0.0012634257
 40
0.0018895322
 40
0.0026460697
 40
0.0035392515
 40
0.0045727975
 40
0.0057489103
 40
0.0085335436
 40
0.0118995105
 40
0.0158490956
 40
0.0203828366
 40
0.0255003231
 40
0.0312003642
 40
0.0374800346
 40
0.0443356461
 40
0.059759101
 40
0.0774387239
 40
0.0973347798
 40
0.1193979339
 40
0.1435777364
 40
0.16981784
 40
0.1980529569
 40
0.2282168716
 40
0.2940389487
 40
0.3666511417
 40
0.4453549161
 40
0.529395839
 40
0.61796637
 40
0.7102093045
 40
0.8052372197
 40
0.9021670824
 40
1.0
 40
1.0
 40
1.0
 40
1.0
 10
5.8165337096
 20
3.5912208979
 30
0.0
 10
5.8165337096
 20
3.5911732764
 30
0.0
 10
5.816508521
 20
3.5910692538
 30
0.0
 10
5.8164069528
 20
3.5909265956
 30
0.0
 10
5.8162471839
 20
3.5907877177
 30
0.0
 10
5.8160281997
 20
3.5906498212
 30
0.0
 10
5.8157491361
 20
3.5905118922
 30
0.0
 10
5.8154093193
 20
3.5903737514
 30
0.0
 10
5.8150084729
 20
3.5902353646
 30
0.0
 10
5.8143547457
 20
3.5900394019
 30
0.0
 10
5.8133822887
 20
3.5897999187
 30
0.0
 10
5.812029908
 20
3.5895247392
 30
0.0
 10
5.8104345699
 20
3.5892487063
 30
0.0
 10
5.8085970441
 20
3.588971953
 30
0.0
 10
5.8065180696
 20
3.5886947463
 30
0.0
 10
5.804198735
 20
3.5884172316
 30
0.0
 10
5.8016404441
 20
3.5881394442
 30
0.0
 10
5.7977578395
 20
3.587753463
 30
0.0
 10
5.7923193308
 20
3.5872769717
 30
0.0
 10
5.7850996409
 20
3.5867238467
 30
0.0
 10
5.7769705479
 20
3.5861698522
 30
0.0
 10
5.7679516219
 20
3.5856150165
 30
0.0
 10
5.7580645163
 20
3.5850596772
 30
0.0
 10
5.7473330002
 20
3.5845039853
 30
0.0
 10
5.735782941
 20
3.5839479029
 30
0.0
 10
5.7188290179
 20
3.5831837521
 30
0.0
 10
5.6958144351
 20
3.5822379815
 30
0.0
 10
5.6661695877
 20
3.5811314628
 30
0.0
 10
5.634034136
 20
3.5800236132
 30
0.0
 10
5.5997172872
 20
3.5789147672
 30
0.0
 10
5.5635498286
 20
3.5778052123
 30
0.0
 10
5.5258806669
 20
3.5766951631
 30
0.0
 10
5.4870689853
 20
3.5755847059
 30
0.0
 10
5.4474932993
 20
3.5744740823
 30
0.0
 10
5.4208950401
 20
3.5737347703
 30
0.0
 10
5.4075342466
 20
3.5733633979
 30
0.0
  0
LINE
  5
259
100
AcDbEntity
  8
0
100
AcDbLine
 62
7
  6
CONTINUOUS
 10
5.0377166104
 20
3.649860142
 11
5.0393313244
 21
3.6504780215
  0
SPLINE
  5
25A
100
AcDbEntity
  8
0
100
AcDbSpline
 62
7
  6
CONTINUOUS
 70
0
 71
3
 72
63
 73
59
 74
0
 42
0.0000001
 43
0.0000001
 44
0.0000000001
 40
0.0
 40
0.0
 40
0.0
 40
0.0
 40
0.0014585104
 40
0.0031880989
 40
0.0051899279
 40
0.0074644169
 40
0.0100115311
 40
0.0128304514
 40
0.0192777417
 40
0.026793568
 40
0.035363987
 40
0.0449710474
 40
0.0555924732
 40
0.0672055634
 40
0.0797858193
 40
0.1077295064
 40
0.1391761235
 40
0.1738425388
 40
0.2114201185
 40
0.2515711292
 40
0.293935567
 40
0.3381341326
 40
0.3837692999
 40
0.4304324013
 40
0.4777041058
 40
0.5251605033
 40
0.572375396
 40
0.6189253506
 40
0.6643923675
 40
0.7083684175
 40
0.7504595513
 40
0.7902870055
 40
0.8274951982
 40
0.8617494385
 40
0.8927435643
 40
0.9202013392
 40
0.9325254834
 40
0.9438763913
 40
0.9542298081
 40
0.9635617633
 40
0.9718520204
 40
0.9790846002
 40
0.9822995241
 40
0.9852444295
 40
0.9879179355
 40
0.9903194201
 40
0.9924485424
 40
0.9943052975
 40
0.9958902494
 40
0.9972050041
 40
0.9977621988
 40
0.9982536003
 40
0.9986805927
 40
0.9990453149
 40
0.9993512181
 40
0.9996041769
 40
0.9998145542
 40
1.0
 40
1.0
 40
1.0
 40
1.0
 10
5.0393313244
 20
3.6504780215
 30
0.0
 10
5.0396772033
 20
3.6505769852
 30
0.0
 10
5.0404398832
 20
3.6507700906
 30
0.0
 10
5.0416922011
 20
3.6510364469
 30
0.0
 10
5.0431495231
 20
3.6513035018
 30
0.0
 10
5.0448112918
 20
3.6515710746
 30
0.0
 10
5.0466768464
 20
3.6518390075
 30
0.0
 10
5.0495666349
 20
3.6522135749
 30
0.0
 10
5.0536806626
 20
3.652674498
 30
0.0
 10
5.059213306
 20
3.6532078399
 30
0.0
 10
5.0655283979
 20
3.6537422626
 30
0.0
 10
5.0726118497
 20
3.6542775789
 30
0.0
 10
5.080447681
 20
3.6548135882
 30
0.0
 10
5.0890184049
 20
3.6553501116
 30
0.0
 10
5.1018572165
 20
3.6560920953
 30
0.0
 10
5.1195860756
 20
3.6570082976
 30
0.0
 10
5.1427617616
 20
3.6580754515
 30
0.0
 10
5.168315947
 20
3.6591444351
 30
0.0
 10
5.196018828
 20
3.6602146947
 30
0.0
 10
5.2256217938
 20
3.661285902
 30
0.0
 10
5.2568588819
 20
3.662357792
 30
0.0
 10
5.2894494425
 20
3.6634301348
 30
0.0
 10
5.3231008575
 20
3.6645028506
 30
0.0
 10
5.3575106655
 20
3.6655757633
 30
0.0
 10
5.3923699104
 20
3.6666488204
 30
0.0
 10
5.4273653241
 20
3.6677219018
 30
0.0
 10
5.4621826275
 20
3.6687949454
 30
0.0
 10
5.4965089971
 20
3.6698678417
 30
0.0
 10
5.5300360799
 20
3.6709405009
 30
0.0
 10
5.5624627771
 20
3.6720128189
 30
0.0
 10
5.5934976418
 20
3.6730845944
 30
0.0
 10
5.6228621189
 20
3.6741557205
 30
0.0
 10
5.650292212
 20
3.6752258333
 30
0.0
 10
5.6755417499
 20
3.6762945581
 30
0.0
 10
5.6983839558
 20
3.6773615081
 30
0.0
 10
5.7158177746
 20
3.6782779358
 30
0.0
 10
5.7284084255
 20
3.6790206532
 30
0.0
 10
5.7367848218
 20
3.6795570603
 30
0.0
 10
5.7444215579
 20
3.6800928634
 30
0.0
 10
5.7513013752
 20
3.6806279724
 30
0.0
 10
5.7574088723
 20
3.6811622653
 30
0.0
 10
5.7620079861
 20
3.6816224474
 30
0.0
 10
5.7652903239
 20
3.6819952207
 30
0.0
 10
5.7674526323
 20
3.6822635199
 30
0.0
 10
5.7694126451
 20
3.6825315925
 30
0.0
 10
5.7711694231
 20
3.6827993446
 30
0.0
 10
5.7727222103
 20
3.6830666694
 30
0.0
 10
5.7740704055
 20
3.6833333329
 30
0.0
 10
5.7752133464
 20
3.6835992159
 30
0.0
 10
5.7760346466
 20
3.6838305513
 30
0.0
 10
5.7765862281
 20
3.6840196705
 30
0.0
 10
5.7769248968
 20
3.6841534448
 30
0.0
 10
5.7772120779
 20
3.6842870444
 30
0.0
 10
5.7774480423
 20
3.6844205616
 30
0.0
 10
5.7776332839
 20
3.684554261
 30
0.0
 10
5.7777683697
 20
3.6846891211
 30
0.0
 10
5.7778532412
 20
3.684827265
 30
0.0
 10
5.7778736398
 20
3.6849255167
 30
0.0
 10
5.7778736492
 20
3.6849712591
 30
0.0
  0
SPLINE
  5
25B
100
AcDbEntity
  8
0
100
AcDbSpline
 62
7
  6
CONTINUOUS
 70
0
 71
3
 72
40
 73
36
 74
0
 42
0.0000001
 43
0.0000001
 44
0.0000000001
 40
0.0
 40
0.0
 40
0.0
 40
0.0
 40
0.0003485682
 40
0.0007567162
 40
0.0012634257
 40
0.0018895322
 40
0.0026460697
 40
0.0035392514
 40
0.0045727972
 40
0.0057489098
 40
0.008533543
 40
0.0118995096
 40
0.0158490946
 40
0.0203828354
 40
0.0255003216
 40
0.0312003624
 40
0.0374800325
 40
0.0443356438
 40
0.0597590986
 40
0.0774387218
 40
0.0973347788
 40
0.1193979342
 40
0.1435777377
 40
0.1698178427
 40
0.1980529611
 40
0.2282168768
 40
0.2940389568
 40
0.3666511521
 40
0.4453549288
 40
0.5293958533
 40
0.6179663848
 40
0.7102093198
 40
0.8052372311
 40
0.9021670855
 40
1.0
 40
1.0
 40
1.0
 40
1.0
 10
4.9985347835
 20
3.6180066207
 30
0.0
 10
4.9985347835
 20
3.6180542421
 30
0.0
 10
4.9985599721
 20
3.6181582647
 30
0.0
 10
4.9986615404
 20
3.6183009229
 30
0.0
 10
4.9988213092
 20
3.6184398008
 30
0.0
 10
4.9990402935
 20
3.6185776973
 30
0.0
 10
4.999319357
 20
3.6187156263
 30
0.0
 10
4.9996591738
 20
3.6188537671
 30
0.0
 10
5.0000600202
 20
3.6189921539
 30
0.0
 10
5.0007137473
 20
3.6191881166
 30
0.0
 10
5.0016862042
 20
3.6194275998
 30
0.0
 10
5.0030385848
 20
3.6197027793
 30
0.0
 10
5.0046339228
 20
3.6199788122
 30
0.0
 10
5.0064714485
 20
3.6202555654
 30
0.0
 10
5.0085504229
 20
3.6205327721
 30
0.0
 10
5.0108697574
 20
3.6208102868
 30
0.0
 10
5.0134280483
 20
3.6210880742
 30
0.0
 10
5.0173106528
 20
3.6214740555
 30
0.0
 10
5.0227491614
 20
3.6219505468
 30
0.0
 10
5.0299688515
 20
3.6225036717
 30
0.0
 10
5.0380979449
 20
3.6230576663
 30
0.0
 10
5.0471168714
 20
3.623612502
 30
0.0
 10
5.0570039775
 20
3.6241678413
 30
0.0
 10
5.0677354941
 20
3.6247235333
 30
0.0
 10
5.0792855538
 20
3.6252796157
 30
0.0
 10
5.0962394777
 20
3.6260437665
 30
0.0
 10
5.1192540613
 20
3.6269895372
 30
0.0
 10
5.1488989098
 20
3.6280960559
 30
0.0
 10
5.1810343622
 20
3.6292039055
 30
0.0
 10
5.2153512117
 20
3.6303127516
 30
0.0
 10
5.2515186706
 20
3.6314223064
 30
0.0
 10
5.289187832
 20
3.6325323556
 30
0.0
 10
5.3279995119
 20
3.6336428127
 30
0.0
 10
5.3675751958
 20
3.6347534363
 30
0.0
 10
5.3941734535
 20
3.6354927482
 30
0.0
 10
5.4075342466
 20
3.6358641207
 30
0.0
  0
SPLINE
  5
25C
100
AcDbEntity
  8
0
100
AcDbSpline
 62
7
  6
CONTINUOUS
 70
0
 71
3
 72
40
 73
36
 74
0
 42
0.0000001
 43
0.0000001
 44
0.0000000001
 40
0.0
 40
0.0
 40
0.0
 40
0.0
 40
0.0978302616
 40
0.1947629559
 40
0.28979129
 40
0.3820328569
 40
0.4706039281
 40
0.5546445993
 40
0.633348187
 40
0.7059609623
 40
0.7717820049
 40
0.8019470103
 40
0.8301815288
 40
0.8564208657
 40
0.8806020029
 40
0.9026647033
 40
0.9225596724
 40
0.9402407227
 40
0.9556640064
 40
0.9625187884
 40
0.9687978879
 40
0.9744981821
 40
0.9796167803
 40
0.9841511718
 40
0.9881003421
 40
0.9914654087
 40
0.9942493067
 40
0.9954253112
 40
0.9964590214
 40
0.99735265
 40
0.9981097533
 40
0.9987363558
 40
0.9992433292
 40
0.9996514862
 40
1.0
 40
1.0
 40
1.0
 40
1.0
 10
5.4075342466
 20
3.6447933979
 30
0.0
 10
5.4208946871
 20
3.6451647605
 30
0.0
 10
5.4474929898
 20
3.6459040739
 30
0.0
 10
5.4870687859
 20
3.6470147006
 30
0.0
 10
5.525880753
 20
3.648125164
 30
0.0
 10
5.5635498863
 20
3.6492352188
 30
0.0
 10
5.5997172243
 20
3.6503447606
 30
0.0
 10
5.6340341119
 20
3.6514536145
 30
0.0
 10
5.6661696063
 20
3.6525614744
 30
0.0
 10
5.6958143896
 20
3.653667955
 30
0.0
 10
5.718829074
 20
3.6546137866
 30
0.0
 10
5.7357829377
 20
3.6553778842
 30
0.0
 10
5.7473329673
 20
3.6559339798
 30
0.0
 10
5.7580644851
 20
3.6564897093
 30
0.0
 10
5.7679516166
 20
3.6570449923
 30
0.0
 10
5.7769705209
 20
3.6575998353
 30
0.0
 10
5.7850995996
 20
3.6581538974
 30
0.0
 10
5.7923193238
 20
3.6587069443
 30
0.0
 10
5.7977578955
 20
3.6591834349
 30
0.0
 10
5.801640284
 20
3.6595694487
 30
0.0
 10
5.8041984176
 20
3.6598472501
 30
0.0
 10
5.8065178617
 20
3.6601247752
 30
0.0
 10
5.8085971202
 20
3.6604019446
 30
0.0
 10
5.8104348382
 20
3.66067867
 30
0.0
 10
5.8120300835
 20
3.6609547166
 30
0.0
 10
5.813382176
 20
3.6612299164
 30
0.0
 10
5.8143543825
 20
3.6614694212
 30
0.0
 10
5.8150080134
 20
3.6616653821
 30
0.0
 10
5.8154089294
 20
3.6618037766
 30
0.0
 10
5.8157489214
 20
3.661941911
 30
0.0
 10
5.8160282201
 20
3.6620798268
 30
0.0
 10
5.8162474305
 20
3.6622177023
 30
0.0
 10
5.8164073595
 20
3.662356559
 30
0.0
 10
5.8165089739
 20
3.6624992372
 30
0.0
 10
5.8165340882
 20
3.6626032846
 30
0.0
 10
5.8165340385
 20
3.6626508986
 30
0.0
  0
SPLINE
  5
25D
100
AcDbEntity
  8
0
100
AcDbSpline
 62
7
  6
CONTINUOUS
 70
0
 71
3
 72
21
 73
17
 74
0
 42
0.0000001
 43
0.0000001
 44
0.0000000001
 40
0.0
 40
0.0
 40
0.0
 40
0.0
 40
0.0438895239
 40
0.0923256491
 40
0.1449484737
 40
0.2013968739
 40
0.2612632319
 40
0.3241029772
 40
0.3894394109
 40
0.4567691629
 40
0.5952660158
 40
0.7351138357
 40
0.8040784796
 40
0.8716081866
 40
0.9371254631
 40
1.0
 40
1.0
 40
1.0
 40
1.0
 10
5.7527910949
 20
3.5044291207
 30
0.0
 10
5.7454929215
 20
3.5036178519
 30
0.0
 10
5.7301296069
 20
3.502009289
 30
0.0
 10
5.7059880605
 20
3.4997031396
 30
0.0
 10
5.6797378875
 20
3.4973816993
 30
0.0
 10
5.6515696889
 20
3.4950452517
 30
0.0
 10
5.6216877869
 20
3.4926937408
 30
0.0
 10
5.5903155882
 20
3.4903275351
 30
0.0
 10
5.557692385
 20
3.4879464456
 30
0.0
 10
5.5124390235
 20
3.4847216866
 30
0.0
 10
5.4547442021
 20
3.4807038334
 30
0.0
 10
5.3967772764
 20
3.4766557745
 30
0.0
 10
5.3506613179
 20
3.4733451888
 30
0.0
 10
5.3169544923
 20
3.47085811
 30
0.0
 10
5.2842706206
 20
3.4683555486
 30
0.0
 10
5.2628582687
 20
3.4666367797
 30
0.0
 10
5.2523746177
 20
3.4657691207
 30
0.0
  0
LINE
  5
25E
100
AcDbEntity
  8
0
100
AcDbLine
 62
7
  6
CONTINUOUS
 10
5.0377168909
 20
3.578430143
 11
5.0381344195
 21
3.5786362902
  0
SPLINE
  5
25F
100
AcDbEntity
  8
0
100
AcDbSpline
 62
7
  6
CONTINUOUS
 70
0
 71
3
 72
63
 73
59
 74
0
 42
0.0000001
 43
0.0000001
 44
0.0000000001
 40
0.0
 40
0.0
 40
0.0
 40
0.0
 40
0.0010623699
 40
0.0023965973
 40
0.004006885
 40
0.0058952893
 40
0.0080627703
 40
0.0105091353
 40
0.0162342934
 40
0.0230608978
 40
0.0309770161
 40
0.0399658963
 40
0.0500064432
 40
0.0610771027
 40
0.0731538839
 40
0.100209469
 40
0.1309286763
 40
0.1650284087
 40
0.2021975662
 40
0.2420947709
 40
0.2843531305
 40
0.3285856807
 40
0.3743849302
 40
0.4213307524
 40
0.4689914678
 40
0.5169291101
 40
0.5647031382
 40
0.6118744352
 40
0.6580097903
 40
0.7026846097
 40
0.7454894722
 40
0.7860300956
 40
0.8239349057
 40
0.858856366
 40
0.8904729253
 40
0.9184972262
 40
0.9310798345
 40
0.9426718284
 40
0.9532463637
 40
0.9627785521
 40
0.9712488836
 40
0.9786391197
 40
0.9819237427
 40
0.9849324945
 40
0.9876643931
 40
0.9901186035
 40
0.9922945023
 40
0.9941918036
 40
0.9958107948
 40
0.9971530204
 40
0.9977216762
 40
0.9982231155
 40
0.9986587047
 40
0.999030558
 40
0.9993421148
 40
0.9995992765
 40
0.9998125463
 40
1.0
 40
1.0
 40
1.0
 40
1.0
 10
5.0381344195
 20
3.5786362902
 30
0.0
 10
5.0383754736
 20
3.5787401943
 30
0.0
 10
5.0389343224
 20
3.5789392094
 30
0.0
 10
5.0398878045
 20
3.5792068637
 30
0.0
 10
5.0410516369
 20
3.5794757929
 30
0.0
 10
5.0424255619
 20
3.5797456634
 30
0.0
 10
5.0440093623
 20
3.5800161516
 30
0.0
 10
5.0465354285
 20
3.5803976612
 30
0.0
 10
5.0502121108
 20
3.5808648144
 30
0.0
 10
5.0552408376
 20
3.581403135
 30
0.0
 10
5.0610797932
 20
3.5819429156
 30
0.0
 10
5.067715666
 20
3.5824839471
 30
0.0
 10
5.0751332007
 20
3.5830258645
 30
0.0
 10
5.0833154847
 20
3.5835684212
 30
0.0
 10
5.0956970122
 20
3.5843211398
 30
0.0
 10
5.1129314042
 20
3.585249195
 30
0.0
 10
5.1356065178
 20
3.5863281034
 30
0.0
 10
5.160782964
 20
3.5874091229
 30
0.0
 10
5.1882289676
 20
3.5884916563
 30
0.0
 10
5.2176922408
 20
3.5895752454
 30
0.0
 10
5.2489018368
 20
3.5906596363
 30
0.0
 10
5.2815705478
 20
3.5917445335
 30
0.0
 10
5.3153980519
 20
3.5928298554
 30
0.0
 10
5.3500730138
 20
3.593915417
 30
0.0
 10
5.3852765857
 20
3.5950011396
 30
0.0
 10
5.420684888
 20
3.5960869184
 30
0.0
 10
5.4559722075
 20
3.5971726612
 30
0.0
 10
5.4908140032
 20
3.5982582844
 30
0.0
 10
5.5248896662
 20
3.5993436572
 30
0.0
 10
5.5578859048
 20
3.6004287096
 30
0.0
 10
5.5894990224
 20
3.6015132189
 30
0.0
 10
5.6194383779
 20
3.6025970492
 30
0.0
 10
5.6474285595
 20
3.6036799185
 30
0.0
 10
5.673212052
 20
3.6047613018
 30
0.0
 10
5.6965519596
 20
3.6058409757
 30
0.0
 10
5.7143732479
 20
3.60676818
 30
0.0
 10
5.7272488618
 20
3.6075197011
 30
0.0
 10
5.7358176694
 20
3.6080624639
 30
0.0
 10
5.7436311657
 20
3.608604651
 30
0.0
 10
5.7506713724
 20
3.6091462068
 30
0.0
 10
5.7569222717
 20
3.6096868252
 30
0.0
 10
5.7616299581
 20
3.6101524448
 30
0.0
 10
5.7649898869
 20
3.6105296947
 30
0.0
 10
5.7672033374
 20
3.6108012221
 30
0.0
 10
5.7692099606
 20
3.6110724864
 30
0.0
 10
5.7710087896
 20
3.6113434221
 30
0.0
 10
5.7725988756
 20
3.6116139186
 30
0.0
 10
5.7739794073
 20
3.6118837377
 30
0.0
 10
5.7751495668
 20
3.6121527569
 30
0.0
 10
5.7759903235
 20
3.6123868969
 30
0.0
 10
5.7765549629
 20
3.6125783029
 30
0.0
 10
5.7769016665
 20
3.612713664
 30
0.0
 10
5.7771957299
 20
3.6128488404
 30
0.0
 10
5.7774374092
 20
3.612983921
 30
0.0
 10
5.7776271949
 20
3.6131191655
 30
0.0
 10
5.7777656649
 20
3.6132555643
 30
0.0
 10
5.77785282
 20
3.6133953216
 30
0.0
 10
5.7778738915
 20
3.6134949417
 30
0.0
 10
5.7778739392
 20
3.6135412584
 30
0.0
  0
SPLINE
  5
260
100
AcDbEntity
  8
0
100
AcDbSpline
 62
7
  6
CONTINUOUS
 70
0
 71
3
 72
36
 73
32
 74
0
 42
0.0000001
 43
0.0000001
 44
0.0000000001
 40
0.0
 40
0.0
 40
0.0
 40
0.0
 40
0.0007228179
 40
0.0015737507
 40
0.0025562376
 40
0.0036724293
 40
0.0063108089
 40
0.0094957157
 40
0.0132300175
 40
0.0175148723
 40
0.0223502097
 40
0.0277340707
 40
0.0401362528
 40
0.0546977656
 40
0.0713916976
 40
0.0901805977
 40
0.1110216453
 40
0.1338712359
 40
0.1586782279
 40
0.1853847415
 40
0.213932472
 40
0.2442583016
 40
0.309960395
 40
0.381901712
 40
0.4594292489
 40
0.5418446912
 40
0.6284054117
 40
0.7183199093
 40
0.8107814034
 40
0.9049831428
 40
1.0
 40
1.0
 40
1.0
 40
1.0
 10
4.9990074463
 20
3.5560527925
 30
0.0
 10
4.9990927928
 20
3.5561021088
 30
0.0
 10
4.9992847053
 20
3.556198948
 30
0.0
 10
4.9996067327
 20
3.5563328909
 30
0.0
 10
4.9999860985
 20
3.5564670806
 30
0.0
 10
5.0006036924
 20
3.5566569658
 30
0.0
 10
5.0015216482
 20
3.5568891334
 30
0.0
 10
5.0027976146
 20
3.5571559516
 30
0.0
 10
5.0043020772
 20
3.5574235774
 30
0.0
 10
5.0060344906
 20
3.5576918715
 30
0.0
 10
5.0079941446
 20
3.5579605889
 30
0.0
 10
5.0110559987
 20
3.5583373193
 30
0.0
 10
5.0154431681
 20
3.5588002157
 30
0.0
 10
5.0213728
 20
3.5593351086
 30
0.0
 10
5.0281763595
 20
3.559871159
 30
0.0
 10
5.0358384903
 20
3.5604082769
 30
0.0
 10
5.0443418577
 20
3.5609461427
 30
0.0
 10
5.0536673628
 20
3.5614844779
 30
0.0
 10
5.0637939362
 20
3.562023181
 30
0.0
 10
5.0746985584
 20
3.5625622355
 30
0.0
 10
5.0863566261
 20
3.5631015296
 30
0.0
 10
5.1033288838
 20
3.5638406765
 30
0.0
 10
5.1262165241
 20
3.5647566897
 30
0.0
 10
5.1555396898
 20
3.5658301593
 30
0.0
 10
5.1871434157
 20
3.5669047697
 30
0.0
 10
5.2207418283
 20
3.5679802203
 30
0.0
 10
5.256030246
 20
3.569056226
 30
0.0
 10
5.2926892347
 20
3.5701326788
 30
0.0
 10
5.3303906495
 20
3.5712094867
 30
0.0
 10
5.3687881441
 20
3.5722864271
 30
0.0
 10
5.394581841
 20
3.5730033768
 30
0.0
 10
5.4075342466
 20
3.5733633979
 30
0.0
  0
SPLINE
  5
261
100
AcDbEntity
  8
0
100
AcDbSpline
 62
7
  6
CONTINUOUS
 70
0
 71
3
 72
66
 73
62
 74
0
 42
0.0000001
 43
0.0000001
 44
0.0000000001
 40
0.0
 40
0.0
 40
0.0
 40
0.0
 40
0.0001884221
 40
0.0004029797
 40
0.0006620585
 40
0.0009763365
 40
0.0013518209
 40
0.001792008
 40
0.0022989694
 40
0.0028739954
 40
0.0042311785
 40
0.0058676664
 40
0.0077851729
 40
0.0099843724
 40
0.0124653715
 40
0.0152277919
 40
0.0182703313
 40
0.0215913348
 40
0.0290616069
 40
0.037623937
 40
0.0472606563
 40
0.0579485394
 40
0.0696634221
 40
0.082380002
 40
0.1106947997
 40
0.1426325262
 40
0.1778956064
 40
0.2161586854
 40
0.2570653695
 40
0.3002356945
 40
0.3452691232
 40
0.3917460495
 40
0.4392351256
 40
0.4872943005
 40
0.535476935
 40
0.5833347692
 40
0.6304229481
 40
0.6763036924
 40
0.7205499406
 40
0.7627514223
 40
0.8025146523
 40
0.8394712867
 40
0.8732782436
 40
0.9036209343
 40
0.91740513
 40
0.9302206893
 40
0.9420376498
 40
0.9528304535
 40
0.9625740472
 40
0.9712452298
 40
0.9788265545
 40
0.9853022722
 40
0.9881209725
 40
0.9906585539
 40
0.9929146035
 40
0.9948890262
 40
0.9965822355
 40
0.9979955606
 40
0.9991321483
 40
0.9995988887
 40
1.0
 40
1.0
 40
1.0
 40
1.0
 10
5.0371947873
 20
3.6671162587
 30
0.0
 10
5.0371947594
 20
3.6671628439
 30
0.0
 10
5.0372159245
 20
3.6672631291
 30
0.0
 10
5.037303925
 20
3.667403739
 30
0.0
 10
5.03744386
 20
3.6675409289
 30
0.0
 10
5.037635786
 20
3.6676769555
 30
0.0
 10
5.0378803312
 20
3.6678128186
 30
0.0
 10
5.0381780047
 20
3.6679487697
 30
0.0
 10
5.0385290301
 20
3.6680849133
 30
0.0
 10
5.0391006973
 20
3.6682774286
 30
0.0
 10
5.0399516108
 20
3.6685129093
 30
0.0
 10
5.0411355287
 20
3.6687835515
 30
0.0
 10
5.0425320121
 20
3.6690549907
 30
0.0
 10
5.0441404806
 20
3.6693271046
 30
0.0
 10
5.0459603791
 20
3.6695996483
 30
0.0
 10
5.0479908022
 20
3.6698724839
 30
0.0
 10
5.0502305528
 20
3.6701455858
 30
0.0
 10
5.0536297435
 20
3.67052503
 30
0.0
 10
5.0583919181
 20
3.6709934773
 30
0.0
 10
5.0647151334
 20
3.671537303
 30
0.0
 10
5.0718363959
 20
3.6720819391
 30
0.0
 10
5.0797390561
 20
3.6726273832
 30
0.0
 10
5.0884047808
 20
3.6731734017
 30
0.0
 10
5.101423828
 20
3.6739291872
 30
0.0
 10
5.1194406631
 20
3.6748619419
 30
0.0
 10
5.1430309322
 20
3.6759478425
 30
0.0
 10
5.1690830628
 20
3.6770356756
 30
0.0
 10
5.1973543692
 20
3.6781248701
 30
0.0
 10
5.2275819618
 20
3.6792150672
 30
0.0
 10
5.2594844451
 20
3.6803059796
 30
0.0
 10
5.2927648588
 20
3.6813973668
 30
0.0
 10
5.3271135756
 20
3.682489137
 30
0.0
 10
5.3622107355
 20
3.68358111
 30
0.0
 10
5.3977298089
 20
3.68467322
 30
0.0
 10
5.4333400958
 20
3.6857653464
 30
0.0
 10
5.4687102037
 20
3.6868574105
 30
0.0
 10
5.5035109263
 20
3.687949307
 30
0.0
 10
5.5374182861
 20
3.6890409102
 30
0.0
 10
5.5701168329
 20
3.6901321302
 30
0.0
 10
5.6013020394
 20
3.691222714
 30
0.0
 10
5.6306838391
 20
3.6923125326
 30
0.0
 10
5.6579887187
 20
3.6934011566
 30
0.0
 10
5.6829625343
 20
3.6944882353
 30
0.0
 10
5.7022084144
 20
3.6954195001
 30
0.0
 10
5.7162666649
 20
3.6961727359
 30
0.0
 10
5.7257490718
 20
3.696719119
 30
0.0
 10
5.7344905909
 20
3.6972651569
 30
0.0
 10
5.7424710341
 20
3.6978106371
 30
0.0
 10
5.7496717812
 20
3.6983553968
 30
0.0
 10
5.756076102
 20
3.6988992522
 30
0.0
 10
5.7616692914
 20
3.6994418352
 30
0.0
 10
5.7658154702
 20
3.6999111206
 30
0.0
 10
5.7687158616
 20
3.7002929019
 30
0.0
 10
5.7705781517
 20
3.7005655488
 30
0.0
 10
5.7722293127
 20
3.7008377399
 30
0.0
 10
5.7736686182
 20
3.7011093701
 30
0.0
 10
5.7748956403
 20
3.7013800719
 30
0.0
 10
5.7759097572
 20
3.701649708
 30
0.0
 10
5.7766184005
 20
3.7018855855
 30
0.0
 10
5.7770745578
 20
3.7020799055
 30
0.0
 10
5.7772658743
 20
3.7021777185
 30
0.0
 10
5.7773517158
 20
3.7022273773
 30
0.0
  0
SPLINE
  5
262
100
AcDbEntity
  8
0
100
AcDbSpline
 62
7
  6
CONTINUOUS
 70
0
 71
3
 72
14
 73
10
 74
0
 42
0.0000001
 43
0.0000001
 44
0.0000000001
 40
0.0
 40
0.0
 40
0.0
 40
0.0
 40
0.0553794237
 40
0.1291003945
 40
0.2225226226
 40
0.3362938779
 40
0.4707615863
 40
0.6261286923
 40
1.0
 40
1.0
 40
1.0
 40
1.0
 10
5.780988058
 20
3.468883291
 30
0.0
 10
5.7809528804
 20
3.4688481862
 30
0.0
 10
5.7808569634
 20
3.4687808674
 30
0.0
 10
5.7806773118
 20
3.4686932853
 30
0.0
 10
5.7804407849
 20
3.4686050619
 30
0.0
 10
5.7801471501
 20
3.4685164808
 30
0.0
 10
5.7797959419
 20
3.4684275382
 30
0.0
 10
5.7792139309
 20
3.4683006855
 30
0.0
 10
5.778746048
 20
3.4682180158
 30
0.0
 10
5.778414895
 20
3.468164124
 30
0.0
  0
SPLINE
  5
263
100
AcDbEntity
  8
0
100
AcDbSpline
 62
7
  6
CONTINUOUS
 70
0
 71
3
 72
15
 73
11
 74
0
 42
0.0000001
 43
0.0000001
 44
0.0000000001
 40
0.0
 40
0.0
 40
0.0
 40
0.0
 40
0.0290517298
 40
0.0626308407
 40
0.1433484263
 40
0.2420722073
 40
0.3586924973
 40
0.4930769105
 40
0.6449715913
 40
1.0
 40
1.0
 40
1.0
 40
1.0
 10
5.778414895
 20
3.468164124
 30
0.0
 10
5.7780835066
 20
3.4681101938
 30
0.0
 10
5.7773674088
 20
3.4680042089
 30
0.0
 10
5.7757240944
 20
3.4677938036
 30
0.0
 10
5.7732753172
 20
3.4675376406
 30
0.0
 10
5.7698663517
 20
3.4672433474
 30
0.0
 10
5.7658353109
 20
3.4669476684
 30
0.0
 10
5.7611884663
 20
3.4666508244
 30
0.0
 10
5.7537887439
 20
3.4662318417
 30
0.0
 10
5.747936857
 20
3.465951898
 30
0.0
 10
5.7438379016
 20
3.4657691207
 30
0.0
  0
SPLINE
  5
264
100
AcDbEntity
  8
0
100
AcDbSpline
 62
7
  6
CONTINUOUS
 70
0
 71
3
 72
31
 73
27
 74
0
 42
0.0000001
 43
0.0000001
 44
0.0000000001
 40
0.0
 40
0.0
 40
0.0
 40
0.0
 40
0.2254288832
 40
0.424637524
 40
0.513838174
 40
0.5958859191
 40
0.6706334768
 40
0.7379399033
 40
0.7976899953
 40
0.8497778811
 40
0.8729167417
 40
0.8941032963
 40
0.913331549
 40
0.9305981513
 40
0.9459012066
 40
0.9592411318
 40
0.9706222651
 40
0.9800561364
 40
0.9840509114
 40
0.9875714762
 40
0.9906274852
 40
0.9932337924
 40
0.9954144892
 40
0.9972109079
 40
0.9986968435
 40
1.0
 40
1.0
 40
1.0
 40
1.0
 10
5.0955170132
 20
3.6974291207
 30
0.0
 10
5.088183421
 20
3.6971138399
 30
0.0
 10
5.0743704335
 20
3.6964912634
 30
0.0
 10
5.0576603968
 20
3.6956412495
 30
0.0
 10
5.0456173141
 20
3.6949521655
 30
0.0
 10
5.0376226507
 20
3.6944550104
 30
0.0
 10
5.0303423646
 20
3.6939584055
 30
0.0
 10
5.0237899316
 20
3.6934623843
 30
0.0
 10
5.0179776323
 20
3.692967185
 30
0.0
 10
5.0136031171
 20
3.6925405969
 30
0.0
 10
5.010482764
 20
3.692195011
 30
0.0
 10
5.0084282982
 20
3.6919463159
 30
0.0
 10
5.0065665394
 20
3.6916978527
 30
0.0
 10
5.0048981825
 20
3.6914496915
 30
0.0
 10
5.0034238539
 20
3.6912019302
 30
0.0
 10
5.0021440544
 20
3.6909547893
 30
0.0
 10
5.0010593417
 20
3.6907083793
 30
0.0
 10
5.0002799205
 20
3.690493968
 30
0.0
 10
4.9997564642
 20
3.6903186415
 30
0.0
 10
4.9994351834
 20
3.6901946712
 30
0.0
 10
4.9991627602
 20
3.6900708759
 30
0.0
 10
4.998938937
 20
3.6899471768
 30
0.0
 10
4.9987632318
 20
3.6898233404
 30
0.0
 10
4.9986350734
 20
3.6896984551
 30
0.0
 10
4.9985543869
 20
3.6895704484
 30
0.0
 10
4.9985348938
 20
3.6894790543
 30
0.0
 10
4.9985348825
 20
3.6894366212
 30
0.0
  0
SPLINE
  5
265
100
AcDbEntity
  8
0
100
AcDbSpline
 62
7
  6
CONTINUOUS
 70
0
 71
3
 72
67
 73
63
 74
0
 42
0.0000001
 43
0.0000001
 44
0.0000000001
 40
0.0
 40
0.0
 40
0.0
 40
0.0
 40
0.0001884228
 40
0.0004030555
 40
0.0006623319
 40
0.0009768695
 40
0.001352577
 40
0.001792864
 40
0.0022998012
 40
0.0028747066
 40
0.0042314844
 40
0.0058675696
 40
0.0077849486
 40
0.0099845359
 40
0.0124661088
 40
0.0152286443
 40
0.0182708922
 40
0.0215914616
 40
0.0290615002
 40
0.0376247737
 40
0.0472610408
 40
0.0579483702
 40
0.069664081
 40
0.0823806107
 40
0.1106951839
 40
0.142632673
 40
0.1778963586
 40
0.216158757
 40
0.2570658645
 40
0.300236142
 40
0.3452693781
 40
0.3917465555
 40
0.4392354077
 40
0.4872947326
 40
0.5354772454
 40
0.5833352583
 40
0.6304232669
 40
0.6763041165
 40
0.720550495
 40
0.7627515512
 40
0.8025154391
 40
0.8394715788
 40
0.8732786542
 40
0.888901099
 40
0.9036217408
 40
0.9174058686
 40
0.9302207035
 40
0.9420382693
 40
0.9528314199
 40
0.9625740708
 40
0.9712455999
 40
0.9788275867
 40
0.985302513
 40
0.9881209121
 40
0.990658684
 40
0.9929151575
 40
0.9948899667
 40
0.9965832581
 40
0.9979961532
 40
0.9991322063
 40
0.9995988567
 40
1.0
 40
1.0
 40
1.0
 40
1.0
 10
5.0371943743
 20
3.5956862586
 30
0.0
 10
5.0371943319
 20
3.595732844
 30
0.0
 10
5.037215507
 20
3.5958331571
 30
0.0
 10
5.0373036481
 20
3.5959737679
 30
0.0
 10
5.0374437928
 20
3.5961109302
 30
0.0
 10
5.0376359347
 20
3.5962469383
 30
0.0
 10
5.0378806474
 20
3.5963827923
 30
0.0
 10
5.0381783969
 20
3.5965187518
 30
0.0
 10
5.0385294071
 20
3.5966549025
 30
0.0
 10
5.0391009298
 20
3.5968474195
 30
0.0
 10
5.0399515998
 20
3.5970829189
 30
0.0
 10
5.0411352775
 20
3.5973535764
 30
0.0
 10
5.0425317235
 20
3.597625026
 30
0.0
 10
5.0441404063
 20
3.5978971107
 30
0.0
 10
5.0459605788
 20
3.5981696182
 30
0.0
 10
5.0479910987
 20
3.5984424664
 30
0.0
 10
5.0502306953
 20
3.5987155814
 30
0.0
 10
5.0536296437
 20
3.599095055
 30
0.0
 10
5.0583918847
 20
3.599563523
 30
0.0
 10
5.0647151719
 20
3.6001072449
 30
0.0
 10
5.0718364125
 20
3.600651944
 30
0.0
 10
5.0797390254
 20
3.6011974248
 30
0.0
 10
5.0884048089
 20
3.6017433718
 30
0.0
 10
5.1014239888
 20
3.6024991982
 30
0.0
 10
5.1194406956
 20
3.6034319369
 30
0.0
 10
5.1430309955
 20
3.6045178646
 30
0.0
 10
5.1690830472
 20
3.6056056479
 30
0.0
 10
5.1973544336
 20
3.6066948956
 30
0.0
 10
5.2275819479
 20
3.6077850565
 30
0.0
 10
5.2594844716
 20
3.6088759792
 30
0.0
 10
5.2927648831
 20
3.6099673743
 30
0.0
 10
5.3271135546
 20
3.6110591285
 30
0.0
 10
5.3622107529
 20
3.6121511169
 30
0.0
 10
5.3977297732
 20
3.6132432142
 30
0.0
 10
5.4333401059
 20
3.6143353518
 30
0.0
 10
5.4687101812
 20
3.6154274041
 30
0.0
 10
5.5035109267
 20
3.6165193107
 30
0.0
 10
5.5374182978
 20
3.6176109125
 30
0.0
 10
5.5701167937
 20
3.6187021161
 30
0.0
 10
5.6013020833
 20
3.6197927428
 30
0.0
 10
5.6306838191
 20
3.6208824885
 30
0.0
 10
5.6579887517
 20
3.6219712387
 30
0.0
 10
5.6793265205
 20
3.622899789
 30
0.0
 10
5.6951692351
 20
3.6236491663
 30
0.0
 10
5.706065496
 20
3.6241960825
 30
0.0
 10
5.7162666929
 20
3.6247427312
 30
0.0
 10
5.7257490497
 20
3.6252891528
 30
0.0
 10
5.734490626
 20
3.6258351569
 30
0.0
 10
5.7424710738
 20
3.6263805896
 30
0.0
 10
5.7496717513
 20
3.6269254411
 30
0.0
 10
5.7560760884
 20
3.6274692761
 30
0.0
 10
5.7616693407
 20
3.6280117654
 30
0.0
 10
5.7658154047
 20
3.6284811187
 30
0.0
 10
5.7687155666
 20
3.6288629291
 30
0.0
 10
5.7705779362
 20
3.6291355645
 30
0.0
 10
5.7722293498
 20
3.6294077418
 30
0.0
 10
5.7736688832
 20
3.6296793533
 30
0.0
 10
5.7748959223
 20
3.6299500226
 30
0.0
 10
5.775909813
 20
3.6302196736
 30
0.0
 10
5.7766181584
 20
3.6304556172
 30
0.0
 10
5.7770741609
 20
3.630649924
 30
0.0
 10
5.7772654662
 20
3.6307477249
 30
0.0
 10
5.7773513207
 20
3.630797377
 30
0.0
  0
SPLINE
  5
266
100
AcDbEntity
  8
0
100
AcDbSpline
 62
7
  6
CONTINUOUS
 70
0
 71
3
 72
37
 73
33
 74
0
 42
0.0000001
 43
0.0000001
 44
0.0000000001
 40
0.0
 40
0.0
 40
0.0
 40
0.0
 40
0.0961970063
 40
0.1914252201
 40
0.2847732904
 40
0.3754395531
 40
0.4626167446
 40
0.5455135387
 40
0.6233818648
 40
0.6955159247
 40
0.7612528802
 40
0.7915323258
 40
0.819989071
 40
0.8465594143
 40
0.8711811866
 40
0.8937944074
 40
0.9143484282
 40
0.9327952327
 40
0.9490885482
 40
0.9631921773
 40
0.9694129007
 40
0.9750743306
 40
0.9801726958
 40
0.9847052869
 40
0.9886706021
 40
0.9920675491
 40
0.9948956886
 40
0.9971558972
 40
0.9980742049
 40
0.9988525714
 40
0.9994931327
 40
1.0
 40
1.0
 40
1.0
 40
1.0
 10
5.4075342466
 20
3.7036832801
 30
0.0
 10
5.4200878878
 20
3.7039079326
 30
0.0
 10
5.4450687302
 20
3.7043557167
 30
0.0
 10
5.4822312772
 20
3.7050299859
 30
0.0
 10
5.5186718111
 20
3.7057052844
 30
0.0
 10
5.5540613226
 20
3.7063814763
 30
0.0
 10
5.5880864578
 20
3.7070585138
 30
0.0
 10
5.6204408431
 20
3.7077363083
 30
0.0
 10
5.6508313297
 20
3.7084146936
 30
0.0
 10
5.6789815036
 20
3.7090934679
 30
0.0
 10
5.7009208874
 20
3.7096739336
 30
0.0
 10
5.7171603768
 20
3.7101431203
 30
0.0
 10
5.7282893438
 20
3.7104854984
 30
0.0
 10
5.7386794949
 20
3.7108279789
 30
0.0
 10
5.748306502
 20
3.7111705238
 30
0.0
 10
5.7571477191
 20
3.711513131
 30
0.0
 10
5.7651823216
 20
3.7118556615
 30
0.0
 10
5.7723912414
 20
3.7121979087
 30
0.0
 10
5.7787572044
 20
3.7125398577
 30
0.0
 10
5.783527509
 20
3.7128351247
 30
0.0
 10
5.7869107181
 20
3.7130748385
 30
0.0
 10
5.7891203494
 20
3.7132469298
 30
0.0
 10
5.7911089219
 20
3.7134188926
 30
0.0
 10
5.7928752221
 20
3.7135906643
 30
0.0
 10
5.7944182975
 20
3.7137621318
 30
0.0
 10
5.7957374508
 20
3.7139330041
 30
0.0
 10
5.7968319027
 20
3.7141031895
 30
0.0
 10
5.7976020407
 20
3.7142520237
 30
0.0
 10
5.7981037161
 20
3.7143751058
 30
0.0
 10
5.7983966978
 20
3.7144606637
 30
0.0
 10
5.7986333241
 20
3.7145458323
 30
0.0
 10
5.798769453
 20
3.7146094255
 30
0.0
 10
5.7988267159
 20
3.714642556
 30
0.0
  0
SPLINE
  5
267
100
AcDbEntity
  8
0
100
AcDbSpline
 62
7
  6
CONTINUOUS
 70
0
 71
3
 72
38
 73
34
 74
0
 42
0.0000001
 43
0.0000001
 44
0.0000000001
 40
0.0
 40
0.0
 40
0.0
 40
0.0
 40
0.0004788211
 40
0.0011018609
 40
0.0018734971
 40
0.0027959508
 40
0.0038704706
 40
0.0050977222
 40
0.0080108638
 40
0.011535043
 40
0.0156684949
 40
0.0204088603
 40
0.0257534585
 40
0.0316989443
 40
0.0382402008
 40
0.0530877165
 40
0.070251008
 40
0.089678721
 40
0.1113078175
 40
0.1350734906
 40
0.1609031073
 40
0.1887154917
 40
0.2184282206
 40
0.2499502401
 40
0.3180346876
 40
0.3921509542
 40
0.4714148091
 40
0.554883899
 40
0.6415754561
 40
0.7304719485
 40
0.82053039
 40
0.9107370421
 40
1.0
 40
1.0
 40
1.0
 40
1.0
 10
5.0115686368
 20
3.4918833663
 30
0.0
 10
5.0116356931
 20
3.4919221404
 30
0.0
 10
5.0117988957
 20
3.4919956065
 30
0.0
 10
5.0120860825
 20
3.4920928546
 30
0.0
 10
5.0124481624
 20
3.4921906818
 30
0.0
 10
5.012885214
 20
3.4922889193
 30
0.0
 10
5.0133974841
 20
3.4923874332
 30
0.0
 10
5.0142295205
 20
3.4925271117
 30
0.0
 10
5.0154578754
 20
3.4926975655
 30
0.0
 10
5.0171567527
 20
3.4928934059
 30
0.0
 10
5.0191528309
 20
3.4930898013
 30
0.0
 10
5.0214445662
 20
3.4932866456
 30
0.0
 10
5.0240303669
 20
3.4934837156
 30
0.0
 10
5.0269082398
 20
3.4936809289
 30
0.0
 10
5.0313216142
 20
3.4939557436
 30
0.0
 10
5.0375491408
 20
3.4942940691
 30
0.0
 10
5.0458612401
 20
3.4946857732
 30
0.0
 10
5.0552714591
 20
3.4950778083
 30
0.0
 10
5.06575056
 20
3.4954701621
 30
0.0
 10
5.0772659595
 20
3.4958625285
 30
0.0
 10
5.0897821693
 20
3.4962548177
 30
0.0
 10
5.1032608805
 20
3.4966470115
 30
0.0
 10
5.1176608277
 20
3.4970389917
 30
0.0
 10
5.1385741017
 20
3.4975751976
 30
0.0
 10
5.166669667
 20
3.4982382431
 30
0.0
 10
5.2024878879
 20
3.4990146457
 30
0.0
 10
5.2407954596
 20
3.4997903564
 30
0.0
 10
5.2811377603
 20
3.5005652101
 30
0.0
 10
5.3230386399
 20
3.5013389906
 30
0.0
 10
5.3660056855
 20
3.5021115418
 30
0.0
 10
5.4095414853
 20
3.5028828173
 30
0.0
 10
5.4531366031
 20
3.5036526512
 30
0.0
 10
5.482165043
 20
3.5041694649
 30
0.0
 10
5.4966028968
 20
3.5044291207
 30
0.0
  0
SPLINE
  5
268
100
AcDbEntity
  8
0
100
AcDbSpline
 62
7
  6
CONTINUOUS
 70
0
 71
3
 72
37
 73
33
 74
0
 42
0.0000001
 43
0.0000001
 44
0.0000000001
 40
0.0
 40
0.0
 40
0.0
 40
0.0
 40
0.0007397927
 40
0.001621007
 40
0.0026475535
 40
0.0038218154
 40
0.0066187849
 40
0.0100192149
 40
0.0140255397
 40
0.0186365972
 40
0.0238498977
 40
0.0296623823
 40
0.0360706398
 40
0.0430709257
 40
0.0588249687
 40
0.0768732637
 40
0.0971616481
 40
0.119625014
 40
0.1441894714
 40
0.1707788298
 40
0.1993052041
 40
0.229676086
 40
0.261795251
 40
0.3308504001
 40
0.4055765664
 40
0.4850039891
 40
0.568100382
 40
0.6537887174
 40
0.7409564134
 40
0.8284634413
 40
0.9152024387
 40
1.0
 40
1.0
 40
1.0
 40
1.0
 10
5.0377169856
 20
3.5070001429
 30
0.0
 10
5.0378200194
 20
3.5070596822
 30
0.0
 10
5.0380538059
 20
3.5071762426
 30
0.0
 10
5.0384485952
 20
3.507336568
 30
0.0
 10
5.0389178153
 20
3.5074972533
 30
0.0
 10
5.0396888813
 20
3.5077253237
 30
0.0
 10
5.0408421996
 20
3.5080036547
 30
0.0
 10
5.0424523656
 20
3.5083231535
 30
0.0
 10
5.0443589711
 20
3.5086436426
 30
0.0
 10
5.0465604904
 20
3.5089650514
 30
0.0
 10
5.0490551589
 20
3.5092870328
 30
0.0
 10
5.051840985
 20
3.5096094431
 30
0.0
 10
5.0549159458
 20
3.509932188
 30
0.0
 10
5.0595854652
 20
3.5103806375
 30
0.0
 10
5.0661256154
 20
3.5109339759
 30
0.0
 10
5.0748027395
 20
3.511576509
 30
0.0
 10
5.0845616372
 20
3.5122200561
 30
0.0
 10
5.0953706643
 20
3.5128644952
 30
0.0
 10
5.1071948296
 20
3.5135096398
 30
0.0
 10
5.1199955706
 20
3.5141551713
 30
0.0
 10
5.1337313852
 20
3.5148011036
 30
0.0
 10
5.1483576016
 20
3.515447368
 30
0.0
 10
5.1694989079
 20
3.5163307368
 30
0.0
 10
5.1977723202
 20
3.5174250759
 30
0.0
 10
5.2336536355
 20
3.5187104729
 30
0.0
 10
5.2717948704
 20
3.5199970833
 30
0.0
 10
5.311700346
 20
3.5212845885
 30
0.0
 10
5.3528514915
 20
3.5225726309
 30
0.0
 10
5.3947124413
 20
3.5238609334
 30
0.0
 10
5.4367424709
 20
3.5251493644
 30
0.0
 10
5.4783910771
 20
3.5264376281
 30
0.0
 10
5.5059698569
 20
3.5273096742
 30
0.0
 10
5.519602922
 20
3.5277487593
 30
0.0
  0
SPLINE
  5
269
100
AcDbEntity
  8
0
100
AcDbSpline
 62
7
  6
CONTINUOUS
 70
0
 71
3
 72
16
 73
12
 74
0
 42
0.0000001
 43
0.0000001
 44
0.0000000001
 40
0.0
 40
0.0
 40
0.0
 40
0.0
 40
0.1835767634
 40
0.3508921151
 40
0.5016649823
 40
0.635619287
 40
0.7525154139
 40
0.8522408521
 40
0.9347361658
 40
0.9695193258
 40
1.0
 40
1.0
 40
1.0
 40
1.0
 10
5.7438379016
 20
3.4657691207
 30
0.0
 10
5.7457647649
 20
3.4659103679
 30
0.0
 10
5.7494470341
 20
3.4661911327
 30
0.0
 10
5.7547084181
 20
3.4666314078
 30
0.0
 10
5.7594456007
 20
3.4670712234
 30
0.0
 10
5.7636496858
 20
3.4675102726
 30
0.0
 10
5.7673134076
 20
3.4679481947
 30
0.0
 10
5.7704312403
 20
3.4683846451
 30
0.0
 10
5.7726838978
 20
3.4687642812
 30
0.0
 10
5.7742077147
 20
3.4690751893
 30
0.0
 10
5.7748766747
 20
3.4692316648
 30
0.0
 10
5.7751874918
 20
3.4693110327
 30
0.0
  0
SPLINE
  5
26A
100
AcDbEntity
  8
0
100
AcDbSpline
 62
7
  6
CONTINUOUS
 70
0
 71
3
 72
17
 73
13
 74
0
 42
0.0000001
 43
0.0000001
 44
0.0000000001
 40
0.0
 40
0.0
 40
0.0
 40
0.0
 40
0.2080469558
 40
0.3904749409
 40
0.5476232287
 40
0.6800373492
 40
0.7886505922
 40
0.8751879846
 40
0.9112332865
 40
0.9433162771
 40
0.9724555424
 40
1.0
 40
1.0
 40
1.0
 40
1.0
 10
5.7751874918
 20
3.4693110327
 30
0.0
 10
5.7753980096
 20
3.4693647889
 30
0.0
 10
5.775791772
 20
3.4694711469
 30
0.0
 10
5.7763380779
 20
3.4696409426
 30
0.0
 10
5.7768012162
 20
3.4698103725
 30
0.0
 10
5.7771816881
 20
3.4699794432
 30
0.0
 10
5.7774798902
 20
3.4701481553
 30
0.0
 10
5.7776719936
 20
3.4702973824
 30
0.0
 10
5.7777787482
 20
3.4704192833
 30
0.0
 10
5.7778330537
 20
3.4705057678
 30
0.0
 10
5.77786621
 20
3.470593081
 30
0.0
 10
5.7778737961
 20
3.4706524916
 30
0.0
 10
5.7778738342
 20
3.4706812575
 30
0.0
  0
SPLINE
  5
26B
100
AcDbEntity
  8
0
100
AcDbSpline
 62
7
  6
CONTINUOUS
 70
0
 71
3
 72
37
 73
33
 74
0
 42
0.0000001
 43
0.0000001
 44
0.0000000001
 40
0.0
 40
0.0
 40
0.0
 40
0.0
 40
0.0799936473
 40
0.1631966474
 40
0.2483409829
 40
0.3341880775
 40
0.4194575118
 40
0.5028867401
 40
0.5832397863
 40
0.6593262056
 40
0.7300190443
 40
0.7630112908
 40
0.7942709269
 40
0.8236806107
 40
0.8511318849
 40
0.8765249431
 40
0.89976342
 40
0.9207648109
 40
0.9394511294
 40
0.9557540819
 40
0.9629945144
 40
0.9696186683
 40
0.9756201945
 40
0.9809946552
 40
0.9857390745
 40
0.9898510512
 40
0.9933291502
 40
0.9961738542
 40
0.9973603969
 40
0.9983916144
 40
0.9992700644
 40
1.0
 40
1.0
 40
1.0
 40
1.0
 10
5.2523746177
 20
3.4657691207
 30
0.0
 10
5.2663836313
 20
3.4662427306
 30
0.0
 10
5.294964632
 20
3.4671814649
 30
0.0
 10
5.3384588717
 20
3.4685561342
 30
0.0
 10
5.3829792739
 20
3.4699312765
 30
0.0
 10
5.4278619354
 20
3.4713065525
 30
0.0
 10
5.472443928
 20
3.4726817005
 30
0.0
 10
5.5160627672
 20
3.4740564056
 30
0.0
 10
5.5580717065
 20
3.4754302616
 30
0.0
 10
5.5978476832
 20
3.4768028978
 30
0.0
 10
5.6293268601
 20
3.4779702433
 30
0.0
 10
5.6529539869
 20
3.4789128944
 30
0.0
 10
5.6693514777
 20
3.4796032358
 30
0.0
 10
5.6847771476
 20
3.4802932725
 30
0.0
 10
5.6991737597
 20
3.4809829551
 30
0.0
 10
5.7124877148
 20
3.4816720237
 30
0.0
 10
5.724669871
 20
3.4823605352
 30
0.0
 10
5.7356748505
 20
3.4830479826
 30
0.0
 10
5.7454619823
 20
3.4837342104
 30
0.0
 10
5.7528382981
 20
3.4843254444
 30
0.0
 10
5.7581027406
 20
3.4848046235
 30
0.0
 10
5.7615667515
 20
3.4851493532
 30
0.0
 10
5.7647020627
 20
3.4854937497
 30
0.0
 10
5.7675058664
 20
3.4858377017
 30
0.0
 10
5.7699758711
 20
3.4861810118
 30
0.0
 10
5.7721101735
 20
3.4865232826
 30
0.0
 10
5.7739067879
 20
3.4868643099
 30
0.0
 10
5.7751893334
 20
3.4871616524
 30
0.0
 10
5.7760423599
 20
3.4874057592
 30
0.0
 10
5.7765573234
 20
3.4875772922
 30
0.0
 10
5.7769873226
 20
3.4877483766
 30
0.0
 10
5.7772405806
 20
3.487873356
 30
0.0
 10
5.7773513093
 20
3.4879373765
 30
0.0
  0
SPLINE
  5
26C
100
AcDbEntity
  8
0
100
AcDbSpline
 62
7
  6
CONTINUOUS
 70
0
 71
3
 72
38
 73
34
 74
0
 42
0.0000001
 43
0.0000001
 44
0.0000000001
 40
0.0
 40
0.0
 40
0.0
 40
0.0
 40
0.106109003
 40
0.2089363899
 40
0.3077421772
 40
0.4019230502
 40
0.4909139539
 40
0.5741655881
 40
0.6511476341
 40
0.721389769
 40
0.7844516414
 40
0.839951712
 40
0.8647539859
 40
0.8875414703
 40
0.9082815161
 40
0.9269418918
 40
0.9434931335
 40
0.9579155376
 40
0.9643235132
 40
0.9701936105
 40
0.9755243888
 40
0.9803148019
 40
0.9845646657
 40
0.988275856
 40
0.9914521064
 40
0.9940999549
 40
0.9962314814
 40
0.9971110557
 40
0.9978727501
 40
0.9985248396
 40
0.999080598
 40
0.9995614398
 40
1.0
 40
1.0
 40
1.0
 40
1.0
 10
5.519602922
 20
3.5277487593
 30
0.0
 10
5.5287642689
 20
3.5280438221
 30
0.0
 10
5.5468034019
 20
3.5286319828
 30
0.0
 10
5.5733722958
 20
3.5295262628
 30
0.0
 10
5.5989101936
 20
3.5304204186
 30
0.0
 10
5.6232520993
 20
3.5313140527
 30
0.0
 10
5.6462494429
 20
3.5322072736
 30
0.0
 10
5.6677599298
 20
3.5330997734
 30
0.0
 10
5.6876493636
 20
3.5339915866
 30
0.0
 10
5.7057929049
 20
3.5348820344
 30
0.0
 10
5.7220783537
 20
3.5357711477
 30
0.0
 10
5.7344392597
 20
3.5365356358
 30
0.0
 10
5.7433230141
 20
3.5371552124
 30
0.0
 10
5.7492087141
 20
3.5376019791
 30
0.0
 10
5.7545622284
 20
3.5380482716
 30
0.0
 10
5.7593750441
 20
3.5384939369
 30
0.0
 10
5.7636395681
 20
3.5389389593
 30
0.0
 10
5.7668460902
 20
3.5393223755
 30
0.0
 10
5.7691316271
 20
3.5396329029
 30
0.0
 10
5.7706362894
 20
3.5398563659
 30
0.0
 10
5.7719995806
 20
3.5400796188
 30
0.0
 10
5.773220898
 20
3.5403026191
 30
0.0
 10
5.7742998047
 20
3.5405253022
 30
0.0
 10
5.7752360328
 20
3.5407475411
 30
0.0
 10
5.7760297198
 20
3.54096909
 30
0.0
 10
5.7766808764
 20
3.5411898594
 30
0.0
 10
5.7771310168
 20
3.541383218
 30
0.0
 10
5.7774158767
 20
3.5415421879
 30
0.0
 10
5.7775799889
 20
3.5416537533
 30
0.0
 10
5.7777088663
 20
3.5417656242
 30
0.0
 10
5.7778026271
 20
3.5418785342
 30
0.0
 10
5.777860704
 20
3.541993514
 30
0.0
 10
5.7778742453
 20
3.5420733748
 30
0.0
 10
5.7778742465
 20
3.5421112592
 30
0.0
  0
SPLINE
  5
26D
100
AcDbEntity
  8
0
100
AcDbSpline
 62
7
  6
CONTINUOUS
 70
0
 71
3
 72
23
 73
19
 74
0
 42
0.0000001
 43
0.0000001
 44
0.0000000001
 40
0.0
 40
0.0
 40
0.0
 40
0.0
 40
0.006512747
 40
0.0145633332
 40
0.0241975344
 40
0.0354413625
 40
0.0483100582
 40
0.0628103589
 40
0.0967124522
 40
0.1371473647
 40
0.1840956849
 40
0.2375293164
 40
0.2974065557
 40
0.3636686798
 40
0.4362538118
 40
0.6001363637
 40
0.7883701504
 40
1.0
 40
1.0
 40
1.0
 40
1.0
 10
5.8160606384
 20
3.5103147273
 30
0.0
 10
5.815941001
 20
3.5102455605
 30
0.0
 10
5.8156615692
 20
3.5101116849
 30
0.0
 10
5.8151808055
 20
3.5099306244
 30
0.0
 10
5.8145941721
 20
3.5097489145
 30
0.0
 10
5.8139015202
 20
3.5095667325
 30
0.0
 10
5.8131026791
 20
3.5093841875
 30
0.0
 10
5.8118281983
 20
3.5091268492
 30
0.0
 10
5.8099693239
 20
3.5088115503
 30
0.0
 10
5.8074213922
 20
3.5084483066
 30
0.0
 10
5.8044555641
 20
3.5080840521
 30
0.0
 10
5.8010746246
 20
3.5077189978
 30
0.0
 10
5.797281814
 20
3.5073534565
 30
0.0
 10
5.7930809916
 20
3.5069874542
 30
0.0
 10
5.7866776116
 20
3.5064781558
 30
0.0
 10
5.7776876763
 20
3.5058502273
 30
0.0
 10
5.765747782
 20
3.5051217951
 30
0.0
 10
5.7572755961
 20
3.504661629
 30
0.0
 10
5.7527910949
 20
3.5044291207
 30
0.0
  0
SPLINE
  5
26E
100
AcDbEntity
  8
0
100
AcDbSpline
 62
7
  6
CONTINUOUS
 70
0
 71
3
 72
41
 73
37
 74
0
 42
0.0000001
 43
0.0000001
 44
0.0000000001
 40
0.0
 40
0.0
 40
0.0
 40
0.0
 40
0.0001737713
 40
0.000357089
 40
0.0007818604
 40
0.0013197787
 40
0.0019924393
 40
0.0028107178
 40
0.0037805009
 40
0.0049052104
 40
0.0061869503
 40
0.0092262198
 40
0.0129047333
 40
0.017223641
 40
0.0221810077
 40
0.0277739274
 40
0.0339989637
 40
0.0408523468
 40
0.0483293206
 40
0.0651266795
 40
0.0843343481
 40
0.105891404
 40
0.1297221504
 40
0.1557460969
 40
0.1838761028
 40
0.2140131014
 40
0.2460560007
 40
0.315410492
 40
0.390988142
 40
0.4717497273
 40
0.5565846678
 40
0.644328082
 40
0.7337741854
 40
0.823683967
 40
0.9128494284
 40
1.0
 40
1.0
 40
1.0
 40
1.0
 10
5.0371942569
 20
3.5242562591
 30
0.0
 10
5.0371942479
 20
3.5242842593
 30
0.0
 10
5.0372013287
 20
3.5243420089
 30
0.0
 10
5.0372452721
 20
3.5244610779
 30
0.0
 10
5.0373603352
 20
3.5246100632
 30
0.0
 10
5.037567235
 20
3.5247750083
 30
0.0
 10
5.037850642
 20
3.5249396673
 30
0.0
 10
5.0382117738
 20
3.5251043109
 30
0.0
 10
5.0386514176
 20
3.5252693868
 30
0.0
 10
5.0391698589
 20
3.5254347937
 30
0.0
 10
5.0400156234
 20
3.5256691957
 30
0.0
 10
5.0412730098
 20
3.5259555451
 30
0.0
 10
5.0430209244
 20
3.5262844754
 30
0.0
 10
5.0450823323
 20
3.5266144204
 30
0.0
 10
5.0474554029
 20
3.526945274
 30
0.0
 10
5.0501381459
 20
3.5272766924
 30
0.0
 10
5.0531284078
 20
3.527608536
 30
0.0
 10
5.0564238975
 20
3.5279406942
 30
0.0
 10
5.0614183762
 20
3.528401928
 30
0.0
 10
5.0684017595
 20
3.5289712532
 30
0.0
 10
5.0776533731
 20
3.5296325609
 30
0.0
 10
5.0880407901
 20
3.5302948387
 30
0.0
 10
5.0995284589
 20
3.5309581116
 30
0.0
 10
5.1120768116
 20
3.5316220163
 30
0.0
 10
5.1256425893
 20
3.5322863263
 30
0.0
 10
5.1401792712
 20
3.5329511135
 30
0.0
 10
5.1613541642
 20
3.5338619914
 30
0.0
 10
5.1898483771
 20
3.5349891615
 30
0.0
 10
5.2261909645
 20
3.5363109103
 30
0.0
 10
5.2650294348
 20
3.5376341334
 30
0.0
 10
5.3058292379
 20
3.5389584261
 30
0.0
 10
5.3480290842
 20
3.540283364
 30
0.0
 10
5.3910470332
 20
3.5416086324
 30
0.0
 10
5.4342942229
 20
3.542934054
 30
0.0
 10
5.4771713588
 20
3.5442593051
 30
0.0
 10
5.5055674169
 20
3.5451567127
 30
0.0
 10
5.519602922
 20
3.5456087593
 30
0.0
  0
SPLINE
  5
26F
100
AcDbEntity
  8
0
100
AcDbSpline
 62
7
  6
CONTINUOUS
 70
0
 71
3
 72
30
 73
26
 74
0
 42
0.0000001
 43
0.0000001
 44
0.0000000001
 40
0.0
 40
0.0
 40
0.0
 40
0.0
 40
0.2010805359
 40
0.2964742374
 40
0.3876761354
 40
0.4741863766
 40
0.5555184297
 40
0.6311966825
 40
0.7007934879
 40
0.7639109019
 40
0.8201948853
 40
0.8693247206
 40
0.8911191094
 40
0.9110275769
 40
0.9290217339
 40
0.9450752509
 40
0.9591702862
 40
0.9712927748
 40
0.981431126
 40
0.9857541552
 40
0.9895801744
 40
0.9929116619
 40
0.9957528462
 40
0.9981110848
 40
1.0
 40
1.0
 40
1.0
 40
1.0
 10
5.519602922
 20
3.5456087593
 30
0.0
 10
5.5369082661
 20
3.5461661187
 30
0.0
 10
5.5624227787
 20
3.5470064712
 30
0.0
 10
5.5957839163
 20
3.5481693625
 30
0.0
 10
5.6192844832
 20
3.5490258118
 30
0.0
 10
5.6415734241
 20
3.5498819005
 30
0.0
 10
5.662524662
 20
3.5507374304
 30
0.0
 10
5.6820182776
 20
3.5515923967
 30
0.0
 10
5.6999419169
 20
3.5524464044
 30
0.0
 10
5.7161935948
 20
3.5532991926
 30
0.0
 10
5.7306803327
 20
3.5541503187
 30
0.0
 10
5.7416094176
 20
3.5548835298
 30
0.0
 10
5.7494080907
 20
3.5554783957
 30
0.0
 10
5.7545306093
 20
3.5559061404
 30
0.0
 10
5.7591569714
 20
3.5563333331
 30
0.0
 10
5.7632804532
 20
3.5567599621
 30
0.0
 10
5.7668954645
 20
3.5571855783
 30
0.0
 10
5.7699972336
 20
3.5576099406
 30
0.0
 10
5.7722569016
 20
3.5579784223
 30
0.0
 10
5.773802648
 20
3.5582794443
 30
0.0
 10
5.7747680509
 20
3.5584927429
 30
0.0
 10
5.7756024624
 20
3.5587055525
 30
0.0
 10
5.7763061044
 20
3.5589177369
 30
0.0
 10
5.7768790587
 20
3.5591290598
 30
0.0
 10
5.7772105698
 20
3.5592859927
 30
0.0
 10
5.7773513926
 20
3.5593673758
 30
0.0
  0
ENDSEC
  0
SECTION
  2
OBJECTS
  0
DICTIONARY
  5
C
100
AcDbDictionary
280
0
281
1
  3
ACAD_GROUP
350
D
  3
ACAD_MLINESTYLE
350
17
  3
ACAD_LAYOUT
350
1A
  3
ACAD_PLOTSETTINGS
350
19
  3
ACAD_PLOTSTYLENAME
350
E
  0
DICTIONARY
  5
D
102
{ACAD_REACTORS
330
C
102
}
100
AcDbDictionary
280
0
281
1
  0
ACDBDICTIONARYWDFLT
  5
E
102
{ACAD_REACTORS
330
C
102
}
100
AcDbDictionary
281
1
  3
Normal
350
F
100
AcDbDictionaryWithDefault
340
F
  0
DICTIONARY
  5
17
102
{ACAD_REACTORS
330
C
102
}
100
AcDbDictionary
280
0
281
1
  3
Standard
350
18
  0
DICTIONARY
  5
19
102
{ACAD_REACTORS
330
C
102
}
100
AcDbDictionary
281
1
  0
DICTIONARY
  5
1A
102
{ACAD_REACTORS
330
C
102
}
100
AcDbDictionary
281
1
  3
Model
350
270
  3
Layout1
350
271
  0
ACDBPLACEHOLDER
  5
F
102
{ACAD_REACTORS
330
E
102
}
  0
MLINESTYLE
  5
18
102
{ACAD_REACTORS
330
17
102
}
100
AcDbMlineStyle
  2
STANDARD
 70
0
  3

 62
256
 51
90.0
 52
90.0
 71
2
 49
0.5
 62
256
  6
BYLAYER
 49
-0.5
 62
256
  6
BYLAYER
  0
LAYOUT
  5
270
102
{ACAD_REACTORS
330
1A
102
}
100
AcDbPlotSettings
  1

  2
none_device
  4
ANSI_A_(11.00_x_8.50_Inches)
  6

 40
0.0
 41
0.0
 42
0.0
 43
0.0
 44
279.4
 45
215.9
 46
0.0
 47
0.0
 48
0.0
 49
0.0
140
0.0
141
0.0
142
1.0
143
1.0
 70
1024
 72
0
 73
0
 74
0
  7

 75
0
147
1.0
148
0.0
149
0.0
100
AcDbLayout
  1
Model
 70
0
 71
0
 10
0.0
 20
0.0
 11
11.0
 21
8.5
 12
0.0
 22
0.0
 32
0.0
 14
0.0
 24
0.0
 34
0.0
 15
0.0
 25
0.0
 35
0.0
146
0.0
 13
0.0
 23
0.0
 33
0.0
 16
1.0
 26
0.0
 36
0.0
 17
0.0
 27
1.0
 37
0.0
 76
0
330
203
345
0
346
0
  0
LAYOUT
  5
271
102
{ACAD_REACTORS
330
1A
102
}
100
AcDbPlotSettings
  1

  2
none_device
  4
ANSI_A_(11.00_x_8.50_Inches)
  6

 40
0.0
 41
0.0
 42
0.0
 43
0.0
 44
279.4
 45
215.9
 46
0.0
 47
0.0
 48
0.0
 49
0.0
140
0.0
141
0.0
142
1.0
143
1.0
 70
0
 72
0
 73
0
 74
0
  7

 75
0
147
1.0
148
0.0
149
0.0
100
AcDbLayout
  1
Layout1
 70
0
 71
1
 10
0.0
 20
0.0
 11
11.0
 21
8.5
 12
0.0
 22
0.0
 32
0.0
 14
0.0
 24
0.0
 34
0.0
 15
0.0
 25
0.0
 35
0.0
146
0.0
 13
0.0
 23
0.0
 33
0.0
 16
1.0
 26
0.0
 36
0.0
 17
0.0
 27
1.0
 37
0.0
 76
0
330
204
345
0
346
0
  0
ENDSEC
  0
EOF
