999
DXF file: 285-5_right.dxf
999
Pro/ENGINEER 2023134 by Parametric Technology Corporation
  0
SECTION
  2
HEADER
  9
$ACADVER
  1
AC1032
  9
$DWGCODEPAGE
  3
ANSI_1252
  9
$EXTMAX
 10
11.0
 20
8.5
 30
0.0
  9
$EXTMIN
 10
0.0
 20
0.0
 30
0.0
  9
$LIMMIN
 10
0.0
 20
0.0
  9
$LIMMAX
 10
11.0
 20
8.5
  9
$VIEWCTR
 10
5.5
 20
4.25
  9
$VIEWSIZE
 40
8.5
  9
$CLAYER
  8
0
  9
$LTSCALE
 40
0.605
  9
$CELTYPE
  6
BYLAYER
  9
$DIMSCALE
 40
1.0
  9
$DIMASZ
 40
0.1
  9
$DIMEXO
 40
0.03125
  9
$DIMDLI
 40
0.418
  9
$DIMEXE
 40
0.0625
  9
$DIMCEN
 40
0.099
  9
$DIMLFAC
 40
1.0
  9
$DIMBLK
  1
_FILLED
  9
$DIMALT
 70
1
  9
$DIMALTD
 70
2
  9
$DIMALTTD
 70
2
  9
$DIMALTF
 40
25.4
  9
$DIMTXT
 40
0.08
  9
$DIMTOL
 70
1
  9
$DIMLIM
 70
0
  9
$DIMTFAC
 40
1.0
  9
$DIMTP
 40
0.001
  9
$DIMTM
 40
0.001
  9
$DIMGAP
 40
0.09
  9
$DIMDSEP
 70
46
  9
$AUNITS
 70
0
  9
$PDMODE
 70
3
  9
$PDSIZE
 40
0.06
  9
$HANDSEED
  5
270
  9
$TILEMODE
 70
1
  9
$MEASUREMENT
 70
0
  9
$INSUNITS
 70
1
  0
ENDSEC
  0
SECTION
  2
CLASSES
  0
CLASS
  1
ACDBDICTIONARYWDFLT
  2
AcDbDictionaryWithDefault
  3
AutoCAD 2000
 90
0
 91
1
280
0
281
0
  0
CLASS
  1
ACDBPLACEHOLDER
  2
AcDbPlaceHolder
  3
AutoCAD 2000
 90
0
 91
1
280
0
281
0
  0
CLASS
  1
LAYOUT
  2
AcDbLayout
  3
AutoCAD 2000
 90
0
 91
0
280
0
281
0
  0
ENDSEC
  0
SECTION
  2
TABLES
  0
TABLE
  2
VPORT
  5
8
100
AcDbSymbolTable
 70
2
  0
VPORT
  5
1F4
100
AcDbSymbolTableRecord
100
AcDbViewportTableRecord
  2
*ACTIVE
 70
0
 10
0.0
 20
0.0
 11
1.0
 21
1.0
 12
5.5
 22
4.25
 13
0.0
 23
0.0
 14
1.0
 24
1.0
 15
0.0
 25
0.0
 16
0.0
 26
0.0
 36
1.0
 17
0.0
 27
0.0
 37
0.0
 40
8.5
 41
1.2941176471
 42
50.0
 43
0.0
 44
0.0
 50
0.0
 51
0.0
 71
0
 72
100
 73
1
 74
1
 75
0
 76
0
 77
0
 78
0
  0
ENDTAB
  0
TABLE
  2
LTYPE
  5
5
100
AcDbSymbolTable
 70
6
  0
LTYPE
  5
14
100
AcDbSymbolTableRecord
100
AcDbLinetypeTableRecord
  2
BYBLOCK
 70
0
  3

 72
65
 73
0
 40
0.0
  0
LTYPE
  5
15
100
AcDbSymbolTableRecord
100
AcDbLinetypeTableRecord
  2
BYLAYER
 70
0
  3

 72
65
 73
0
 40
0.0
  0
LTYPE
  5
16
100
AcDbSymbolTableRecord
100
AcDbLinetypeTableRecord
  2
CONTINUOUS
 70
64
  3
Solid line
 72
65
 73
0
 40
0.0
  0
LTYPE
  5
1F5
100
AcDbSymbolTableRecord
100
AcDbLinetypeTableRecord
  2
CENTER
 70
64
  3
____ _ ____ _ ____ _ ____ _ ____ _ ____ _ ____
 72
65
 73
4
 40
0.6
 49
0.375
 74
0
 49
-0.075
 74
0
 49
0.075
 74
0
 49
-0.075
 74
0
  0
LTYPE
  5
1F6
100
AcDbSymbolTableRecord
100
AcDbLinetypeTableRecord
  2
HIDDEN
 70
64
  3
- - - - - - - - - - - - - - - - - - - -
 72
65
 73
2
 40
0.2
 49
0.1
 74
0
 49
-0.1
 74
0
  0
LTYPE
  5
1F7
100
AcDbSymbolTableRecord
100
AcDbLinetypeTableRecord
  2
PHANTOM
 70
64
  3
_____ _ _ _____ _ _ _____ _ _ _____
 72
65
 73
6
 40
0.8
 49
0.45
 74
0
 49
-0.05
 74
0
 49
0.1
 74
0
 49
-0.05
 74
0
 49
0.1
 74
0
 49
-0.05
 74
0
  0
LTYPE
  5
1F8
100
AcDbSymbolTableRecord
100
AcDbLinetypeTableRecord
  2
DOT
 70
64
  3
. . . . . . . . . . . . . . . . . . . .
 72
65
 73
2
 40
0.2
 49
0.1
 74
0
 49
-0.1
 74
0
  0
LTYPE
  5
1F9
100
AcDbSymbolTableRecord
100
AcDbLinetypeTableRecord
  2
DASHED
 70
64
  3
- - - - - - - - - - - - - - - - - - - -
 72
65
 73
2
 40
0.2
 49
0.1
 74
0
 49
-0.1
 74
0
  0
ENDTAB
  0
TABLE
  2
LAYER
  5
2
100
AcDbSymbolTable
 70
36
  0
LAYER
  5
10
100
AcDbSymbolTableRecord
100
AcDbLayerTableRecord
  2
0
 70
0
 62
7
  6
CONTINUOUS
370
-3
390
F
  0
LAYER
  5
1FA
100
AcDbSymbolTableRecord
100
AcDbLayerTableRecord
  2
DEFAULT_1
 70
0
 62
7
  6
CENTER
370
-3
390
F
  0
LAYER
  5
1FB
100
AcDbSymbolTableRecord
100
AcDbLayerTableRecord
  2
DEFAULT_2
 70
0
 62
8
  6
HIDDEN
370
-3
390
F
  0
LAYER
  5
1FC
100
AcDbSymbolTableRecord
100
AcDbLayerTableRecord
  2
DEFAULT_3
 70
0
 62
7
  6
PHANTOM
370
-3
390
F
  0
LAYER
  5
1FD
100
AcDbSymbolTableRecord
100
AcDbLayerTableRecord
  2
DEFAULT_COORDINATE_SYSTEM
 70
0
 62
7
  6
CONTINUOUS
370
-3
390
F
  0
LAYER
  5
1FE
100
AcDbSymbolTableRecord
100
AcDbLayerTableRecord
  2
DEFAULT_DATUM_AXES
 70
0
 62
7
  6
CONTINUOUS
370
-3
390
F
  0
LAYER
  5
1FF
100
AcDbSymbolTableRecord
100
AcDbLayerTableRecord
  2
DEFAULT_DATUM_CURVES
 70
0
 62
7
  6
CONTINUOUS
370
-3
390
F
  0
LAYER
  5
200
100
AcDbSymbolTableRecord
100
AcDbLayerTableRecord
  2
DEFAULT_DATUM_PLANES
 70
0
 62
7
  6
CONTINUOUS
370
-3
390
F
  0
ENDTAB
  0
TABLE
  2
STYLE
  5
3
100
AcDbSymbolTable
 70
1
  0
STYLE
  5
11
100
AcDbSymbolTableRecord
100
AcDbTextStyleTableRecord
  2
STANDARD
 70
0
 40
0.0
 41
0.8
 50
0.0
 71
0
 42
0.2
  3
txt
  4

  0
STYLE
  5
201
100
AcDbSymbolTableRecord
100
AcDbTextStyleTableRecord
  2
TEXTSTYLE_1
 70
0
 40
0.0
 41
0.8
 50
0.0
 71
0
 42
0.2
  3
gdt
  4

  0
ENDTAB
  0
TABLE
  2
VIEW
  5
6
100
AcDbSymbolTable
 70
0
  0
ENDTAB
  0
TABLE
  2
UCS
  5
7
100
AcDbSymbolTable
 70
0
  0
ENDTAB
  0
TABLE
  2
APPID
  5
9
100
AcDbSymbolTable
 70
1
  0
APPID
  5
202
100
AcDbSymbolTableRecord
100
AcDbRegAppTableRecord
  2
ACAD
 70
0
  0
ENDTAB
  0
TABLE
  2
BLOCK_RECORD
  5
1
100
AcDbSymbolTable
 70
0
  0
BLOCK_RECORD
  5
203
100
AcDbSymbolTableRecord
100
AcDbBlockTableRecord
  2
*Model_Space
  0
BLOCK_RECORD
  5
204
100
AcDbSymbolTableRecord
100
AcDbBlockTableRecord
  2
*Paper_Space
  0
BLOCK_RECORD
  5
205
100
AcDbSymbolTableRecord
100
AcDbBlockTableRecord
  2
_FILLED
  0
ENDTAB
  0
TABLE
  2
DIMSTYLE
  5
A
100
AcDbSymbolTable
 70
1
100
AcDbDimStyleTable
 71
0
  0
DIMSTYLE
105
206
100
AcDbSymbolTableRecord
100
AcDbDimStyleTableRecord
  2
STANDARD
 70
0
  3

  4

 40
1.0
 41
0.1
 42
0.03125
 43
0.38
 44
0.0625
 45
0.0
 46
0.0
 47
0.001
 48
0.001
140
0.08
141
0.09
142
0.0
143
25.4
144
1.0
145
0.0
146
1.0
147
0.09
 71
1
 72
0
 73
1
 74
1
 75
0
 76
0
 77
0
 78
4
 79
1
170
1
171
2
172
0
173
0
174
0
175
0
176
0
177
0
178
0
270
2
179
3
271
3
272
3
273
2
274
2
275
0
280
0
281
0
282
0
283
1
284
4
285
0
286
0
287
3
288
0
340
11
278
46
341
205
342
205
343
205
344
205
  0
ENDTAB
  0
ENDSEC
  0
SECTION
  2
BLOCKS
  0
BLOCK
  5
20
100
AcDbEntity
  8
0
100
AcDbBlockBegin
  2
*Model_Space
 70
0
 10
0.0
 20
0.0
 30
0.0
  3
*Model_Space
  1

  0
ENDBLK
  5
21
100
AcDbEntity
  8
0
100
AcDbBlockEnd
  0
BLOCK
  5
1C
100
AcDbEntity
  8
0
100
AcDbBlockBegin
  2
*Paper_Space
 70
0
 10
0.0
 20
0.0
 30
0.0
  3
*Paper_Space
  1

  0
ENDBLK
  5
1D
100
AcDbEntity
  8
0
100
AcDbBlockEnd
  0
BLOCK
  5
207
100
AcDbEntity
  8
0
100
AcDbBlockBegin
  2
_FILLED
 70
64
 10
0.0
 20
0.0
  3
_FILLED
  1

  0
SOLID
  5
208
100
AcDbEntity
  8
0
  6
BYBLOCK
 62
0
100
AcDbTrace
 10
0.0
 20
0.0
 11
-1.0
 21
0.2
 12
-1.0
 22
-0.2
 13
-1.0
 23
-0.2
  0
ENDBLK
  5
209
100
AcDbEntity
  8
0
  6
BYBLOCK
 62
0
100
AcDbBlockEnd
  0
ENDSEC
  0
SECTION
  2
ENTITIES
  0
MTEXT
  5
20A
100
AcDbEntity
  8
0
100
AcDbMText
 62
2
  6
CONTINUOUS
  7
STANDARD
 71
3
 72
1
 10
5.811741683
 20
2.4447715864
 30
0.0
 11
1.0
 21
0.0
 31
0.0
 73
2
 44
0.9
  1
SCALE 1.000
 40
0.08
 41
0.704
  0
LINE
  5
20B
100
AcDbEntity
  8
0
100
AcDbLine
 62
7
  6
CONTINUOUS
 10
0.0
 20
0.0
 11
0.0
 21
8.5
  0
LINE
  5
20C
100
AcDbEntity
  8
0
100
AcDbLine
 62
7
  6
CONTINUOUS
 10
0.0
 20
0.0
 11
11.0
 21
0.0
  0
LINE
  5
20D
100
AcDbEntity
  8
0
100
AcDbLine
 62
7
  6
CONTINUOUS
 10
0.0
 20
8.5
 11
11.0
 21
8.5
  0
LINE
  5
20E
100
AcDbEntity
  8
0
100
AcDbLine
 62
7
  6
CONTINUOUS
 10
11.0
 20
0.0
 11
11.0
 21
8.5
  0
LINE
  5
20F
100
AcDbEntity
  8
0
100
AcDbLine
 62
7
  6
CONTINUOUS
 10
4.6371942466
 20
3.4703818873
 11
4.6274648916
 21
3.476006844
  0
LINE
  5
210
100
AcDbEntity
  8
0
100
AcDbLine
 62
7
  6
CONTINUOUS
 10
4.6001164714
 20
3.5028468958
 11
4.6255660868
 21
3.4773972804
  0
LINE
  5
211
100
AcDbEntity
  8
0
100
AcDbLine
 62
7
  6
CONTINUOUS
 10
4.6371942466
 20
3.4657691207
 11
4.6385342466
 21
3.4644291207
  0
LINE
  5
212
100
AcDbEntity
  8
0
100
AcDbLine
 62
7
  6
CONTINUOUS
 10
4.6371942466
 20
3.5418118873
 11
4.5990074141
 21
3.5638872263
  0
LINE
  5
213
100
AcDbEntity
  8
0
100
AcDbLine
 62
7
  6
CONTINUOUS
 10
4.5985342466
 20
3.5644341207
 11
4.5990074141
 21
3.5638872263
  0
LINE
  5
214
100
AcDbEntity
  8
0
100
AcDbLine
 62
7
  6
CONTINUOUS
 10
4.5990074141
 20
3.6353172263
 11
4.5985342466
 21
3.6358641207
  0
LINE
  5
215
100
AcDbEntity
  8
0
100
AcDbLine
 62
7
  6
CONTINUOUS
 10
4.6371942466
 20
3.6132418873
 11
4.5990074141
 21
3.6353172263
  0
LINE
  5
216
100
AcDbEntity
  8
0
100
AcDbLine
 62
7
  6
CONTINUOUS
 10
4.6371942466
 20
3.6846718873
 11
4.6049166913
 21
3.7033314941
  0
LINE
  5
217
100
AcDbEntity
  8
0
100
AcDbLine
 62
7
  6
CONTINUOUS
 10
5.3765342466
 20
3.4644291207
 11
4.6385342466
 21
3.4644291207
  0
LINE
  5
218
100
AcDbEntity
  8
0
100
AcDbLine
 62
7
  6
CONTINUOUS
 10
4.8524485695
 20
3.4657691207
 11
4.6371942466
 21
3.4657691207
  0
LINE
  5
219
100
AcDbEntity
  8
0
100
AcDbLine
 62
7
  6
CONTINUOUS
 10
4.7882656701
 20
3.5044291207
 11
4.6083503597
 21
3.5044291207
  0
LINE
  5
21A
100
AcDbEntity
  8
0
100
AcDbLine
 62
7
  6
CONTINUOUS
 10
4.6049166913
 20
3.7033314941
 11
4.604788406
 21
3.7036832801
  0
LINE
  5
21B
100
AcDbEntity
  8
0
100
AcDbLine
 62
7
  6
CONTINUOUS
 10
5.3778742466
 20
3.4888406316
 11
5.3921754107
 21
3.4805726505
  0
LINE
  5
21C
100
AcDbEntity
  8
0
100
AcDbLine
 62
7
  6
CONTINUOUS
 10
4.5075342466
 20
3.8214291207
 11
4.5075342466
 21
5.3214291207
  0
LINE
  5
21D
100
AcDbEntity
  8
0
100
AcDbLine
 62
7
  6
CONTINUOUS
 10
5.3778742466
 20
3.5602706316
 11
5.4160610791
 21
3.5381952922
  0
LINE
  5
21E
100
AcDbEntity
  8
0
100
AcDbLine
 62
7
  6
CONTINUOUS
 10
4.5985342466
 20
3.5644341207
 11
4.5985342466
 21
3.5733633979
  0
LINE
  5
21F
100
AcDbEntity
  8
0
100
AcDbLine
 62
7
  6
CONTINUOUS
 10
4.5985342466
 20
3.6358641207
 11
4.5985342466
 21
3.6447933979
  0
LINE
  5
220
100
AcDbEntity
  8
0
100
AcDbLine
 62
7
  6
CONTINUOUS
 10
4.6371942466
 20
3.4657691207
 11
4.6371942466
 21
3.4706837593
  0
LINE
  5
221
100
AcDbEntity
  8
0
100
AcDbLine
 62
7
  6
CONTINUOUS
 10
4.6371942466
 20
3.5245556316
 11
4.6371942466
 21
3.5421137593
  0
LINE
  5
222
100
AcDbEntity
  8
0
100
AcDbLine
 62
7
  6
CONTINUOUS
 10
4.6371942466
 20
3.5959856316
 11
4.6371942466
 21
3.6135437593
  0
LINE
  5
223
100
AcDbEntity
  8
0
100
AcDbLine
 62
7
  6
CONTINUOUS
 10
4.6371942466
 20
3.6674156316
 11
4.6371942466
 21
3.6849737593
  0
LINE
  5
224
100
AcDbEntity
  8
0
100
AcDbLine
 62
7
  6
CONTINUOUS
 10
4.6425342466
 20
3.7414291207
 11
4.6425342466
 21
3.8214291207
  0
LINE
  5
225
100
AcDbEntity
  8
0
100
AcDbLine
 62
7
  6
CONTINUOUS
 10
5.3725342466
 20
3.7414291207
 11
4.6425342466
 21
3.7414291207
  0
LINE
  5
226
100
AcDbEntity
  8
0
100
AcDbLine
 62
7
  6
CONTINUOUS
 10
4.5075342466
 20
3.8214291207
 11
5.5075342466
 21
3.8214291207
  0
LINE
  5
227
100
AcDbEntity
  8
0
100
AcDbLine
 62
7
  6
CONTINUOUS
 10
5.3778742466
 20
3.6317006316
 11
5.4160610791
 21
3.6096252922
  0
LINE
  5
228
100
AcDbEntity
  8
0
100
AcDbLine
 62
7
  6
CONTINUOUS
 10
5.3778742466
 20
3.7031306316
 11
5.4160610791
 21
3.6810552922
  0
LINE
  5
229
100
AcDbEntity
  8
0
100
AcDbLine
 62
7
  6
CONTINUOUS
 10
6.3075342466
 20
3.9464291207
 11
6.0175342466
 21
3.9464291207
  0
LINE
  5
22A
100
AcDbEntity
  8
0
100
AcDbLine
 62
7
  6
CONTINUOUS
 10
5.3876376845
 20
3.7263256828
 11
5.3725342466
 21
3.7414291207
  0
LINE
  5
22B
100
AcDbEntity
  8
0
100
AcDbLine
 62
7
  6
CONTINUOUS
 10
5.4160610791
 20
3.6096252922
 11
5.4165342466
 21
3.6090783979
  0
LINE
  5
22C
100
AcDbEntity
  8
0
100
AcDbLine
 62
7
  6
CONTINUOUS
 10
5.4165342466
 20
3.6805083979
 11
5.4160610791
 21
3.6810552922
  0
LINE
  5
22D
100
AcDbEntity
  8
0
100
AcDbLine
 62
7
  6
CONTINUOUS
 10
5.392309619
 20
3.4802044931
 11
5.3921754107
 21
3.4805726505
  0
LINE
  5
22E
100
AcDbEntity
  8
0
100
AcDbLine
 62
7
  6
CONTINUOUS
 10
5.9975342466
 20
4.3214291207
 11
5.5075342466
 21
4.3214291207
  0
LINE
  5
22F
100
AcDbEntity
  8
0
100
AcDbLine
 62
7
  6
CONTINUOUS
 10
5.3725342466
 20
3.7414291207
 11
5.3725342466
 21
3.8214291207
  0
LINE
  5
230
100
AcDbEntity
  8
0
100
AcDbLine
 62
7
  6
CONTINUOUS
 10
5.3778742466
 20
3.7203868873
 11
5.3778742466
 21
3.7028287593
  0
LINE
  5
231
100
AcDbEntity
  8
0
100
AcDbLine
 62
7
  6
CONTINUOUS
 10
5.3778742466
 20
3.6489568873
 11
5.3778742466
 21
3.6313987593
  0
LINE
  5
232
100
AcDbEntity
  8
0
100
AcDbLine
 62
7
  6
CONTINUOUS
 10
5.3778742466
 20
3.5775268873
 11
5.3778742466
 21
3.5599687593
  0
LINE
  5
233
100
AcDbEntity
  8
0
100
AcDbLine
 62
7
  6
CONTINUOUS
 10
5.3778742466
 20
3.5060968873
 11
5.3778742466
 21
3.4885387593
  0
LINE
  5
234
100
AcDbEntity
  8
0
100
AcDbLine
 62
7
  6
CONTINUOUS
 10
5.4165342466
 20
3.6805083979
 11
5.4165342466
 21
3.6715791207
  0
LINE
  5
235
100
AcDbEntity
  8
0
100
AcDbLine
 62
7
  6
CONTINUOUS
 10
5.4165342466
 20
3.5376483979
 11
5.4165342466
 21
3.5287191207
  0
LINE
  5
236
100
AcDbEntity
  8
0
100
AcDbLine
 62
7
  6
CONTINUOUS
 10
5.4165342466
 20
3.6001491207
 11
5.4165342466
 21
3.6090783979
  0
LINE
  5
237
100
AcDbEntity
  8
0
100
AcDbLine
 62
7
  6
CONTINUOUS
 10
4.5985342466
 20
3.6447933979
 11
4.5990074141
 21
3.6453402922
  0
LINE
  5
238
100
AcDbEntity
  8
0
100
AcDbLine
 62
7
  6
CONTINUOUS
 10
5.5075342466
 20
3.8214291207
 11
5.5075342466
 21
4.3214291207
  0
LINE
  5
239
100
AcDbEntity
  8
0
100
AcDbLine
 62
7
  6
CONTINUOUS
 10
4.5990074141
 20
3.5739102922
 11
4.5985342466
 21
3.5733633979
  0
LINE
  5
23A
100
AcDbEntity
  8
0
100
AcDbLine
 62
7
  6
CONTINUOUS
 10
4.604788406
 20
3.7036832801
 11
4.6425342466
 21
3.7414291207
  0
LINE
  5
23B
100
AcDbEntity
  8
0
100
AcDbLine
 62
7
  6
CONTINUOUS
 10
5.3875018465
 20
3.7259530171
 11
5.3876376845
 21
3.7263256828
  0
LINE
  5
23C
100
AcDbEntity
  8
0
100
AcDbLine
 62
7
  6
CONTINUOUS
 10
4.5990074141
 20
3.6453402922
 11
4.6377166094
 21
3.667717642
  0
LINE
  5
23D
100
AcDbEntity
  8
0
100
AcDbLine
 62
7
  6
CONTINUOUS
 10
4.5990074141
 20
3.5739102922
 11
4.6377166094
 21
3.596287642
  0
LINE
  5
23E
100
AcDbEntity
  8
0
100
AcDbLine
 62
7
  6
CONTINUOUS
 10
4.6002433012
 20
3.5031946609
 11
4.6377166094
 21
3.524857642
  0
LINE
  5
23F
100
AcDbEntity
  8
0
100
AcDbLine
 62
7
  6
CONTINUOUS
 10
5.9975342466
 20
3.9664291207
 11
5.9975342466
 21
5.6764291207
  0
LINE
  5
240
100
AcDbEntity
  8
0
100
AcDbLine
 62
7
  6
CONTINUOUS
 10
6.0175342466
 20
3.9464291207
 11
6.0175342466
 21
5.6964291207
  0
LINE
  5
241
100
AcDbEntity
  8
0
100
AcDbLine
 62
7
  6
CONTINUOUS
 10
5.4165342466
 20
3.6715791207
 11
5.4160610791
 21
3.6710322263
  0
LINE
  5
242
100
AcDbEntity
  8
0
100
AcDbLine
 62
7
  6
CONTINUOUS
 10
5.4160610791
 20
3.5996022263
 11
5.4165342466
 21
3.6001491207
  0
LINE
  5
243
100
AcDbEntity
  8
0
100
AcDbLine
 62
7
  6
CONTINUOUS
 10
5.392309619
 20
3.4802044931
 11
5.3765342466
 21
3.4644291207
  0
LINE
  5
244
100
AcDbEntity
  8
0
100
AcDbLine
 62
7
  6
CONTINUOUS
 10
5.3875018465
 20
3.7259530171
 11
5.3773518838
 21
3.7200848765
  0
LINE
  5
245
100
AcDbEntity
  8
0
100
AcDbLine
 62
7
  6
CONTINUOUS
 10
5.9975342466
 20
5.3214291207
 11
4.5075342466
 21
5.3214291207
  0
LINE
  5
246
100
AcDbEntity
  8
0
100
AcDbLine
 62
7
  6
CONTINUOUS
 10
5.4160610791
 20
3.6710322263
 11
5.3773518838
 21
3.6486548765
  0
LINE
  5
247
100
AcDbEntity
  8
0
100
AcDbLine
 62
7
  6
CONTINUOUS
 10
5.4160610791
 20
3.5996022263
 11
5.3773518838
 21
3.5772248765
  0
LINE
  5
248
100
AcDbEntity
  8
0
100
AcDbLine
 62
7
  6
CONTINUOUS
 10
6.3075342466
 20
3.9464291207
 11
6.3075342466
 21
5.6964291207
  0
LINE
  5
249
100
AcDbEntity
  8
0
100
AcDbLine
 62
7
  6
CONTINUOUS
 10
5.4160610791
 20
3.5281722263
 11
5.3773518838
 21
3.5057948765
  0
LINE
  5
24A
100
AcDbEntity
  8
0
100
AcDbLine
 62
7
  6
CONTINUOUS
 10
6.3075342466
 20
5.6964291207
 11
6.0175342466
 21
5.6964291207
  0
ARC
  5
24B
100
AcDbEntity
  8
0
100
AcDbCircle
 62
7
  6
CONTINUOUS
 10
6.0175342466
 20
5.6764291207
 40
0.02
100
AcDbArc
 50
90.0
 51
180.0
  0
ARC
  5
24C
100
AcDbEntity
  8
0
100
AcDbCircle
 62
7
  6
CONTINUOUS
 10
6.0175342466
 20
3.9664291207
 40
0.02
100
AcDbArc
 50
180.0
 51
270.0
  0
LINE
  5
24D
100
AcDbEntity
  8
0
100
AcDbLine
 62
7
  6
CONTINUOUS
 10
5.4165340735
 20
3.5287191213
 11
5.4160609338
 21
3.5281722257
  0
LINE
  5
24E
100
AcDbEntity
  8
0
100
AcDbLine
 62
7
  6
CONTINUOUS
 10
5.416533656
 20
3.5376483979
 11
5.4160608572
 21
3.5381952915
  0
SPLINE
  5
24F
100
AcDbEntity
  8
0
100
AcDbSpline
 62
7
  6
CONTINUOUS
 70
0
 71
3
 72
14
 73
10
 74
0
 42
0.0000001
 43
0.0000001
 44
0.0000000001
 40
0.0
 40
0.0
 40
0.0
 40
0.0
 40
0.1258643349
 40
0.2336626582
 40
0.3315500429
 40
0.4301751772
 40
0.5399755021
 40
0.6687008861
 40
1.0
 40
1.0
 40
1.0
 40
1.0
 10
4.6001164537
 20
3.5028468951
 30
0.0
 10
4.6001031318
 20
3.5028602115
 30
0.0
 10
4.6000801716
 20
3.5028869257
 30
0.0
 10
4.6000572223
 20
3.5029316174
 30
0.0
 10
4.6000500195
 20
3.5029775138
 30
0.0
 10
4.6000594216
 20
3.503023286
 30
0.0
 10
4.6000843832
 20
3.503067821
 30
0.0
 10
4.6001420162
 20
3.5031313032
 30
0.0
 10
4.6002002159
 20
3.5031698514
 30
0.0
 10
4.6002431429
 20
3.5031946603
 30
0.0
  0
LINE
  5
250
100
AcDbEntity
  8
0
100
AcDbLine
 62
7
  6
CONTINUOUS
 10
4.625566097
 20
3.4773972801
 11
4.627465443
 21
3.4760068457
  0
SPLINE
  5
251
100
AcDbEntity
  8
0
100
AcDbSpline
 62
7
  6
CONTINUOUS
 70
0
 71
3
 72
55
 73
51
 74
0
 42
0.0000001
 43
0.0000001
 44
0.0000000001
 40
0.0
 40
0.0
 40
0.0
 40
0.0
 40
0.0073504637
 40
0.0156429459
 40
0.0248589968
 40
0.0349798969
 40
0.0578534123
 40
0.0840889995
 40
0.113484048
 40
0.1458090157
 40
0.1808095916
 40
0.2182139731
 40
0.2577279497
 40
0.2990430498
 40
0.3857698587
 40
0.4756828825
 40
0.5209571076
 40
0.5659704207
 40
0.6103704991
 40
0.6538091284
 40
0.6959468385
 40
0.7364526118
 40
0.7750104461
 40
0.8113175873
 40
0.8450904064
 40
0.8760651392
 40
0.90399867
 40
0.9286750786
 40
0.9397297197
 40
0.9499004721
 40
0.95916798
 40
0.9675132871
 40
0.9749211515
 40
0.9813790761
 40
0.9842480827
 40
0.9868752059
 40
0.9892594376
 40
0.9914003483
 40
0.9932977213
 40
0.9949516225
 40
0.9963625968
 40
0.997532067
 40
0.9980272228
 40
0.9984634954
 40
0.9988420503
 40
0.9991647151
 40
0.9994344554
 40
0.9996563687
 40
0.9998395886
 40
1.0
 40
1.0
 40
1.0
 40
1.0
 10
4.6177104603
 20
3.5054283979
 30
0.0
 10
4.619662316
 20
3.5056076819
 30
0.0
 10
4.6238187247
 20
3.5059615563
 30
0.0
 10
4.6304288106
 20
3.5064613973
 30
0.0
 10
4.6377794901
 20
3.506962117
 30
0.0
 10
4.6490137753
 20
3.5076590486
 30
0.0
 10
4.6647849221
 20
3.5085169774
 30
0.0
 10
4.6856952255
 20
3.509512503
 30
0.0
 10
4.709128289
 20
3.5105101683
 30
0.0
 10
4.7349004524
 20
3.5115093873
 30
0.0
 10
4.762809809
 20
3.5125097535
 30
0.0
 10
4.7926373001
 20
3.5135108539
 30
0.0
 10
4.8241494896
 20
3.5145126202
 30
0.0
 10
4.8688092505
 20
3.5158708156
 30
0.0
 10
4.9269049061
 20
3.5175465773
 30
0.0
 10
4.986057486
 20
3.519194502
 30
0.0
 10
5.0340911858
 20
3.5205286252
 30
0.0
 10
5.0699929375
 20
3.5215315209
 30
0.0
 10
5.1054050207
 20
3.5225342954
 30
0.0
 10
5.1400499887
 20
3.5235369121
 30
0.0
 10
5.173656066
 20
3.5245392297
 30
0.0
 10
5.2059600441
 20
3.5255412213
 30
0.0
 10
5.2367084823
 20
3.526542674
 30
0.0
 10
5.265660534
 20
3.5275434675
 30
0.0
 10
5.2925892248
 20
3.5285433545
 30
0.0
 10
5.3172834156
 20
3.5295418479
 30
0.0
 10
5.3395498492
 20
3.5305387529
 30
0.0
 10
5.3565051562
 20
3.5313953976
 30
0.0
 10
5.3687256478
 20
3.5320896936
 30
0.0
 10
5.3768414616
 20
3.5325907601
 30
0.0
 10
5.384233345
 20
3.5330912684
 30
0.0
 10
5.3908866789
 20
3.5335911543
 30
0.0
 10
5.3967885126
 20
3.534090245
 30
0.0
 10
5.4012304294
 20
3.5345201721
 30
0.0
 10
5.4043990538
 20
3.5348684476
 30
0.0
 10
5.4064854729
 20
3.5351190685
 30
0.0
 10
5.4083762403
 20
3.5353694721
 30
0.0
 10
5.4100705872
 20
3.5356195734
 30
0.0
 10
5.4115678895
 20
3.5358692725
 30
0.0
 10
5.4128676585
 20
3.5361183466
 30
0.0
 10
5.413969349
 20
3.536366682
 30
0.0
 10
5.4147610513
 20
3.5365827712
 30
0.0
 10
5.4152928313
 20
3.5367594648
 30
0.0
 10
5.4156192048
 20
3.5368843954
 30
0.0
 10
5.415895929
 20
3.5370091489
 30
0.0
 10
5.4161232643
 20
3.5371337984
 30
0.0
 10
5.416301709
 20
3.5372585758
 30
0.0
 10
5.416431859
 20
3.5373844017
 30
0.0
 10
5.4165138385
 20
3.5375134015
 30
0.0
 10
5.4165336567
 20
3.5376056226
 30
0.0
 10
5.416533656
 20
3.5376483979
 30
0.0
  0
SPLINE
  5
252
100
AcDbEntity
  8
0
100
AcDbSpline
 62
7
  6
CONTINUOUS
 70
0
 71
3
 72
66
 73
62
 74
0
 42
0.0000001
 43
0.0000001
 44
0.0000000001
 40
0.0
 40
0.0
 40
0.0
 40
0.0
 40
0.0001884145
 40
0.0004030017
 40
0.0006622069
 40
0.0009766993
 40
0.0013523934
 40
0.0017926954
 40
0.00229967
 40
0.0028746273
 40
0.0042315201
 40
0.0058676784
 40
0.0077850198
 40
0.0099844237
 40
0.0124659176
 40
0.0152285015
 40
0.0182708592
 40
0.0215915332
 40
0.0290614989
 40
0.0376245947
 40
0.0472610501
 40
0.0579484382
 40
0.0696639002
 40
0.0823805508
 40
0.1106950404
 40
0.1426327194
 40
0.1778962211
 40
0.2161587624
 40
0.257065823
 40
0.3002360407
 40
0.3452693806
 40
0.3917464782
 40
0.439235379
 40
0.4872946758
 40
0.5354772108
 40
0.5833351901
 40
0.6304232148
 40
0.6763041004
 40
0.7205503788
 40
0.7627515659
 40
0.802515306
 40
0.8394715072
 40
0.8732786842
 40
0.9036215296
 40
0.9174058052
 40
0.9302207162
 40
0.9420380872
 40
0.9528312564
 40
0.9625741224
 40
0.9712454716
 40
0.9788273603
 40
0.9853025649
 40
0.9881209495
 40
0.9906586226
 40
0.9929149806
 40
0.9948897251
 40
0.9965830684
 40
0.9979961472
 40
0.9991322613
 40
0.9995988941
 40
1.0
 40
1.0
 40
1.0
 40
1.0
 10
4.6371944851
 20
3.6135437584
 30
0.0
 10
4.637194437
 20
3.6135903417
 30
0.0
 10
4.6372155842
 20
3.6136906436
 30
0.0
 10
4.6373036496
 20
3.6138312642
 30
0.0
 10
4.6374437282
 20
3.6139684408
 30
0.0
 10
4.6376358354
 20
3.6141044447
 30
0.0
 10
4.6378805369
 20
3.6142402969
 30
0.0
 10
4.6381782983
 20
3.6143762541
 30
0.0
 10
4.6385293367
 20
3.6145124034
 30
0.0
 10
4.6391009135
 20
3.6147049185
 30
0.0
 10
4.6399516462
 20
3.6149404128
 30
0.0
 10
4.6411353626
 20
3.6152110675
 30
0.0
 10
4.6425317713
 20
3.6154825159
 30
0.0
 10
4.6441403757
 20
3.61575462
 30
0.0
 10
4.6459604954
 20
3.6160271242
 30
0.0
 10
4.6479910356
 20
3.6162999685
 30
0.0
 10
4.6502306981
 20
3.6165730805
 30
0.0
 10
4.6536296828
 20
3.6169525443
 30
0.0
 10
4.6583918868
 20
3.6174210206
 30
0.0
 10
4.6647151573
 20
3.6179647582
 30
0.0
 10
4.6718364169
 20
3.6185094378
 30
0.0
 10
4.6797390296
 20
3.6190549157
 30
0.0
 10
4.6884047949
 20
3.619600883
 30
0.0
 10
4.7014239241
 20
3.6203566866
 30
0.0
 10
4.7194406863
 20
3.6212894468
 30
0.0
 10
4.7430309687
 20
3.6223753538
 30
0.0
 10
4.7690830569
 20
3.6234631558
 30
0.0
 10
4.7973544228
 20
3.6245523906
 30
0.0
 10
4.8275819465
 20
3.6256425568
 30
0.0
 10
4.8594844702
 20
3.6267334818
 30
0.0
 10
4.8927648738
 20
3.627824871
 30
0.0
 10
4.9271135639
 20
3.628916631
 30
0.0
 10
4.9622107484
 20
3.6300086154
 30
0.0
 10
4.99772978
 20
3.6311007153
 30
0.0
 10
5.0333401038
 20
3.6321928508
 30
0.0
 10
5.068710181
 20
3.6332849048
 30
0.0
 10
5.1035109319
 20
3.6343768115
 30
0.0
 10
5.1374182921
 20
3.6354684092
 30
0.0
 10
5.1701168047
 20
3.6365596224
 30
0.0
 10
5.2013020674
 20
3.6376502312
 30
0.0
 10
5.2306838112
 20
3.6387400123
 30
0.0
 10
5.2579887596
 20
3.6398286728
 30
0.0
 10
5.2829625588
 20
3.6409157299
 30
0.0
 10
5.3022085483
 20
3.6418470103
 30
0.0
 10
5.3162666964
 20
3.6426002141
 30
0.0
 10
5.3257490601
 20
3.6431466489
 30
0.0
 10
5.3344906113
 20
3.6436926611
 30
0.0
 10
5.3424710686
 20
3.6442380981
 30
0.0
 10
5.3496717613
 20
3.644782927
 30
0.0
 10
5.3560760821
 20
3.6453267758
 30
0.0
 10
5.361669332
 20
3.6458692875
 30
0.0
 10
5.3658154412
 20
3.6463386069
 30
0.0
 10
5.3687156435
 20
3.6467204246
 30
0.0
 10
5.3705779555
 20
3.6469930627
 30
0.0
 10
5.3722292985
 20
3.6472652446
 30
0.0
 10
5.373668799
 20
3.6475368603
 30
0.0
 10
5.3748958784
 20
3.6478075405
 30
0.0
 10
5.3759098521
 20
3.6480771632
 30
0.0
 10
5.3766182578
 20
3.6483131067
 30
0.0
 10
5.3770742592
 20
3.6485074204
 30
0.0
 10
5.3772655482
 20
3.6486052239
 30
0.0
 10
5.3773513913
 20
3.6486548772
 30
0.0
  0
LINE
  5
253
100
AcDbEntity
  8
0
100
AcDbLine
 62
7
  6
CONTINUOUS
 10
4.6377167858
 20
3.5962876428
 11
4.6383882444
 21
3.5965967108
  0
SPLINE
  5
254
100
AcDbEntity
  8
0
100
AcDbSpline
 62
7
  6
CONTINUOUS
 70
0
 71
3
 72
63
 73
59
 74
0
 42
0.0000001
 43
0.0000001
 44
0.0000000001
 40
0.0
 40
0.0
 40
0.0
 40
0.0
 40
0.001160957
 40
0.0025942016
 40
0.0043028493
 40
0.0062884082
 40
0.0085515229
 40
0.0110918084
 40
0.0169991584
 40
0.0239997842
 40
0.0320812091
 40
0.0412263571
 40
0.0514138176
 40
0.0626217358
 40
0.0748259888
 40
0.1021066041
 40
0.1330103678
 40
0.1672541035
 40
0.2045273045
 40
0.244489468
 40
0.2867754045
 40
0.331000085
 40
0.3767584843
 40
0.4236333819
 40
0.471196191
 40
0.5190125048
 40
0.5666453996
 40
0.6136597276
 40
0.6596261437
 40
0.7041242152
 40
0.7467485179
 40
0.7871085947
 40
0.8248370322
 40
0.8595895399
 40
0.8910483888
 40
0.9189292377
 40
0.9314462763
 40
0.9429771821
 40
0.9534957707
 40
0.9629771337
 40
0.9714017967
 40
0.9787521487
 40
0.9820191531
 40
0.985011659
 40
0.9877287051
 40
0.9901695286
 40
0.9923335782
 40
0.9942206394
 40
0.9958310699
 40
0.9971663339
 40
0.9977320445
 40
0.9982309046
 40
0.9986642879
 40
0.9990343148
 40
0.9993444274
 40
0.9996005192
 40
0.9998130557
 40
1.0
 40
1.0
 40
1.0
 40
1.0
 10
4.6383882444
 20
3.5965967108
 30
0.0
 10
4.6386560637
 20
3.5966991651
 30
0.0
 10
4.6392664796
 20
3.5968965607
 30
0.0
 10
4.6402953257
 20
3.5971640068
 30
0.0
 10
4.6415332661
 20
3.597432545
 30
0.0
 10
4.64297996
 20
3.5977018896
 30
0.0
 10
4.6446350342
 20
3.5979717707
 30
0.0
 10
4.6472532176
 20
3.5983514808
 30
0.0
 10
4.6510407063
 20
3.5988170907
 30
0.0
 10
4.6561971964
 20
3.5993542098
 30
0.0
 10
4.6621570009
 20
3.5998926815
 30
0.0
 10
4.6689066041
 20
3.600432301
 30
0.0
 10
4.6764305563
 20
3.600972753
 30
0.0
 10
4.6847117938
 20
3.6015138094
 30
0.0
 10
4.6972100793
 20
3.602263824
 30
0.0
 10
4.7145710756
 20
3.6031889161
 30
0.0
 10
4.7373748158
 20
3.6042648992
 30
0.0
 10
4.7626490186
 20
3.6053429197
 30
0.0
 10
4.7901623577
 20
3.6064223904
 30
0.0
 10
4.8196634323
 20
3.6075028883
 30
0.0
 10
4.850882519
 20
3.6085841574
 30
0.0
 10
4.8835340289
 20
3.6096659178
 30
0.0
 10
4.91731956
 20
3.6107480905
 30
0.0
 10
4.9519299858
 20
3.611830491
 30
0.0
 10
4.9870489389
 20
3.6129130487
 30
0.0
 10
5.0223551979
 20
3.6139956541
 30
0.0
 10
5.057525924
 20
3.615078223
 30
0.0
 10
5.0922395257
 20
3.6161606657
 30
0.0
 10
5.1261784761
 20
3.61724286
 30
0.0
 10
5.1590325697
 20
3.618324731
 30
0.0
 10
5.1905011824
 20
3.6194060553
 30
0.0
 10
5.22029674
 20
3.6204867119
 30
0.0
 10
5.2481467078
 20
3.6215663929
 30
0.0
 10
5.273796438
 20
3.6226446092
 30
0.0
 10
5.2970116144
 20
3.6237211095
 30
0.0
 10
5.3147357407
 20
3.6246456108
 30
0.0
 10
5.3275398821
 20
3.6253949385
 30
0.0
 10
5.3360604202
 20
3.6259361144
 30
0.0
 10
5.3438295681
 20
3.6264766962
 30
0.0
 10
5.3508295195
 20
3.6270166482
 30
0.0
 10
5.3570444192
 20
3.6275556869
 30
0.0
 10
5.3617248771
 20
3.6280199472
 30
0.0
 10
5.3650653461
 20
3.6283960691
 30
0.0
 10
5.3672659419
 20
3.6286667962
 30
0.0
 10
5.3692608306
 20
3.6289372632
 30
0.0
 10
5.3710490865
 20
3.6292074036
 30
0.0
 10
5.3726298147
 20
3.6294771074
 30
0.0
 10
5.374002257
 20
3.6297461397
 30
0.0
 10
5.3751656136
 20
3.6300143671
 30
0.0
 10
5.3760014973
 20
3.6302478006
 30
0.0
 10
5.3765628382
 20
3.6304386447
 30
0.0
 10
5.3769074992
 20
3.6305736093
 30
0.0
 10
5.3771998144
 20
3.6307083918
 30
0.0
 10
5.3774400447
 20
3.6308430819
 30
0.0
 10
5.3776286812
 20
3.6309779406
 30
0.0
 10
5.3777662991
 20
3.6311139551
 30
0.0
 10
5.3778528837
 20
3.6312533081
 30
0.0
 10
5.3778737943
 20
3.6313525846
 30
0.0
 10
5.3778738373
 20
3.6313987584
 30
0.0
  0
LINE
  5
255
100
AcDbEntity
  8
0
100
AcDbLine
 62
7
  6
CONTINUOUS
 10
5.5075342466
 20
4.3214291207
 11
5.0075342466
 21
4.8214291207
  0
SPLINE
  5
256
100
AcDbEntity
  8
0
100
AcDbSpline
 62
7
  6
CONTINUOUS
 70
0
 71
3
 72
58
 73
54
 74
0
 42
0.0000001
 43
0.0000001
 44
0.0000000001
 40
0.0
 40
0.0
 40
0.0
 40
0.0
 40
0.0001737171
 40
0.0004042948
 40
0.0006959504
 40
0.0010506964
 40
0.0019531777
 40
0.0031162752
 40
0.0045416089
 40
0.0062298211
 40
0.0081810861
 40
0.0103949381
 40
0.0128703413
 40
0.0156061534
 40
0.0218541524
 40
0.0291288715
 40
0.0374165652
 40
0.0466998206
 40
0.0569609398
 40
0.0681801179
 40
0.0803333404
 40
0.0933960535
 40
0.1073426673
 40
0.1377673349
 40
0.1713562582
 40
0.2078274976
 40
0.2468757205
 40
0.2881702046
 40
0.3313592943
 40
0.3760743774
 40
0.421930074
 40
0.4685303393
 40
0.5154700956
 40
0.5623391788
 40
0.654221346
 40
0.6984215
 40
0.7409316908
 40
0.7813710931
 40
0.8193750816
 40
0.8545979404
 40
0.8867193793
 40
0.9154434921
 40
0.9405043537
 40
0.9515874217
 40
0.9616698223
 40
0.9707272639
 40
0.9787398244
 40
0.9856881817
 40
0.9915551334
 40
0.9940793541
 40
0.9963289949
 40
0.9983028784
 40
1.0
 40
1.0
 40
1.0
 40
1.0
 10
4.604788406
 20
3.7036832801
 30
0.0
 10
4.6048203475
 20
3.7037152216
 30
0.0
 10
4.6049071901
 20
3.7037765543
 30
0.0
 10
4.6050697467
 20
3.7038564602
 30
0.0
 10
4.6052834467
 20
3.7039369693
 30
0.0
 10
4.6056688786
 20
3.7040543236
 30
0.0
 10
4.606282936
 20
3.704195082
 30
0.0
 10
4.6071764725
 20
3.704355667
 30
0.0
 10
4.6082769159
 20
3.704517212
 30
0.0
 10
4.6095839395
 20
3.7046796446
 30
0.0
 10
4.6110973123
 20
3.704842541
 30
0.0
 10
4.6128163639
 20
3.7050057998
 30
0.0
 10
4.6147402115
 20
3.7051693545
 30
0.0
 10
4.6177112256
 20
3.7053979758
 30
0.0
 10
4.6219296891
 20
3.7056795918
 30
0.0
 10
4.6275917766
 20
3.7060057388
 30
0.0
 10
4.6340442231
 20
3.7063328382
 30
0.0
 10
4.6412740659
 20
3.7066608239
 30
0.0
 10
4.649266868
 20
3.7069894472
 30
0.0
 10
4.6580065076
 20
3.7073185854
 30
0.0
 10
4.667475109
 20
3.707648238
 30
0.0
 10
4.6776533157
 20
3.7079783551
 30
0.0
 10
4.6925811512
 20
3.7084322789
 30
0.0
 10
4.7128455861
 20
3.7089951647
 30
0.0
 10
4.7389666396
 20
3.709654698
 30
0.0
 10
4.7673307109
 20
3.710316115
 30
0.0
 10
4.7976989481
 20
3.7109791939
 30
0.0
 10
4.8298144066
 20
3.7116437971
 30
0.0
 10
4.8634037061
 20
3.7123098303
 30
0.0
 10
4.8981792694
 20
3.7129771817
 30
0.0
 10
4.9338419847
 20
3.7136458198
 30
0.0
 10
4.9700832652
 20
3.7143156762
 30
0.0
 10
5.0065880829
 20
3.7149866899
 30
0.0
 10
5.0548656406
 20
3.7158770347
 30
0.0
 10
5.1024306562
 20
3.7167694978
 30
0.0
 10
5.1488616281
 20
3.7176815748
 30
0.0
 10
5.181917834
 20
3.7183577048
 30
0.0
 10
5.2133624654
 20
3.7190345993
 30
0.0
 10
5.2429116746
 20
3.7197121066
 30
0.0
 10
5.2702973211
 20
3.7203900742
 30
0.0
 10
5.2952690987
 20
3.7210680563
 30
0.0
 10
5.3175973499
 20
3.7217457787
 30
0.0
 10
5.3344551199
 20
3.7223307928
 30
0.0
 10
5.346466079
 20
3.7228068526
 30
0.0
 10
5.3543176017
 20
3.7231490439
 30
0.0
 10
5.3613698628
 20
3.7234910889
 30
0.0
 10
5.3676061371
 20
3.7238326476
 30
0.0
 10
5.3730113948
 20
3.7241735368
 30
0.0
 10
5.3769893485
 20
3.7244693345
 30
0.0
 10
5.3797457983
 20
3.7247107325
 30
0.0
 10
5.3814920614
 20
3.7248823971
 30
0.0
 10
5.3830221061
 20
3.7250537688
 30
0.0
 10
5.3839687958
 20
3.7251769701
 30
0.0
 10
5.3844056015
 20
3.7252398436
 30
0.0
  0
SPLINE
  5
257
100
AcDbEntity
  8
0
100
AcDbSpline
 62
7
  6
CONTINUOUS
 70
0
 71
3
 72
13
 73
9
 74
0
 42
0.0000001
 43
0.0000001
 44
0.0000000001
 40
0.0
 40
0.0
 40
0.0
 40
0.0
 40
0.3563588642
 40
0.6411584065
 40
0.7569154158
 40
0.8550904577
 40
0.9359518837
 40
1.0
 40
1.0
 40
1.0
 40
1.0
 10
5.3844056015
 20
3.7252398436
 30
0.0
 10
5.3847803638
 20
3.7252937866
 30
0.0
 10
5.3854535295
 20
3.7253986813
 30
0.0
 10
5.3862434625
 20
3.7255516909
 30
0.0
 10
5.3867581394
 20
3.7256781961
 30
0.0
 10
5.3870589243
 20
3.7257661399
 30
0.0
 10
5.3873020554
 20
3.725853672
 30
0.0
 10
5.3874420214
 20
3.7259189953
 30
0.0
 10
5.3875009562
 20
3.7259530172
 30
0.0
  0
SPLINE
  5
258
100
AcDbEntity
  8
0
100
AcDbSpline
 62
7
  6
CONTINUOUS
 70
0
 71
3
 72
41
 73
37
 74
0
 42
0.0000001
 43
0.0000001
 44
0.0000000001
 40
0.0
 40
0.0
 40
0.0
 40
0.0
 40
0.0001602916
 40
0.0003548405
 40
0.0008556218
 40
0.0015133052
 40
0.002332087
 40
0.0033139942
 40
0.0044600978
 40
0.0072468753
 40
0.0106946768
 40
0.0148032097
 40
0.0195693499
 40
0.0249890681
 40
0.0310581022
 40
0.0377720493
 40
0.0451258426
 40
0.0531122811
 40
0.0709521936
 40
0.0912292067
 40
0.1138686741
 40
0.1387850234
 40
0.1658878977
 40
0.1950723898
 40
0.226229838
 40
0.2592412216
 40
0.2939791951
 40
0.3303122935
 40
0.4071916368
 40
0.4886863436
 40
0.5735216946
 40
0.6603598221
 40
0.7478237768
 40
0.8345073211
 40
0.9190323559
 40
1.0
 40
1.0
 40
1.0
 40
1.0
 10
5.392309619
 20
3.4802044931
 30
0.0
 10
5.3922892095
 20
3.4801840836
 30
0.0
 10
5.3922390886
 20
3.4801438661
 30
0.0
 10
5.3921069807
 20
3.4800641334
 30
0.0
 10
5.3918817447
 20
3.4799687729
 30
0.0
 10
5.3915423898
 20
3.4798606837
 30
0.0
 10
5.3911130365
 20
3.47975191
 30
0.0
 10
5.3905937418
 20
3.4796424903
 30
0.0
 10
5.3897226353
 20
3.4794857265
 30
0.0
 10
5.3884069996
 20
3.4792953547
 30
0.0
 10
5.3865572635
 20
3.4790771304
 30
0.0
 10
5.3843491295
 20
3.4788579741
 30
0.0
 10
5.3817845424
 20
3.4786379303
 30
0.0
 10
5.378865846
 20
3.4784173213
 30
0.0
 10
5.3755955644
 20
3.4781962467
 30
0.0
 10
5.3719763287
 20
3.4779748105
 30
0.0
 10
5.368011263
 20
3.47775307
 30
0.0
 10
5.3620444924
 20
3.4774455739
 30
0.0
 10
5.3537514155
 20
3.477065267
 30
0.0
 10
5.342820076
 20
3.4766225531
 30
0.0
 10
5.3306136122
 20
3.4761786616
 30
0.0
 10
5.3171773402
 20
3.4757336431
 30
0.0
 10
5.3025619566
 20
3.4752877868
 30
0.0
 10
5.286822296
 20
3.4748410441
 30
0.0
 10
5.2700183239
 20
3.4743935776
 30
0.0
 10
5.2522140341
 20
3.4739454071
 30
0.0
 10
5.2334775144
 20
3.473496527
 30
0.0
 10
5.2068434189
 20
3.4728856579
 30
0.0
 10
5.1717911407
 20
3.4721269161
 30
0.0
 10
5.1280061619
 20
3.4712296559
 30
0.0
 10
5.0824276211
 20
3.4703297179
 30
0.0
 10
5.0357740567
 20
3.4694273158
 30
0.0
 10
4.9887876737
 20
3.4685226869
 30
0.0
 10
4.94221792
 20
3.467616032
 30
0.0
 10
4.8968182037
 20
3.4667075865
 30
0.0
 10
4.867024822
 20
3.4660843322
 30
0.0
 10
4.8524485695
 20
3.4657691207
 30
0.0
  0
LINE
  5
259
100
AcDbEntity
  8
0
100
AcDbLine
 62
7
  6
CONTINUOUS
 10
5.4160610786
 20
3.6710322263
 11
5.4145451497
 21
3.6704576039
  0
SPLINE
  5
25A
100
AcDbEntity
  8
0
100
AcDbSpline
 62
7
  6
CONTINUOUS
 70
0
 71
3
 72
64
 73
60
 74
0
 42
0.0000001
 43
0.0000001
 44
0.0000000001
 40
0.0
 40
0.0
 40
0.0
 40
0.0
 40
0.0013534277
 40
0.0029802081
 40
0.0048815733
 40
0.0070579675
 40
0.0095093516
 40
0.0122348502
 40
0.0185023285
 40
0.0258479641
 40
0.034258043
 40
0.0437142843
 40
0.0541947748
 40
0.0656772824
 40
0.0781368274
 40
0.1058695177
 40
0.1371459343
 40
0.1716828908
 40
0.2091700209
 40
0.2492695648
 40
0.2916187735
 40
0.3358366033
 40
0.3815231208
 40
0.4282661828
 40
0.4756438764
 40
0.5232282306
 40
0.5705898523
 40
0.6173008214
 40
0.6629399714
 40
0.7070945226
 40
0.7493666266
 40
0.7893746585
 40
0.8267570008
 40
0.8611779624
 40
0.8923258156
 40
0.9065843739
 40
0.9199213658
 40
0.9323081659
 40
0.9437172785
 40
0.954121842
 40
0.9634997008
 40
0.9718311578
 40
0.9790970036
 40
0.9823254526
 40
0.9852824396
 40
0.9879667474
 40
0.9903772748
 40
0.9925130975
 40
0.994373597
 40
0.9959591217
 40
0.9972713635
 40
0.9978260724
 40
0.9983140418
 40
0.9987363958
 40
0.9990949147
 40
0.9993925731
 40
0.9996346565
 40
0.9998310618
 40
1.0
 40
1.0
 40
1.0
 40
1.0
 10
5.4145451497
 20
3.6704576039
 30
0.0
 10
5.4141902658
 20
3.6703574742
 30
0.0
 10
5.413401516
 20
3.6701629636
 30
0.0
 10
5.4120983638
 20
3.6698962786
 30
0.0
 10
5.4105671881
 20
3.6696287543
 30
0.0
 10
5.4088085603
 20
3.6693606109
 30
0.0
 10
5.4068231767
 20
3.6690920509
 30
0.0
 10
5.4037278892
 20
3.6687158158
 30
0.0
 10
5.3993002579
 20
3.6682533621
 30
0.0
 10
5.3933238026
 20
3.6677187938
 30
0.0
 10
5.3864756546
 20
3.6671830728
 30
0.0
 10
5.3787712172
 20
3.6666463492
 30
0.0
 10
5.3702279352
 20
3.6661088895
 30
0.0
 10
5.3608649765
 20
3.6655709111
 30
0.0
 10
5.3468059464
 20
3.6648263124
 30
0.0
 10
5.3273559865
 20
3.6639072274
 30
0.0
 10
5.3018919178
 20
3.662837199
 30
0.0
 10
5.2737682322
 20
3.6617653018
 30
0.0
 10
5.2432391652
 20
3.6606920281
 30
0.0
 10
5.2105804757
 20
3.6596178238
 30
0.0
 10
5.1760871109
 20
3.6585428816
 30
0.0
 10
5.1400708959
 20
3.657467479
 30
0.0
 10
5.1028570811
 20
3.6563917022
 30
0.0
 10
5.0647820238
 20
3.6553156989
 30
0.0
 10
5.0261897052
 20
3.6542395672
 30
0.0
 10
4.9874287976
 20
3.6531633854
 30
0.0
 10
4.9488496063
 20
3.6520872602
 30
0.0
 10
4.9108005871
 20
3.6510112539
 30
0.0
 10
4.8736256764
 20
3.6499355089
 30
0.0
 10
4.8376606369
 20
3.6488600941
 30
0.0
 10
4.8032304805
 20
3.6477851987
 30
0.0
 10
4.7706463197
 20
3.6467110152
 30
0.0
 10
4.7402023845
 20
3.6456377838
 30
0.0
 10
4.7121739551
 20
3.6445659104
 30
0.0
 10
4.6904443533
 20
3.6436493457
 30
0.0
 10
4.674456926
 20
3.6429089314
 30
0.0
 10
4.6635771054
 20
3.642370289
 30
0.0
 10
4.6534746112
 20
3.6418319866
 30
0.0
 10
4.6441722467
 20
3.641294124
 30
0.0
 10
4.6356911251
 20
3.6407566919
 30
0.0
 10
4.628050294
 20
3.6402199785
 30
0.0
 10
4.62126688
 20
3.6396842619
 30
0.0
 10
4.6161584598
 20
3.6392227691
 30
0.0
 10
4.612512761
 20
3.6388488719
 30
0.0
 10
4.6101111973
 20
3.6385798071
 30
0.0
 10
4.6079339681
 20
3.6383109958
 30
0.0
 10
4.6059822893
 20
3.6380425005
 30
0.0
 10
4.604257355
 20
3.6377744328
 30
0.0
 10
4.6027600971
 20
3.6375069964
 30
0.0
 10
4.6014912338
 20
3.6372403059
 30
0.0
 10
4.6005791481
 20
3.637008212
 30
0.0
 10
4.5999661314
 20
3.6368183754
 30
0.0
 10
4.5995900286
 20
3.6366842739
 30
0.0
 10
4.5992710526
 20
3.6365504209
 30
0.0
 10
4.599008961
 20
3.636416767
 30
0.0
 10
4.5988031862
 20
3.6362831192
 30
0.0
 10
4.5986529955
 20
3.6361484972
 30
0.0
 10
4.5985577198
 20
3.6360103097
 30
0.0
 10
4.5985342466
 20
3.6359101476
 30
0.0
 10
4.5985342466
 20
3.6358641207
 30
0.0
  0
SPLINE
  5
25B
100
AcDbEntity
  8
0
100
AcDbSpline
 62
7
  6
CONTINUOUS
 70
0
 71
3
 72
38
 73
34
 74
0
 42
0.0000001
 43
0.0000001
 44
0.0000000001
 40
0.0
 40
0.0
 40
0.0
 40
0.0
 40
0.0006663445
 40
0.0014912174
 40
0.0024791605
 40
0.0036326639
 40
0.0049531698
 40
0.0064415366
 40
0.0099235462
 40
0.0140800127
 40
0.0189081044
 40
0.024403669
 40
0.0305620602
 40
0.0373782845
 40
0.044845707
 40
0.0617003362
 40
0.0810570466
 40
0.1028356596
 40
0.126942747
 40
0.1532788435
 40
0.181729842
 40
0.2121772628
 40
0.2444903326
 40
0.2785323698
 40
0.3512176951
 40
0.4289984602
 40
0.5105525967
 40
0.5944937299
 40
0.6793943173
 40
0.7638127599
 40
0.8463089847
 40
0.9254922037
 40
1.0
 40
1.0
 40
1.0
 40
1.0
 10
5.4160609338
 20
3.5281722257
 30
0.0
 10
5.4159400618
 20
3.5281023965
 30
0.0
 10
5.4156574308
 20
3.5279673302
 30
0.0
 10
5.4151709035
 20
3.5277847781
 30
0.0
 10
5.4145767932
 20
3.5276015545
 30
0.0
 10
5.4138750497
 20
3.5274178401
 30
0.0
 10
5.4130655235
 20
3.5272337345
 30
0.0
 10
5.4117733561
 20
3.5269741383
 30
0.0
 10
5.4098875877
 20
3.5266561006
 30
0.0
 10
5.4073015962
 20
3.5262898493
 30
0.0
 10
5.4042903138
 20
3.5259225405
 30
0.0
 10
5.4008570778
 20
3.5255543641
 30
0.0
 10
5.3970052914
 20
3.5251856345
 30
0.0
 10
5.392738769
 20
3.5248164979
 30
0.0
 10
5.3862357901
 20
3.5243029851
 30
0.0
 10
5.377107242
 20
3.5236697857
 30
0.0
 10
5.3649810338
 20
3.5229350942
 30
0.0
 10
5.3513331169
 20
3.5221990856
 30
0.0
 10
5.3362212556
 20
3.5214618722
 30
0.0
 10
5.3197101129
 20
3.5207240207
 30
0.0
 10
5.3018695432
 20
3.5199854844
 30
0.0
 10
5.2827758725
 20
3.5192465989
 30
0.0
 10
5.2625101261
 20
3.5185073079
 30
0.0
 10
5.233399912
 20
3.5174991381
 30
0.0
 10
5.194767315
 20
3.5162510047
 30
0.0
 10
5.1461834623
 20
3.5147819053
 30
0.0
 10
5.0952406408
 20
3.5133115756
 30
0.0
 10
5.0428057106
 20
3.5118404752
 30
0.0
 10
4.9897705118
 20
3.5103690994
 30
0.0
 10
4.93703812
 20
3.5088978609
 30
0.0
 10
4.885503916
 20
3.5074272126
 30
0.0
 10
4.8360467414
 20
3.5059576278
 30
0.0
 10
4.803865893
 20
3.5049427967
 30
0.0
 10
4.7882656701
 20
3.5044291207
 30
0.0
  0
SPLINE
  5
25C
100
AcDbEntity
  8
0
100
AcDbSpline
 62
7
  6
CONTINUOUS
 70
0
 71
3
 72
38
 73
34
 74
0
 42
0.0000001
 43
0.0000001
 44
0.0000000001
 40
0.0
 40
0.0
 40
0.0
 40
0.0
 40
0.1163159303
 40
0.2269741872
 40
0.3314602402
 40
0.4293453275
 40
0.5202565972
 40
0.6038344396
 40
0.6797372285
 40
0.7476438997
 40
0.7785150785
 40
0.8072898848
 40
0.8339389596
 40
0.8584390067
 40
0.8807727621
 40
0.9009263333
 40
0.9188907345
 40
0.9346664789
 40
0.9482730829
 40
0.9542763621
 40
0.9597563911
 40
0.9647252556
 40
0.9691999963
 40
0.9732048771
 40
0.9767749745
 40
0.9799612802
 40
0.9828359295
 40
0.9854970238
 40
0.9880677481
 40
0.9906845877
 40
0.9934777482
 40
0.9965555652
 40
1.0
 40
1.0
 40
1.0
 40
1.0
 10
4.7882656701
 20
3.5044291207
 30
0.0
 10
4.7817209632
 20
3.5038970163
 30
0.0
 10
4.7689518521
 20
3.5028342683
 30
0.0
 10
4.7503119252
 20
3.5011961363
 30
0.0
 10
4.7327172487
 20
3.4995518969
 30
0.0
 10
4.7162430417
 20
3.4979020575
 30
0.0
 10
4.7009560501
 20
3.4962467741
 30
0.0
 10
4.6869184331
 20
3.4945861907
 30
0.0
 10
4.6741900111
 20
3.4929208586
 30
0.0
 10
4.6644329313
 20
3.491487807
 30
0.0
 10
4.6573263454
 20
3.4903268749
 30
0.0
 10
4.6525283514
 20
3.4894826662
 30
0.0
 10
4.648096223
 20
3.4886370691
 30
0.0
 10
4.6440350805
 20
3.4877901291
 30
0.0
 10
4.6403494746
 20
3.4869420646
 30
0.0
 10
4.6370436917
 20
3.4860930405
 30
0.0
 10
4.6341216208
 20
3.4852433377
 30
0.0
 10
4.6315868251
 20
3.4843929261
 30
0.0
 10
4.629728165
 20
3.4836566181
 30
0.0
 10
4.6284435936
 20
3.4830590287
 30
0.0
 10
4.6276197673
 20
3.482629356
 30
0.0
 10
4.6268947543
 20
3.4821992709
 30
0.0
 10
4.626268691
 20
3.4817685869
 30
0.0
 10
4.6257416384
 20
3.4813369951
 30
0.0
 10
4.6253136757
 20
3.4809038611
 30
0.0
 10
4.6249850356
 20
3.4804682263
 30
0.0
 10
4.6247567424
 20
3.4800288075
 30
0.0
 10
4.6246312253
 20
3.4795849196
 30
0.0
 10
4.6246114651
 20
3.4791381326
 30
0.0
 10
4.6246981986
 20
3.4786920513
 30
0.0
 10
4.6248891982
 20
3.4782491894
 30
0.0
 10
4.6251817937
 20
3.4778095724
 30
0.0
 10
4.6254285907
 20
3.4775347624
 30
0.0
 10
4.625566097
 20
3.4773972801
 30
0.0
  0
SPLINE
  5
25D
100
AcDbEntity
  8
0
100
AcDbSpline
 62
7
  6
CONTINUOUS
 70
0
 71
3
 72
66
 73
62
 74
0
 42
0.0000001
 43
0.0000001
 44
0.0000000001
 40
0.0
 40
0.0
 40
0.0
 40
0.0
 40
0.0001884318
 40
0.0004030055
 40
0.0006620876
 40
0.0009763403
 40
0.0013517588
 40
0.001791849
 40
0.0022987465
 40
0.0028737481
 40
0.0042309727
 40
0.0058675693
 40
0.0077851853
 40
0.009984427
 40
0.0124653325
 40
0.0152275776
 40
0.0182700919
 40
0.0215911732
 40
0.0290616469
 40
0.0376238099
 40
0.0472604488
 40
0.0579485319
 40
0.0696633987
 40
0.082379778
 40
0.1106948176
 40
0.1426323993
 40
0.1778954487
 40
0.2161586481
 40
0.2570651868
 40
0.3002356367
 40
0.3452690042
 40
0.3917459211
 40
0.4392350363
 40
0.4872941826
 40
0.5354768435
 40
0.5833346414
 40
0.6304228883
 40
0.6763035349
 40
0.7205498531
 40
0.7627513418
 40
0.8025144722
 40
0.8394712768
 40
0.8732780252
 40
0.9036208318
 40
0.9174048813
 40
0.930220655
 40
0.9420376057
 40
0.9528302122
 40
0.9625739152
 40
0.9712452373
 40
0.9788263572
 40
0.9853020473
 40
0.9881209306
 40
0.9906585883
 40
0.9929145859
 40
0.9948888966
 40
0.9965820019
 40
0.9979952973
 40
0.9991319925
 40
0.9995988305
 40
1.0
 40
1.0
 40
1.0
 40
1.0
 10
4.6371948378
 20
3.684973759
 30
0.0
 10
4.6371948242
 20
3.6850203466
 30
0.0
 10
4.6372160181
 20
3.6851206306
 30
0.0
 10
4.6373040375
 20
3.6852612344
 30
0.0
 10
4.6374439706
 20
3.6853984228
 30
0.0
 10
4.6376358693
 20
3.6855344492
 30
0.0
 10
4.6378803592
 20
3.6856703157
 30
0.0
 10
4.6381779663
 20
3.6858062779
 30
0.0
 10
4.638528944
 20
3.6859424189
 30
0.0
 10
4.6391005981
 20
3.6861349371
 30
0.0
 10
4.6399515455
 20
3.6863704135
 30
0.0
 10
4.6411355304
 20
3.6866410503
 30
0.0
 10
4.6425320801
 20
3.6869124857
 30
0.0
 10
4.6441405636
 20
3.6871845967
 30
0.0
 10
4.6459604047
 20
3.6874571447
 30
0.0
 10
4.6479907527
 20
3.6877299935
 30
0.0
 10
4.6502304736
 20
3.6880030897
 30
0.0
 10
4.653629728
 20
3.6883825311
 30
0.0
 10
4.6583919322
 20
3.6888509615
 30
0.0
 10
4.6647151342
 20
3.6893948089
 30
0.0
 10
4.6718363849
 20
3.6899394476
 30
0.0
 10
4.679739072
 20
3.6904848762
 30
0.0
 10
4.6884047925
 20
3.6910308979
 30
0.0
 10
4.7014238451
 20
3.6917867015
 30
0.0
 10
4.7194406564
 20
3.692719429
 30
0.0
 10
4.7430309414
 20
3.6938053473
 30
0.0
 10
4.7690830589
 20
3.6948931777
 30
0.0
 10
4.7973543522
 20
3.6959823647
 30
0.0
 10
4.8275819695
 20
3.6970725724
 30
0.0
 10
4.8594844334
 20
3.6981634756
 30
0.0
 10
4.892764861
 20
3.699254868
 30
0.0
 10
4.9271135706
 20
3.7003466375
 30
0.0
 10
4.9622107313
 20
3.7014386088
 30
0.0
 10
4.9977298142
 20
3.7025307212
 30
0.0
 10
5.0333400922
 20
3.7036228451
 30
0.0
 10
5.068710215
 20
3.7047149126
 30
0.0
 10
5.103510922
 20
3.7058068041
 30
0.0
 10
5.1374182921
 20
3.7068984131
 30
0.0
 10
5.1701168343
 20
3.7079896296
 30
0.0
 10
5.2013020358
 20
3.7090802111
 30
0.0
 10
5.2306838548
 20
3.7101700393
 30
0.0
 10
5.2579887014
 20
3.7112586465
 30
0.0
 10
5.2829625357
 20
3.7123457463
 30
0.0
 10
5.3022083581
 20
3.7132769885
 30
0.0
 10
5.3162666532
 20
3.7140302457
 30
0.0
 10
5.3257490756
 20
3.714576613
 30
0.0
 10
5.3344905968
 20
3.7151226501
 30
0.0
 10
5.3424710148
 20
3.7156681461
 30
0.0
 10
5.3496717753
 20
3.7162128993
 30
0.0
 10
5.3560761085
 20
3.7167567377
 30
0.0
 10
5.3616692736
 20
3.7172993377
 30
0.0
 10
5.3658154378
 20
3.7177686398
 30
0.0
 10
5.3687158903
 20
3.7181503962
 30
0.0
 10
5.3705782327
 20
3.7184230409
 30
0.0
 10
5.3722293713
 20
3.7186952348
 30
0.0
 10
5.3736686088
 20
3.7189668687
 30
0.0
 10
5.3748955672
 20
3.7192375765
 30
0.0
 10
5.3759096755
 20
3.7195072212
 30
0.0
 10
5.3766183615
 20
3.7197431019
 30
0.0
 10
5.3770745984
 20
3.7199374004
 30
0.0
 10
5.3772659572
 20
3.7200352161
 30
0.0
 10
5.377351814
 20
3.720084877
 30
0.0
  0
LINE
  5
25E
100
AcDbEntity
  8
0
100
AcDbLine
 62
7
  6
CONTINUOUS
 10
5.0075342466
 20
4.8214291207
 11
4.5075342466
 21
5.3214291207
  0
LINE
  5
25F
100
AcDbEntity
  8
0
100
AcDbLine
 62
7
  6
CONTINUOUS
 10
4.6377166481
 20
3.6677176416
 11
4.6379492747
 21
3.6678398165
  0
SPLINE
  5
260
100
AcDbEntity
  8
0
100
AcDbSpline
 62
7
  6
CONTINUOUS
 70
0
 71
3
 72
65
 73
61
 74
0
 42
0.0000001
 43
0.0000001
 44
0.0000000001
 40
0.0
 40
0.0
 40
0.0
 40
0.0
 40
0.0004580534
 40
0.0009828874
 40
0.0022368254
 40
0.0037672172
 40
0.0055763178
 40
0.0076650739
 40
0.01003374
 40
0.0126821576
 40
0.0156094619
 40
0.0222941964
 40
0.0300740346
 40
0.0389338772
 40
0.0488545882
 40
0.059812486
 40
0.071783438
 40
0.0986549809
 40
0.1292213885
 40
0.1632025631
 40
0.2002861279
 40
0.2401288787
 40
0.2823647974
 40
0.3266030028
 40
0.3724354967
 40
0.419439348
 40
0.4671800688
 40
0.5152172534
 40
0.5631069161
 40
0.6104072747
 40
0.656680933
 40
0.7015013292
 40
0.7444542763
 40
0.7851431364
 40
0.8231935351
 40
0.858252921
 40
0.8899999665
 40
0.9181419375
 40
0.9307790172
 40
0.9424203433
 40
0.9530408671
 40
0.9626159146
 40
0.9711230783
 40
0.9785455292
 40
0.9818451775
 40
0.984867958
 40
0.9876122046
 40
0.9900770318
 40
0.9922621112
 40
0.994167453
 40
0.9957936362
 40
0.997142281
 40
0.9977136723
 40
0.9982174089
 40
0.9986548185
 40
0.9990280547
 40
0.9993406097
 40
0.9995984507
 40
0.9998121752
 40
1.0
 40
1.0
 40
1.0
 40
1.0
 10
4.6379492747
 20
3.6678398165
 30
0.0
 10
4.6380512957
 20
3.6678888865
 30
0.0
 10
4.6382742947
 20
3.6679857309
 30
0.0
 10
4.638792704
 20
3.6681782642
 30
0.0
 10
4.6395768991
 20
3.668413104
 30
0.0
 10
4.6406800201
 20
3.6686824184
 30
0.0
 10
4.6419943774
 20
3.6689526301
 30
0.0
 10
4.6435193969
 20
3.6692236091
 30
0.0
 10
4.6452546094
 20
3.6694950678
 30
0.0
 10
4.6471992375
 20
3.669766893
 30
0.0
 10
4.6502056029
 20
3.6701466654
 30
0.0
 10
4.6544788109
 20
3.670614131
 30
0.0
 10
4.6602181547
 20
3.6711552164
 30
0.0
 10
4.6667602771
 20
3.6716973816
 30
0.0
 10
4.6740901558
 20
3.6722404195
 30
0.0
 10
4.6821907899
 20
3.6727841966
 30
0.0
 10
4.6944758926
 20
3.6735392353
 30
0.0
 10
4.7116053498
 20
3.6744695618
 30
0.0
 10
4.734173906
 20
3.6755509554
 30
0.0
 10
4.7592688743
 20
3.6766343789
 30
0.0
 10
4.7866583637
 20
3.6777193938
 30
0.0
 10
4.8160894573
 20
3.6788055461
 30
0.0
 10
4.8472899282
 20
3.6798924368
 30
0.0
 10
4.8799716027
 20
3.6809799239
 30
0.0
 10
4.9138322903
 20
3.6820678037
 30
0.0
 10
4.9485590536
 20
3.6831559414
 30
0.0
 10
4.9838309654
 20
3.684244254
 30
0.0
 10
5.0193219081
 20
3.6853326125
 30
0.0
 10
5.0547039641
 20
3.6864209569
 30
0.0
 10
5.0896499595
 20
3.6875091554
 30
0.0
 10
5.1238370148
 20
3.6885971478
 30
0.0
 10
5.1569490561
 20
3.6896847699
 30
0.0
 10
5.1886800537
 20
3.690771888
 30
0.0
 10
5.2187368353
 20
3.6918583275
 30
0.0
 10
5.2468414024
 20
3.6929437388
 30
0.0
 10
5.2727342845
 20
3.6940277929
 30
0.0
 10
5.2961760209
 20
3.6951099655
 30
0.0
 10
5.3140769915
 20
3.6960394625
 30
0.0
 10
5.3270108836
 20
3.6967926851
 30
0.0
 10
5.3356190627
 20
3.697336807
 30
0.0
 10
5.343468855
 20
3.6978803276
 30
0.0
 10
5.3505420673
 20
3.698423083
 30
0.0
 10
5.3568223406
 20
3.6989650478
 30
0.0
 10
5.3615520952
 20
3.6994318424
 30
0.0
 10
5.3649280976
 20
3.699809965
 30
0.0
 10
5.3671523984
 20
3.7000821099
 30
0.0
 10
5.3691687215
 20
3.7003540201
 30
0.0
 10
5.3709759901
 20
3.7006256199
 30
0.0
 10
5.3725733908
 20
3.7008967839
 30
0.0
 10
5.3739603325
 20
3.7011672747
 30
0.0
 10
5.3751361641
 20
3.7014369698
 30
0.0
 10
5.3759812171
 20
3.7016716268
 30
0.0
 10
5.3765488687
 20
3.7018634723
 30
0.0
 10
5.3768973785
 20
3.7019991465
 30
0.0
 10
5.3771928891
 20
3.7021346449
 30
0.0
 10
5.3774356676
 20
3.7022700468
 30
0.0
 10
5.3776262356
 20
3.7024056132
 30
0.0
 10
5.3777652052
 20
3.7025423411
 30
0.0
 10
5.3778526044
 20
3.7026824572
 30
0.0
 10
5.3778736485
 20
3.7027823382
 30
0.0
 10
5.3778736438
 20
3.7028287594
 30
0.0
  0
SPLINE
  5
261
100
AcDbEntity
  8
0
100
AcDbSpline
 62
7
  6
CONTINUOUS
 70
0
 71
3
 72
43
 73
39
 74
0
 42
0.0000001
 43
0.0000001
 44
0.0000000001
 40
0.0
 40
0.0
 40
0.0
 40
0.0
 40
0.0821032829
 40
0.1675472678
 40
0.2549648762
 40
0.3430107031
 40
0.4303002816
 40
0.5154706011
 40
0.5971899268
 40
0.6741812219
 40
0.7452419477
 40
0.778197014
 40
0.8092623427
 40
0.8383145495
 40
0.8652432088
 40
0.8899412922
 40
0.9123139301
 40
0.9322757291
 40
0.9497475891
 40
0.9575301205
 40
0.9646672425
 40
0.9711517862
 40
0.9769777935
 40
0.9821415727
 40
0.9866401449
 40
0.9904713638
 40
0.9921365232
 40
0.993634854
 40
0.9949670245
 40
0.9961343203
 40
0.9971387474
 40
0.9979835643
 40
0.9986744041
 40
0.9992218169
 40
0.9994483025
 40
0.99964872
 40
0.9998296591
 40
1.0
 40
1.0
 40
1.0
 40
1.0
 10
4.8524485695
 20
3.4657691207
 30
0.0
 10
4.8668477746
 20
3.4662558726
 30
0.0
 10
4.8962330558
 20
3.4672201796
 30
0.0
 10
4.9409518618
 20
3.4686315578
 30
0.0
 10
4.9867139502
 20
3.4700434397
 30
0.0
 10
5.032800049
 20
3.4714554529
 30
0.0
 10
5.0784916162
 20
3.4728672825
 30
0.0
 10
5.1230724926
 20
3.474278565
 30
0.0
 10
5.1658453363
 20
3.4756888243
 30
0.0
 10
5.2061408729
 20
3.4770976192
 30
0.0
 10
5.2378812736
 20
3.4782976545
 30
0.0
 10
5.2615653832
 20
3.4792676578
 30
0.0
 10
5.2778823364
 20
3.4799764098
 30
0.0
 10
5.2931407351
 20
3.4806848407
 30
0.0
 10
5.3072805564
 20
3.4813926695
 30
0.0
 10
5.320246698
 20
3.4820998833
 30
0.0
 10
5.3319883797
 20
3.482806153
 30
0.0
 10
5.3424595444
 20
3.4835111199
 30
0.0
 10
5.3503709886
 20
3.484118142
 30
0.0
 10
5.356033765
 20
3.4846098868
 30
0.0
 10
5.3597730704
 20
3.4849640476
 30
0.0
 10
5.3631674083
 20
3.4853178538
 30
0.0
 10
5.3662134389
 20
3.485671281
 30
0.0
 10
5.3689084694
 20
3.4860240498
 30
0.0
 10
5.3712501627
 20
3.486376018
 30
0.0
 10
5.3729777444
 20
3.4866806628
 30
0.0
 10
5.3741799898
 20
3.4869284249
 30
0.0
 10
5.3749488933
 20
3.4871052811
 30
0.0
 10
5.3756279454
 20
3.4872818984
 30
0.0
 10
5.3762171745
 20
3.4874582192
 30
0.0
 10
5.3767166776
 20
3.4876341352
 30
0.0
 10
5.3771269853
 20
3.4878096252
 30
0.0
 10
5.3774484812
 20
3.4879846645
 30
0.0
 10
5.3776559473
 20
3.4881395866
 30
0.0
 10
5.37777141
 20
3.488266423
 30
0.0
 10
5.3778300388
 20
3.4883562274
 30
0.0
 10
5.3778658824
 20
3.4884469847
 30
0.0
 10
5.377874084
 20
3.4885088673
 30
0.0
 10
5.3778741109
 20
3.4885387586
 30
0.0
  0
SPLINE
  5
262
100
AcDbEntity
  8
0
100
AcDbSpline
 62
7
  6
CONTINUOUS
 70
0
 71
3
 72
24
 73
20
 74
0
 42
0.0000001
 43
0.0000001
 44
0.0000000001
 40
0.0
 40
0.0
 40
0.0
 40
0.0
 40
0.0061497849
 40
0.0128619269
 40
0.0205768201
 40
0.0295883588
 40
0.0400814714
 40
0.0521727957
 40
0.0814170536
 40
0.1176953481
 40
0.1611842012
 40
0.211981198
 40
0.2701438035
 40
0.3356995464
 40
0.4086413506
 40
0.488949885
 40
0.5766001386
 40
0.7738053747
 40
1.0
 40
1.0
 40
1.0
 40
1.0
 10
4.6371942142
 20
3.5421137592
 30
0.0
 10
4.6371941962
 20
3.5421506036
 30
0.0
 10
4.6372068975
 20
3.5422280818
 30
0.0
 10
4.6372617014
 20
3.5423399565
 30
0.0
 10
4.6373503998
 20
3.5424499184
 30
0.0
 10
4.6374724176
 20
3.5425588731
 30
0.0
 10
4.6376278364
 20
3.5426675105
 30
0.0
 10
4.6378974402
 20
3.5428221724
 30
0.0
 10
4.6383237869
 20
3.5430104145
 30
0.0
 10
4.6389408545
 20
3.543225361
 30
0.0
 10
4.6396931039
 20
3.5434410576
 30
0.0
 10
4.6405806151
 20
3.5436574251
 30
0.0
 10
4.6416035685
 20
3.5438742342
 30
0.0
 10
4.642761696
 20
3.5440913636
 30
0.0
 10
4.6440545113
 20
3.544308749
 30
0.0
 10
4.645481337
 20
3.5445263327
 30
0.0
 10
4.6476481564
 20
3.5448286241
 30
0.0
 10
4.6506873131
 20
3.5452017699
 30
0.0
 10
4.6532096135
 20
3.5454719906
 30
0.0
 10
4.6545578627
 20
3.5456087593
 30
0.0
  0
LINE
  5
263
100
AcDbEntity
  8
0
100
AcDbLine
 62
7
  6
CONTINUOUS
 10
4.599008358
 20
3.6453402917
 11
4.6006988603
 21
3.6459632053
  0
SPLINE
  5
264
100
AcDbEntity
  8
0
100
AcDbSpline
 62
7
  6
CONTINUOUS
 70
0
 71
3
 72
64
 73
60
 74
0
 42
0.0000001
 43
0.0000001
 44
0.0000000001
 40
0.0
 40
0.0
 40
0.0
 40
0.0
 40
0.0014000824
 40
0.0030734408
 40
0.0050213386
 40
0.0072436958
 40
0.0097397714
 40
0.0125085828
 40
0.0188597071
 40
0.0262866452
 40
0.0347735081
 40
0.0443010298
 40
0.0548495348
 40
0.0663960402
 40
0.0789135376
 40
0.1067503106
 40
0.1381103875
 40
0.1727138465
 40
0.2102480752
 40
0.2503766423
 40
0.2927383296
 40
0.3369513827
 40
0.3826187011
 40
0.4293284281
 40
0.4766604686
 40
0.5241884902
 40
0.5714846856
 40
0.6181231719
 40
0.6636839408
 40
0.7077573878
 40
0.749945844
 40
0.7898706852
 40
0.8271722106
 40
0.8615146294
 40
0.8925907164
 40
0.9068144567
 40
0.9201198657
 40
0.932477082
 40
0.9438572017
 40
0.954236129
 40
0.9635914376
 40
0.9719012551
 40
0.9791483991
 40
0.9823691587
 40
0.9853191553
 40
0.9879968272
 40
0.9904008207
 40
0.9925305961
 40
0.9943861655
 40
0.9959680145
 40
0.9972774981
 40
0.9978310629
 40
0.9983179895
 40
0.9987393644
 40
0.9990969425
 40
0.9993937469
 40
0.9996351622
 40
0.9998311737
 40
1.0
 40
1.0
 40
1.0
 40
1.0
 10
4.6006988603
 20
3.6459632053
 30
0.0
 10
4.6010669759
 20
3.6460628561
 30
0.0
 10
4.6018817558
 20
3.6462568179
 30
0.0
 10
4.6032234489
 20
3.646523417
 30
0.0
 10
4.6047927399
 20
3.6467907144
 30
0.0
 10
4.6065887961
 20
3.6470585608
 30
0.0
 10
4.6086105822
 20
3.6473268174
 30
0.0
 10
4.6117523555
 20
3.6477022611
 30
0.0
 10
4.6162360821
 20
3.6481640028
 30
0.0
 10
4.6222773621
 20
3.6486978341
 30
0.0
 10
4.629186687
 20
3.6492329038
 30
0.0
 10
4.6369484378
 20
3.6497690454
 30
0.0
 10
4.6455453368
 20
3.6503057857
 30
0.0
 10
4.6549580753
 20
3.6508429986
 30
0.0
 10
4.669075681
 20
3.6515864369
 30
0.0
 10
4.6885883673
 20
3.6525040062
 30
0.0
 10
4.7141161223
 20
3.6535727531
 30
0.0
 10
4.7422873631
 20
3.6546431564
 30
0.0
 10
4.7728485461
 20
3.655715011
 30
0.0
 10
4.80552415
 20
3.6567877638
 30
0.0
 10
4.8400198816
 20
3.6578612042
 30
0.0
 10
4.87602498
 20
3.658935158
 30
0.0
 10
4.9132149279
 20
3.6600094288
 30
0.0
 10
4.9512547867
 20
3.6610839506
 30
0.0
 10
4.9898016731
 20
3.6621585891
 30
0.0
 10
5.0285083664
 20
3.6632332737
 30
0.0
 10
5.0670260727
 20
3.6643079085
 30
0.0
 10
5.1050077175
 20
3.665382403
 30
0.0
 10
5.1421111747
 20
3.6664566742
 30
0.0
 10
5.1780019887
 20
3.6675305604
 30
0.0
 10
5.2123569482
 20
3.6686039751
 30
0.0
 10
5.2448663999
 20
3.6696766704
 30
0.0
 10
5.2752374939
 20
3.6707483546
 30
0.0
 10
5.3031967252
 20
3.6718188198
 30
0.0
 10
5.3248710673
 20
3.6727340039
 30
0.0
 10
5.3408172949
 20
3.6734734877
 30
0.0
 10
5.3516685483
 20
3.6740113516
 30
0.0
 10
5.3617442364
 20
3.6745488517
 30
0.0
 10
5.3710215851
 20
3.675086035
 30
0.0
 10
5.3794797939
 20
3.6756227018
 30
0.0
 10
5.387099909
 20
3.6761585602
 30
0.0
 10
5.3938646738
 20
3.6766935899
 30
0.0
 10
5.3989588616
 20
3.6771545168
 30
0.0
 10
5.4025946541
 20
3.6775278825
 30
0.0
 10
5.4049898753
 20
3.6777965775
 30
0.0
 10
5.4071611271
 20
3.6780650017
 30
0.0
 10
5.4091071307
 20
3.6783331267
 30
0.0
 10
5.4108269012
 20
3.6786008282
 30
0.0
 10
5.4123198348
 20
3.6788678427
 30
0.0
 10
5.413585341
 20
3.6791340453
 30
0.0
 10
5.4144951903
 20
3.6793657045
 30
0.0
 10
5.4151067491
 20
3.6795552128
 30
0.0
 10
5.4154819208
 20
3.6796890942
 30
0.0
 10
5.4158000267
 20
3.6798227389
 30
0.0
 10
5.4160612907
 20
3.6799562142
 30
0.0
 10
5.4162662933
 20
3.6800897249
 30
0.0
 10
5.4164158178
 20
3.6802242503
 30
0.0
 10
5.4165105433
 20
3.6803623852
 30
0.0
 10
5.4165337691
 20
3.6804624123
 30
0.0
 10
5.4165337354
 20
3.6805083985
 30
0.0
  0
SPLINE
  5
265
100
AcDbEntity
  8
0
100
AcDbSpline
 62
7
  6
CONTINUOUS
 70
0
 71
3
 72
55
 73
51
 74
0
 42
0.0000001
 43
0.0000001
 44
0.0000000001
 40
0.0
 40
0.0
 40
0.0
 40
0.0
 40
0.0073539315
 40
0.0156491664
 40
0.0248673038
 40
0.0349896672
 40
0.0578644989
 40
0.0840985903
 40
0.1134911008
 40
0.1458118136
 40
0.1808071507
 40
0.2182051821
 40
0.2577117617
 40
0.2990191751
 40
0.3857284714
 40
0.4756227208
 40
0.5208873446
 40
0.5658914459
 40
0.6102821084
 40
0.653712318
 40
0.6958413265
 40
0.7363398617
 40
0.7748906718
 40
0.8111918479
 40
0.8449603642
 40
0.8759307534
 40
0.9038634215
 40
0.9285383668
 40
0.9395946952
 40
0.9497668059
 40
0.9590352165
 40
0.9673836428
 40
0.97479617
 40
0.9812581151
 40
0.9841295139
 40
0.9867599013
 40
0.9891484331
 40
0.9912944072
 40
0.9931973375
 40
0.9948571323
 40
0.996274781
 40
0.9974526065
 40
0.9979529447
 40
0.9983953006
 40
0.99878101
 40
0.9991121227
 40
0.9993919235
 40
0.9996259069
 40
0.9998234749
 40
1.0
 40
1.0
 40
1.0
 40
1.0
 10
4.6545578627
 20
3.5277487593
 30
0.0
 10
4.6563249535
 20
3.527928016
 30
0.0
 10
4.6600881359
 20
3.5282818572
 30
0.0
 10
4.6660734531
 20
3.5287816988
 30
0.0
 10
4.6727294347
 20
3.5292824316
 30
0.0
 10
4.6829017106
 20
3.5299793833
 30
0.0
 10
4.6971820438
 20
3.5308372964
 30
0.0
 10
4.716116068
 20
3.5318328536
 30
0.0
 10
4.7373342052
 20
3.5328304962
 30
0.0
 10
4.7606704231
 20
3.5338297455
 30
0.0
 10
4.7859417529
 20
3.5348301053
 30
0.0
 10
4.8129498823
 20
3.535831205
 30
0.0
 10
4.8414834965
 20
3.536832984
 30
0.0
 10
4.8819217989
 20
3.5381911616
 30
0.0
 10
4.9345261272
 20
3.539866935
 30
0.0
 10
4.9880875309
 20
3.5415148584
 30
0.0
 10
5.0315809686
 20
3.5428489922
 30
0.0
 10
5.0640891358
 20
3.5438518747
 30
0.0
 10
5.096154036
 20
3.5448546701
 30
0.0
 10
5.1275241904
 20
3.5458572609
 30
0.0
 10
5.1579538141
 20
3.5468596096
 30
0.0
 10
5.1872042925
 20
3.5478615778
 30
0.0
 10
5.2150463598
 20
3.5488630421
 30
0.0
 10
5.2412618765
 20
3.5498638562
 30
0.0
 10
5.2656451497
 20
3.5508636913
 30
0.0
 10
5.2880054485
 20
3.5518622911
 30
0.0
 10
5.3081671018
 20
3.5528590612
 30
0.0
 10
5.3235198304
 20
3.553715864
 30
0.0
 10
5.3345849422
 20
3.5544100495
 30
0.0
 10
5.3419336817
 20
3.5549111024
 30
0.0
 10
5.3486267746
 20
3.5554117029
 30
0.0
 10
5.3546513806
 20
3.555911591
 30
0.0
 10
5.3599956301
 20
3.55641059
 30
0.0
 10
5.3640174577
 20
3.5568405718
 30
0.0
 10
5.3668859805
 20
3.5571888598
 30
0.0
 10
5.3687751838
 20
3.5574395014
 30
0.0
 10
5.3704875352
 20
3.557689903
 30
0.0
 10
5.3720221796
 20
3.5579400057
 30
0.0
 10
5.3733782917
 20
3.5581897066
 30
0.0
 10
5.3745553037
 20
3.5584388438
 30
0.0
 10
5.3755528039
 20
3.5586873103
 30
0.0
 10
5.3762691843
 20
3.5589034654
 30
0.0
 10
5.376750104
 20
3.5590800362
 30
0.0
 10
5.3770457584
 20
3.5592050515
 30
0.0
 10
5.3772965901
 20
3.5593299375
 30
0.0
 10
5.3775028054
 20
3.5594548017
 30
0.0
 10
5.3776647653
 20
3.5595799167
 30
0.0
 10
5.3777828337
 20
3.5597061672
 30
0.0
 10
5.3778566431
 20
3.5598352259
 30
0.0
 10
5.3778741926
 20
3.5599261236
 30
0.0
 10
5.3778742155
 20
3.5599687589
 30
0.0
  0
SPLINE
  5
266
100
AcDbEntity
  8
0
100
AcDbSpline
 62
7
  6
CONTINUOUS
 70
0
 71
3
 72
45
 73
41
 74
0
 42
0.0000001
 43
0.0000001
 44
0.0000000001
 40
0.0
 40
0.0
 40
0.0
 40
0.0
 40
0.0072156724
 40
0.0153390702
 40
0.0243527939
 40
0.0342392
 40
0.0565524673
 40
0.0821138327
 40
0.1107358724
 40
0.1422021019
 40
0.1762754199
 40
0.2127002793
 40
0.2512013399
 40
0.2914896548
 40
0.3761994278
 40
0.4642798849
 40
0.5530793148
 40
0.6399242485
 40
0.6817919564
 40
0.7222002442
 40
0.7608431383
 40
0.7974309662
 40
0.8316866384
 40
0.8633535407
 40
0.8921927245
 40
0.9179878796
 40
0.9405464848
 40
0.9505583522
 40
0.9596995335
 40
0.9679546246
 40
0.9753086057
 40
0.9817473226
 40
0.9872611437
 40
0.9918432237
 40
0.9937833408
 40
0.9954890543
 40
0.9969608748
 40
0.9982005667
 40
0.9992114362
 40
1.0
 40
1.0
 40
1.0
 40
1.0
 10
4.6545578627
 20
3.5456087593
 30
0.0
 10
4.6562897395
 20
3.5457844438
 30
0.0
 10
4.6599740633
 20
3.5461313937
 30
0.0
 10
4.6658286723
 20
3.5466219671
 30
0.0
 10
4.6723295519
 20
3.5471133891
 30
0.0
 10
4.6822487141
 20
3.5477970706
 30
0.0
 10
4.6961582106
 20
3.5486388949
 30
0.0
 10
4.7145870794
 20
3.5496160372
 30
0.0
 10
4.7352267376
 20
3.5505951387
 30
0.0
 10
4.7579218804
 20
3.5515758279
 30
0.0
 10
4.782501002
 20
3.5525575492
 30
0.0
 10
4.8087784865
 20
3.5535400118
 30
0.0
 10
4.8365562858
 20
3.5545231179
 30
0.0
 10
4.87597755
 20
3.5558567445
 30
0.0
 10
4.927355947
 20
3.5575026883
 30
0.0
 10
4.9904338566
 20
3.5594487276
 30
0.0
 10
5.0540270958
 20
3.5613952048
 30
0.0
 10
5.1064757708
 20
3.5630354201
 30
0.0
 10
5.147254207
 20
3.5643633734
 30
0.0
 10
5.1764090437
 20
3.5653468697
 30
0.0
 10
5.2042893818
 20
3.5663299936
 30
0.0
 10
5.230684471
 20
3.5673125017
 30
0.0
 10
5.2553954128
 20
3.5682943086
 30
0.0
 10
5.278235476
 20
3.5692750534
 30
0.0
 10
5.2990324982
 20
3.5702543028
 30
0.0
 10
5.3176295611
 20
3.5712316592
 30
0.0
 10
5.3316851746
 20
3.5720733529
 30
0.0
 10
5.3417248583
 20
3.5727564859
 30
0.0
 10
5.3483187824
 20
3.5732478593
 30
0.0
 10
5.3542696076
 20
3.5737385574
 30
0.0
 10
5.3595660874
 20
3.5742284036
 30
0.0
 10
5.3641982284
 20
3.5747170573
 30
0.0
 10
5.3681575147
 20
3.5752042021
 30
0.0
 10
5.3710306809
 20
3.5756276181
 30
0.0
 10
5.3729853139
 20
3.5759740944
 30
0.0
 10
5.3741955966
 20
3.576218876
 30
0.0
 10
5.3752330981
 20
3.5764630045
 30
0.0
 10
5.3760980745
 20
3.5767061903
 30
0.0
 10
5.3767905827
 20
3.5769480635
 30
0.0
 10
5.3771866155
 20
3.5771296759
 30
0.0
 10
5.3773513211
 20
3.577224876
 30
0.0
  0
SPLINE
  5
267
100
AcDbEntity
  8
0
100
AcDbSpline
 62
7
  6
CONTINUOUS
 70
0
 71
3
 72
24
 73
20
 74
0
 42
0.0000001
 43
0.0000001
 44
0.0000000001
 40
0.0
 40
0.0
 40
0.0
 40
0.0
 40
0.0056119798
 40
0.0118427461
 40
0.0191542767
 40
0.0278370501
 40
0.0380647975
 40
0.0499431571
 40
0.0788868611
 40
0.1149922541
 40
0.1584079001
 40
0.209207713
 40
0.2674270371
 40
0.3330821647
 40
0.4061781227
 40
0.486712693
 40
0.5746697008
 40
0.7727105752
 40
1.0
 40
1.0
 40
1.0
 40
1.0
 10
4.5985342466
 20
3.5644341207
 30
0.0
 10
4.5985342466
 20
3.5644710544
 30
0.0
 10
4.5985486397
 20
3.5645494574
 30
0.0
 10
4.5986097342
 20
3.5646614178
 30
0.0
 10
4.5987078453
 20
3.5647711063
 30
0.0
 10
4.5988425499
 20
3.5648797969
 30
0.0
 10
4.5990140859
 20
3.5649882578
 30
0.0
 10
4.5993125272
 20
3.5651431938
 30
0.0
 10
4.5997836277
 20
3.5653313464
 30
0.0
 10
4.6004646906
 20
3.5655461222
 30
0.0
 10
4.6012951532
 20
3.5657616762
 30
0.0
 10
4.6022749245
 20
3.5659779314
 30
0.0
 10
4.6034040024
 20
3.5661946401
 30
0.0
 10
4.6046820836
 20
3.5664116972
 30
0.0
 10
4.6061088533
 20
3.5666290105
 30
0.0
 10
4.6076838872
 20
3.5668465334
 30
0.0
 10
4.6100771436
 20
3.5671488494
 30
0.0
 10
4.6134347014
 20
3.5675220507
 30
0.0
 10
4.6162208885
 20
3.5677922989
 30
0.0
 10
4.6177104603
 20
3.5679291207
 30
0.0
  0
SPLINE
  5
268
100
AcDbEntity
  8
0
100
AcDbSpline
 62
7
  6
CONTINUOUS
 70
0
 71
3
 72
67
 73
63
 74
0
 42
0.0000001
 43
0.0000001
 44
0.0000000001
 40
0.0
 40
0.0
 40
0.0
 40
0.0
 40
0.0001884069
 40
0.0004029553
 40
0.0006620915
 40
0.0009765181
 40
0.001352169
 40
0.0017924507
 40
0.0022994252
 40
0.0028743993
 40
0.0042313591
 40
0.0058675984
 40
0.0077849968
 40
0.009984396
 40
0.0124658717
 40
0.0152284638
 40
0.0182708448
 40
0.0215915461
 40
0.0290615331
 40
0.0376245964
 40
0.0472610552
 40
0.0579484778
 40
0.0696639769
 40
0.0823806008
 40
0.1106951512
 40
0.1426327539
 40
0.177896362
 40
0.2161588417
 40
0.2570659386
 40
0.3002362398
 40
0.3452694817
 40
0.3917466721
 40
0.4392355245
 40
0.4872948482
 40
0.5354773538
 40
0.5833353639
 40
0.6304233756
 40
0.6763041446
 40
0.7205506361
 40
0.762751555
 40
0.8025155108
 40
0.8394716979
 40
0.8732785086
 40
0.8889011534
 40
0.9036219746
 40
0.9174057138
 40
0.9302206553
 40
0.9420385372
 40
0.9528313628
 40
0.9625738985
 40
0.9712458407
 40
0.9788277206
 40
0.9853022351
 40
0.9881208084
 40
0.9906588349
 40
0.9929154931
 40
0.9948902682
 40
0.9965832028
 40
0.9979958445
 40
0.9991319726
 40
0.9995987311
 40
1.0
 40
1.0
 40
1.0
 40
1.0
 10
4.6371946712
 20
3.4706837575
 30
0.0
 10
4.6371946093
 20
3.4707303389
 30
0.0
 10
4.6372157167
 20
3.4708306363
 30
0.0
 10
4.6373037162
 20
3.4709712648
 30
0.0
 10
4.6374437224
 20
3.4711084554
 30
0.0
 10
4.6376357751
 20
3.4712444626
 30
0.0
 10
4.6378804405
 20
3.4713803145
 30
0.0
 10
4.638178185
 20
3.4715162713
 30
0.0
 10
4.6385292227
 20
3.4716524199
 30
0.0
 10
4.6391008211
 20
3.4718449354
 30
0.0
 10
4.639951597
 20
3.4720804263
 30
0.0
 10
4.641135366
 20
3.4723510768
 30
0.0
 10
4.6425318088
 20
3.4726225211
 30
0.0
 10
4.6441404209
 20
3.4728946279
 30
0.0
 10
4.6459605365
 20
3.4731671329
 30
0.0
 10
4.64799108
 20
3.4734399756
 30
0.0
 10
4.6502307568
 20
3.4737130872
 30
0.0
 10
4.6536297589
 20
3.47409255
 30
0.0
 10
4.658391966
 20
3.4745610264
 30
0.0
 10
4.6647152333
 20
3.4751047679
 30
0.0
 10
4.6718364931
 20
3.4756494461
 30
0.0
 10
4.6797391231
 20
3.476194923
 30
0.0
 10
4.6884048983
 20
3.4767408879
 30
0.0
 10
4.7014240427
 20
3.477496696
 30
0.0
 10
4.7194407919
 20
3.4784294485
 30
0.0
 10
4.7430310924
 20
3.4795153641
 30
0.0
 10
4.7690831689
 20
3.4806031569
 30
0.0
 10
4.7973545498
 20
3.481692398
 30
0.0
 10
4.827582083
 20
3.4827825625
 30
0.0
 10
4.8594846068
 20
3.4838734835
 30
0.0
 10
4.8927650241
 20
3.4849648793
 30
0.0
 10
4.9271136954
 20
3.4860566328
 30
0.0
 10
4.9622108916
 20
3.4871486213
 30
0.0
 10
4.9977299048
 20
3.4882407182
 30
0.0
 10
5.0333402297
 20
3.4893328555
 30
0.0
 10
5.0687102982
 20
3.490424908
 30
0.0
 10
5.1035110189
 20
3.491516812
 30
0.0
 10
5.1374183938
 20
3.492608419
 30
0.0
 10
5.1701168593
 20
3.4936996137
 30
0.0
 10
5.201302155
 20
3.4947902482
 30
0.0
 10
5.2306838812
 20
3.495879991
 30
0.0
 10
5.2579887733
 20
3.4969687316
 30
0.0
 10
5.279326534
 20
3.4978972999
 30
0.0
 10
5.2951692751
 20
3.4986466689
 30
0.0
 10
5.306065533
 20
3.4991935684
 30
0.0
 10
5.3162667016
 20
3.499740244
 30
0.0
 10
5.3257490656
 20
3.5002866612
 30
0.0
 10
5.3344906666
 20
3.500832638
 30
0.0
 10
5.342471081
 20
3.5013780943
 30
0.0
 10
5.3496717494
 20
3.5019229623
 30
0.0
 10
5.356076136
 20
3.5024667596
 30
0.0
 10
5.3616693625
 20
3.5030092415
 30
0.0
 10
5.3658153336
 20
3.5034786506
 30
0.0
 10
5.3687155026
 20
3.5038604343
 30
0.0
 10
5.3705780264
 20
3.5041330619
 30
0.0
 10
5.3722295427
 20
3.5044052304
 30
0.0
 10
5.3736690282
 20
3.5046768223
 30
0.0
 10
5.3748958978
 20
3.5049475234
 30
0.0
 10
5.375909642
 20
3.5052172079
 30
0.0
 10
5.3766179716
 20
3.5054531359
 30
0.0
 10
5.3770740624
 20
3.505647429
 30
0.0
 10
5.3772654343
 20
3.5057452257
 30
0.0
 10
5.3773513255
 20
3.5057948762
 30
0.0
  0
SPLINE
  5
269
100
AcDbEntity
  8
0
100
AcDbSpline
 62
7
  6
CONTINUOUS
 70
0
 71
3
 72
69
 73
65
 74
0
 42
0.0000001
 43
0.0000001
 44
0.0000000001
 40
0.0
 40
0.0
 40
0.0
 40
0.0
 40
0.0001715379
 40
0.000371782
 40
0.0006195736
 40
0.0009250329
 40
0.0012935203
 40
0.0017280367
 40
0.0022303728
 40
0.0028016565
 40
0.0041536757
 40
0.0057878134
 40
0.0077056852
 40
0.0099073896
 40
0.0123922625
 40
0.0151593557
 40
0.0182075446
 40
0.0215355891
 40
0.0290251604
 40
0.0376111808
 40
0.0472739579
 40
0.0579930342
 40
0.0697432427
 40
0.0824967251
 40
0.0962252346
 40
0.1108966401
 40
0.1429279864
 40
0.1782941023
 40
0.2166653529
 40
0.2576834689
 40
0.3009669878
 40
0.3461115997
 40
0.3926961442
 40
0.4402864462
 40
0.4884380243
 40
0.5367018884
 40
0.5846274893
 40
0.6317677602
 40
0.677683072
 40
0.7219444811
 40
0.7641398745
 40
0.8038754433
 40
0.8407802492
 40
0.8745116161
 40
0.8900871551
 40
0.9047546205
 40
0.9184790429
 40
0.9312283133
 40
0.9429741908
 40
0.953688819
 40
0.9633470542
 40
0.9719284482
 40
0.9794133107
 40
0.9857847093
 40
0.988549404
 40
0.9910318695
 40
0.9932311595
 40
0.9951466131
 40
0.9967783398
 40
0.9981279682
 40
0.9986980707
 40
0.999199241
 40
0.9996326157
 40
1.0
 40
1.0
 40
1.0
 40
1.0
 10
5.4165342466
 20
3.6090783979
 30
0.0
 10
5.4165342466
 20
3.6090315698
 30
0.0
 10
5.416509856
 20
3.608929447
 30
0.0
 10
5.4164112778
 20
3.6087890223
 30
0.0
 10
5.4162561063
 20
3.608652254
 30
0.0
 10
5.4160435083
 20
3.6085164463
 30
0.0
 10
5.4157727095
 20
3.6083806054
 30
0.0
 10
5.4154431129
 20
3.608244548
 30
0.0
 10
5.4150544709
 20
3.6081082306
 30
0.0
 10
5.4144208986
 20
3.6079152226
 30
0.0
 10
5.4134783015
 20
3.6076792829
 30
0.0
 10
5.4121670768
 20
3.6074081946
 30
0.0
 10
5.4106198812
 20
3.6071363601
 30
0.0
 10
5.4088375432
 20
3.6068638524
 30
0.0
 10
5.4068210769
 20
3.6065909095
 30
0.0
 10
5.4045717043
 20
3.6063176401
 30
0.0
 10
5.4020906616
 20
3.606044109
 30
0.0
 10
5.3983245305
 20
3.605664014
 30
0.0
 10
5.3930481745
 20
3.6051949014
 30
0.0
 10
5.3860429149
 20
3.604650255
 30
0.0
 10
5.3781537543
 20
3.6041046235
 30
0.0
 10
5.3693990128
 20
3.6035583336
 30
0.0
 10
5.3597990863
 20
3.6030115256
 30
0.0
 10
5.3493764233
 20
3.6024642706
 30
0.0
 10
5.3381553035
 20
3.6019167363
 30
0.0
 10
5.3216753522
 20
3.6011641606
 30
0.0
 10
5.2992906923
 20
3.6002326204
 30
0.0
 10
5.2704374567
 20
3.5991429901
 30
0.0
 10
5.2391293717
 20
3.5980520638
 30
0.0
 10
5.2056587403
 20
3.5969600941
 30
0.0
 10
5.1703381476
 20
3.595867457
 30
0.0
 10
5.1334973022
 20
3.5947742996
 30
0.0
 10
5.0954802621
 20
3.5936807865
 30
0.0
 10
5.0566420274
 20
3.5925870613
 30
0.0
 10
5.0173451811
 20
3.5914932022
 30
0.0
 10
4.977956767
 20
3.5903993288
 30
0.0
 10
4.938844534
 20
3.5893055221
 30
0.0
 10
4.9003736795
 20
3.5882118847
 30
0.0
 10
4.8629035147
 20
3.5871185475
 30
0.0
 10
4.8267838291
 20
3.5860256123
 30
0.0
 10
4.7923519336
 20
3.5849332847
 30
0.0
 10
4.7599293456
 20
3.5838418256
 30
0.0
 10
4.7298187105
 20
3.5827514145
 30
0.0
 10
4.7063021311
 20
3.5818212392
 30
0.0
 10
4.6888539222
 20
3.5810704804
 30
0.0
 10
4.6768637622
 20
3.5805227131
 30
0.0
 10
4.6656459869
 20
3.5799751979
 30
0.0
 10
4.6552267762
 20
3.5794279411
 30
0.0
 10
4.6456304028
 20
3.5788811328
 30
0.0
 10
4.6368793013
 20
3.5783348565
 30
0.0
 10
4.628993877
 20
3.5777891915
 30
0.0
 10
4.6219923833
 20
3.5772446666
 30
0.0
 10
4.6158911286
 20
3.5767015162
 30
0.0
 10
4.6113779069
 20
3.5762312985
 30
0.0
 10
4.60822926
 20
3.5758485781
 30
0.0
 10
4.6062147844
 20
3.5755756171
 30
0.0
 10
4.6044344444
 20
3.5753031187
 30
0.0
 10
4.6028892543
 20
3.5750312894
 30
0.0
 10
4.6015800415
 20
3.5747602106
 30
0.0
 10
4.600639122
 20
3.5745242663
 30
0.0
 10
4.6000069126
 20
3.574331243
 30
0.0
 10
4.5996192617
 20
3.5741949264
 30
0.0
 10
4.5992907171
 20
3.574058882
 30
0.0
 10
4.5990951308
 20
3.5739604422
 30
0.0
 10
4.5990082779
 20
3.5739102917
 30
0.0
  0
SPLINE
  5
26A
100
AcDbEntity
  8
0
100
AcDbSpline
 62
7
  6
CONTINUOUS
 70
0
 71
3
 72
49
 73
45
 74
0
 42
0.0000001
 43
0.0000001
 44
0.0000000001
 40
0.0
 40
0.0
 40
0.0
 40
0.0
 40
0.0072247539
 40
0.015360777
 40
0.0243906122
 40
0.0342965368
 40
0.0566583936
 40
0.0822818673
 40
0.1109753985
 40
0.1425226907
 40
0.1766838982
 40
0.2132025755
 40
0.2518013897
 40
0.2921888407
 40
0.3770957319
 40
0.4653578038
 40
0.5543077051
 40
0.598199306
 40
0.6412573883
 40
0.6831567179
 40
0.7235795352
 40
0.7622204474
 40
0.7987871501
 40
0.8330024765
 40
0.864609072
 40
0.8933665599
 40
0.9190597425
 40
0.930695088
 40
0.9414942888
 40
0.9514365338
 40
0.9605026041
 40
0.9686770171
 40
0.9759449995
 40
0.9822924843
 40
0.9877095594
 40
0.9900669635
 40
0.992189226
 40
0.9940757649
 40
0.9957262908
 40
0.9971413704
 40
0.9983226242
 40
0.999273179
 40
0.9996639205
 40
1.0
 40
1.0
 40
1.0
 40
1.0
 10
4.6177104603
 20
3.5679291207
 30
0.0
 10
4.6196271284
 20
3.5681051726
 30
0.0
 10
4.6237046771
 20
3.5684528125
 30
0.0
 10
4.6301839976
 20
3.5689442658
 30
0.0
 10
4.6373793894
 20
3.5694365458
 30
0.0
 10
4.6483601432
 20
3.5701214245
 30
0.0
 10
4.6637600012
 20
3.570964788
 30
0.0
 10
4.6841645409
 20
3.571943613
 30
0.0
 10
4.7070185659
 20
3.5729245058
 30
0.0
 10
4.7321489299
 20
3.5739068855
 30
0.0
 10
4.7593653968
 20
3.5748903764
 30
0.0
 10
4.7884615611
 20
3.5758745868
 30
0.0
 10
4.8192173206
 20
3.5768594333
 30
0.0
 10
4.8628594356
 20
3.5781953919
 30
0.0
 10
4.9197288368
 20
3.57984412
 30
0.0
 10
4.9895323406
 20
3.5817935968
 30
0.0
 10
5.0484136269
 20
3.5834254954
 30
0.0
 10
5.0952561863
 20
3.5847458637
 30
0.0
 10
5.1295685166
 20
3.5857316546
 30
0.0
 10
5.1629563509
 20
3.5867171959
 30
0.0
 10
5.195166894
 20
3.5877024476
 30
0.0
 10
5.2259561025
 20
3.5886872736
 30
0.0
 10
5.2550907156
 20
3.5896715087
 30
0.0
 10
5.2823502185
 20
3.5906550322
 30
0.0
 10
5.3075278793
 20
3.5916373841
 30
0.0
 10
5.3304333366
 20
3.592618464
 30
0.0
 10
5.3480192407
 20
3.59345947
 30
0.0
 10
5.3608228483
 20
3.5941398007
 30
0.0
 10
5.3694342367
 20
3.5946327236
 30
0.0
 10
5.3773599632
 20
3.5951252699
 30
0.0
 10
5.3845849853
 20
3.5956174333
 30
0.0
 10
5.3910957936
 20
3.5961089581
 30
0.0
 10
5.3968801578
 20
3.5965994862
 30
0.0
 10
5.4019270459
 20
3.5970889405
 30
0.0
 10
5.4056656356
 20
3.5975124175
 30
0.0
 10
5.4082796918
 20
3.5978568495
 30
0.0
 10
5.4099578484
 20
3.5981027932
 30
0.0
 10
5.4114455224
 20
3.5983483405
 30
0.0
 10
5.4127419873
 20
3.5985934391
 30
0.0
 10
5.413846987
 20
3.5988377569
 30
0.0
 10
5.4147603001
 20
3.5990811277
 30
0.0
 10
5.4153986988
 20
3.5992940004
 30
0.0
 10
5.4158100055
 20
3.5994692543
 30
0.0
 10
5.4159826858
 20
3.5995574552
 30
0.0
 10
5.4160602224
 20
3.5996022268
 30
0.0
  0
SPLINE
  5
26B
100
AcDbEntity
  8
0
100
AcDbSpline
 62
7
  6
CONTINUOUS
 70
0
 71
3
 72
17
 73
13
 74
0
 42
0.0000001
 43
0.0000001
 44
0.0000000001
 40
0.0
 40
0.0
 40
0.0
 40
0.0
 40
0.023456321
 40
0.0518803788
 40
0.0854150926
 40
0.1241446931
 40
0.2173719921
 40
0.3317930733
 40
0.4673913306
 40
0.6240561206
 40
0.801645551
 40
1.0
 40
1.0
 40
1.0
 40
1.0
 10
4.6377166146
 20
3.5248576405
 30
0.0
 10
4.6378326454
 20
3.5249247211
 30
0.0
 10
4.6380994572
 20
3.5250554041
 30
0.0
 10
4.6385540517
 20
3.5252337337
 30
0.0
 10
4.6391011402
 20
3.5254125894
 30
0.0
 10
4.6400119207
 20
3.5256675514
 30
0.0
 10
4.6413858462
 20
3.5259778792
 30
0.0
 10
4.6433148369
 20
3.5263335728
 30
0.0
 10
4.6456112289
 20
3.5266906213
 30
0.0
 10
4.6482720299
 20
3.5270487627
 30
0.0
 10
4.6512941602
 20
3.5274074793
 30
0.0
 10
4.6534302813
 20
3.5276343755
 30
0.0
 10
4.6545578627
 20
3.5277487593
 30
0.0
  0
LINE
  5
26C
100
AcDbEntity
  8
0
100
AcDbLine
 62
7
  6
CONTINUOUS
 10
4.6177104603
 20
3.5054283979
 11
4.6083503597
 21
3.5044291207
  0
SPLINE
  5
26D
100
AcDbEntity
  8
0
100
AcDbSpline
 62
7
  6
CONTINUOUS
 70
0
 71
3
 72
17
 73
13
 74
0
 42
0.0000001
 43
0.0000001
 44
0.0000000001
 40
0.0
 40
0.0
 40
0.0
 40
0.0
 40
0.0212968804
 40
0.0478361417
 40
0.079775999
 40
0.1171977759
 40
0.2086410138
 40
0.3223504007
 40
0.4583672673
 40
0.6166779668
 40
0.7972411449
 40
1.0
 40
1.0
 40
1.0
 40
1.0
 10
4.6002431429
 20
3.5031946603
 30
0.0
 10
4.6002936943
 20
3.5032238755
 30
0.0
 10
4.600412518
 20
3.5032802614
 30
0.0
 10
4.6006177364
 20
3.5033562347
 30
0.0
 10
4.6008694861
 20
3.5034325066
 30
0.0
 10
4.6012966427
 20
3.5035419044
 30
0.0
 10
4.60194868
 20
3.503674464
 30
0.0
 10
4.6028717304
 20
3.50382614
 30
0.0
 10
4.6039800842
 20
3.5039783795
 30
0.0
 10
4.6052730842
 20
3.5041310864
 30
0.0
 10
4.6067501406
 20
3.5042840126
 30
0.0
 10
4.6077966198
 20
3.5043804707
 30
0.0
 10
4.6083503597
 20
3.5044291207
 30
0.0
  0
ENDSEC
  0
SECTION
  2
OBJECTS
  0
DICTIONARY
  5
C
100
AcDbDictionary
280
0
281
1
  3
ACAD_GROUP
350
D
  3
ACAD_MLINESTYLE
350
17
  3
ACAD_LAYOUT
350
1A
  3
ACAD_PLOTSETTINGS
350
19
  3
ACAD_PLOTSTYLENAME
350
E
  0
DICTIONARY
  5
D
102
{ACAD_REACTORS
330
C
102
}
100
AcDbDictionary
280
0
281
1
  0
ACDBDICTIONARYWDFLT
  5
E
102
{ACAD_REACTORS
330
C
102
}
100
AcDbDictionary
281
1
  3
Normal
350
F
100
AcDbDictionaryWithDefault
340
F
  0
DICTIONARY
  5
17
102
{ACAD_REACTORS
330
C
102
}
100
AcDbDictionary
280
0
281
1
  3
Standard
350
18
  0
DICTIONARY
  5
19
102
{ACAD_REACTORS
330
C
102
}
100
AcDbDictionary
281
1
  0
DICTIONARY
  5
1A
102
{ACAD_REACTORS
330
C
102
}
100
AcDbDictionary
281
1
  3
Model
350
26E
  3
Layout1
350
26F
  0
ACDBPLACEHOLDER
  5
F
102
{ACAD_REACTORS
330
E
102
}
  0
MLINESTYLE
  5
18
102
{ACAD_REACTORS
330
17
102
}
100
AcDbMlineStyle
  2
STANDARD
 70
0
  3

 62
256
 51
90.0
 52
90.0
 71
2
 49
0.5
 62
256
  6
BYLAYER
 49
-0.5
 62
256
  6
BYLAYER
  0
LAYOUT
  5
26E
102
{ACAD_REACTORS
330
1A
102
}
100
AcDbPlotSettings
  1

  2
none_device
  4
ANSI_A_(11.00_x_8.50_Inches)
  6

 40
0.0
 41
0.0
 42
0.0
 43
0.0
 44
279.4
 45
215.9
 46
0.0
 47
0.0
 48
0.0
 49
0.0
140
0.0
141
0.0
142
1.0
143
1.0
 70
1024
 72
0
 73
0
 74
0
  7

 75
0
147
1.0
148
0.0
149
0.0
100
AcDbLayout
  1
Model
 70
0
 71
0
 10
0.0
 20
0.0
 11
11.0
 21
8.5
 12
0.0
 22
0.0
 32
0.0
 14
0.0
 24
0.0
 34
0.0
 15
0.0
 25
0.0
 35
0.0
146
0.0
 13
0.0
 23
0.0
 33
0.0
 16
1.0
 26
0.0
 36
0.0
 17
0.0
 27
1.0
 37
0.0
 76
0
330
203
345
0
346
0
  0
LAYOUT
  5
26F
102
{ACAD_REACTORS
330
1A
102
}
100
AcDbPlotSettings
  1

  2
none_device
  4
ANSI_A_(11.00_x_8.50_Inches)
  6

 40
0.0
 41
0.0
 42
0.0
 43
0.0
 44
279.4
 45
215.9
 46
0.0
 47
0.0
 48
0.0
 49
0.0
140
0.0
141
0.0
142
1.0
143
1.0
 70
0
 72
0
 73
0
 74
0
  7

 75
0
147
1.0
148
0.0
149
0.0
100
AcDbLayout
  1
Layout1
 70
0
 71
1
 10
0.0
 20
0.0
 11
11.0
 21
8.5
 12
0.0
 22
0.0
 32
0.0
 14
0.0
 24
0.0
 34
0.0
 15
0.0
 25
0.0
 35
0.0
146
0.0
 13
0.0
 23
0.0
 33
0.0
 16
1.0
 26
0.0
 36
0.0
 17
0.0
 27
1.0
 37
0.0
 76
0
330
204
345
0
346
0
  0
ENDSEC
  0
EOF
