999
DXF file: 2940-4261_RIGHT.dxf
999
Pro/ENGINEER 2023134 by Parametric Technology Corporation
  0
SECTION
  2
HEADER
  9
$ACADVER
  1
AC1032
  9
$DWGCODEPAGE
  3
ANSI_1252
  9
$EXTMAX
 10
11.0
 20
8.5
 30
0.0
  9
$EXTMIN
 10
0.0
 20
0.0
 30
0.0
  9
$LIMMIN
 10
0.0
 20
0.0
  9
$LIMMAX
 10
11.0
 20
8.5
  9
$VIEWCTR
 10
5.5
 20
4.25
  9
$VIEWSIZE
 40
8.5
  9
$CLAYER
  8
0
  9
$LTSCALE
 40
0.605
  9
$CELTYPE
  6
BYLAYER
  9
$DIMSCALE
 40
1.0
  9
$DIMASZ
 40
0.1
  9
$DIMEXO
 40
0.0625
  9
$DIMDLI
 40
0.418
  9
$DIMEXE
 40
0.125
  9
$DIMCEN
 40
0.099
  9
$DIMLFAC
 40
1.0
  9
$DIMBLK
  1
_FILLED
  9
$DIMALT
 70
1
  9
$DIMALTD
 70
2
  9
$DIMALTTD
 70
2
  9
$DIMALTF
 40
25.4
  9
$DIMTXT
 40
0.08
  9
$DIMTOL
 70
1
  9
$DIMLIM
 70
0
  9
$DIMTFAC
 40
1.0
  9
$DIMTP
 40
0.001
  9
$DIMTM
 40
0.001
  9
$DIMGAP
 40
0.09
  9
$DIMDSEP
 70
46
  9
$AUNITS
 70
0
  9
$PDMODE
 70
3
  9
$PDSIZE
 40
0.3125
  9
$HANDSEED
  5
46B
  9
$TILEMODE
 70
1
  9
$MEASUREMENT
 70
0
  9
$INSUNITS
 70
1
  0
ENDSEC
  0
SECTION
  2
CLASSES
  0
CLASS
  1
ACDBDICTIONARYWDFLT
  2
AcDbDictionaryWithDefault
  3
AutoCAD 2000
 90
0
 91
1
280
0
281
0
  0
CLASS
  1
ACDBPLACEHOLDER
  2
AcDbPlaceHolder
  3
AutoCAD 2000
 90
0
 91
1
280
0
281
0
  0
CLASS
  1
LAYOUT
  2
AcDbLayout
  3
AutoCAD 2000
 90
0
 91
0
280
0
281
0
  0
ENDSEC
  0
SECTION
  2
TABLES
  0
TABLE
  2
VPORT
  5
8
100
AcDbSymbolTable
 70
2
  0
VPORT
  5
1F4
100
AcDbSymbolTableRecord
100
AcDbViewportTableRecord
  2
*ACTIVE
 70
0
 10
0.0
 20
0.0
 11
1.0
 21
1.0
 12
5.5
 22
4.25
 13
0.0
 23
0.0
 14
1.0
 24
1.0
 15
0.0
 25
0.0
 16
0.0
 26
0.0
 36
1.0
 17
0.0
 27
0.0
 37
0.0
 40
8.5
 41
1.2941176471
 42
50.0
 43
0.0
 44
0.0
 50
0.0
 51
0.0
 71
0
 72
100
 73
1
 74
1
 75
0
 76
0
 77
0
 78
0
  0
ENDTAB
  0
TABLE
  2
LTYPE
  5
5
100
AcDbSymbolTable
 70
6
  0
LTYPE
  5
14
100
AcDbSymbolTableRecord
100
AcDbLinetypeTableRecord
  2
BYBLOCK
 70
0
  3

 72
65
 73
0
 40
0.0
  0
LTYPE
  5
15
100
AcDbSymbolTableRecord
100
AcDbLinetypeTableRecord
  2
BYLAYER
 70
0
  3

 72
65
 73
0
 40
0.0
  0
LTYPE
  5
16
100
AcDbSymbolTableRecord
100
AcDbLinetypeTableRecord
  2
CONTINUOUS
 70
64
  3
Solid line
 72
65
 73
0
 40
0.0
  0
LTYPE
  5
1F5
100
AcDbSymbolTableRecord
100
AcDbLinetypeTableRecord
  2
CENTER
 70
64
  3
____ _ ____ _ ____ _ ____ _ ____ _ ____ _ ____
 72
65
 73
4
 40
0.6
 49
0.375
 74
0
 49
-0.075
 74
0
 49
0.075
 74
0
 49
-0.075
 74
0
  0
LTYPE
  5
1F6
100
AcDbSymbolTableRecord
100
AcDbLinetypeTableRecord
  2
HIDDEN
 70
64
  3
- - - - - - - - - - - - - - - - - - - -
 72
65
 73
2
 40
0.2
 49
0.1
 74
0
 49
-0.1
 74
0
  0
LTYPE
  5
1F7
100
AcDbSymbolTableRecord
100
AcDbLinetypeTableRecord
  2
PHANTOM
 70
64
  3
_____ _ _ _____ _ _ _____ _ _ _____
 72
65
 73
6
 40
0.8
 49
0.45
 74
0
 49
-0.05
 74
0
 49
0.1
 74
0
 49
-0.05
 74
0
 49
0.1
 74
0
 49
-0.05
 74
0
  0
LTYPE
  5
1F8
100
AcDbSymbolTableRecord
100
AcDbLinetypeTableRecord
  2
DOT
 70
64
  3
. . . . . . . . . . . . . . . . . . . .
 72
65
 73
2
 40
0.2
 49
0.1
 74
0
 49
-0.1
 74
0
  0
LTYPE
  5
1F9
100
AcDbSymbolTableRecord
100
AcDbLinetypeTableRecord
  2
DASHED
 70
64
  3
- - - - - - - - - - - - - - - - - - - -
 72
65
 73
2
 40
0.2
 49
0.1
 74
0
 49
-0.1
 74
0
  0
ENDTAB
  0
TABLE
  2
LAYER
  5
2
100
AcDbSymbolTable
 70
36
  0
LAYER
  5
10
100
AcDbSymbolTableRecord
100
AcDbLayerTableRecord
  2
0
 70
0
 62
7
  6
CONTINUOUS
370
-3
390
F
  0
LAYER
  5
1FA
100
AcDbSymbolTableRecord
100
AcDbLayerTableRecord
  2
DEFAULT_1
 70
0
 62
7
  6
CENTER
370
-3
390
F
  0
LAYER
  5
1FB
100
AcDbSymbolTableRecord
100
AcDbLayerTableRecord
  2
DEFAULT_2
 70
0
 62
8
  6
HIDDEN
370
-3
390
F
  0
LAYER
  5
1FC
100
AcDbSymbolTableRecord
100
AcDbLayerTableRecord
  2
DEFAULT_3
 70
0
 62
7
  6
PHANTOM
370
-3
390
F
  0
LAYER
  5
1FD
100
AcDbSymbolTableRecord
100
AcDbLayerTableRecord
  2
DEFAULT_COORDINATE_SYSTEM
 70
0
 62
7
  6
CONTINUOUS
370
-3
390
F
  0
LAYER
  5
1FE
100
AcDbSymbolTableRecord
100
AcDbLayerTableRecord
  2
DEFAULT_DATUM_AXES
 70
0
 62
7
  6
CONTINUOUS
370
-3
390
F
  0
LAYER
  5
1FF
100
AcDbSymbolTableRecord
100
AcDbLayerTableRecord
  2
DEFAULT_DATUM_PLANES
 70
0
 62
7
  6
CONTINUOUS
370
-3
390
F
  0
ENDTAB
  0
TABLE
  2
STYLE
  5
3
100
AcDbSymbolTable
 70
1
  0
STYLE
  5
11
100
AcDbSymbolTableRecord
100
AcDbTextStyleTableRecord
  2
STANDARD
 70
0
 40
0.0
 41
0.8
 50
0.0
 71
0
 42
0.2
  3
txt
  4

  0
STYLE
  5
200
100
AcDbSymbolTableRecord
100
AcDbTextStyleTableRecord
  2
TEXTSTYLE_1
 70
0
 40
0.0
 41
0.8
 50
0.0
 71
0
 42
0.2
  3
gdt
  4

  0
ENDTAB
  0
TABLE
  2
VIEW
  5
6
100
AcDbSymbolTable
 70
0
  0
ENDTAB
  0
TABLE
  2
UCS
  5
7
100
AcDbSymbolTable
 70
0
  0
ENDTAB
  0
TABLE
  2
APPID
  5
9
100
AcDbSymbolTable
 70
1
  0
APPID
  5
201
100
AcDbSymbolTableRecord
100
AcDbRegAppTableRecord
  2
ACAD
 70
0
  0
ENDTAB
  0
TABLE
  2
BLOCK_RECORD
  5
1
100
AcDbSymbolTable
 70
0
  0
BLOCK_RECORD
  5
202
100
AcDbSymbolTableRecord
100
AcDbBlockTableRecord
  2
*Model_Space
  0
BLOCK_RECORD
  5
203
100
AcDbSymbolTableRecord
100
AcDbBlockTableRecord
  2
*Paper_Space
  0
BLOCK_RECORD
  5
204
100
AcDbSymbolTableRecord
100
AcDbBlockTableRecord
  2
_FILLED
  0
ENDTAB
  0
TABLE
  2
DIMSTYLE
  5
A
100
AcDbSymbolTable
 70
1
100
AcDbDimStyleTable
 71
0
  0
DIMSTYLE
105
205
100
AcDbSymbolTableRecord
100
AcDbDimStyleTableRecord
  2
STANDARD
 70
0
  3

  4

 40
1.0
 41
0.1
 42
0.0625
 43
0.38
 44
0.125
 45
0.0
 46
0.0
 47
0.001
 48
0.001
140
0.08
141
0.09
142
0.0
143
25.4
144
1.0
145
0.0
146
1.0
147
0.09
 71
1
 72
0
 73
1
 74
1
 75
0
 76
0
 77
0
 78
4
 79
1
170
1
171
2
172
0
173
0
174
0
175
0
176
0
177
0
178
0
270
2
179
3
271
3
272
3
273
2
274
2
275
0
280
0
281
0
282
0
283
1
284
4
285
0
286
0
287
3
288
0
340
11
278
46
341
204
342
204
343
204
344
204
  0
ENDTAB
  0
ENDSEC
  0
SECTION
  2
BLOCKS
  0
BLOCK
  5
20
100
AcDbEntity
  8
0
100
AcDbBlockBegin
  2
*Model_Space
 70
0
 10
0.0
 20
0.0
 30
0.0
  3
*Model_Space
  1

  0
ENDBLK
  5
21
100
AcDbEntity
  8
0
100
AcDbBlockEnd
  0
BLOCK
  5
1C
100
AcDbEntity
  8
0
100
AcDbBlockBegin
  2
*Paper_Space
 70
0
 10
0.0
 20
0.0
 30
0.0
  3
*Paper_Space
  1

  0
ENDBLK
  5
1D
100
AcDbEntity
  8
0
100
AcDbBlockEnd
  0
BLOCK
  5
206
100
AcDbEntity
  8
0
100
AcDbBlockBegin
  2
_FILLED
 70
64
 10
0.0
 20
0.0
  3
_FILLED
  1

  0
SOLID
  5
207
100
AcDbEntity
  8
0
  6
BYBLOCK
 62
0
100
AcDbTrace
 10
0.0
 20
0.0
 11
-1.0
 21
0.2
 12
-1.0
 22
-0.2
 13
-1.0
 23
-0.2
  0
ENDBLK
  5
208
100
AcDbEntity
  8
0
  6
BYBLOCK
 62
0
100
AcDbBlockEnd
  0
ENDSEC
  0
SECTION
  2
ENTITIES
  0
LINE
  5
209
100
AcDbEntity
  8
0
100
AcDbLine
 62
7
  6
CONTINUOUS
 10
0.0
 20
0.0
 11
0.0
 21
8.5
  0
LINE
  5
20A
100
AcDbEntity
  8
0
100
AcDbLine
 62
7
  6
CONTINUOUS
 10
0.0
 20
0.0
 11
11.0
 21
0.0
  0
LINE
  5
20B
100
AcDbEntity
  8
0
100
AcDbLine
 62
7
  6
CONTINUOUS
 10
0.0
 20
8.5
 11
11.0
 21
8.5
  0
LINE
  5
20C
100
AcDbEntity
  8
0
100
AcDbLine
 62
7
  6
CONTINUOUS
 10
11.0
 20
0.0
 11
11.0
 21
8.5
  0
LINE
  5
20D
100
AcDbEntity
  8
0
100
AcDbLine
 62
7
  6
CONTINUOUS
 10
5.2873491687
 20
0.5960347908
 11
6.2885854557
 21
0.5960347908
  0
LINE
  5
20E
100
AcDbEntity
  8
0
100
AcDbLine
 62
7
  6
CONTINUOUS
 10
5.2860105919
 20
0.5973850547
 11
6.2899240326
 21
0.5973850547
  0
LINE
  5
20F
100
AcDbEntity
  8
0
100
AcDbLine
 62
7
  6
CONTINUOUS
 10
6.2883440928
 20
0.7784282252
 11
5.2875905317
 21
0.7784282252
  0
LINE
  5
210
100
AcDbEntity
  8
0
100
AcDbLine
 62
7
  6
CONTINUOUS
 10
5.3061182666
 20
0.7982718125
 11
6.2698163445
 21
0.7982718135
  0
LINE
  5
211
100
AcDbEntity
  8
0
100
AcDbLine
 62
7
  6
CONTINUOUS
 10
5.5955460524
 20
0.8142505389
 11
5.9803885721
 21
0.8142505389
  0
LINE
  5
212
100
AcDbEntity
  8
0
100
AcDbLine
 62
7
  6
CONTINUOUS
 10
5.5955460524
 20
0.8175969956
 11
5.9803885721
 21
0.8175969956
  0
LINE
  5
213
100
AcDbEntity
  8
0
100
AcDbLine
 62
7
  6
CONTINUOUS
 10
5.9736956587
 20
0.8242899089
 11
5.6022389658
 21
0.8242899089
  0
LINE
  5
214
100
AcDbEntity
  8
0
100
AcDbLine
 62
7
  6
CONTINUOUS
 10
5.494051057
 20
7.1124114171
 11
5.5364571275
 21
7.1299765866
  0
LINE
  5
215
100
AcDbEntity
  8
0
100
AcDbLine
 62
7
  6
CONTINUOUS
 10
5.5002668482
 20
7.0740445971
 11
5.5005498289
 21
7.0741618116
  0
LINE
  5
216
100
AcDbEntity
  8
0
100
AcDbLine
 62
7
  6
CONTINUOUS
 10
5.5033158687
 20
7.0394262413
 11
5.5035988494
 21
7.0395434558
  0
LINE
  5
217
100
AcDbEntity
  8
0
100
AcDbLine
 62
7
  6
CONTINUOUS
 10
5.5063648892
 20
7.0048078855
 11
5.5066478699
 21
7.0049251
  0
LINE
  5
218
100
AcDbEntity
  8
0
100
AcDbLine
 62
7
  6
CONTINUOUS
 10
5.613707592
 20
6.7456596767
 11
5.6139905727
 21
6.7457768911
  0
LINE
  5
219
100
AcDbEntity
  8
0
100
AcDbLine
 62
7
  6
CONTINUOUS
 10
5.6360304831
 20
6.7190248195
 11
5.6363134637
 21
6.7191420339
  0
LINE
  5
21A
100
AcDbEntity
  8
0
100
AcDbLine
 62
7
  6
CONTINUOUS
 10
5.6583533741
 20
6.6923899622
 11
5.6586363548
 21
6.6925071767
  0
LINE
  5
21B
100
AcDbEntity
  8
0
100
AcDbLine
 62
7
  6
CONTINUOUS
 10
5.6810875846
 20
6.6608652956
 11
5.6942683919
 21
6.6663249647
  0
LINE
  5
21C
100
AcDbEntity
  8
0
100
AcDbLine
 62
7
  6
CONTINUOUS
 10
4.2340145558
 20
7.2047793945
 11
4.2221839997
 21
7.0695555205
  0
LINE
  5
21D
100
AcDbEntity
  8
0
100
AcDbLine
 62
7
  6
CONTINUOUS
 10
4.2202586501
 20
7.0475484402
 11
4.2121081544
 21
6.9543878488
  0
LINE
  5
21E
100
AcDbEntity
  8
0
100
AcDbLine
 62
7
  6
CONTINUOUS
 10
4.4206992909
 20
7.1884465965
 11
4.4088687349
 21
7.0532227226
  0
LINE
  5
21F
100
AcDbEntity
  8
0
100
AcDbLine
 62
7
  6
CONTINUOUS
 10
4.4069433448
 20
7.0312156458
 11
4.3987928492
 21
6.9380550544
  0
LINE
  5
220
100
AcDbEntity
  8
0
100
AcDbLine
 62
7
  6
CONTINUOUS
 10
5.64088272
 20
5.5205761886
 11
5.6364612473
 21
5.5188789442
  0
LINE
  5
221
100
AcDbEntity
  8
0
100
AcDbLine
 62
7
  6
CONTINUOUS
 10
5.8630248898
 20
5.6013413663
 11
5.8585468776
 21
5.599799463
  0
LINE
  5
222
100
AcDbEntity
  8
0
100
AcDbLine
 62
7
  6
CONTINUOUS
 10
5.6458091026
 20
5.5306767698
 11
5.6412800066
 21
5.5292920862
  0
LINE
  5
223
100
AcDbEntity
  8
0
100
AcDbLine
 62
7
  6
CONTINUOUS
 10
5.9732673122
 20
6.0659521137
 11
5.9647673122
 21
6.0574521137
  0
LINE
  5
224
100
AcDbEntity
  8
0
100
AcDbLine
 62
7
  6
CONTINUOUS
 10
5.6304815081
 20
5.48856455
 11
5.6265095321
 21
5.4859851186
  0
LINE
  5
225
100
AcDbEntity
  8
0
100
AcDbLine
 62
7
  6
CONTINUOUS
 10
5.6332002085
 20
5.4994686618
 11
5.629057976
 21
5.4971725849
  0
LINE
  5
226
100
AcDbEntity
  8
0
100
AcDbLine
 62
7
  6
CONTINUOUS
 10
5.6366729187
 20
5.5101565648
 11
5.6323806103
 21
5.5081550285
  0
LINE
  5
227
100
AcDbEntity
  8
0
100
AcDbLine
 62
7
  6
CONTINUOUS
 10
5.8526400674
 20
5.606220857
 11
5.8489981506
 21
5.6046749551
  0
LINE
  5
228
100
AcDbEntity
  8
0
100
AcDbLine
 62
7
  6
CONTINUOUS
 10
5.723294557
 20
5.3039589608
 11
5.7276541033
 21
5.3058094785
  0
LINE
  5
229
100
AcDbEntity
  8
0
100
AcDbLine
 62
7
  6
CONTINUOUS
 10
5.9350519045
 20
5.3896036293
 11
5.9394733772
 21
5.3913008737
  0
LINE
  5
22A
100
AcDbEntity
  8
0
100
AcDbLine
 62
7
  6
CONTINUOUS
 10
5.7129097346
 20
5.3088384516
 11
5.7173877468
 21
5.3103803549
  0
LINE
  5
22B
100
AcDbEntity
  8
0
100
AcDbLine
 62
7
  6
CONTINUOUS
 10
5.9301255219
 20
5.3795030481
 11
5.9346546178
 21
5.3808877317
  0
LINE
  5
22C
100
AcDbEntity
  8
0
100
AcDbLine
 62
7
  6
CONTINUOUS
 10
5.6273553795
 20
5.4438588285
 11
5.6242482588
 21
5.440284495
  0
LINE
  5
22D
100
AcDbEntity
  8
0
100
AcDbLine
 62
7
  6
CONTINUOUS
 10
5.6269631815
 20
5.4550899089
 11
5.6236142967
 21
5.4517410241
  0
LINE
  5
22E
100
AcDbEntity
  8
0
100
AcDbLine
 62
7
  6
CONTINUOUS
 10
5.6273553795
 20
5.4663209894
 11
5.623781046
 21
5.4632138687
  0
LINE
  5
22F
100
AcDbEntity
  8
0
100
AcDbLine
 62
7
  6
CONTINUOUS
 10
5.6285300627
 20
5.4774973531
 11
5.6247476943
 21
5.4746471341
  0
LINE
  5
230
100
AcDbEntity
  8
0
100
AcDbLine
 62
7
  6
CONTINUOUS
 10
5.9474045618
 20
5.4326824648
 11
5.9511869302
 21
5.4355326838
  0
LINE
  5
231
100
AcDbEntity
  8
0
100
AcDbLine
 62
7
  6
CONTINUOUS
 10
5.7561297029
 20
5.2938153128
 11
5.7600092383
 21
5.2965317928
  0
LINE
  5
232
100
AcDbEntity
  8
0
100
AcDbLine
 62
7
  6
CONTINUOUS
 10
5.9454531164
 20
5.4216152679
 11
5.9494250923
 21
5.4241946993
  0
LINE
  5
233
100
AcDbEntity
  8
0
100
AcDbLine
 62
7
  6
CONTINUOUS
 10
5.7449573105
 20
5.296429049
 11
5.7490168877
 21
5.298868289
  0
LINE
  5
234
100
AcDbEntity
  8
0
100
AcDbLine
 62
7
  6
CONTINUOUS
 10
5.9427344159
 20
5.4107111561
 11
5.9468766484
 21
5.413007233
  0
LINE
  5
235
100
AcDbEntity
  8
0
100
AcDbLine
 62
7
  6
CONTINUOUS
 10
5.7339944586
 20
5.2998157649
 11
5.7382142997
 21
5.3019658813
  0
LINE
  5
236
100
AcDbEntity
  8
0
100
AcDbLine
 62
7
  6
CONTINUOUS
 10
5.9392617057
 20
5.4000232531
 11
5.9435540142
 21
5.4020247894
  0
LINE
  5
237
100
AcDbEntity
  8
0
100
AcDbLine
 62
7
  6
CONTINUOUS
 10
5.6304815081
 20
5.4216152679
 11
5.6279020767
 21
5.4176432919
  0
LINE
  5
238
100
AcDbEntity
  8
0
100
AcDbLine
 62
7
  6
CONTINUOUS
 10
5.6285300627
 20
5.4326824648
 11
5.6256798436
 21
5.4289000964
  0
LINE
  5
239
100
AcDbEntity
  8
0
100
AcDbLine
 62
7
  6
CONTINUOUS
 10
5.9485792449
 20
5.4663209894
 11
5.9516863656
 21
5.4698953229
  0
LINE
  5
23A
100
AcDbEntity
  8
0
100
AcDbLine
 62
7
  6
CONTINUOUS
 10
5.790356305
 20
5.2907201385
 11
5.7935862753
 21
5.2941838576
  0
LINE
  5
23B
100
AcDbEntity
  8
0
100
AcDbLine
 62
7
  6
CONTINUOUS
 10
5.9489714429
 20
5.4550899089
 11
5.9523203277
 21
5.4584387938
  0
LINE
  5
23C
100
AcDbEntity
  8
0
100
AcDbLine
 62
7
  6
CONTINUOUS
 10
5.7788846299
 20
5.2909538872
 11
5.7823483491
 21
5.2941838576
  0
LINE
  5
23D
100
AcDbEntity
  8
0
100
AcDbLine
 62
7
  6
CONTINUOUS
 10
5.9485792449
 20
5.4438588285
 11
5.9521535784
 21
5.4469659492
  0
LINE
  5
23E
100
AcDbEntity
  8
0
100
AcDbLine
 62
7
  6
CONTINUOUS
 10
5.7674572048
 20
5.2919872902
 11
5.7711377979
 21
5.2949677757
  0
LINE
  5
23F
100
AcDbEntity
  8
0
100
AcDbLine
 62
7
  6
CONTINUOUS
 10
5.7189296501
 20
5.6042774753
 11
5.7173877468
 21
5.599799463
  0
LINE
  5
240
100
AcDbEntity
  8
0
100
AcDbLine
 62
7
  6
CONTINUOUS
 10
5.64088272
 20
5.3896036293
 11
5.6391854756
 21
5.3851821566
  0
LINE
  5
241
100
AcDbEntity
  8
0
100
AcDbLine
 62
7
  6
CONTINUOUS
 10
5.6366729187
 20
5.4000232531
 11
5.6346713824
 21
5.3957309447
  0
LINE
  5
242
100
AcDbEntity
  8
0
100
AcDbLine
 62
7
  6
CONTINUOUS
 10
5.6332002085
 20
5.4107111561
 11
5.6309041316
 21
5.4065689236
  0
LINE
  5
243
100
AcDbEntity
  8
0
100
AcDbLine
 62
7
  6
CONTINUOUS
 10
5.9427344159
 20
5.4994686618
 11
5.9450304929
 21
5.5036108943
  0
LINE
  5
244
100
AcDbEntity
  8
0
100
AcDbLine
 62
7
  6
CONTINUOUS
 10
5.8244784967
 20
5.2948087118
 11
5.8269177367
 21
5.298868289
  0
LINE
  5
245
100
AcDbEntity
  8
0
100
AcDbLine
 62
7
  6
CONTINUOUS
 10
5.9454531164
 20
5.48856455
 11
5.9480325477
 21
5.4925365259
  0
LINE
  5
246
100
AcDbEntity
  8
0
100
AcDbLine
 62
7
  6
CONTINUOUS
 10
5.8132089061
 20
5.2926522573
 11
5.8159253861
 21
5.2965317928
  0
LINE
  5
247
100
AcDbEntity
  8
0
100
AcDbLine
 62
7
  6
CONTINUOUS
 10
5.9474045618
 20
5.4774973531
 11
5.9502547808
 21
5.4812797215
  0
LINE
  5
248
100
AcDbEntity
  8
0
100
AcDbLine
 62
7
  6
CONTINUOUS
 10
5.8018163411
 20
5.2912871827
 11
5.8047968266
 21
5.2949677757
  0
LINE
  5
249
100
AcDbEntity
  8
0
100
AcDbLine
 62
7
  6
CONTINUOUS
 10
5.5202507768
 20
5.8449521137
 11
5.5202507768
 21
5.6809757357
  0
LINE
  5
24A
100
AcDbEntity
  8
0
100
AcDbLine
 62
7
  6
CONTINUOUS
 10
5.2875905317
 20
0.7784282252
 11
5.2860105919
 21
0.5973850547
  0
LINE
  5
24B
100
AcDbEntity
  8
0
100
AcDbLine
 62
7
  6
CONTINUOUS
 10
5.6894204495
 20
5.5866636319
 11
5.6888432716
 21
5.5819628953
  0
LINE
  5
24C
100
AcDbEntity
  8
0
100
AcDbLine
 62
7
  6
CONTINUOUS
 10
5.6577122343
 20
5.3604540554
 11
5.6569713547
 21
5.3557763255
  0
LINE
  5
24D
100
AcDbEntity
  8
0
100
AcDbLine
 62
7
  6
CONTINUOUS
 10
5.6988386236
 20
5.5932174066
 11
5.6979349449
 21
5.5885683826
  0
LINE
  5
24E
100
AcDbEntity
  8
0
100
AcDbLine
 62
7
  6
CONTINUOUS
 10
5.6514280657
 20
5.3697707185
 11
5.6503626889
 21
5.3651560645
  0
LINE
  5
24F
100
AcDbEntity
  8
0
100
AcDbLine
 62
7
  6
CONTINUOUS
 10
5.7086910238
 20
5.599098238
 11
5.7074652469
 21
5.5945235762
  0
LINE
  5
250
100
AcDbEntity
  8
0
100
AcDbLine
 62
7
  6
CONTINUOUS
 10
5.6458091026
 20
5.3795030481
 11
5.644424419
 21
5.3749739521
  0
LINE
  5
251
100
AcDbEntity
  8
0
100
AcDbLine
 62
7
  6
CONTINUOUS
 10
5.9301255219
 20
5.5306767698
 11
5.9315102055
 21
5.5352058658
  0
LINE
  5
252
100
AcDbEntity
  8
0
100
AcDbLine
 62
7
  6
CONTINUOUS
 10
5.8570049744
 20
5.3059023426
 11
5.8585468776
 21
5.3103803549
  0
LINE
  5
253
100
AcDbEntity
  8
0
100
AcDbLine
 62
7
  6
CONTINUOUS
 10
5.9350519045
 20
5.5205761886
 11
5.9367491488
 21
5.5249976613
  0
LINE
  5
254
100
AcDbEntity
  8
0
100
AcDbLine
 62
7
  6
CONTINUOUS
 10
5.8464300035
 20
5.3014499322
 11
5.8482805211
 21
5.3058094785
  0
LINE
  5
255
100
AcDbEntity
  8
0
100
AcDbLine
 62
7
  6
CONTINUOUS
 10
5.9392617057
 20
5.5101565648
 11
5.941263242
 21
5.5144488732
  0
LINE
  5
256
100
AcDbEntity
  8
0
100
AcDbLine
 62
7
  6
CONTINUOUS
 10
5.8355702084
 20
5.2977460403
 11
5.8377203248
 21
5.3019658813
  0
LINE
  5
257
100
AcDbEntity
  8
0
100
AcDbLine
 62
7
  6
CONTINUOUS
 10
5.6642182196
 20
5.5632993855
 11
5.6646309926
 21
5.5585813693
  0
LINE
  5
258
100
AcDbEntity
  8
0
100
AcDbLine
 62
7
  6
CONTINUOUS
 10
5.6802345206
 20
5.3354405223
 11
5.6804823857
 21
5.3307109746
  0
LINE
  5
259
100
AcDbEntity
  8
0
100
AcDbLine
 62
7
  6
CONTINUOUS
 10
5.6720679777
 20
5.571668093
 11
5.672150633
 21
5.566932776
  0
LINE
  5
25A
100
AcDbEntity
  8
0
100
AcDbLine
 62
7
  6
CONTINUOUS
 10
5.5941673122
 20
6.0744521137
 11
5.5941673122
 21
6.1254521137
  0
LINE
  5
25B
100
AcDbEntity
  8
0
100
AcDbLine
 62
7
  6
CONTINUOUS
 10
5.5955460524
 20
0.8175969956
 11
5.5955460524
 21
0.8142505389
  0
LINE
  5
25C
100
AcDbEntity
  8
0
100
AcDbLine
 62
7
  6
CONTINUOUS
 10
5.6026673122
 20
6.0659521137
 11
5.6026673122
 21
6.0744521137
  0
LINE
  5
25D
100
AcDbEntity
  8
0
100
AcDbLine
 62
7
  6
CONTINUOUS
 10
5.6026673122
 20
6.1254521137
 11
5.6026673122
 21
6.1339521137
  0
LINE
  5
25E
100
AcDbEntity
  8
0
100
AcDbLine
 62
7
  6
CONTINUOUS
 10
5.6206444776
 20
0.8242899089
 11
5.6206444776
 21
5.1833576255
  0
LINE
  5
25F
100
AcDbEntity
  8
0
100
AcDbLine
 62
7
  6
CONTINUOUS
 10
5.6206444776
 20
5.1907198302
 11
5.6206444776
 21
5.3410997147
  0
LINE
  5
260
100
AcDbEntity
  8
0
100
AcDbLine
 62
7
  6
CONTINUOUS
 10
5.6206444776
 20
5.5690801032
 11
5.6206444776
 21
5.6809757357
  0
LINE
  5
261
100
AcDbEntity
  8
0
100
AcDbLine
 62
7
  6
CONTINUOUS
 10
5.6206444776
 20
5.8449521137
 11
5.6206444776
 21
6.054105657
  0
LINE
  5
262
100
AcDbEntity
  8
0
100
AcDbLine
 62
7
  6
CONTINUOUS
 10
5.6942683919
 20
6.1509521137
 11
5.6942683919
 21
7.1328413687
  0
LINE
  5
263
100
AcDbEntity
  8
0
100
AcDbLine
 62
7
  6
CONTINUOUS
 10
5.7250673122
 20
5.4713437666
 11
5.7250673122
 21
5.3758635443
  0
LINE
  5
264
100
AcDbEntity
  8
0
100
AcDbLine
 62
7
  6
CONTINUOUS
 10
5.7301673122
 20
5.4420898054
 11
5.7301673122
 21
5.3789957437
  0
LINE
  5
265
100
AcDbEntity
  8
0
100
AcDbLine
 62
7
  6
CONTINUOUS
 10
5.7369673122
 20
5.6187985704
 11
5.7369673122
 21
6.0573985704
  0
LINE
  5
266
100
AcDbEntity
  8
0
100
AcDbLine
 62
7
  6
CONTINUOUS
 10
5.7548173122
 20
5.4657985704
 11
5.7548173122
 21
5.5847985704
  0
LINE
  5
267
100
AcDbEntity
  8
0
100
AcDbLine
 62
7
  6
CONTINUOUS
 10
5.672150633
 20
5.3432470419
 11
5.6720679777
 21
5.3385117249
  0
LINE
  5
268
100
AcDbEntity
  8
0
100
AcDbLine
 62
7
  6
CONTINUOUS
 10
5.6804823857
 20
5.5794688433
 11
5.6802345206
 21
5.5747392955
  0
LINE
  5
269
100
AcDbEntity
  8
0
100
AcDbLine
 62
7
  6
CONTINUOUS
 10
5.6646309926
 20
5.3515984486
 11
5.6642182196
 21
5.3468804324
  0
LINE
  5
26A
100
AcDbEntity
  8
0
100
AcDbLine
 62
7
  6
CONTINUOUS
 10
5.886514175
 20
5.323516186
 11
5.8870913529
 21
5.3282169226
  0
LINE
  5
26B
100
AcDbEntity
  8
0
100
AcDbLine
 62
7
  6
CONTINUOUS
 10
5.9182223901
 20
5.5497257625
 11
5.9189632697
 21
5.5544034924
  0
LINE
  5
26C
100
AcDbEntity
  8
0
100
AcDbLine
 62
7
  6
CONTINUOUS
 10
5.8770960008
 20
5.3169624113
 11
5.8779996795
 21
5.3216114353
  0
LINE
  5
26D
100
AcDbEntity
  8
0
100
AcDbLine
 62
7
  6
CONTINUOUS
 10
5.9245065587
 20
5.5404090994
 11
5.9255719355
 21
5.5450237534
  0
LINE
  5
26E
100
AcDbEntity
  8
0
100
AcDbLine
 62
7
  6
CONTINUOUS
 10
5.8672436006
 20
5.3110815799
 11
5.8684693776
 21
5.3156562417
  0
LINE
  5
26F
100
AcDbEntity
  8
0
100
AcDbLine
 62
7
  6
CONTINUOUS
 10
5.9117164048
 20
5.3468804324
 11
5.9113036319
 21
5.3515984486
  0
LINE
  5
270
100
AcDbEntity
  8
0
100
AcDbLine
 62
7
  6
CONTINUOUS
 10
5.8957001038
 20
5.5747392955
 11
5.8954522387
 21
5.5794688433
  0
LINE
  5
271
100
AcDbEntity
  8
0
100
AcDbLine
 62
7
  6
CONTINUOUS
 10
5.9038666467
 20
5.3385117249
 11
5.9037839914
 21
5.3432470419
  0
LINE
  5
272
100
AcDbEntity
  8
0
100
AcDbLine
 62
7
  6
CONTINUOUS
 10
5.8211173122
 20
5.4657985704
 11
5.8211173122
 21
5.5847985704
  0
LINE
  5
273
100
AcDbEntity
  8
0
100
AcDbLine
 62
7
  6
CONTINUOUS
 10
5.8389673122
 20
5.6187985704
 11
5.8389673122
 21
6.0573985704
  0
LINE
  5
274
100
AcDbEntity
  8
0
100
AcDbLine
 62
7
  6
CONTINUOUS
 10
5.8457673122
 20
5.3789957437
 11
5.8457673122
 21
5.4420898054
  0
LINE
  5
275
100
AcDbEntity
  8
0
100
AcDbLine
 62
7
  6
CONTINUOUS
 10
5.8508673122
 20
5.3758635443
 11
5.8508673122
 21
5.4713437666
  0
LINE
  5
276
100
AcDbEntity
  8
0
100
AcDbLine
 62
7
  6
CONTINUOUS
 10
5.8816662325
 20
6.1509521137
 11
5.8816662325
 21
7.1328413687
  0
LINE
  5
277
100
AcDbEntity
  8
0
100
AcDbLine
 62
7
  6
CONTINUOUS
 10
5.9552901469
 20
0.8242899089
 11
5.9552901469
 21
5.1833576255
  0
LINE
  5
278
100
AcDbEntity
  8
0
100
AcDbLine
 62
7
  6
CONTINUOUS
 10
5.9552901469
 20
5.1907198302
 11
5.9552901469
 21
5.3410997147
  0
LINE
  5
279
100
AcDbEntity
  8
0
100
AcDbLine
 62
7
  6
CONTINUOUS
 10
5.9552901469
 20
5.5690801032
 11
5.9552901469
 21
6.054105657
  0
LINE
  5
27A
100
AcDbEntity
  8
0
100
AcDbLine
 62
7
  6
CONTINUOUS
 10
5.9732673122
 20
6.0659521137
 11
5.9732673122
 21
6.0744521137
  0
LINE
  5
27B
100
AcDbEntity
  8
0
100
AcDbLine
 62
7
  6
CONTINUOUS
 10
5.9732673122
 20
6.1254521137
 11
5.9732673122
 21
6.1339521137
  0
LINE
  5
27C
100
AcDbEntity
  8
0
100
AcDbLine
 62
7
  6
CONTINUOUS
 10
5.9803885721
 20
0.8175969956
 11
5.9803885721
 21
0.8142505389
  0
LINE
  5
27D
100
AcDbEntity
  8
0
100
AcDbLine
 62
7
  6
CONTINUOUS
 10
5.9817673122
 20
6.0744521137
 11
5.9817673122
 21
6.1254521137
  0
LINE
  5
27E
100
AcDbEntity
  8
0
100
AcDbLine
 62
7
  6
CONTINUOUS
 10
5.9037839914
 20
5.566932776
 11
5.9038666467
 21
5.571668093
  0
LINE
  5
27F
100
AcDbEntity
  8
0
100
AcDbLine
 62
7
  6
CONTINUOUS
 10
5.8954522387
 20
5.3307109746
 11
5.8957001038
 21
5.3354405223
  0
LINE
  5
280
100
AcDbEntity
  8
0
100
AcDbLine
 62
7
  6
CONTINUOUS
 10
5.9113036319
 20
5.5585813693
 11
5.9117164048
 21
5.5632993855
  0
LINE
  5
281
100
AcDbEntity
  8
0
100
AcDbLine
 62
7
  6
CONTINUOUS
 10
5.7173877468
 20
5.3103803549
 11
5.7189296501
 21
5.3059023426
  0
LINE
  5
282
100
AcDbEntity
  8
0
100
AcDbLine
 62
7
  6
CONTINUOUS
 10
5.644424419
 20
5.5352058658
 11
5.6458091026
 21
5.5306767698
  0
LINE
  5
283
100
AcDbEntity
  8
0
100
AcDbLine
 62
7
  6
CONTINUOUS
 10
5.7074652469
 20
5.3156562417
 11
5.7086910238
 21
5.3110815799
  0
LINE
  5
284
100
AcDbEntity
  8
0
100
AcDbLine
 62
7
  6
CONTINUOUS
 10
5.6503626889
 20
5.5450237534
 11
5.6514280657
 21
5.5404090994
  0
LINE
  5
285
100
AcDbEntity
  8
0
100
AcDbLine
 62
7
  6
CONTINUOUS
 10
5.6979349449
 20
5.3216114353
 11
5.6988386236
 21
5.3169624113
  0
LINE
  5
286
100
AcDbEntity
  8
0
100
AcDbLine
 62
7
  6
CONTINUOUS
 10
5.6569713547
 20
5.5544034924
 11
5.6577122343
 21
5.5497257625
  0
LINE
  5
287
100
AcDbEntity
  8
0
100
AcDbLine
 62
7
  6
CONTINUOUS
 10
5.6888432716
 20
5.3282169226
 11
5.6894204495
 21
5.323516186
  0
LINE
  5
288
100
AcDbEntity
  8
0
100
AcDbLine
 62
7
  6
CONTINUOUS
 10
5.8870913529
 20
5.5819628953
 11
5.886514175
 21
5.5866636319
  0
LINE
  5
289
100
AcDbEntity
  8
0
100
AcDbLine
 62
7
  6
CONTINUOUS
 10
6.2883440928
 20
0.7784282252
 11
6.2899240326
 21
0.5973850547
  0
LINE
  5
28A
100
AcDbEntity
  8
0
100
AcDbLine
 62
7
  6
CONTINUOUS
 10
5.7028905851
 20
5.3144304647
 11
5.7074652469
 21
5.3156562417
  0
LINE
  5
28B
100
AcDbEntity
  8
0
100
AcDbLine
 62
7
  6
CONTINUOUS
 10
5.9245065587
 20
5.3697707185
 11
5.9291212127
 21
5.3708360953
  0
LINE
  5
28C
100
AcDbEntity
  8
0
100
AcDbLine
 62
7
  6
CONTINUOUS
 10
5.6932859209
 20
5.3207077566
 11
5.6979349449
 21
5.3216114353
  0
LINE
  5
28D
100
AcDbEntity
  8
0
100
AcDbLine
 62
7
  6
CONTINUOUS
 10
5.9182223901
 20
5.3604540554
 11
5.92290012
 21
5.361194935
  0
LINE
  5
28E
100
AcDbEntity
  8
0
100
AcDbLine
 62
7
  6
CONTINUOUS
 10
5.684142535
 20
5.3276397447
 11
5.6888432716
 21
5.3282169226
  0
LINE
  5
28F
100
AcDbEntity
  8
0
100
AcDbLine
 62
7
  6
CONTINUOUS
 10
5.9113036319
 20
5.3515984486
 11
5.9160216481
 21
5.3520112216
  0
LINE
  5
290
100
AcDbEntity
  8
0
100
AcDbLine
 62
7
  6
CONTINUOUS
 10
5.6755049729
 20
5.3351926572
 11
5.6802345206
 21
5.3354405223
  0
LINE
  5
291
100
AcDbEntity
  8
0
100
AcDbLine
 62
7
  6
CONTINUOUS
 10
5.9037839914
 20
5.3432470419
 11
5.9085193085
 21
5.3433296971
  0
LINE
  5
292
100
AcDbEntity
  8
0
100
AcDbLine
 62
7
  6
CONTINUOUS
 10
5.6206444776
 20
5.1833576255
 11
5.9552901469
 21
5.1833576255
  0
LINE
  5
293
100
AcDbEntity
  8
0
100
AcDbLine
 62
7
  6
CONTINUOUS
 10
5.623990935
 20
5.1873733735
 11
5.9519436895
 21
5.1873733735
  0
LINE
  5
294
100
AcDbEntity
  8
0
100
AcDbLine
 62
7
  6
CONTINUOUS
 10
5.9552901469
 20
5.1907198302
 11
5.6206444776
 21
5.1907198302
  0
LINE
  5
295
100
AcDbEntity
  8
0
100
AcDbLine
 62
7
  6
CONTINUOUS
 10
5.7711377979
 20
5.2949677757
 11
5.7741182834
 21
5.2912871827
  0
LINE
  5
296
100
AcDbEntity
  8
0
100
AcDbLine
 62
7
  6
CONTINUOUS
 10
5.6256798436
 20
5.4812797215
 11
5.6285300627
 21
5.4774973531
  0
LINE
  5
297
100
AcDbEntity
  8
0
100
AcDbLine
 62
7
  6
CONTINUOUS
 10
5.7600092383
 20
5.2965317928
 11
5.7627257183
 21
5.2926522573
  0
LINE
  5
298
100
AcDbEntity
  8
0
100
AcDbLine
 62
7
  6
CONTINUOUS
 10
5.6279020767
 20
5.4925365259
 11
5.6304815081
 21
5.48856455
  0
LINE
  5
299
100
AcDbEntity
  8
0
100
AcDbLine
 62
7
  6
CONTINUOUS
 10
5.7490168877
 20
5.298868289
 11
5.7514561278
 21
5.2948087118
  0
LINE
  5
29A
100
AcDbEntity
  8
0
100
AcDbLine
 62
7
  6
CONTINUOUS
 10
5.6309041316
 20
5.5036108943
 11
5.6332002085
 21
5.4994686618
  0
LINE
  5
29B
100
AcDbEntity
  8
0
100
AcDbLine
 62
7
  6
CONTINUOUS
 10
5.7382142997
 20
5.3019658813
 11
5.7403644161
 21
5.2977460403
  0
LINE
  5
29C
100
AcDbEntity
  8
0
100
AcDbLine
 62
7
  6
CONTINUOUS
 10
5.6346713824
 20
5.5144488732
 11
5.6366729187
 21
5.5101565648
  0
LINE
  5
29D
100
AcDbEntity
  8
0
100
AcDbLine
 62
7
  6
CONTINUOUS
 10
5.7276541033
 20
5.3058094785
 11
5.7295046209
 21
5.3014499322
  0
LINE
  5
29E
100
AcDbEntity
  8
0
100
AcDbLine
 62
7
  6
CONTINUOUS
 10
5.6391854756
 20
5.5249976613
 11
5.64088272
 21
5.5205761886
  0
LINE
  5
29F
100
AcDbEntity
  8
0
100
AcDbLine
 62
7
  6
CONTINUOUS
 10
5.9367491488
 20
5.3851821566
 11
5.9350519045
 21
5.3896036293
  0
LINE
  5
2A0
100
AcDbEntity
  8
0
100
AcDbLine
 62
7
  6
CONTINUOUS
 10
5.8585468776
 20
5.599799463
 11
5.8570049744
 21
5.6042774753
  0
LINE
  5
2A1
100
AcDbEntity
  8
0
100
AcDbLine
 62
7
  6
CONTINUOUS
 10
5.9315102055
 20
5.3749739521
 11
5.9301255219
 21
5.3795030481
  0
LINE
  5
2A2
100
AcDbEntity
  8
0
100
AcDbLine
 62
7
  6
CONTINUOUS
 10
5.8684693776
 20
5.5945235762
 11
5.8672436006
 21
5.599098238
  0
LINE
  5
2A3
100
AcDbEntity
  8
0
100
AcDbLine
 62
7
  6
CONTINUOUS
 10
5.9255719355
 20
5.3651560645
 11
5.9245065587
 21
5.3697707185
  0
LINE
  5
2A4
100
AcDbEntity
  8
0
100
AcDbLine
 62
7
  6
CONTINUOUS
 10
5.5189644456
 20
6.9037834275
 11
5.515721391
 21
6.9184119014
  0
LINE
  5
2A5
100
AcDbEntity
  8
0
100
AcDbLine
 62
7
  6
CONTINUOUS
 10
5.5145565385
 20
6.9236662115
 11
5.5115246627
 21
6.9373421196
  0
LINE
  5
2A6
100
AcDbEntity
  8
0
100
AcDbLine
 62
7
  6
CONTINUOUS
 10
5.5144260084
 20
6.9431055183
 11
5.5088138287
 21
6.9684204251
  0
LINE
  5
2A7
100
AcDbEntity
  8
0
100
AcDbLine
 62
7
  6
CONTINUOUS
 10
5.5117151743
 20
6.9741838242
 11
5.5053557478
 21
7.0028693431
  0
LINE
  5
2A8
100
AcDbEntity
  8
0
100
AcDbLine
 62
7
  6
CONTINUOUS
 10
5.5086661534
 20
7.0088021814
 11
5.5060520224
 21
7.0205937643
  0
LINE
  5
2A9
100
AcDbEntity
  8
0
100
AcDbLine
 62
7
  6
CONTINUOUS
 10
5.5048927871
 20
7.0258227369
 11
5.5023067273
 21
7.0374876989
  0
LINE
  5
2AA
100
AcDbEntity
  8
0
100
AcDbLine
 62
7
  6
CONTINUOUS
 10
5.5056171328
 20
7.0434205379
 11
5.4992577068
 21
7.0721060549
  0
LINE
  5
2AB
100
AcDbEntity
  8
0
100
AcDbLine
 62
7
  6
CONTINUOUS
 10
5.5157206961
 20
6.9184151615
 11
5.515721391
 21
6.9184119014
  0
LINE
  5
2AC
100
AcDbEntity
  8
0
100
AcDbLine
 62
7
  6
CONTINUOUS
 10
5.8779996795
 20
5.5885683826
 11
5.8770960008
 21
5.5932174066
  0
LINE
  5
2AD
100
AcDbEntity
  8
0
100
AcDbLine
 62
7
  6
CONTINUOUS
 10
5.9189632697
 20
5.3557763255
 11
5.9182223901
 21
5.3604540554
  0
LINE
  5
2AE
100
AcDbEntity
  8
0
100
AcDbLine
 62
7
  6
CONTINUOUS
 10
5.8730440393
 20
5.5957493532
 11
5.8684693776
 21
5.5945235762
  0
LINE
  5
2AF
100
AcDbEntity
  8
0
100
AcDbLine
 62
7
  6
CONTINUOUS
 10
5.6514280657
 20
5.5404090994
 11
5.6468134117
 21
5.5393437226
  0
LINE
  5
2B0
100
AcDbEntity
  8
0
100
AcDbLine
 62
7
  6
CONTINUOUS
 10
5.8826487035
 20
5.5894720613
 11
5.8779996795
 21
5.5885683826
  0
LINE
  5
2B1
100
AcDbEntity
  8
0
100
AcDbLine
 62
7
  6
CONTINUOUS
 10
5.6577122343
 20
5.5497257625
 11
5.6530345045
 21
5.5489848829
  0
LINE
  5
2B2
100
AcDbEntity
  8
0
100
AcDbLine
 62
7
  6
CONTINUOUS
 10
5.8917920895
 20
5.5825400732
 11
5.8870913529
 21
5.5819628953
  0
LINE
  5
2B3
100
AcDbEntity
  8
0
100
AcDbLine
 62
7
  6
CONTINUOUS
 10
5.6646309926
 20
5.5585813693
 11
5.6599129763
 21
5.5581685963
  0
LINE
  5
2B4
100
AcDbEntity
  8
0
100
AcDbLine
 62
7
  6
CONTINUOUS
 10
5.9004296516
 20
5.5749871606
 11
5.8957001038
 21
5.5747392955
  0
LINE
  5
2B5
100
AcDbEntity
  8
0
100
AcDbLine
 62
7
  6
CONTINUOUS
 10
5.672150633
 20
5.566932776
 11
5.667415316
 21
5.5668501207
  0
LINE
  5
2B6
100
AcDbEntity
  8
0
100
AcDbLine
 62
7
  6
CONTINUOUS
 10
5.8747370626
 20
5.3937255033
 11
5.8508673122
 21
5.3937255033
  0
LINE
  5
2B7
100
AcDbEntity
  8
0
100
AcDbLine
 62
7
  6
CONTINUOUS
 10
5.7250673122
 20
5.3937255033
 11
5.7011975618
 21
5.3937255033
  0
LINE
  5
2B8
100
AcDbEntity
  8
0
100
AcDbLine
 62
7
  6
CONTINUOUS
 10
5.7256362924
 20
5.4805310973
 11
5.6955713853
 21
5.4805311205
  0
LINE
  5
2B9
100
AcDbEntity
  8
0
100
AcDbLine
 62
7
  6
CONTINUOUS
 10
5.8803626401
 20
5.4805310796
 11
5.8502983309
 21
5.4805311025
  0
LINE
  5
2BA
100
AcDbEntity
  8
0
100
AcDbLine
 62
7
  6
CONTINUOUS
 10
5.7548173122
 20
5.5252985704
 11
5.8211173122
 21
5.5252985704
  0
LINE
  5
2BB
100
AcDbEntity
  8
0
100
AcDbLine
 62
7
  6
CONTINUOUS
 10
5.7481873122
 20
5.5847985704
 11
5.8277473122
 21
5.5847985704
  0
LINE
  5
2BC
100
AcDbEntity
  8
0
100
AcDbLine
 62
7
  6
CONTINUOUS
 10
5.667415316
 20
5.3433296971
 11
5.672150633
 21
5.3432470419
  0
LINE
  5
2BD
100
AcDbEntity
  8
0
100
AcDbLine
 62
7
  6
CONTINUOUS
 10
5.9085193085
 20
5.5668501207
 11
5.9037839914
 21
5.566932776
  0
LINE
  5
2BE
100
AcDbEntity
  8
0
100
AcDbLine
 62
7
  6
CONTINUOUS
 10
5.8957001038
 20
5.3354405223
 11
5.9004296516
 21
5.3351926572
  0
LINE
  5
2BF
100
AcDbEntity
  8
0
100
AcDbLine
 62
7
  6
CONTINUOUS
 10
5.6599129763
 20
5.3520112216
 11
5.6646309926
 21
5.3515984486
  0
LINE
  5
2C0
100
AcDbEntity
  8
0
100
AcDbLine
 62
7
  6
CONTINUOUS
 10
5.8870913529
 20
5.3282169226
 11
5.8917920895
 21
5.3276397447
  0
LINE
  5
2C1
100
AcDbEntity
  8
0
100
AcDbLine
 62
7
  6
CONTINUOUS
 10
5.6530345045
 20
5.361194935
 11
5.6577122343
 21
5.3604540554
  0
LINE
  5
2C2
100
AcDbEntity
  8
0
100
AcDbLine
 62
7
  6
CONTINUOUS
 10
5.8779996795
 20
5.3216114353
 11
5.8826487035
 21
5.3207077566
  0
LINE
  5
2C3
100
AcDbEntity
  8
0
100
AcDbLine
 62
7
  6
CONTINUOUS
 10
5.6468134117
 20
5.3708360953
 11
5.6514280657
 21
5.3697707185
  0
LINE
  5
2C4
100
AcDbEntity
  8
0
100
AcDbLine
 62
7
  6
CONTINUOUS
 10
5.8684693776
 20
5.3156562417
 11
5.8730440393
 21
5.3144304647
  0
LINE
  5
2C5
100
AcDbEntity
  8
0
100
AcDbLine
 62
7
  6
CONTINUOUS
 10
5.6412800066
 20
5.3808877317
 11
5.6458091026
 21
5.3795030481
  0
LINE
  5
2C6
100
AcDbEntity
  8
0
100
AcDbLine
 62
7
  6
CONTINUOUS
 10
5.8585468776
 20
5.3103803549
 11
5.8630248898
 21
5.3088384516
  0
LINE
  5
2C7
100
AcDbEntity
  8
0
100
AcDbLine
 62
7
  6
CONTINUOUS
 10
5.6364612473
 20
5.3913008737
 11
5.64088272
 21
5.3896036293
  0
LINE
  5
2C8
100
AcDbEntity
  8
0
100
AcDbLine
 62
7
  6
CONTINUOUS
 10
5.8482805211
 20
5.3058094785
 11
5.8526400674
 21
5.3039589608
  0
LINE
  5
2C9
100
AcDbEntity
  8
0
100
AcDbLine
 62
7
  6
CONTINUOUS
 10
5.6323806103
 20
5.4020247894
 11
5.6366729187
 21
5.4000232531
  0
LINE
  5
2CA
100
AcDbEntity
  8
0
100
AcDbLine
 62
7
  6
CONTINUOUS
 10
5.8377203248
 20
5.3019658813
 11
5.8419401658
 21
5.2998157649
  0
LINE
  5
2CB
100
AcDbEntity
  8
0
100
AcDbLine
 62
7
  6
CONTINUOUS
 10
5.629057976
 20
5.413007233
 11
5.6332002085
 21
5.4107111561
  0
LINE
  5
2CC
100
AcDbEntity
  8
0
100
AcDbLine
 62
7
  6
CONTINUOUS
 10
5.8269177367
 20
5.298868289
 11
5.8309773139
 21
5.296429049
  0
LINE
  5
2CD
100
AcDbEntity
  8
0
100
AcDbLine
 62
7
  6
CONTINUOUS
 10
5.6265095321
 20
5.4241946993
 11
5.6304815081
 21
5.4216152679
  0
LINE
  5
2CE
100
AcDbEntity
  8
0
100
AcDbLine
 62
7
  6
CONTINUOUS
 10
5.8159253861
 20
5.2965317928
 11
5.8198049216
 21
5.2938153128
  0
LINE
  5
2CF
100
AcDbEntity
  8
0
100
AcDbLine
 62
7
  6
CONTINUOUS
 10
5.6247476943
 20
5.4355326838
 11
5.6285300627
 21
5.4326824648
  0
LINE
  5
2D0
100
AcDbEntity
  8
0
100
AcDbLine
 62
7
  6
CONTINUOUS
 10
5.8047968266
 20
5.2949677757
 11
5.8084774196
 21
5.2919872902
  0
LINE
  5
2D1
100
AcDbEntity
  8
0
100
AcDbLine
 62
7
  6
CONTINUOUS
 10
5.623781046
 20
5.4469659492
 11
5.6273553795
 21
5.4438588285
  0
LINE
  5
2D2
100
AcDbEntity
  8
0
100
AcDbLine
 62
7
  6
CONTINUOUS
 10
5.7935862753
 20
5.2941838576
 11
5.7970499945
 21
5.2909538872
  0
LINE
  5
2D3
100
AcDbEntity
  8
0
100
AcDbLine
 62
7
  6
CONTINUOUS
 10
5.6236142967
 20
5.4584387938
 11
5.6269631815
 21
5.4550899089
  0
LINE
  5
2D4
100
AcDbEntity
  8
0
100
AcDbLine
 62
7
  6
CONTINUOUS
 10
5.7823483491
 20
5.2941838576
 11
5.7855783195
 21
5.2907201385
  0
LINE
  5
2D5
100
AcDbEntity
  8
0
100
AcDbLine
 62
7
  6
CONTINUOUS
 10
5.6242482588
 20
5.4698953229
 11
5.6273553795
 21
5.4663209894
  0
LINE
  5
2D6
100
AcDbEntity
  8
0
100
AcDbLine
 62
7
  6
CONTINUOUS
 10
5.9516863656
 20
5.440284495
 11
5.9485792449
 21
5.4438588285
  0
LINE
  5
2D7
100
AcDbEntity
  8
0
100
AcDbLine
 62
7
  6
CONTINUOUS
 10
5.9502547808
 20
5.4289000964
 11
5.9474045618
 21
5.4326824648
  0
LINE
  5
2D8
100
AcDbEntity
  8
0
100
AcDbLine
 62
7
  6
CONTINUOUS
 10
5.9480325477
 20
5.4176432919
 11
5.9454531164
 21
5.4216152679
  0
LINE
  5
2D9
100
AcDbEntity
  8
0
100
AcDbLine
 62
7
  6
CONTINUOUS
 10
5.9450304929
 20
5.4065689236
 11
5.9427344159
 21
5.4107111561
  0
LINE
  5
2DA
100
AcDbEntity
  8
0
100
AcDbLine
 62
7
  6
CONTINUOUS
 10
5.941263242
 20
5.3957309447
 11
5.9392617057
 21
5.4000232531
  0
LINE
  5
2DB
100
AcDbEntity
  8
0
100
AcDbLine
 62
7
  6
CONTINUOUS
 10
5.5190535541
 20
6.9035008134
 11
5.5510449153
 21
6.8262668353
  0
LINE
  5
2DC
100
AcDbEntity
  8
0
100
AcDbLine
 62
7
  6
CONTINUOUS
 10
5.5511817445
 20
6.8260039877
 11
5.5189644456
 21
6.9037834275
  0
LINE
  5
2DD
100
AcDbEntity
  8
0
100
AcDbLine
 62
7
  6
CONTINUOUS
 10
5.5115246627
 20
6.9373421196
 11
5.5696506022
 21
6.7970136881
  0
LINE
  5
2DE
100
AcDbEntity
  8
0
100
AcDbLine
 62
7
  6
CONTINUOUS
 10
5.5124920249
 20
6.9392627004
 11
5.5716926863
 21
6.7963396607
  0
LINE
  5
2DF
100
AcDbEntity
  8
0
100
AcDbLine
 62
7
  6
CONTINUOUS
 10
5.5757775017
 20
6.794989911
 11
5.5144260084
 21
6.9431055183
  0
LINE
  5
2E0
100
AcDbEntity
  8
0
100
AcDbLine
 62
7
  6
CONTINUOUS
 10
5.5088138287
 20
6.9684204251
 11
5.5897094336
 21
6.7731211584
  0
LINE
  5
2E1
100
AcDbEntity
  8
0
100
AcDbLine
 62
7
  6
CONTINUOUS
 10
5.5097811912
 20
6.9703410043
 11
5.5917515169
 21
6.7724471324
  0
LINE
  5
2E2
100
AcDbEntity
  8
0
100
AcDbLine
 62
7
  6
CONTINUOUS
 10
5.5958363334
 20
6.7710973809
 11
5.5117151743
 21
6.9741838242
  0
LINE
  5
2E3
100
AcDbEntity
  8
0
100
AcDbLine
 62
7
  6
CONTINUOUS
 10
5.5053557478
 20
7.0028693431
 11
5.6116232648
 21
6.7463168625
  0
LINE
  5
2E4
100
AcDbEntity
  8
0
100
AcDbLine
 62
7
  6
CONTINUOUS
 10
5.5063648892
 20
7.0048078855
 11
5.613707592
 21
6.7456596767
  0
LINE
  5
2E5
100
AcDbEntity
  8
0
100
AcDbLine
 62
7
  6
CONTINUOUS
 10
5.6139905727
 20
6.7457768911
 11
5.5066478699
 21
7.0049251
  0
LINE
  5
2E6
100
AcDbEntity
  8
0
100
AcDbLine
 62
7
  6
CONTINUOUS
 10
5.6181592252
 20
6.7444625225
 11
5.5086661534
 21
7.0088021814
  0
LINE
  5
2E7
100
AcDbEntity
  8
0
100
AcDbLine
 62
7
  6
CONTINUOUS
 10
5.5023067273
 20
7.0374876989
 11
5.6339461558
 21
6.7196820052
  0
LINE
  5
2E8
100
AcDbEntity
  8
0
100
AcDbLine
 62
7
  6
CONTINUOUS
 10
5.5033158687
 20
7.0394262413
 11
5.6360304831
 21
6.7190248195
  0
LINE
  5
2E9
100
AcDbEntity
  8
0
100
AcDbLine
 62
7
  6
CONTINUOUS
 10
5.6363134637
 20
6.7191420339
 11
5.5035988494
 21
7.0395434558
  0
LINE
  5
2EA
100
AcDbEntity
  8
0
100
AcDbLine
 62
7
  6
CONTINUOUS
 10
5.6404821167
 20
6.7178276647
 11
5.5056171328
 21
7.0434205379
  0
LINE
  5
2EB
100
AcDbEntity
  8
0
100
AcDbLine
 62
7
  6
CONTINUOUS
 10
5.4992577068
 20
7.0721060549
 11
5.656269047
 21
6.6930471478
  0
LINE
  5
2EC
100
AcDbEntity
  8
0
100
AcDbLine
 62
7
  6
CONTINUOUS
 10
5.6583533741
 20
6.6923899622
 11
5.5002668482
 21
7.0740445971
  0
LINE
  5
2ED
100
AcDbEntity
  8
0
100
AcDbLine
 62
7
  6
CONTINUOUS
 10
5.5005498289
 20
7.0741618116
 11
5.6586363548
 21
6.6925071767
  0
LINE
  5
2EE
100
AcDbEntity
  8
0
100
AcDbLine
 62
7
  6
CONTINUOUS
 10
5.6722028165
 20
6.6645457669
 11
5.4903710635
 21
7.1035264511
  0
LINE
  5
2EF
100
AcDbEntity
  8
0
100
AcDbLine
 62
7
  6
CONTINUOUS
 10
5.7369673122
 20
5.5975485704
 11
5.8389673122
 21
5.5975485704
  0
LINE
  5
2F0
100
AcDbEntity
  8
0
100
AcDbLine
 62
7
  6
CONTINUOUS
 10
5.7369673122
 20
5.6187985704
 11
5.8389673122
 21
5.6187985704
  0
LINE
  5
2F1
100
AcDbEntity
  8
0
100
AcDbLine
 62
7
  6
CONTINUOUS
 10
5.5202507768
 20
5.6809757357
 11
5.6206444776
 21
5.6809757357
  0
LINE
  5
2F2
100
AcDbEntity
  8
0
100
AcDbLine
 62
7
  6
CONTINUOUS
 10
5.6802345206
 20
5.5747392955
 11
5.6755049729
 21
5.5749871606
  0
LINE
  5
2F3
100
AcDbEntity
  8
0
100
AcDbLine
 62
7
  6
CONTINUOUS
 10
5.9160216481
 20
5.5581685963
 11
5.9113036319
 21
5.5585813693
  0
LINE
  5
2F4
100
AcDbEntity
  8
0
100
AcDbLine
 62
7
  6
CONTINUOUS
 10
5.6888432716
 20
5.5819628953
 11
5.684142535
 21
5.5825400732
  0
LINE
  5
2F5
100
AcDbEntity
  8
0
100
AcDbLine
 62
7
  6
CONTINUOUS
 10
5.92290012
 20
5.5489848829
 11
5.9182223901
 21
5.5497257625
  0
LINE
  5
2F6
100
AcDbEntity
  8
0
100
AcDbLine
 62
7
  6
CONTINUOUS
 10
5.6979349449
 20
5.5885683826
 11
5.6932859209
 21
5.5894720613
  0
LINE
  5
2F7
100
AcDbEntity
  8
0
100
AcDbLine
 62
7
  6
CONTINUOUS
 10
5.9291212127
 20
5.5393437226
 11
5.9245065587
 21
5.5404090994
  0
LINE
  5
2F8
100
AcDbEntity
  8
0
100
AcDbLine
 62
7
  6
CONTINUOUS
 10
5.7074652469
 20
5.5945235762
 11
5.7028905851
 21
5.5957493532
  0
LINE
  5
2F9
100
AcDbEntity
  8
0
100
AcDbLine
 62
7
  6
CONTINUOUS
 10
5.9346546178
 20
5.5292920862
 11
5.9301255219
 21
5.5306767698
  0
LINE
  5
2FA
100
AcDbEntity
  8
0
100
AcDbLine
 62
7
  6
CONTINUOUS
 10
5.7173877468
 20
5.599799463
 11
5.7129097346
 21
5.6013413663
  0
LINE
  5
2FB
100
AcDbEntity
  8
0
100
AcDbLine
 62
7
  6
CONTINUOUS
 10
5.9394733772
 20
5.5188789442
 11
5.9350519045
 21
5.5205761886
  0
LINE
  5
2FC
100
AcDbEntity
  8
0
100
AcDbLine
 62
7
  6
CONTINUOUS
 10
5.7269364738
 20
5.6046749551
 11
5.723294557
 21
5.606220857
  0
LINE
  5
2FD
100
AcDbEntity
  8
0
100
AcDbLine
 62
7
  6
CONTINUOUS
 10
5.9435540142
 20
5.5081550285
 11
5.9392617057
 21
5.5101565648
  0
LINE
  5
2FE
100
AcDbEntity
  8
0
100
AcDbLine
 62
7
  6
CONTINUOUS
 10
5.9468766484
 20
5.4971725849
 11
5.9427344159
 21
5.4994686618
  0
LINE
  5
2FF
100
AcDbEntity
  8
0
100
AcDbLine
 62
7
  6
CONTINUOUS
 10
5.9494250923
 20
5.4859851186
 11
5.9454531164
 21
5.48856455
  0
LINE
  5
300
100
AcDbEntity
  8
0
100
AcDbLine
 62
7
  6
CONTINUOUS
 10
5.9511869302
 20
5.4746471341
 11
5.9474045618
 21
5.4774973531
  0
LINE
  5
301
100
AcDbEntity
  8
0
100
AcDbLine
 62
7
  6
CONTINUOUS
 10
5.9521535784
 20
5.4632138687
 11
5.9485792449
 21
5.4663209894
  0
LINE
  5
302
100
AcDbEntity
  8
0
100
AcDbLine
 62
7
  6
CONTINUOUS
 10
5.9523203277
 20
5.4517410241
 11
5.9489714429
 21
5.4550899089
  0
LINE
  5
303
100
AcDbEntity
  8
0
100
AcDbLine
 62
7
  6
CONTINUOUS
 10
5.6026673122
 20
6.0659521137
 11
5.6111673122
 21
6.0574521137
  0
LINE
  5
304
100
AcDbEntity
  8
0
100
AcDbLine
 62
7
  6
CONTINUOUS
 10
5.494051057
 20
7.1124114171
 11
5.6810875846
 21
6.6608652956
  0
LINE
  5
305
100
AcDbEntity
  8
0
100
AcDbLine
 62
7
  6
CONTINUOUS
 10
5.6942683919
 20
6.7489864974
 11
5.5364571275
 21
7.1299765866
  0
LINE
  5
306
100
AcDbEntity
  8
0
100
AcDbLine
 62
7
  6
CONTINUOUS
 10
5.5902156159
 20
7.0946623942
 11
5.6942683919
 21
6.8434567766
  0
LINE
  5
307
100
AcDbEntity
  8
0
100
AcDbLine
 62
7
  6
CONTINUOUS
 10
5.5202507768
 20
5.8449521137
 11
5.6206444776
 21
5.8449521137
  0
LINE
  5
308
100
AcDbEntity
  8
0
100
AcDbLine
 62
7
  6
CONTINUOUS
 10
5.6206444776
 20
6.054105657
 11
5.7369673122
 21
6.054105657
  0
LINE
  5
309
100
AcDbEntity
  8
0
100
AcDbLine
 62
7
  6
CONTINUOUS
 10
5.8389673122
 20
6.054105657
 11
5.9552901469
 21
6.054105657
  0
LINE
  5
30A
100
AcDbEntity
  8
0
100
AcDbLine
 62
7
  6
CONTINUOUS
 10
5.7331423122
 20
6.0573985704
 11
5.8427923122
 21
6.0573985704
  0
LINE
  5
30B
100
AcDbEntity
  8
0
100
AcDbLine
 62
7
  6
CONTINUOUS
 10
5.9647673122
 20
6.0574521137
 11
5.8438318321
 21
6.0574521137
  0
LINE
  5
30C
100
AcDbEntity
  8
0
100
AcDbLine
 62
7
  6
CONTINUOUS
 10
5.7321027923
 20
6.0574521137
 11
5.6111673122
 21
6.0574521137
  0
LINE
  5
30D
100
AcDbEntity
  8
0
100
AcDbLine
 62
7
  6
CONTINUOUS
 10
5.6026673122
 20
6.0659521137
 11
5.7230775139
 21
6.0659521137
  0
LINE
  5
30E
100
AcDbEntity
  8
0
100
AcDbLine
 62
7
  6
CONTINUOUS
 10
5.8528571105
 20
6.0659521137
 11
5.9732673122
 21
6.0659521137
  0
LINE
  5
30F
100
AcDbEntity
  8
0
100
AcDbLine
 62
7
  6
CONTINUOUS
 10
5.9817673122
 20
6.0744521137
 11
5.8503458956
 21
6.0744521137
  0
LINE
  5
310
100
AcDbEntity
  8
0
100
AcDbLine
 62
7
  6
CONTINUOUS
 10
5.5941673122
 20
6.0744521137
 11
5.7255887288
 21
6.0744521137
  0
LINE
  5
311
100
AcDbEntity
  8
0
100
AcDbLine
 62
7
  6
CONTINUOUS
 10
5.7331423122
 20
6.0777985704
 11
5.8427923122
 21
6.0777985704
  0
LINE
  5
312
100
AcDbEntity
  8
0
100
AcDbLine
 62
7
  6
CONTINUOUS
 10
5.5592324516
 20
6.8133669088
 11
5.5592342946
 21
6.813364093
  0
LINE
  5
313
100
AcDbEntity
  8
0
100
AcDbLine
 62
7
  6
CONTINUOUS
 10
5.5511817445
 20
6.8260039877
 11
5.5592324516
 21
6.8133669088
  0
LINE
  5
314
100
AcDbEntity
  8
0
100
AcDbLine
 62
7
  6
CONTINUOUS
 10
5.5621241348
 20
6.8088278754
 11
5.5696506022
 21
6.7970136881
  0
LINE
  5
315
100
AcDbEntity
  8
0
100
AcDbLine
 62
7
  6
CONTINUOUS
 10
5.5757775017
 20
6.794989911
 11
5.5897094336
 21
6.7731211584
  0
LINE
  5
316
100
AcDbEntity
  8
0
100
AcDbLine
 62
7
  6
CONTINUOUS
 10
5.5958363334
 20
6.7710973809
 11
5.6116232648
 21
6.7463168625
  0
LINE
  5
317
100
AcDbEntity
  8
0
100
AcDbLine
 62
7
  6
CONTINUOUS
 10
5.6181592252
 20
6.7444625225
 11
5.6246486637
 21
6.7342761445
  0
LINE
  5
318
100
AcDbEntity
  8
0
100
AcDbLine
 62
7
  6
CONTINUOUS
 10
5.6275264026
 20
6.7297589994
 11
5.6339461558
 21
6.7196820052
  0
LINE
  5
319
100
AcDbEntity
  8
0
100
AcDbLine
 62
7
  6
CONTINUOUS
 10
5.6404821167
 20
6.7178276647
 11
5.656269047
 21
6.6930471478
  0
LINE
  5
31A
100
AcDbEntity
  8
0
100
AcDbLine
 62
7
  6
CONTINUOUS
 10
5.5621078431
 20
6.8088538713
 11
5.5621241348
 21
6.8088278754
  0
LINE
  5
31B
100
AcDbEntity
  8
0
100
AcDbLine
 62
7
  6
CONTINUOUS
 10
5.5941673122
 20
6.1254521137
 11
5.9817673122
 21
6.1254521137
  0
LINE
  5
31C
100
AcDbEntity
  8
0
100
AcDbLine
 62
7
  6
CONTINUOUS
 10
5.6026673122
 20
6.1339521137
 11
5.9732673122
 21
6.1339521137
  0
LINE
  5
31D
100
AcDbEntity
  8
0
100
AcDbLine
 62
7
  6
CONTINUOUS
 10
5.6196673122
 20
6.1509521137
 11
5.9562673122
 21
6.1509521137
  0
LINE
  5
31E
100
AcDbEntity
  8
0
100
AcDbLine
 62
7
  6
CONTINUOUS
 10
4.3981375172
 20
6.9159355908
 11
4.2089175423
 21
6.9324901935
  0
LINE
  5
31F
100
AcDbEntity
  8
0
100
AcDbLine
 62
7
  6
CONTINUOUS
 10
4.4002778267
 20
6.9362197307
 11
4.2103270364
 21
6.9528382714
  0
LINE
  5
320
100
AcDbEntity
  8
0
100
AcDbLine
 62
7
  6
CONTINUOUS
 10
4.3987928492
 20
6.9380550544
 11
4.2121081544
 21
6.9543878488
  0
LINE
  5
321
100
AcDbEntity
  8
0
100
AcDbLine
 62
7
  6
CONTINUOUS
 10
5.5902156159
 20
7.0946623942
 11
5.6942683919
 21
7.0864386698
  0
LINE
  5
322
100
AcDbEntity
  8
0
100
AcDbLine
 62
7
  6
CONTINUOUS
 10
4.4069433448
 20
7.0312156458
 11
4.2202586501
 21
7.0475484402
  0
LINE
  5
323
100
AcDbEntity
  8
0
100
AcDbLine
 62
7
  6
CONTINUOUS
 10
4.4087850406
 20
7.032761012
 11
4.2187132838
 21
7.049390136
  0
LINE
  5
324
100
AcDbEntity
  8
0
100
AcDbLine
 62
7
  6
CONTINUOUS
 10
4.410138863
 20
7.0531116007
 11
4.2209138717
 21
7.0696666423
  0
LINE
  5
325
100
AcDbEntity
  8
0
100
AcDbLine
 62
7
  6
CONTINUOUS
 10
4.4206992909
 20
7.1884465965
 11
4.2340145558
 21
7.2047793945
  0
LINE
  5
326
100
AcDbEntity
  8
0
100
AcDbLine
 62
7
  6
CONTINUOUS
 10
5.6942683919
 20
7.1328413687
 11
5.8816662325
 21
7.1328413687
  0
ARC
  5
327
100
AcDbEntity
  8
0
100
AcDbCircle
 62
7
  6
CONTINUOUS
 10
5.0562699986
 20
7.1328421056
 40
0.8253970393
100
AcDbArc
 50
359.9999488512
 51
175.0000512297
  0
ARC
  5
328
100
AcDbEntity
  8
0
100
AcDbCircle
 62
7
  6
CONTINUOUS
 10
5.0562699986
 20
7.1328421056
 40
0.63799656
100
AcDbArc
 50
359.9999338271
 51
175.0000662776
  0
ARC
  5
329
100
AcDbEntity
  8
0
100
AcDbCircle
 62
7
  6
CONTINUOUS
 10
4.4092498744
 20
7.0429504148
 40
0.0102
100
AcDbArc
 50
267.3880154633
 51
85.0
  0
ARC
  5
32A
100
AcDbEntity
  8
0
100
AcDbCircle
 62
7
  6
CONTINUOUS
 10
4.3990265058
 20
6.9260967767
 40
0.0102
100
AcDbArc
 50
265.0
 51
82.9532869023
  0
ARC
  5
32B
100
AcDbEntity
  8
0
100
AcDbCircle
 62
7
  6
CONTINUOUS
 10
4.2200248831
 20
7.0595054564
 40
0.0102
100
AcDbArc
 50
85.0
 51
262.6119845367
  0
ARC
  5
32C
100
AcDbEntity
  8
0
100
AcDbCircle
 62
7
  6
CONTINUOUS
 10
4.2098015145
 20
6.9426518183
 40
0.0102
100
AcDbArc
 50
87.0467130977
 51
265.0
  0
ARC
  5
32D
100
AcDbEntity
  8
0
100
AcDbCircle
 62
7
  6
CONTINUOUS
 10
4.4004863802
 20
6.9379068896
 40
0.0017
100
AcDbArc
 50
175.0
 51
262.9532869023
  0
ARC
  5
32E
100
AcDbEntity
  8
0
100
AcDbCircle
 62
7
  6
CONTINUOUS
 10
4.2104146234
 20
6.9545360136
 40
0.0017
100
AcDbArc
 50
267.0467130977
 51
355.0
  0
ARC
  5
32F
100
AcDbEntity
  8
0
100
AcDbCircle
 62
7
  6
CONTINUOUS
 10
4.4086368758
 20
7.031067481
 40
0.0017
100
AcDbArc
 50
85.0
 51
175.0
  0
ARC
  5
330
100
AcDbEntity
  8
0
100
AcDbCircle
 62
7
  6
CONTINUOUS
 10
4.2185651191
 20
7.047696605
 40
0.0017
100
AcDbArc
 50
355.0
 51
85.0
  0
ARC
  5
331
100
AcDbEntity
  8
0
100
AcDbCircle
 62
7
  6
CONTINUOUS
 10
5.7879673122
 20
-5.4240150671
 40
6.2409159997
100
AcDbArc
 50
85.5718969181
 51
88.33012475
  0
ARC
  5
332
100
AcDbEntity
  8
0
100
AcDbCircle
 62
7
  6
CONTINUOUS
 10
5.7879673122
 20
-5.4240150671
 40
6.2409159997
100
AcDbArc
 50
91.66987525
 51
94.4281030819
  0
ARC
  5
333
100
AcDbEntity
  8
0
100
AcDbCircle
 62
7
  6
CONTINUOUS
 10
5.3076685073
 20
0.7782530073
 40
0.0200787402
100
AcDbArc
 50
94.4281030819
 51
179.5
  0
ARC
  5
334
100
AcDbEntity
  8
0
100
AcDbCircle
 62
7
  6
CONTINUOUS
 10
6.2682661172
 20
0.7782530073
 40
0.0200787402
100
AcDbArc
 50
0.5
 51
85.5718969181
  0
ARC
  5
335
100
AcDbEntity
  8
0
100
AcDbCircle
 62
7
  6
CONTINUOUS
 10
5.9736956587
 20
0.8175969956
 40
0.0066929134
100
AcDbArc
 50
0.0
 51
90.0
  0
ARC
  5
336
100
AcDbEntity
  8
0
100
AcDbCircle
 62
7
  6
CONTINUOUS
 10
5.6022389658
 20
0.8175969956
 40
0.0066929134
100
AcDbArc
 50
90.0
 51
180.0
  0
ARC
  5
337
100
AcDbEntity
  8
0
100
AcDbCircle
 62
7
  6
CONTINUOUS
 10
5.2873491236
 20
0.5973733735
 40
0.0013385827
100
AcDbArc
 50
179.5
 51
270.0
  0
ARC
  5
338
100
AcDbEntity
  8
0
100
AcDbCircle
 62
7
  6
CONTINUOUS
 10
6.2885855009
 20
0.5973733735
 40
0.0013385827
100
AcDbArc
 50
270.0
 51
0.5
  0
ARC
  5
339
100
AcDbEntity
  8
0
100
AcDbCircle
 62
7
  6
CONTINUOUS
 10
5.6026673122
 20
6.1509521137
 40
0.017
100
AcDbArc
 50
270.0
 51
360.0
  0
ARC
  5
33A
100
AcDbEntity
  8
0
100
AcDbCircle
 62
7
  6
CONTINUOUS
 10
5.6246602256
 20
5.1833576255
 40
0.004015748
100
AcDbArc
 50
92.5
 51
180.0
  0
ARC
  5
33B
100
AcDbEntity
  8
0
100
AcDbCircle
 62
7
  6
CONTINUOUS
 10
5.6239909343
 20
5.1907198302
 40
0.0033464567
100
AcDbArc
 50
180.0
 51
270.0
  0
ARC
  5
33C
100
AcDbEntity
  8
0
100
AcDbCircle
 62
7
  6
CONTINUOUS
 10
5.6239909343
 20
6.054105657
 40
0.0033464567
100
AcDbArc
 50
90.0
 51
180.0
  0
ARC
  5
33D
100
AcDbEntity
  8
0
100
AcDbCircle
 62
7
  6
CONTINUOUS
 10
5.277777221
 20
6.6308708605
 40
0.3354427742
100
AcDbArc
 50
32.0454139193
 51
32.9588679946
  0
ARC
  5
33E
100
AcDbEntity
  8
0
100
AcDbCircle
 62
7
  6
CONTINUOUS
 10
5.6007701204
 20
7.2282059603
 40
0.13396
100
AcDbArc
 50
246.1011479569
 51
265.4810692104
  0
ARC
  5
33F
100
AcDbEntity
  8
0
100
AcDbCircle
 62
7
  6
CONTINUOUS
 10
5.4966533043
 20
7.1061290363
 40
0.0068
100
AcDbArc
 50
112.5
 51
202.5
  0
ARC
  5
340
100
AcDbEntity
  8
0
100
AcDbCircle
 62
7
  6
CONTINUOUS
 10
5.4992487052
 20
7.077303002
 40
0.0034
100
AcDbArc
 50
292.5
 51
325.1317573789
  0
ARC
  5
341
100
AcDbEntity
  8
0
100
AcDbCircle
 62
7
  6
CONTINUOUS
 10
5.5022977257
 20
7.0426846462
 40
0.0034
100
AcDbArc
 50
292.5
 51
12.4999486749
  0
ARC
  5
342
100
AcDbEntity
  8
0
100
AcDbCircle
 62
7
  6
CONTINUOUS
 10
5.6152916963
 20
6.7426357007
 40
0.0034
100
AcDbArc
 50
32.5000633043
 51
112.5
  0
ARC
  5
343
100
AcDbEntity
  8
0
100
AcDbCircle
 62
7
  6
CONTINUOUS
 10
5.5729099747
 20
6.7931630862
 40
0.0034
100
AcDbArc
 50
32.5001222301
 51
110.9672257125
  0
ARC
  5
344
100
AcDbEntity
  8
0
100
AcDbCircle
 62
7
  6
CONTINUOUS
 10
5.5929688053
 20
6.7692705579
 40
0.0034
100
AcDbArc
 50
32.5000874532
 51
110.9672257125
  0
ARC
  5
345
100
AcDbEntity
  8
0
100
AcDbCircle
 62
7
  6
CONTINUOUS
 10
5.5053467462
 20
7.0080662904
 40
0.0034
100
AcDbArc
 50
292.5
 51
12.4999366957
  0
ARC
  5
346
100
AcDbEntity
  8
0
100
AcDbCircle
 62
7
  6
CONTINUOUS
 10
5.5111066004
 20
6.9423696307
 40
0.0034
100
AcDbArc
 50
294.0327742875
 51
12.4998777699
  0
ARC
  5
347
100
AcDbEntity
  8
0
100
AcDbCircle
 62
7
  6
CONTINUOUS
 10
5.5083957667
 20
6.9734479346
 40
0.0034
100
AcDbArc
 50
294.0327742875
 51
12.4999125468
  0
ARC
  5
348
100
AcDbEntity
  8
0
100
AcDbCircle
 62
7
  6
CONTINUOUS
 10
5.6130570302
 20
6.7472302719
 40
0.0017
100
AcDbArc
 50
212.5000032006
 51
292.5
  0
ARC
  5
349
100
AcDbEntity
  8
0
100
AcDbCircle
 62
7
  6
CONTINUOUS
 10
5.5526155116
 20
6.8269173944
 40
0.0017
100
AcDbArc
 50
202.4998990128
 51
212.4998928466
  0
ARC
  5
34A
100
AcDbEntity
  8
0
100
AcDbCircle
 62
7
  6
CONTINUOUS
 10
5.5206241481
 20
6.904151378
 40
0.0017
100
AcDbArc
 50
192.5001071534
 51
202.5001009872
  0
ARC
  5
34B
100
AcDbEntity
  8
0
100
AcDbCircle
 62
7
  6
CONTINUOUS
 10
5.5009174101
 20
7.0724740019
 40
0.0017
100
AcDbArc
 50
112.5
 51
192.4999875766
  0
ARC
  5
34C
100
AcDbEntity
  8
0
100
AcDbCircle
 62
7
  6
CONTINUOUS
 10
5.5131843655
 20
6.9377100689
 40
0.0017
100
AcDbArc
 50
114.0327742878
 51
192.5000683522
  0
ARC
  5
34D
100
AcDbEntity
  8
0
100
AcDbCircle
 62
7
  6
CONTINUOUS
 10
5.5710843688
 20
6.7979270957
 40
0.0017
100
AcDbArc
 50
212.4999316478
 51
290.9672257122
  0
ARC
  5
34E
100
AcDbEntity
  8
0
100
AcDbCircle
 62
7
  6
CONTINUOUS
 10
5.5104735318
 20
6.9687883728
 40
0.0017
100
AcDbArc
 50
114.0327742875
 51
192.5000143458
  0
ARC
  5
34F
100
AcDbEntity
  8
0
100
AcDbCircle
 62
7
  6
CONTINUOUS
 10
5.5911431993
 20
6.7740345674
 40
0.0017
100
AcDbArc
 50
212.4999856542
 51
290.9672257124
  0
ARC
  5
350
100
AcDbEntity
  8
0
100
AcDbCircle
 62
7
  6
CONTINUOUS
 10
5.5070154511
 20
7.0032372903
 40
0.0017
100
AcDbArc
 50
112.5
 51
192.4999967994
  0
ARC
  5
351
100
AcDbEntity
  8
0
100
AcDbCircle
 62
7
  6
CONTINUOUS
 10
5.5039664306
 20
7.0378556461
 40
0.0017
100
AcDbArc
 50
112.5
 51
192.4999962688
  0
ARC
  5
352
100
AcDbEntity
  8
0
100
AcDbCircle
 62
7
  6
CONTINUOUS
 10
5.7250690673
 20
5.5058733368
 40
0.0345295702
100
AcDbArc
 50
269.9970876815
 51
271.1149324794
  0
ARC
  5
353
100
AcDbEntity
  8
0
100
AcDbCircle
 62
7
  6
CONTINUOUS
 10
5.735332994
 20
5.5847985704
 40
0.0128543182
100
AcDbArc
 50
0.0
 51
82.6955544394
  0
ARC
  5
354
100
AcDbEntity
  8
0
100
AcDbCircle
 62
7
  6
CONTINUOUS
 10
5.7369673122
 20
5.6081735704
 40
0.010625
100
AcDbArc
 50
90.0
 51
270.0
  0
ARC
  5
355
100
AcDbEntity
  8
0
100
AcDbCircle
 62
7
  6
CONTINUOUS
 10
5.7879673122
 20
5.3789957437
 40
0.0578
100
AcDbArc
 50
180.0
 51
360.0
  0
ARC
  5
356
100
AcDbEntity
  8
0
100
AcDbCircle
 62
7
  6
CONTINUOUS
 10
5.7831738316
 20
5.471345221
 40
0.0676934807
100
AcDbArc
 50
359.9987689396
 51
7.7989936915
  0
ARC
  5
357
100
AcDbEntity
  8
0
100
AcDbCircle
 62
7
  6
CONTINUOUS
 10
5.7879673122
 20
5.4550899089
 40
0.2024685653
100
AcDbArc
 50
104.5895570843
 51
75.4104429157
  0
ARC
  5
358
100
AcDbEntity
  8
0
100
AcDbCircle
 62
7
  6
CONTINUOUS
 10
5.7879673122
 20
5.4550899089
 40
0.1904
100
AcDbArc
 50
105.5371251277
 51
74.4628748723
  0
ARC
  5
359
100
AcDbEntity
  8
0
100
AcDbCircle
 62
7
  6
CONTINUOUS
 10
5.7879673122
 20
5.4550899089
 40
0.1888685653
100
AcDbArc
 50
105.6661526584
 51
74.3338473416
  0
ARC
  5
35A
100
AcDbEntity
  8
0
100
AcDbCircle
 62
7
  6
CONTINUOUS
 10
5.7879673122
 20
5.4550899089
 40
0.1848869812
100
AcDbArc
 50
106.0123600012
 51
73.9876399988
  0
ARC
  5
35B
100
AcDbEntity
  8
0
100
AcDbCircle
 62
7
  6
CONTINUOUS
 10
5.7879673122
 20
5.4550899089
 40
0.1643871307
100
AcDbArc
 50
273.1673069533
 51
274.8326930467
  0
ARC
  5
35C
100
AcDbEntity
  8
0
100
AcDbCircle
 62
7
  6
CONTINUOUS
 10
5.7879673122
 20
5.4550899089
 40
0.1643871307
100
AcDbArc
 50
277.1673069533
 51
278.8326930467
  0
ARC
  5
35D
100
AcDbEntity
  8
0
100
AcDbCircle
 62
7
  6
CONTINUOUS
 10
5.7879673122
 20
5.4550899089
 40
0.1643871307
100
AcDbArc
 50
281.1673069533
 51
282.8326930467
  0
ARC
  5
35E
100
AcDbEntity
  8
0
100
AcDbCircle
 62
7
  6
CONTINUOUS
 10
5.7879673122
 20
5.4550899089
 40
0.1643871307
100
AcDbArc
 50
285.1673069533
 51
286.8326930467
  0
ARC
  5
35F
100
AcDbEntity
  8
0
100
AcDbCircle
 62
7
  6
CONTINUOUS
 10
5.7879673122
 20
5.4550899089
 40
0.1643871307
100
AcDbArc
 50
289.1673069533
 51
290.8326930467
  0
ARC
  5
360
100
AcDbEntity
  8
0
100
AcDbCircle
 62
7
  6
CONTINUOUS
 10
5.7879673122
 20
5.4550899089
 40
0.1643871307
100
AcDbArc
 50
293.1673069533
 51
294.8326930467
  0
ARC
  5
361
100
AcDbEntity
  8
0
100
AcDbCircle
 62
7
  6
CONTINUOUS
 10
5.7879673122
 20
5.4550899089
 40
0.1643871307
100
AcDbArc
 50
297.1673069533
 51
298.8326930467
  0
ARC
  5
362
100
AcDbEntity
  8
0
100
AcDbCircle
 62
7
  6
CONTINUOUS
 10
5.7879673122
 20
5.4550899089
 40
0.1643871307
100
AcDbArc
 50
301.1673069533
 51
302.8326930467
  0
ARC
  5
363
100
AcDbEntity
  8
0
100
AcDbCircle
 62
7
  6
CONTINUOUS
 10
5.7879673122
 20
5.4550899089
 40
0.1643871307
100
AcDbArc
 50
305.1673069533
 51
306.8326930467
  0
ARC
  5
364
100
AcDbEntity
  8
0
100
AcDbCircle
 62
7
  6
CONTINUOUS
 10
5.7879673122
 20
5.4550899089
 40
0.1643871307
100
AcDbArc
 50
309.1673069533
 51
310.8326930467
  0
ARC
  5
365
100
AcDbEntity
  8
0
100
AcDbCircle
 62
7
  6
CONTINUOUS
 10
5.7879673122
 20
5.4550899089
 40
0.1643871307
100
AcDbArc
 50
313.1673069533
 51
314.8326930467
  0
ARC
  5
366
100
AcDbEntity
  8
0
100
AcDbCircle
 62
7
  6
CONTINUOUS
 10
5.7879673122
 20
5.4550899089
 40
0.1643871307
100
AcDbArc
 50
317.1673069533
 51
318.8326930467
  0
ARC
  5
367
100
AcDbEntity
  8
0
100
AcDbCircle
 62
7
  6
CONTINUOUS
 10
5.7879673122
 20
5.4550899089
 40
0.1643871307
100
AcDbArc
 50
321.1673069533
 51
322.8326930467
  0
ARC
  5
368
100
AcDbEntity
  8
0
100
AcDbCircle
 62
7
  6
CONTINUOUS
 10
5.7879673122
 20
5.4550899089
 40
0.1643871307
100
AcDbArc
 50
325.1673069533
 51
326.8326930467
  0
ARC
  5
369
100
AcDbEntity
  8
0
100
AcDbCircle
 62
7
  6
CONTINUOUS
 10
5.7879673122
 20
5.4550899089
 40
0.1643871307
100
AcDbArc
 50
329.1673069533
 51
330.8326930467
  0
ARC
  5
36A
100
AcDbEntity
  8
0
100
AcDbCircle
 62
7
  6
CONTINUOUS
 10
5.7879673122
 20
5.4550899089
 40
0.1643871307
100
AcDbArc
 50
333.1673069533
 51
334.8326930467
  0
ARC
  5
36B
100
AcDbEntity
  8
0
100
AcDbCircle
 62
7
  6
CONTINUOUS
 10
5.7879673122
 20
5.4550899089
 40
0.1643871307
100
AcDbArc
 50
337.1673069533
 51
338.8326930467
  0
ARC
  5
36C
100
AcDbEntity
  8
0
100
AcDbCircle
 62
7
  6
CONTINUOUS
 10
5.7879673122
 20
5.4550899089
 40
0.1643871307
100
AcDbArc
 50
341.1673069533
 51
342.8326930467
  0
ARC
  5
36D
100
AcDbEntity
  8
0
100
AcDbCircle
 62
7
  6
CONTINUOUS
 10
5.7879673122
 20
5.4550899089
 40
0.1643871307
100
AcDbArc
 50
345.1673069533
 51
346.8326930467
  0
ARC
  5
36E
100
AcDbEntity
  8
0
100
AcDbCircle
 62
7
  6
CONTINUOUS
 10
5.7879673122
 20
5.4550899089
 40
0.1643871307
100
AcDbArc
 50
349.1673069533
 51
350.8326930467
  0
ARC
  5
36F
100
AcDbEntity
  8
0
100
AcDbCircle
 62
7
  6
CONTINUOUS
 10
5.7879673122
 20
5.4550899089
 40
0.1643871307
100
AcDbArc
 50
353.1673069533
 51
354.8326930467
  0
ARC
  5
370
100
AcDbEntity
  8
0
100
AcDbCircle
 62
7
  6
CONTINUOUS
 10
5.7879673122
 20
5.4550899089
 40
0.1643871307
100
AcDbArc
 50
357.1673069533
 51
358.8326930467
  0
ARC
  5
371
100
AcDbEntity
  8
0
100
AcDbCircle
 62
7
  6
CONTINUOUS
 10
5.7879673122
 20
5.4550899089
 40
0.1643871307
100
AcDbArc
 50
1.1673069533
 51
2.8326930467
  0
ARC
  5
372
100
AcDbEntity
  8
0
100
AcDbCircle
 62
7
  6
CONTINUOUS
 10
5.7879673122
 20
5.4550899089
 40
0.1643871307
100
AcDbArc
 50
5.1673069533
 51
6.8326930467
  0
ARC
  5
373
100
AcDbEntity
  8
0
100
AcDbCircle
 62
7
  6
CONTINUOUS
 10
5.7879673122
 20
5.4550899089
 40
0.1643871307
100
AcDbArc
 50
9.1673069533
 51
10.8326930467
  0
ARC
  5
374
100
AcDbEntity
  8
0
100
AcDbCircle
 62
7
  6
CONTINUOUS
 10
5.7879673122
 20
5.4550899089
 40
0.1643871307
100
AcDbArc
 50
13.1673069533
 51
14.8326930467
  0
ARC
  5
375
100
AcDbEntity
  8
0
100
AcDbCircle
 62
7
  6
CONTINUOUS
 10
5.7879673122
 20
5.4550899089
 40
0.1643871307
100
AcDbArc
 50
17.1673069533
 51
18.8326930467
  0
ARC
  5
376
100
AcDbEntity
  8
0
100
AcDbCircle
 62
7
  6
CONTINUOUS
 10
5.7879673122
 20
5.4550899089
 40
0.1643871307
100
AcDbArc
 50
21.1673069533
 51
22.8326930467
  0
ARC
  5
377
100
AcDbEntity
  8
0
100
AcDbCircle
 62
7
  6
CONTINUOUS
 10
5.7879673122
 20
5.4550899089
 40
0.1643871307
100
AcDbArc
 50
25.1673069533
 51
26.8326930467
  0
ARC
  5
378
100
AcDbEntity
  8
0
100
AcDbCircle
 62
7
  6
CONTINUOUS
 10
5.7879673122
 20
5.4550899089
 40
0.1643871307
100
AcDbArc
 50
29.1673069533
 51
30.8326930467
  0
ARC
  5
379
100
AcDbEntity
  8
0
100
AcDbCircle
 62
7
  6
CONTINUOUS
 10
5.7879673122
 20
5.4550899089
 40
0.1643871307
100
AcDbArc
 50
33.1673069533
 51
34.8326930467
  0
ARC
  5
37A
100
AcDbEntity
  8
0
100
AcDbCircle
 62
7
  6
CONTINUOUS
 10
5.7879673122
 20
5.4550899089
 40
0.1643871307
100
AcDbArc
 50
37.1673069533
 51
38.8326930467
  0
ARC
  5
37B
100
AcDbEntity
  8
0
100
AcDbCircle
 62
7
  6
CONTINUOUS
 10
5.7879673122
 20
5.4550899089
 40
0.1643871307
100
AcDbArc
 50
41.1673069533
 51
42.8326930467
  0
ARC
  5
37C
100
AcDbEntity
  8
0
100
AcDbCircle
 62
7
  6
CONTINUOUS
 10
5.7879673122
 20
5.4550899089
 40
0.1643871307
100
AcDbArc
 50
45.1673069533
 51
46.8326930467
  0
ARC
  5
37D
100
AcDbEntity
  8
0
100
AcDbCircle
 62
7
  6
CONTINUOUS
 10
5.7879673122
 20
5.4550899089
 40
0.1643871307
100
AcDbArc
 50
49.1673069533
 51
50.8326930467
  0
ARC
  5
37E
100
AcDbEntity
  8
0
100
AcDbCircle
 62
7
  6
CONTINUOUS
 10
5.7879673122
 20
5.4550899089
 40
0.1643871307
100
AcDbArc
 50
53.1673069533
 51
54.8326930467
  0
ARC
  5
37F
100
AcDbEntity
  8
0
100
AcDbCircle
 62
7
  6
CONTINUOUS
 10
5.7879673122
 20
5.4550899089
 40
0.1643871307
100
AcDbArc
 50
57.1673069533
 51
58.8326930467
  0
ARC
  5
380
100
AcDbEntity
  8
0
100
AcDbCircle
 62
7
  6
CONTINUOUS
 10
5.7879673122
 20
5.4550899089
 40
0.1643871307
100
AcDbArc
 50
61.1673069533
 51
62.8326930467
  0
ARC
  5
381
100
AcDbEntity
  8
0
100
AcDbCircle
 62
7
  6
CONTINUOUS
 10
5.7879673122
 20
5.4550899089
 40
0.1643871307
100
AcDbArc
 50
65.1673069533
 51
66.8326930467
  0
ARC
  5
382
100
AcDbEntity
  8
0
100
AcDbCircle
 62
7
  6
CONTINUOUS
 10
5.7879673122
 20
5.4550899089
 40
0.1643871307
100
AcDbArc
 50
113.1673069533
 51
114.8326930467
  0
ARC
  5
383
100
AcDbEntity
  8
0
100
AcDbCircle
 62
7
  6
CONTINUOUS
 10
5.7879673122
 20
5.4550899089
 40
0.1643871307
100
AcDbArc
 50
117.1673069533
 51
118.8326930467
  0
ARC
  5
384
100
AcDbEntity
  8
0
100
AcDbCircle
 62
7
  6
CONTINUOUS
 10
5.7879673122
 20
5.4550899089
 40
0.1643871307
100
AcDbArc
 50
121.1673069533
 51
122.8326930467
  0
ARC
  5
385
100
AcDbEntity
  8
0
100
AcDbCircle
 62
7
  6
CONTINUOUS
 10
5.7879673122
 20
5.4550899089
 40
0.1643871307
100
AcDbArc
 50
125.1673069533
 51
126.8326930467
  0
ARC
  5
386
100
AcDbEntity
  8
0
100
AcDbCircle
 62
7
  6
CONTINUOUS
 10
5.7879673122
 20
5.4550899089
 40
0.1643871307
100
AcDbArc
 50
129.1673069533
 51
130.8326930467
  0
ARC
  5
387
100
AcDbEntity
  8
0
100
AcDbCircle
 62
7
  6
CONTINUOUS
 10
5.7879673122
 20
5.4550899089
 40
0.1643871307
100
AcDbArc
 50
133.1673069533
 51
134.8326930467
  0
ARC
  5
388
100
AcDbEntity
  8
0
100
AcDbCircle
 62
7
  6
CONTINUOUS
 10
5.7879673122
 20
5.4550899089
 40
0.1643871307
100
AcDbArc
 50
137.1673069533
 51
138.8326930467
  0
ARC
  5
389
100
AcDbEntity
  8
0
100
AcDbCircle
 62
7
  6
CONTINUOUS
 10
5.7879673122
 20
5.4550899089
 40
0.1643871307
100
AcDbArc
 50
141.1673069533
 51
142.8326930467
  0
ARC
  5
38A
100
AcDbEntity
  8
0
100
AcDbCircle
 62
7
  6
CONTINUOUS
 10
5.7879673122
 20
5.4550899089
 40
0.1643871307
100
AcDbArc
 50
269.1673069533
 51
270.8326930467
  0
ARC
  5
38B
100
AcDbEntity
  8
0
100
AcDbCircle
 62
7
  6
CONTINUOUS
 10
5.7879673122
 20
5.4550899089
 40
0.1643871307
100
AcDbArc
 50
265.1673069533
 51
266.8326930467
  0
ARC
  5
38C
100
AcDbEntity
  8
0
100
AcDbCircle
 62
7
  6
CONTINUOUS
 10
5.7879673122
 20
5.4550899089
 40
0.1643871307
100
AcDbArc
 50
261.1673069533
 51
262.8326930467
  0
ARC
  5
38D
100
AcDbEntity
  8
0
100
AcDbCircle
 62
7
  6
CONTINUOUS
 10
5.7879673122
 20
5.4550899089
 40
0.1643871307
100
AcDbArc
 50
257.1673069533
 51
258.8326930467
  0
ARC
  5
38E
100
AcDbEntity
  8
0
100
AcDbCircle
 62
7
  6
CONTINUOUS
 10
5.7879673122
 20
5.4550899089
 40
0.1643871307
100
AcDbArc
 50
253.1673069533
 51
254.8326930467
  0
ARC
  5
38F
100
AcDbEntity
  8
0
100
AcDbCircle
 62
7
  6
CONTINUOUS
 10
5.7879673122
 20
5.4550899089
 40
0.1643871307
100
AcDbArc
 50
249.1673069533
 51
250.8326930467
  0
ARC
  5
390
100
AcDbEntity
  8
0
100
AcDbCircle
 62
7
  6
CONTINUOUS
 10
5.7879673122
 20
5.4550899089
 40
0.1643871307
100
AcDbArc
 50
245.1673069533
 51
246.8326930467
  0
ARC
  5
391
100
AcDbEntity
  8
0
100
AcDbCircle
 62
7
  6
CONTINUOUS
 10
5.7879673122
 20
5.4550899089
 40
0.1643871307
100
AcDbArc
 50
241.1673069533
 51
242.8326930467
  0
ARC
  5
392
100
AcDbEntity
  8
0
100
AcDbCircle
 62
7
  6
CONTINUOUS
 10
5.7879673122
 20
5.4550899089
 40
0.1643871307
100
AcDbArc
 50
237.1673069533
 51
238.8326930467
  0
ARC
  5
393
100
AcDbEntity
  8
0
100
AcDbCircle
 62
7
  6
CONTINUOUS
 10
5.7879673122
 20
5.4550899089
 40
0.1643871307
100
AcDbArc
 50
233.1673069533
 51
234.8326930467
  0
ARC
  5
394
100
AcDbEntity
  8
0
100
AcDbCircle
 62
7
  6
CONTINUOUS
 10
5.7879673122
 20
5.4550899089
 40
0.1643871307
100
AcDbArc
 50
229.1673069533
 51
230.8326930467
  0
ARC
  5
395
100
AcDbEntity
  8
0
100
AcDbCircle
 62
7
  6
CONTINUOUS
 10
5.7879673122
 20
5.4550899089
 40
0.1643871307
100
AcDbArc
 50
225.1673069533
 51
226.8326930467
  0
ARC
  5
396
100
AcDbEntity
  8
0
100
AcDbCircle
 62
7
  6
CONTINUOUS
 10
5.7879673122
 20
5.4550899089
 40
0.1643871307
100
AcDbArc
 50
221.1673069533
 51
222.8326930467
  0
ARC
  5
397
100
AcDbEntity
  8
0
100
AcDbCircle
 62
7
  6
CONTINUOUS
 10
5.7879673122
 20
5.4550899089
 40
0.1643871307
100
AcDbArc
 50
217.1673069533
 51
218.8326930467
  0
ARC
  5
398
100
AcDbEntity
  8
0
100
AcDbCircle
 62
7
  6
CONTINUOUS
 10
5.7879673122
 20
5.4550899089
 40
0.1643871307
100
AcDbArc
 50
213.1673069533
 51
214.8326930467
  0
ARC
  5
399
100
AcDbEntity
  8
0
100
AcDbCircle
 62
7
  6
CONTINUOUS
 10
5.7879673122
 20
5.4550899089
 40
0.1643871307
100
AcDbArc
 50
209.1673069533
 51
210.8326930467
  0
ARC
  5
39A
100
AcDbEntity
  8
0
100
AcDbCircle
 62
7
  6
CONTINUOUS
 10
5.7879673122
 20
5.4550899089
 40
0.1643871307
100
AcDbArc
 50
205.1673069533
 51
206.8326930467
  0
ARC
  5
39B
100
AcDbEntity
  8
0
100
AcDbCircle
 62
7
  6
CONTINUOUS
 10
5.7879673122
 20
5.4550899089
 40
0.1643871307
100
AcDbArc
 50
201.1673069533
 51
202.8326930467
  0
ARC
  5
39C
100
AcDbEntity
  8
0
100
AcDbCircle
 62
7
  6
CONTINUOUS
 10
5.7879673122
 20
5.4550899089
 40
0.1643871307
100
AcDbArc
 50
197.1673069533
 51
198.8326930467
  0
ARC
  5
39D
100
AcDbEntity
  8
0
100
AcDbCircle
 62
7
  6
CONTINUOUS
 10
5.7879673122
 20
5.4550899089
 40
0.1643871307
100
AcDbArc
 50
193.1673069533
 51
194.8326930467
  0
ARC
  5
39E
100
AcDbEntity
  8
0
100
AcDbCircle
 62
7
  6
CONTINUOUS
 10
5.7879673122
 20
5.4550899089
 40
0.1643871307
100
AcDbArc
 50
189.1673069533
 51
190.8326930467
  0
ARC
  5
39F
100
AcDbEntity
  8
0
100
AcDbCircle
 62
7
  6
CONTINUOUS
 10
5.7879673122
 20
5.4550899089
 40
0.1643871307
100
AcDbArc
 50
185.1673069533
 51
186.8326930467
  0
ARC
  5
3A0
100
AcDbEntity
  8
0
100
AcDbCircle
 62
7
  6
CONTINUOUS
 10
5.7879673122
 20
5.4550899089
 40
0.1643871307
100
AcDbArc
 50
181.1673069533
 51
182.8326930467
  0
ARC
  5
3A1
100
AcDbEntity
  8
0
100
AcDbCircle
 62
7
  6
CONTINUOUS
 10
5.7879673122
 20
5.4550899089
 40
0.1643871307
100
AcDbArc
 50
177.1673069533
 51
178.8326930467
  0
ARC
  5
3A2
100
AcDbEntity
  8
0
100
AcDbCircle
 62
7
  6
CONTINUOUS
 10
5.7879673122
 20
5.4550899089
 40
0.1643871307
100
AcDbArc
 50
173.1673069533
 51
174.8326930467
  0
ARC
  5
3A3
100
AcDbEntity
  8
0
100
AcDbCircle
 62
7
  6
CONTINUOUS
 10
5.7879673122
 20
5.4550899089
 40
0.1643871307
100
AcDbArc
 50
169.1673069533
 51
170.8326930467
  0
ARC
  5
3A4
100
AcDbEntity
  8
0
100
AcDbCircle
 62
7
  6
CONTINUOUS
 10
5.7879673122
 20
5.4550899089
 40
0.1643871307
100
AcDbArc
 50
165.1673069533
 51
166.8326930467
  0
ARC
  5
3A5
100
AcDbEntity
  8
0
100
AcDbCircle
 62
7
  6
CONTINUOUS
 10
5.7879673122
 20
5.4550899089
 40
0.1643871307
100
AcDbArc
 50
161.1673069533
 51
162.8326930467
  0
ARC
  5
3A6
100
AcDbEntity
  8
0
100
AcDbCircle
 62
7
  6
CONTINUOUS
 10
5.7879673122
 20
5.4550899089
 40
0.1643871307
100
AcDbArc
 50
157.1673069533
 51
158.8326930467
  0
ARC
  5
3A7
100
AcDbEntity
  8
0
100
AcDbCircle
 62
7
  6
CONTINUOUS
 10
5.7879673122
 20
5.4550899089
 40
0.1643871307
100
AcDbArc
 50
153.1673069533
 51
154.8326930467
  0
ARC
  5
3A8
100
AcDbEntity
  8
0
100
AcDbCircle
 62
7
  6
CONTINUOUS
 10
5.7879673122
 20
5.4550899089
 40
0.1643871307
100
AcDbArc
 50
149.1673069533
 51
150.8326930467
  0
ARC
  5
3A9
100
AcDbEntity
  8
0
100
AcDbCircle
 62
7
  6
CONTINUOUS
 10
5.7879673122
 20
5.4550899089
 40
0.1643871307
100
AcDbArc
 50
145.1673069533
 51
146.8326930467
  0
ARC
  5
3AA
100
AcDbEntity
  8
0
100
AcDbCircle
 62
7
  6
CONTINUOUS
 10
5.7879673122
 20
5.4550899089
 40
0.1010397587
100
AcDbArc
 50
15.5057350109
 51
70.8470795673
  0
ARC
  5
3AB
100
AcDbEntity
  8
0
100
AcDbCircle
 62
7
  6
CONTINUOUS
 10
5.7879673122
 20
5.4550899089
 40
0.1010397587
100
AcDbArc
 50
109.1529204664
 51
164.4942649887
  0
ARC
  5
3AC
100
AcDbEntity
  8
0
100
AcDbCircle
 62
7
  6
CONTINUOUS
 10
5.7879673122
 20
5.4550899089
 40
0.0959447537
100
AcDbArc
 50
15.3859863877
 51
69.786843047
  0
ARC
  5
3AD
100
AcDbEntity
  8
0
100
AcDbCircle
 62
7
  6
CONTINUOUS
 10
5.7879673122
 20
5.4550899089
 40
0.0959447537
100
AcDbArc
 50
110.2131562811
 51
164.6139619998
  0
ARC
  5
3AE
100
AcDbEntity
  8
0
100
AcDbCircle
 62
7
  6
CONTINUOUS
 10
5.7879673122
 20
5.4720899089
 40
0.0629
100
AcDbArc
 50
121.80710015
 51
172.2876297061
  0
ARC
  5
3AF
100
AcDbEntity
  8
0
100
AcDbCircle
 62
7
  6
CONTINUOUS
 10
5.7879673122
 20
5.4720899089
 40
0.0629
100
AcDbArc
 50
7.7123751715
 51
58.1928999796
  0
ARC
  5
3B0
100
AcDbEntity
  8
0
100
AcDbCircle
 62
7
  6
CONTINUOUS
 10
5.7879673122
 20
5.4657985704
 40
0.062475
100
AcDbArc
 50
122.0491040452
 51
57.9508959548
  0
ARC
  5
3B1
100
AcDbEntity
  8
0
100
AcDbCircle
 62
7
  6
CONTINUOUS
 10
5.7879673122
 20
5.4720899089
 40
0.0578
100
AcDbArc
 50
45.9546862689
 51
55.0010971997
  0
ARC
  5
3B2
100
AcDbEntity
  8
0
100
AcDbCircle
 62
7
  6
CONTINUOUS
 10
5.7879673122
 20
5.4720899089
 40
0.0578
100
AcDbArc
 50
124.9989028009
 51
134.0453137334
  0
ARC
  5
3B3
100
AcDbEntity
  8
0
100
AcDbCircle
 62
7
  6
CONTINUOUS
 10
5.7879673122
 20
5.4657985704
 40
0.052275
100
AcDbArc
 50
129.3581066626
 51
50.6418933374
  0
ARC
  5
3B4
100
AcDbEntity
  8
0
100
AcDbCircle
 62
7
  6
CONTINUOUS
 10
5.7879673122
 20
5.4657985704
 40
0.03655
100
AcDbArc
 50
155.1011978912
 51
24.898802109
  0
ARC
  5
3B5
100
AcDbEntity
  8
0
100
AcDbCircle
 62
7
  6
CONTINUOUS
 10
5.7879673122
 20
5.4657985704
 40
0.03315
100
AcDbArc
 50
180.0
 51
360.0
  0
ARC
  5
3B6
100
AcDbEntity
  8
0
100
AcDbCircle
 62
7
  6
CONTINUOUS
 10
5.7927619726
 20
5.4713451395
 40
0.0676946604
100
AcDbArc
 50
172.2010778765
 51
180.0011620105
  0
ARC
  5
3B7
100
AcDbEntity
  8
0
100
AcDbCircle
 62
7
  6
CONTINUOUS
 10
5.8406016304
 20
5.5847985704
 40
0.0128543182
100
AcDbArc
 50
97.3044455606
 51
180.0
  0
ARC
  5
3B8
100
AcDbEntity
  8
0
100
AcDbCircle
 62
7
  6
CONTINUOUS
 10
5.8389673122
 20
5.6081735704
 40
0.010625
100
AcDbArc
 50
270.0
 51
90.0
  0
ARC
  5
3B9
100
AcDbEntity
  8
0
100
AcDbCircle
 62
7
  6
CONTINUOUS
 10
5.8427923122
 20
6.0675985704
 40
0.0102
100
AcDbArc
 50
270.0
 51
90.0
  0
ARC
  5
3BA
100
AcDbEntity
  8
0
100
AcDbCircle
 62
7
  6
CONTINUOUS
 10
5.7331423122
 20
6.0675985704
 40
0.0102
100
AcDbArc
 50
90.0
 51
270.0
  0
ARC
  5
3BB
100
AcDbEntity
  8
0
100
AcDbCircle
 62
7
  6
CONTINUOUS
 10
5.8508655571
 20
5.5058733368
 40
0.0345295702
100
AcDbArc
 50
268.8850675202
 51
270.002912318
  0
ARC
  5
3BC
100
AcDbEntity
  8
0
100
AcDbCircle
 62
7
  6
CONTINUOUS
 10
5.9512743988
 20
5.1833576255
 40
0.004015748
100
AcDbArc
 50
0.0
 51
87.5
  0
ARC
  5
3BD
100
AcDbEntity
  8
0
100
AcDbCircle
 62
7
  6
CONTINUOUS
 10
5.9519436902
 20
5.1907198302
 40
0.0033464567
100
AcDbArc
 50
270.0
 51
360.0
  0
ARC
  5
3BE
100
AcDbEntity
  8
0
100
AcDbCircle
 62
7
  6
CONTINUOUS
 10
5.9732673122
 20
6.1509521137
 40
0.017
100
AcDbArc
 50
180.0
 51
270.0
  0
ARC
  5
3BF
100
AcDbEntity
  8
0
100
AcDbCircle
 62
7
  6
CONTINUOUS
 10
5.9519436902
 20
6.054105657
 40
0.0033464567
100
AcDbArc
 50
0.0
 51
90.0
  0
ARC
  5
3C0
100
AcDbEntity
  8
0
100
AcDbCircle
 62
7
  6
CONTINUOUS
 10
5.6784853372
 20
6.6671476764
 40
0.0068
100
AcDbArc
 50
202.5
 51
292.5
  0
ARC
  5
3C1
100
AcDbEntity
  8
0
100
AcDbCircle
 62
7
  6
CONTINUOUS
 10
5.6599374785
 20
6.6893659863
 40
0.0034
100
AcDbArc
 50
79.8682426212
 51
112.5
  0
ARC
  5
3C2
100
AcDbEntity
  8
0
100
AcDbCircle
 62
7
  6
CONTINUOUS
 10
5.6376145874
 20
6.7160008435
 40
0.0034
100
AcDbArc
 50
32.5000513251
 51
112.5
  0
ARC
  5
3C3
100
AcDbEntity
  8
0
100
AcDbCircle
 62
7
  6
CONTINUOUS
 10
5.6353799212
 20
6.7205954147
 40
0.0017
100
AcDbArc
 50
212.5000037312
 51
292.5
  0
ARC
  5
3C4
100
AcDbEntity
  8
0
100
AcDbCircle
 62
7
  6
CONTINUOUS
 10
5.6577028123
 20
6.6939605575
 40
0.0017
100
AcDbArc
 50
212.5000124233
 51
292.5
  0
LINE
  5
3C5
100
AcDbEntity
  8
0
100
AcDbLine
 62
7
  6
CONTINUOUS
 10
5.5210991889
 20
6.9075276197
 11
5.5215226522
 21
6.9068485267
  0
SPLINE
  5
3C6
100
AcDbEntity
  8
0
100
AcDbSpline
 62
7
  6
CONTINUOUS
 70
0
 71
3
 72
19
 73
15
 74
0
 42
0.0000001
 43
0.0000001
 44
0.0000000001
 40
0.0
 40
0.0
 40
0.0
 40
0.0
 40
0.0170051582
 40
0.0382356428
 40
0.0659929784
 40
0.1011562765
 40
0.1439557039
 40
0.1942975923
 40
0.2518922472
 40
0.316322125
 40
0.4634926505
 40
0.6306922097
 40
0.8117816475
 40
1.0
 40
1.0
 40
1.0
 40
1.0
 10
5.5368938052
 20
6.8685456103
 30
0.0
 10
5.5369083727
 20
6.868551646
 30
0.0
 10
5.5369455968
 20
6.8685546633
 30
0.0
 10
5.5370037106
 20
6.8685324669
 30
0.0
 10
5.5370685555
 20
6.8684884424
 30
0.0
 10
5.5371409641
 20
6.8684220045
 30
0.0
 10
5.5372207041
 20
6.8683335604
 30
0.0
 10
5.5373071302
 20
6.8682236072
 30
0.0
 10
5.5373994743
 20
6.8680930897
 30
0.0
 10
5.537535443
 20
6.8678836931
 30
0.0
 10
5.5377119633
 20
6.8675797831
 30
0.0
 10
5.5379243057
 20
6.8671722452
 30
0.0
 10
5.5381373671
 20
6.8667225741
 30
0.0
 10
5.5382735476
 20
6.8664082884
 30
0.0
 10
5.5383403374
 20
6.8662470437
 30
0.0
  0
LINE
  5
3C7
100
AcDbEntity
  8
0
100
AcDbLine
 62
7
  6
CONTINUOUS
 10
5.5526891072
 20
6.8295345224
 11
5.5534194979
 21
6.8287776005
  0
LINE
  5
3C8
100
AcDbEntity
  8
0
100
AcDbLine
 62
7
  6
CONTINUOUS
 10
5.5534194979
 20
6.8287776005
 11
5.5551580221
 21
6.8256455606
  0
SPLINE
  5
3C9
100
AcDbEntity
  8
0
100
AcDbSpline
 62
7
  6
CONTINUOUS
 70
0
 71
3
 72
11
 73
7
 74
0
 42
0.0000001
 43
0.0000001
 44
0.0000000001
 40
0.0
 40
0.0
 40
0.0
 40
0.0
 40
0.0987496202
 40
0.2900114548
 40
0.5896120397
 40
1.0
 40
1.0
 40
1.0
 40
1.0
 10
5.5038240375
 20
7.0552776966
 30
0.0
 10
5.5038263042
 20
7.0552782097
 30
0.0
 10
5.5038329198
 20
7.0552735885
 30
0.0
 10
5.5038400346
 20
7.0552623126
 30
0.0
 10
5.5038501609
 20
7.0552433206
 30
0.0
 10
5.5038566957
 20
7.0552280254
 30
0.0
 10
5.5038603918
 20
7.0552191022
 30
0.0
  0
LINE
  5
3CA
100
AcDbEntity
  8
0
100
AcDbLine
 62
7
  6
CONTINUOUS
 10
5.5177767685
 20
7.0213657632
 11
5.5180933813
 21
7.0208576283
  0
SPLINE
  5
3CB
100
AcDbEntity
  8
0
100
AcDbSpline
 62
7
  6
CONTINUOUS
 70
0
 71
3
 72
18
 73
14
 74
0
 42
0.0000001
 43
0.0000001
 44
0.0000000001
 40
0.0
 40
0.0
 40
0.0
 40
0.0
 40
0.0187078673
 40
0.0406227203
 40
0.0677966344
 40
0.1012628938
 40
0.1414726881
 40
0.1885914037
 40
0.3033655408
 40
0.4444283227
 40
0.6095588115
 40
0.7958903271
 40
1.0
 40
1.0
 40
1.0
 40
1.0
 10
5.5429182282
 20
6.9602507604
 30
0.0
 10
5.5429276441
 20
6.9602538433
 30
0.0
 10
5.5429498807
 20
6.9602555114
 30
0.0
 10
5.5429845552
 20
6.9602442864
 30
0.0
 10
5.5430219733
 20
6.9602211926
 30
0.0
 10
5.5430625827
 20
6.9601862777
 30
0.0
 10
5.5431064706
 20
6.9601396214
 30
0.0
 10
5.5431736627
 20
6.9600562086
 30
0.0
 10
5.5432630509
 20
6.9599226603
 30
0.0
 10
5.5433742867
 20
6.9597293515
 30
0.0
 10
5.5434931889
 20
6.9594970851
 30
0.0
 10
5.5436174237
 20
6.9592303141
 30
0.0
 10
5.5436989743
 20
6.9590402601
 30
0.0
 10
5.5437403412
 20
6.9589403916
 30
0.0
  0
SPLINE
  5
3CC
100
AcDbEntity
  8
0
100
AcDbSpline
 62
7
  6
CONTINUOUS
 70
0
 71
3
 72
19
 73
15
 74
0
 42
0.0000001
 43
0.0000001
 44
0.0000000001
 40
0.0
 40
0.0
 40
0.0
 40
0.0
 40
0.0170057631
 40
0.038309058
 40
0.0661936349
 40
0.1015169992
 40
0.1444897006
 40
0.1949986105
 40
0.2527383033
 40
0.3172768009
 40
0.4645130375
 40
0.6315483949
 40
0.8122695793
 40
1.0
 40
1.0
 40
1.0
 40
1.0
 10
5.5742705535
 20
6.8840275659
 30
0.0
 10
5.574285126
 20
6.8840336026
 30
0.0
 10
5.5743224487
 20
6.8840365388
 30
0.0
 10
5.574380707
 20
6.8840141864
 30
0.0
 10
5.5744458642
 20
6.8839699955
 30
0.0
 10
5.5745187001
 20
6.883903353
 30
0.0
 10
5.5745989516
 20
6.8838147016
 30
0.0
 10
5.5746859367
 20
6.883704566
 30
0.0
 10
5.5747788514
 20
6.8835739196
 30
0.0
 10
5.574915528
 20
6.8833645463
 30
0.0
 10
5.5750927893
 20
6.8830609397
 30
0.0
 10
5.5753057054
 20
6.8826540397
 30
0.0
 10
5.5755189188
 20
6.8822053291
 30
0.0
 10
5.5756549412
 20
6.8818917319
 30
0.0
 10
5.5757215766
 20
6.88173086
 30
0.0
  0
SPLINE
  5
3CD
100
AcDbEntity
  8
0
100
AcDbSpline
 62
7
  6
CONTINUOUS
 70
0
 71
3
 72
21
 73
17
 74
0
 42
0.0000001
 43
0.0000001
 44
0.0000000001
 40
0.0
 40
0.0
 40
0.0
 40
0.0
 40
0.0068913223
 40
0.0147532621
 40
0.0242535438
 40
0.0357599897
 40
0.0653922991
 40
0.1041598648
 40
0.1518355186
 40
0.2078623213
 40
0.2714688745
 40
0.341723251
 40
0.4978154549
 40
0.6665705316
 40
0.8375065269
 40
1.0
 40
1.0
 40
1.0
 40
1.0
 10
5.6056276977
 20
6.8077894834
 30
0.0
 10
5.6056357793
 20
6.807793579
 30
0.0
 10
5.6056551108
 20
6.8077986282
 30
0.0
 10
5.6056872665
 20
6.807795274
 30
0.0
 10
5.6057232259
 20
6.8077824177
 30
0.0
 10
5.6057816077
 20
6.8077500165
 30
0.0
 10
5.605863704
 20
6.807683531
 30
0.0
 10
5.6059708075
 20
6.8075746966
 30
0.0
 10
5.6060919093
 20
6.8074315965
 30
0.0
 10
5.6062250629
 20
6.8072564403
 30
0.0
 10
5.6063681328
 20
6.8070517856
 30
0.0
 10
5.6065764289
 20
6.8067324633
 30
0.0
 10
5.6068422214
 20
6.806285912
 30
0.0
 10
5.6071520554
 20
6.8057122686
 30
0.0
 10
5.6074433221
 20
6.8051195923
 30
0.0
 10
5.6076210581
 20
6.8047186984
 30
0.0
 10
5.6077028115
 20
6.8045213282
 30
0.0
  0
LINE
  5
3CE
100
AcDbEntity
  8
0
100
AcDbLine
 62
7
  6
CONTINUOUS
 10
5.630779847
 20
6.7466414973
 11
5.6314578841
 21
6.7459273249
  0
LINE
  5
3CF
100
AcDbEntity
  8
0
100
AcDbLine
 62
7
  6
CONTINUOUS
 10
5.6314578841
 20
6.7459273249
 11
5.6333497702
 21
6.742604091
  0
LINE
  5
3D0
100
AcDbEntity
  8
0
100
AcDbLine
 62
7
  6
CONTINUOUS
 10
5.6447410109
 20
6.7127035788
 11
5.6452086314
 21
6.7121017832
  0
LINE
  5
3D1
100
AcDbEntity
  8
0
100
AcDbLine
 62
7
  6
CONTINUOUS
 10
5.6452086314
 20
6.7121017832
 11
5.6473431414
 21
6.7087015547
  0
LINE
  5
3D2
100
AcDbEntity
  8
0
100
AcDbLine
 62
7
  6
CONTINUOUS
 10
5.6473431414
 20
6.7087015547
 11
5.647582758
 21
6.7082426164
  0
LINE
  5
3D3
100
AcDbEntity
  8
0
100
AcDbLine
 62
7
  6
CONTINUOUS
 10
5.5129131058
 20
7.0063026012
 11
5.5131076826
 21
7.0059902275
  0
SPLINE
  5
3D4
100
AcDbEntity
  8
0
100
AcDbSpline
 62
7
  6
CONTINUOUS
 70
0
 71
3
 72
17
 73
13
 74
0
 42
0.0000001
 43
0.0000001
 44
0.0000000001
 40
0.0
 40
0.0
 40
0.0
 40
0.0
 40
0.018880987
 40
0.0407852795
 40
0.0677789732
 40
0.1009216162
 40
0.1872794136
 40
0.3010586403
 40
0.4413650939
 40
0.6063436428
 40
0.79355711
 40
1.0
 40
1.0
 40
1.0
 40
1.0
 10
5.5348249311
 20
6.9529652768
 30
0.0
 10
5.5348333331
 20
6.9529680343
 30
0.0
 10
5.534853039
 20
6.9529696674
 30
0.0
 10
5.5348838124
 20
6.9529601019
 30
0.0
 10
5.5349168707
 20
6.9529400672
 30
0.0
 10
5.5349692445
 20
6.9528954504
 30
0.0
 10
5.535039737
 20
6.9528112437
 30
0.0
 10
5.5351286532
 20
6.9526788032
 30
0.0
 10
5.5352263948
 20
6.9525084303
 30
0.0
 10
5.5353313149
 20
6.9523029526
 30
0.0
 10
5.5354415536
 20
6.9520656165
 30
0.0
 10
5.5355141917
 20
6.9518961311
 30
0.0
 10
5.5355511925
 20
6.9518068032
 30
0.0
  0
SPLINE
  5
3D5
100
AcDbEntity
  8
0
100
AcDbSpline
 62
7
  6
CONTINUOUS
 70
0
 71
3
 72
19
 73
15
 74
0
 42
0.0000001
 43
0.0000001
 44
0.0000000001
 40
0.0
 40
0.0
 40
0.0
 40
0.0
 40
0.0170052542
 40
0.0383027265
 40
0.0661780244
 40
0.101490328
 40
0.1444515479
 40
0.1949498129
 40
0.2526805876
 40
0.3172127273
 40
0.4644462696
 40
0.6314932933
 40
0.8122384875
 40
1.0
 40
1.0
 40
1.0
 40
1.0
 10
5.5647590731
 20
6.8800877817
 30
0.0
 10
5.5647736446
 20
6.8800938181
 30
0.0
 10
5.5648109591
 20
6.8800967589
 30
0.0
 10
5.5648692031
 20
6.8800744125
 30
0.0
 10
5.5649343311
 20
6.8800302263
 30
0.0
 10
5.5650071274
 20
6.8799635894
 30
0.0
 10
5.5650873313
 20
6.8798749424
 30
0.0
 10
5.5651742635
 20
6.8797648082
 30
0.0
 10
5.565267123
 20
6.8796341594
 30
0.0
 10
5.5654037269
 20
6.8794247696
 30
0.0
 10
5.5655809062
 20
6.8791211276
 30
0.0
 10
5.5657937501
 20
6.8787141747
 30
0.0
 10
5.5660069279
 20
6.8782653993
 30
0.0
 10
5.5661429527
 20
6.8779517615
 30
0.0
 10
5.5662095966
 20
6.8777908689
 30
0.0
  0
SPLINE
  5
3D6
100
AcDbEntity
  8
0
100
AcDbSpline
 62
7
  6
CONTINUOUS
 70
0
 71
3
 72
21
 73
17
 74
0
 42
0.0000001
 43
0.0000001
 44
0.0000000001
 40
0.0
 40
0.0
 40
0.0
 40
0.0
 40
0.0066304474
 40
0.0143485664
 40
0.0238435803
 40
0.0354690786
 40
0.0656511782
 40
0.1052852857
 40
0.1540479745
 40
0.2112898461
 40
0.2761421134
 40
0.3475695936
 40
0.5053606858
 40
0.6742226464
 40
0.842861926
 40
1.0
 40
1.0
 40
1.0
 40
1.0
 10
5.5946990977
 20
6.8071908954
 30
0.0
 10
5.5947072175
 20
6.8071950013
 30
0.0
 10
5.5947270113
 20
6.8071997566
 30
0.0
 10
5.5947598824
 20
6.8071951977
 30
0.0
 10
5.594796918
 20
6.8071806081
 30
0.0
 10
5.5948577092
 20
6.8071447231
 30
0.0
 10
5.5949436583
 20
6.8070724041
 30
0.0
 10
5.5950564689
 20
6.8069550194
 30
0.0
 10
5.5951845261
 20
6.8068013763
 30
0.0
 10
5.5953256233
 20
6.806614048
 30
0.0
 10
5.5954773177
 20
6.8063959993
 30
0.0
 10
5.5956975971
 20
6.8060578139
 30
0.0
 10
5.5959776869
 20
6.8055885455
 30
0.0
 10
5.5963022336
 20
6.8049911643
 30
0.0
 10
5.5966033854
 20
6.8043826612
 30
0.0
 10
5.5967854783
 20
6.80397416
 30
0.0
 10
5.5968680002
 20
6.8037749344
 30
0.0
  0
LINE
  5
3D7
100
AcDbEntity
  8
0
100
AcDbLine
 62
7
  6
CONTINUOUS
 10
5.6166225788
 20
6.753815224
 11
5.6172711202
 21
6.7530919428
  0
LINE
  5
3D8
100
AcDbEntity
  8
0
100
AcDbLine
 62
7
  6
CONTINUOUS
 10
5.6172711202
 20
6.7530919428
 11
5.6193115089
 21
6.7495915096
  0
LINE
  5
3D9
100
AcDbEntity
  8
0
100
AcDbLine
 62
7
  6
CONTINUOUS
 10
5.5104041413
 20
6.9848510418
 11
5.5104752385
 21
6.9847368807
  0
LINE
  5
3DA
100
AcDbEntity
  8
0
100
AcDbLine
 62
7
  6
CONTINUOUS
 10
5.5274367697
 20
6.9432987216
 11
5.5280354516
 21
6.9423427781
  0
SPLINE
  5
3DB
100
AcDbEntity
  8
0
100
AcDbSpline
 62
7
  6
CONTINUOUS
 70
0
 71
3
 72
19
 73
15
 74
0
 42
0.0000001
 43
0.0000001
 44
0.0000000001
 40
0.0
 40
0.0
 40
0.0
 40
0.0
 40
0.0170070015
 40
0.0382931897
 40
0.0661466693
 40
0.1014304024
 40
0.1443599735
 40
0.1948271547
 40
0.2525304889
 40
0.3170416587
 40
0.4642609594
 40
0.6313365903
 40
0.8121488211
 40
1.0
 40
1.0
 40
1.0
 40
1.0
 10
5.5549985366
 20
6.8760448352
 30
0.0
 10
5.5550131092
 20
6.8760508722
 30
0.0
 10
5.5550504094
 20
6.8760538302
 30
0.0
 10
5.5551086361
 20
6.8760315192
 30
0.0
 10
5.5551737196
 20
6.8759873717
 30
0.0
 10
5.5552464529
 20
6.8759207822
 30
0.0
 10
5.5553265803
 20
6.8758321844
 30
0.0
 10
5.555413429
 20
6.8757220958
 30
0.0
 10
5.555506204
 20
6.8755914828
 30
0.0
 10
5.555642707
 20
6.8753821049
 30
0.0
 10
5.555819786
 20
6.8750784231
 30
0.0
 10
5.5560325604
 20
6.8746713637
 30
0.0
 10
5.5562457365
 20
6.874222413
 30
0.0
 10
5.5563817985
 20
6.8739086438
 30
0.0
 10
5.5564484723
 20
6.8737476788
 30
0.0
  0
LINE
  5
3DC
100
AcDbEntity
  8
0
100
AcDbLine
 62
7
  6
CONTINUOUS
 10
5.5825670023
 20
6.8087656616
 11
5.5833729608
 21
6.8079204439
  0
LINE
  5
3DD
100
AcDbEntity
  8
0
100
AcDbLine
 62
7
  6
CONTINUOUS
 10
5.5833729608
 20
6.8079204439
 11
5.5848614926
 21
6.8051525793
  0
LINE
  5
3DE
100
AcDbEntity
  8
0
100
AcDbLine
 62
7
  6
CONTINUOUS
 10
5.5996104013
 20
6.7671727851
 11
5.6001638202
 21
6.766493873
  0
LINE
  5
3DF
100
AcDbEntity
  8
0
100
AcDbLine
 62
7
  6
CONTINUOUS
 10
5.6001638202
 20
6.766493873
 11
5.6022284621
 21
6.7631523044
  0
LINE
  5
3E0
100
AcDbEntity
  8
0
100
AcDbLine
 62
7
  6
CONTINUOUS
 10
5.6022284621
 20
6.7631523044
 11
5.6024217042
 21
6.7627584761
  0
LINE
  5
3E1
100
AcDbEntity
  8
0
100
AcDbLine
 62
7
  6
CONTINUOUS
 10
5.5128987147
 20
6.9535136054
 11
5.5129697382
 21
6.9533996231
  0
LINE
  5
3E2
100
AcDbEntity
  8
0
100
AcDbLine
 62
7
  6
CONTINUOUS
 10
5.5255604249
 20
6.9225143084
 11
5.5261584629
 21
6.9215592266
  0
SPLINE
  5
3E3
100
AcDbEntity
  8
0
100
AcDbSpline
 62
7
  6
CONTINUOUS
 70
0
 71
3
 72
19
 73
15
 74
0
 42
0.0000001
 43
0.0000001
 44
0.0000000001
 40
0.0
 40
0.0
 40
0.0
 40
0.0
 40
0.0170097741
 40
0.0382773066
 40
0.0660945111
 40
0.1013305571
 40
0.1442071196
 40
0.1946220637
 40
0.2522791376
 40
0.316754808
 40
0.4639495314
 40
0.63107281
 40
0.8119977369
 40
1.0
 40
1.0
 40
1.0
 40
1.0
 10
5.5460492153
 20
6.872337905
 30
0.0
 10
5.5460637896
 20
6.872343943
 30
0.0
 10
5.5461010661
 20
6.8723469298
 30
0.0
 10
5.5461592652
 20
6.8723246798
 30
0.0
 10
5.5462242776
 20
6.8722806001
 30
0.0
 10
5.5462969103
 20
6.8722140938
 30
0.0
 10
5.5463769161
 20
6.872125583
 30
0.0
 10
5.5464636328
 20
6.8720155759
 30
0.0
 10
5.546556275
 20
6.8718850285
 30
0.0
 10
5.5466926224
 20
6.8716756783
 30
0.0
 10
5.5468695506
 20
6.871371938
 30
0.0
 10
5.5470822269
 20
6.870964706
 30
0.0
 10
5.5472954135
 20
6.8705154626
 30
0.0
 10
5.5474315422
 20
6.8702014707
 30
0.0
 10
5.5474982671
 20
6.8700403824
 30
0.0
  0
LINE
  5
3E4
100
AcDbEntity
  8
0
100
AcDbLine
 62
7
  6
CONTINUOUS
 10
5.5665424055
 20
6.8221386523
 11
5.5673468264
 21
6.8212958251
  0
LINE
  5
3E5
100
AcDbEntity
  8
0
100
AcDbLine
 62
7
  6
CONTINUOUS
 10
5.5673468264
 20
6.8212958251
 11
5.5688380709
 21
6.8185215381
  0
LINE
  5
3E6
100
AcDbEntity
  8
0
100
AcDbLine
 62
7
  6
CONTINUOUS
 10
5.5792112222
 20
6.7911025652
 11
5.5797631569
 21
6.7904276227
  0
LINE
  5
3E7
100
AcDbEntity
  8
0
100
AcDbLine
 62
7
  6
CONTINUOUS
 10
5.5797631569
 20
6.7904276227
 11
5.5818332285
 21
6.7870759487
  0
LINE
  5
3E8
100
AcDbEntity
  8
0
100
AcDbLine
 62
7
  6
CONTINUOUS
 10
5.5818332285
 20
6.7870759487
 11
5.5820267946
 21
6.7866811411
  0
SPLINE
  5
3E9
100
AcDbEntity
  8
0
100
AcDbSpline
 62
7
  6
CONTINUOUS
 70
0
 71
3
 72
11
 73
7
 74
0
 42
0.0000001
 43
0.0000001
 44
0.0000000001
 40
0.0
 40
0.0
 40
0.0
 40
0.0
 40
0.4103879804
 40
0.709988568
 40
0.9012503859
 40
1.0
 40
1.0
 40
1.0
 40
1.0
 10
5.647582758
 20
6.7082426164
 30
0.0
 10
5.6475864541
 20
6.7082336932
 30
0.0
 10
5.6475926487
 20
6.7082182571
 30
0.0
 10
5.6475989178
 20
6.7081976673
 30
0.0
 10
5.6476018601
 20
6.7081846632
 30
0.0
 10
5.6476004498
 20
6.7081767175
 30
0.0
 10
5.6475984842
 20
6.7081754775
 30
0.0
  0
LINE
  5
3EA
100
AcDbEntity
  8
0
100
AcDbLine
 62
7
  6
CONTINUOUS
 10
5.6333497702
 20
6.742604091
 11
5.6334851968
 21
6.7420209063
  0
SPLINE
  5
3EB
100
AcDbEntity
  8
0
100
AcDbSpline
 62
7
  6
CONTINUOUS
 70
0
 71
3
 72
18
 73
14
 74
0
 42
0.0000001
 43
0.0000001
 44
0.0000000001
 40
0.0
 40
0.0
 40
0.0
 40
0.0
 40
0.2041096705
 40
0.3904411633
 40
0.5555716488
 40
0.6966344483
 40
0.8114085906
 40
0.8585273036
 40
0.8987371014
 40
0.9322033651
 40
0.9593772806
 40
0.9812921337
 40
1.0
 40
1.0
 40
1.0
 40
1.0
 10
5.6077028115
 20
6.8045213282
 30
0.0
 10
5.6077441784
 20
6.8044214596
 30
0.0
 10
5.6078209019
 20
6.8042294063
 30
0.0
 10
5.6079216903
 20
6.8039529234
 30
0.0
 10
5.6080018508
 20
6.8037046097
 30
0.0
 10
5.6080598852
 20
6.8034892641
 30
0.0
 10
5.6080911111
 20
6.8033316243
 30
0.0
 10
5.6081025809
 20
6.8032251304
 30
0.0
 10
5.6081045384
 20
6.8031611061
 30
0.0
 10
5.6081005118
 20
6.8031077024
 30
0.0
 10
5.6080903829
 20
6.8030649139
 30
0.0
 10
5.6080738017
 20
6.8030324581
 30
0.0
 10
5.6080568985
 20
6.803017914
 30
0.0
 10
5.6080480606
 20
6.8030134359
 30
0.0
  0
SPLINE
  5
3EC
100
AcDbEntity
  8
0
100
AcDbSpline
 62
7
  6
CONTINUOUS
 70
0
 71
3
 72
19
 73
15
 74
0
 42
0.0000001
 43
0.0000001
 44
0.0000000001
 40
0.0
 40
0.0
 40
0.0
 40
0.0
 40
0.1877304327
 40
0.3684516816
 40
0.5354869849
 40
0.6827233696
 40
0.7472617719
 40
0.8050014024
 40
0.855510328
 40
0.8984830691
 40
0.9338064037
 40
0.9616909137
 40
0.9829942229
 40
1.0
 40
1.0
 40
1.0
 40
1.0
 10
5.5757215766
 20
6.88173086
 30
0.0
 10
5.5757882119
 20
6.8815699881
 30
0.0
 10
5.5759137762
 20
6.8812520589
 30
0.0
 10
5.5760802979
 20
6.880784008
 30
0.0
 10
5.5762174653
 20
6.8803457316
 30
0.0
 10
5.5763068049
 20
6.8800057066
 30
0.0
 10
5.5763582092
 20
6.8797610124
 30
0.0
 10
5.5763848895
 20
6.879602931
 30
0.0
 10
5.5764012594
 20
6.8794635456
 30
0.0
 10
5.5764071989
 20
6.8793441133
 30
0.0
 10
5.5764028196
 20
6.8792454872
 30
0.0
 10
5.5763879942
 20
6.8791681664
 30
0.0
 10
5.5763626049
 20
6.8791111661
 30
0.0
 10
5.5763341376
 20
6.8790868511
 30
0.0
 10
5.5763195646
 20
6.8790808154
 30
0.0
  0
SPLINE
  5
3ED
100
AcDbEntity
  8
0
100
AcDbSpline
 62
7
  6
CONTINUOUS
 70
0
 71
3
 72
21
 73
17
 74
0
 42
0.0000001
 43
0.0000001
 44
0.0000000001
 40
0.0
 40
0.0
 40
0.0
 40
0.0
 40
0.1624934615
 40
0.333429455
 40
0.5021845358
 40
0.6582767502
 40
0.7285311233
 40
0.7921376774
 40
0.8481644828
 40
0.8958401303
 40
0.9346076972
 40
0.9642400103
 40
0.9757464569
 40
0.9852467384
 40
0.9931086775
 40
1.0
 40
1.0
 40
1.0
 40
1.0
 10
5.5437403412
 20
6.9589403916
 30
0.0
 10
5.5438220946
 20
6.9587430214
 30
0.0
 10
5.543979891
 20
6.9583338683
 30
0.0
 10
5.5441930198
 20
6.9577088263
 30
0.0
 10
5.5443795613
 20
6.9570841133
 30
0.0
 10
5.544507377
 20
6.9565804102
 30
0.0
 10
5.5445858844
 20
6.9562073277
 30
0.0
 10
5.5446294314
 20
6.9559614492
 30
0.0
 10
5.5446591318
 20
6.9557434413
 30
0.0
 10
5.5446746869
 20
6.9555566223
 30
0.0
 10
5.5446759108
 20
6.9554039312
 30
0.0
 10
5.5446648723
 20
6.955298868
 30
0.0
 10
5.5446465012
 20
6.9552346747
 30
0.0
 10
5.5446301649
 20
6.9552001567
 30
0.0
 10
5.5446097992
 20
6.9551750475
 30
0.0
 10
5.5445925594
 20
6.9551649484
 30
0.0
 10
5.5445839488
 20
6.9551621298
 30
0.0
  0
LINE
  5
3EE
100
AcDbEntity
  8
0
100
AcDbLine
 62
7
  6
CONTINUOUS
 10
5.5180933813
 20
7.0208576283
 11
5.5190878127
 21
7.0172731311
  0
LINE
  5
3EF
100
AcDbEntity
  8
0
100
AcDbLine
 62
7
  6
CONTINUOUS
 10
5.5190878127
 20
7.0172731311
 11
5.5191310485
 21
7.0161855408
  0
LINE
  5
3F0
100
AcDbEntity
  8
0
100
AcDbLine
 62
7
  6
CONTINUOUS
 10
5.5038603918
 20
7.0552191022
 11
5.504015468
 21
7.0547251766
  0
LINE
  5
3F1
100
AcDbEntity
  8
0
100
AcDbLine
 62
7
  6
CONTINUOUS
 10
5.504015468
 20
7.0547251766
 11
5.5049413802
 21
7.0506385817
  0
LINE
  5
3F2
100
AcDbEntity
  8
0
100
AcDbLine
 62
7
  6
CONTINUOUS
 10
5.5049413802
 20
7.0506385817
 11
5.5050053499
 21
7.0500553068
  0
LINE
  5
3F3
100
AcDbEntity
  8
0
100
AcDbLine
 62
7
  6
CONTINUOUS
 10
5.6024217042
 20
6.7627584761
 11
5.602452155
 21
6.7626274787
  0
LINE
  5
3F4
100
AcDbEntity
  8
0
100
AcDbLine
 62
7
  6
CONTINUOUS
 10
5.5848614926
 20
6.8051525793
 11
5.5851141147
 21
6.8040532931
  0
SPLINE
  5
3F5
100
AcDbEntity
  8
0
100
AcDbSpline
 62
7
  6
CONTINUOUS
 70
0
 71
3
 72
19
 73
15
 74
0
 42
0.0000001
 43
0.0000001
 44
0.0000000001
 40
0.0
 40
0.0
 40
0.0
 40
0.0
 40
0.1878511729
 40
0.3686633893
 40
0.5357390385
 40
0.6829583349
 40
0.7474695129
 40
0.8051728517
 40
0.8556400316
 40
0.8985695995
 40
0.9338533334
 40
0.9617068156
 40
0.9829930007
 40
1.0
 40
1.0
 40
1.0
 40
1.0
 10
5.5564484723
 20
6.8737476788
 30
0.0
 10
5.5565151462
 20
6.8735867139
 30
0.0
 10
5.5566408042
 20
6.8732686351
 30
0.0
 10
5.5568075221
 20
6.8728004409
 30
0.0
 10
5.5569449023
 20
6.8723621522
 30
0.0
 10
5.557034424
 20
6.872022203
 30
0.0
 10
5.5570859543
 20
6.8717776282
 30
0.0
 10
5.5571127098
 20
6.871619669
 30
0.0
 10
5.5571291429
 20
6.8714804133
 30
0.0
 10
5.5571351324
 20
6.8713611065
 30
0.0
 10
5.557130788
 20
6.8712625905
 30
0.0
 10
5.5571159841
 20
6.8711853526
 30
0.0
 10
5.5570905879
 20
6.8711284038
 30
0.0
 10
5.557062121
 20
6.8711041201
 30
0.0
 10
5.5570475478
 20
6.8710980846
 30
0.0
  0
SPLINE
  5
3F6
100
AcDbEntity
  8
0
100
AcDbSpline
 62
7
  6
CONTINUOUS
 70
0
 71
3
 72
22
 73
18
 74
0
 42
0.0000001
 43
0.0000001
 44
0.0000000001
 40
0.0
 40
0.0
 40
0.0
 40
0.0
 40
0.1491104053
 40
0.3142468535
 40
0.483201933
 40
0.6434898825
 40
0.7166631361
 40
0.7833796578
 40
0.8424500718
 40
0.8928598823
 40
0.9338208841
 40
0.9506018286
 40
0.9648864333
 40
0.9767150862
 40
0.9862268578
 40
0.9937520951
 40
1.0
 40
1.0
 40
1.0
 40
1.0
 10
5.5280354516
 20
6.9423427781
 30
0.0
 10
5.5281181221
 20
6.9421431939
 30
0.0
 10
5.5282797229
 20
6.94171733
 30
0.0
 10
5.5285009282
 20
6.9410529839
 30
0.0
 10
5.5287016229
 20
6.9403652584
 30
0.0
 10
5.5288433054
 20
6.9397995161
 30
0.0
 10
5.5289335209
 20
6.9393740372
 30
0.0
 10
5.5289853412
 20
6.9390904401
 30
0.0
 10
5.5290225553
 20
6.9388378211
 30
0.0
 10
5.5290445026
 20
6.9386209027
 30
0.0
 10
5.5290504946
 20
6.9384641131
 30
0.0
 10
5.5290459225
 20
6.9383597987
 30
0.0
 10
5.5290387809
 20
6.938297998
 30
0.0
 10
5.5290277904
 20
6.9382474408
 30
0.0
 10
5.5290128815
 20
6.9382081429
 30
0.0
 10
5.5289937607
 20
6.9381797613
 30
0.0
 10
5.5289764299
 20
6.9381683389
 30
0.0
 10
5.5289678369
 20
6.9381654935
 30
0.0
  0
LINE
  5
3F7
100
AcDbEntity
  8
0
100
AcDbLine
 62
7
  6
CONTINUOUS
 10
5.5104752385
 20
6.9847368807
 11
5.5106170669
 21
6.9843217836
  0
LINE
  5
3F8
100
AcDbEntity
  8
0
100
AcDbLine
 62
7
  6
CONTINUOUS
 10
5.5106170669
 20
6.9843217836
 11
5.511551481
 21
6.9803157554
  0
LINE
  5
3F9
100
AcDbEntity
  8
0
100
AcDbLine
 62
7
  6
CONTINUOUS
 10
5.511551481
 20
6.9803157554
 11
5.511608735
 21
6.9796276015
  0
LINE
  5
3FA
100
AcDbEntity
  8
0
100
AcDbLine
 62
7
  6
CONTINUOUS
 10
5.5145565385
 20
6.9236662115
 11
5.5157206961
 21
6.9184151615
  0
LINE
  5
3FB
100
AcDbEntity
  8
0
100
AcDbLine
 62
7
  6
CONTINUOUS
 10
5.5551580221
 20
6.8256455606
 11
5.5553387795
 21
6.8248659355
  0
SPLINE
  5
3FC
100
AcDbEntity
  8
0
100
AcDbSpline
 62
7
  6
CONTINUOUS
 70
0
 71
3
 72
19
 73
15
 74
0
 42
0.0000001
 43
0.0000001
 44
0.0000000001
 40
0.0
 40
0.0
 40
0.0
 40
0.0
 40
0.1882183569
 40
0.3693078103
 40
0.5365073515
 40
0.6836778924
 40
0.7481077561
 40
0.805702402
 40
0.8560442918
 40
0.8988437243
 40
0.9340070205
 40
0.9617643485
 40
0.9829948374
 40
1.0
 40
1.0
 40
1.0
 40
1.0
 10
5.5383403374
 20
6.8662470437
 30
0.0
 10
5.5384071271
 20
6.8660857991
 30
0.0
 10
5.5385330665
 20
6.8657672714
 30
0.0
 10
5.5387003748
 20
6.8652986486
 30
0.0
 10
5.5388383989
 20
6.8648603271
 30
0.0
 10
5.5389284769
 20
6.8645206116
 30
0.0
 10
5.5389803984
 20
6.8642764014
 30
0.0
 10
5.539007391
 20
6.8641188145
 30
0.0
 10
5.5390240272
 20
6.8639799534
 30
0.0
 10
5.5390301819
 20
6.8638610292
 30
0.0
 10
5.53902596
 20
6.86376285
 30
0.0
 10
5.5390112377
 20
6.8636858676
 30
0.0
 10
5.5389858403
 20
6.8636290798
 30
0.0
 10
5.5389573854
 20
6.8636048919
 30
0.0
 10
5.5389428167
 20
6.863598859
 30
0.0
  0
SPLINE
  5
3FD
100
AcDbEntity
  8
0
100
AcDbSpline
 62
7
  6
CONTINUOUS
 70
0
 71
3
 72
22
 73
18
 74
0
 42
0.0000001
 43
0.0000001
 44
0.0000000001
 40
0.0
 40
0.0
 40
0.0
 40
0.0
 40
0.1357561928
 40
0.2948949505
 40
0.4637751593
 40
0.6280058691
 40
0.7040137627
 40
0.7738016098
 40
0.8359358551
 40
0.8637368616
 40
0.8891741822
 40
0.9324935708
 40
0.9502058053
 40
0.9652126747
 40
0.9775179412
 40
0.9872091467
 40
1.0
 40
1.0
 40
1.0
 40
1.0
 10
5.5215226522
 20
6.9068485267
 30
0.0
 10
5.5216034002
 20
6.9066535838
 30
0.0
 10
5.5217633877
 20
6.9062237629
 30
0.0
 10
5.5219864118
 20
6.9055381556
 30
0.0
 10
5.5221968959
 20
6.9048024113
 30
0.0
 10
5.522350177
 20
6.9041850927
 30
0.0
 10
5.5224511464
 20
6.9037138778
 30
0.0
 10
5.522511013
 20
6.9033962499
 30
0.0
 10
5.5225496764
 20
6.9031509678
 30
0.0
 10
5.5225721836
 20
6.9029730453
 30
0.0
 10
5.5225874372
 20
6.9028237411
 30
0.0
 10
5.5225960302
 20
6.9026895025
 30
0.0
 10
5.5225952575
 20
6.9025712084
 30
0.0
 10
5.5225906477
 20
6.9025014606
 30
0.0
 10
5.5225815969
 20
6.9024441465
 30
0.0
 10
5.5225672396
 20
6.9023931793
 30
0.0
 10
5.5225455132
 20
6.9023594771
 30
0.0
 10
5.522526777
 20
6.9023528289
 30
0.0
  0
LINE
  5
3FE
100
AcDbEntity
  8
0
100
AcDbLine
 62
7
  6
CONTINUOUS
 10
5.5820267946
 20
6.7866811411
 11
5.582057171
 21
6.7865503223
  0
LINE
  5
3FF
100
AcDbEntity
  8
0
100
AcDbLine
 62
7
  6
CONTINUOUS
 10
5.5688380709
 20
6.8185215381
 11
5.569090539
 21
6.8174233165
  0
SPLINE
  5
400
100
AcDbEntity
  8
0
100
AcDbSpline
 62
7
  6
CONTINUOUS
 70
0
 71
3
 72
19
 73
15
 74
0
 42
0.0000001
 43
0.0000001
 44
0.0000000001
 40
0.0
 40
0.0
 40
0.0
 40
0.0
 40
0.1880022577
 40
0.3689271702
 40
0.5360504669
 40
0.683245183
 40
0.7477208632
 40
0.8053779428
 40
0.8557928854
 40
0.8986694441
 40
0.9339054912
 40
0.9617226998
 40
0.9829902286
 40
1.0
 40
1.0
 40
1.0
 40
1.0
 10
5.5474982671
 20
6.8700403824
 30
0.0
 10
5.547564992
 20
6.8698792942
 30
0.0
 10
5.5476907603
 20
6.8695610109
 30
0.0
 10
5.5478576777
 20
6.8690926021
 30
0.0
 10
5.5479952494
 20
6.8686542608
 30
0.0
 10
5.5480849191
 20
6.8683143768
 30
0.0
 10
5.5481365398
 20
6.8680699317
 30
0.0
 10
5.5481633428
 20
6.8679121128
 30
0.0
 10
5.5481798117
 20
6.8677730081
 30
0.0
 10
5.5481858256
 20
6.8676538488
 30
0.0
 10
5.5481814936
 20
6.8675554627
 30
0.0
 10
5.5481666919
 20
6.8674783229
 30
0.0
 10
5.5481412721
 20
6.8674214368
 30
0.0
 10
5.5481128016
 20
6.8673971903
 30
0.0
 10
5.5480982265
 20
6.8673911542
 30
0.0
  0
SPLINE
  5
401
100
AcDbEntity
  8
0
100
AcDbSpline
 62
7
  6
CONTINUOUS
 70
0
 71
3
 72
22
 73
18
 74
0
 42
0.0000001
 43
0.0000001
 44
0.0000000001
 40
0.0
 40
0.0
 40
0.0
 40
0.0
 40
0.1490568221
 40
0.3141368543
 40
0.4829998588
 40
0.6431675466
 40
0.7162856367
 40
0.7829628308
 40
0.8420197347
 40
0.8924505208
 40
0.9334728736
 40
0.9503003411
 40
0.9646411324
 40
0.9765345653
 40
0.9861157508
 40
0.99370715
 40
1.0
 40
1.0
 40
1.0
 40
1.0
 10
5.5261584629
 20
6.9215592266
 30
0.0
 10
5.5262411755
 20
6.9213595408
 30
0.0
 10
5.5264029264
 20
6.920933484
 30
0.0
 10
5.5266244799
 20
6.9202689232
 30
0.0
 10
5.5268255835
 20
6.919581076
 30
0.0
 10
5.5269675932
 20
6.9190152933
 30
0.0
 10
5.5270580236
 20
6.9185897921
 30
0.0
 10
5.527109979
 20
6.9183061243
 30
0.0
 10
5.5271473066
 20
6.9180533445
 30
0.0
 10
5.527169347
 20
6.9178361443
 30
0.0
 10
5.5271753954
 20
6.9176790342
 30
0.0
 10
5.5271708675
 20
6.9175743894
 30
0.0
 10
5.527163748
 20
6.9175122877
 30
0.0
 10
5.5271527759
 20
6.9174614002
 30
0.0
 10
5.5271378791
 20
6.9174217503
 30
0.0
 10
5.5271187955
 20
6.9173930131
 30
0.0
 10
5.5271014852
 20
6.9173812623
 30
0.0
 10
5.5270928683
 20
6.9173782601
 30
0.0
  0
LINE
  5
402
100
AcDbEntity
  8
0
100
AcDbLine
 62
7
  6
CONTINUOUS
 10
5.5129697382
 20
6.9533996231
 11
5.51311203
 21
6.9529836043
  0
LINE
  5
403
100
AcDbEntity
  8
0
100
AcDbLine
 62
7
  6
CONTINUOUS
 10
5.51311203
 20
6.9529836043
 11
5.51404944
 21
6.9489672906
  0
LINE
  5
404
100
AcDbEntity
  8
0
100
AcDbLine
 62
7
  6
CONTINUOUS
 10
5.51404944
 20
6.9489672906
 11
5.5141052469
 21
6.9482822939
  0
LINE
  5
405
100
AcDbEntity
  8
0
100
AcDbLine
 62
7
  6
CONTINUOUS
 10
5.5048927871
 20
7.0258227369
 11
5.5060520224
 21
7.0205937643
  0
LINE
  5
406
100
AcDbEntity
  8
0
100
AcDbLine
 62
7
  6
CONTINUOUS
 10
5.6246486637
 20
6.7342761445
 11
5.6275264026
 21
6.7297589994
  0
LINE
  5
407
100
AcDbEntity
  8
0
100
AcDbLine
 62
7
  6
CONTINUOUS
 10
5.6193115089
 20
6.7495915096
 11
5.6193948039
 21
6.7492330414
  0
SPLINE
  5
408
100
AcDbEntity
  8
0
100
AcDbSpline
 62
7
  6
CONTINUOUS
 70
0
 71
3
 72
17
 73
13
 74
0
 42
0.0000001
 43
0.0000001
 44
0.0000000001
 40
0.0
 40
0.0
 40
0.0
 40
0.0
 40
0.206442888
 40
0.3936563326
 40
0.5586348741
 40
0.6989413405
 40
0.8127205801
 40
0.8990783738
 40
0.9322210215
 40
0.959214719
 40
0.9811190129
 40
1.0
 40
1.0
 40
1.0
 40
1.0
 10
5.5968680002
 20
6.8037749344
 30
0.0
 10
5.5969050011
 20
6.8036856065
 30
0.0
 10
5.5969734825
 20
6.8035143994
 30
0.0
 10
5.5970633539
 20
6.8032686268
 30
0.0
 10
5.5971344589
 20
6.8030491425
 30
0.0
 10
5.5971858169
 20
6.8028595569
 30
0.0
 10
5.5972165933
 20
6.802703034
 30
0.0
 10
5.5972262906
 20
6.8025936452
 30
0.0
 10
5.5972208056
 20
6.8025250625
 30
0.0
 10
5.5972115966
 20
6.80248752
 30
0.0
 10
5.5971966003
 20
6.8024589962
 30
0.0
 10
5.5971815114
 20
6.8024462168
 30
0.0
 10
5.5971736204
 20
6.8024422254
 30
0.0
  0
SPLINE
  5
409
100
AcDbEntity
  8
0
100
AcDbSpline
 62
7
  6
CONTINUOUS
 70
0
 71
3
 72
19
 73
15
 74
0
 42
0.0000001
 43
0.0000001
 44
0.0000000001
 40
0.0
 40
0.0
 40
0.0
 40
0.0
 40
0.1877615061
 40
0.3685066857
 40
0.535553728
 40
0.6827872675
 40
0.7473194145
 40
0.8050501933
 40
0.8555484572
 40
0.8985096743
 40
0.9338219784
 40
0.9616972783
 40
0.9829947476
 40
1.0
 40
1.0
 40
1.0
 40
1.0
 10
5.5662095966
 20
6.8777908689
 30
0.0
 10
5.5662762405
 20
6.8776299763
 30
0.0
 10
5.5664018319
 20
6.8773120168
 30
0.0
 10
5.5665684246
 20
6.8768439452
 30
0.0
 10
5.5667056803
 20
6.8764056827
 30
0.0
 10
5.5667951029
 20
6.8760656907
 30
0.0
 10
5.5668465704
 20
6.8758210362
 30
0.0
 10
5.5668732915
 20
6.875662992
 30
0.0
 10
5.5668896977
 20
6.875523645
 30
0.0
 10
5.5668956679
 20
6.8754042493
 30
0.0
 10
5.5668913125
 20
6.8753056552
 30
0.0
 10
5.5668765044
 20
6.8752283584
 30
0.0
 10
5.566851121
 20
6.8751713723
 30
0.0
 10
5.5668226562
 20
6.8751470665
 30
0.0
 10
5.5668080842
 20
6.8751410312
 30
0.0
  0
SPLINE
  5
40A
100
AcDbEntity
  8
0
100
AcDbSpline
 62
7
  6
CONTINUOUS
 70
0
 71
3
 72
21
 73
17
 74
0
 42
0.0000001
 43
0.0000001
 44
0.0000000001
 40
0.0
 40
0.0
 40
0.0
 40
0.0
 40
0.1571380623
 40
0.3257773425
 40
0.4946393044
 40
0.6524304066
 40
0.7238578822
 40
0.7887101546
 40
0.8459520244
 40
0.8947147081
 40
0.9343488186
 40
0.9645309217
 40
0.9761564197
 40
0.9856514327
 40
0.9933695522
 40
1.0
 40
1.0
 40
1.0
 40
1.0
 10
5.5355511925
 20
6.9518068032
 30
0.0
 10
5.5356337145
 20
6.9516075776
 30
0.0
 10
5.5357938093
 20
6.9511899645
 30
0.0
 10
5.5360111395
 20
6.9505467414
 30
0.0
 10
5.5362040626
 20
6.9498948399
 30
0.0
 10
5.5363378321
 20
6.9493649636
 30
0.0
 10
5.5364212042
 20
6.9489700694
 30
0.0
 10
5.5364681238
 20
6.9487086215
 30
0.0
 10
5.5365008141
 20
6.9484763896
 30
0.0
 10
5.5365189061
 20
6.9482771974
 30
0.0
 10
5.5365221405
 20
6.9481144248
 30
0.0
 10
5.5365125025
 20
6.9480025123
 30
0.0
 10
5.5364948912
 20
6.947934152
 30
0.0
 10
5.5364790194
 20
6.9478976474
 30
0.0
 10
5.5364589997
 20
6.9478711804
 30
0.0
 10
5.5364416409
 20
6.9478605466
 30
0.0
 10
5.536432996
 20
6.9478577083
 30
0.0
  0
LINE
  5
40B
100
AcDbEntity
  8
0
100
AcDbLine
 62
7
  6
CONTINUOUS
 10
5.5131076826
 20
7.0059902275
 11
5.5141564607
 21
7.0019732119
  0
LINE
  5
40C
100
AcDbEntity
  8
0
100
AcDbLine
 62
7
  6
CONTINUOUS
 10
5.5141564607
 20
7.0019732119
 11
5.514192939
 21
7.0011022496
  0
LINE
  5
40D
100
AcDbEntity
  8
0
100
AcDbLine
 62
7
  6
CONTINUOUS
 10
5.5553387795
 20
6.8248659355
 11
5.5546303641
 21
6.8256093362
  0
LINE
  5
40E
100
AcDbEntity
  8
0
100
AcDbLine
 62
7
  6
CONTINUOUS
 10
5.5546303641
 20
6.8256093362
 11
5.5528604048
 21
6.828750392
  0
LINE
  5
40F
100
AcDbEntity
  8
0
100
AcDbLine
 62
7
  6
CONTINUOUS
 10
5.569090539
 20
6.8174233165
 11
5.5682606709
 21
6.8183096806
  0
LINE
  5
410
100
AcDbEntity
  8
0
100
AcDbLine
 62
7
  6
CONTINUOUS
 10
5.5682606709
 20
6.8183096806
 11
5.5667869477
 21
6.8210366002
  0
LINE
  5
411
100
AcDbEntity
  8
0
100
AcDbLine
 62
7
  6
CONTINUOUS
 10
5.582057171
 20
6.7865503223
 11
5.5814899999
 21
6.7872644884
  0
LINE
  5
412
100
AcDbEntity
  8
0
100
AcDbLine
 62
7
  6
CONTINUOUS
 10
5.5814899999
 20
6.7872644884
 11
5.5794324735
 21
6.7905826384
  0
LINE
  5
413
100
AcDbEntity
  8
0
100
AcDbLine
 62
7
  6
CONTINUOUS
 10
5.5794324735
 20
6.7905826384
 11
5.579240465
 21
6.7909711483
  0
SPLINE
  5
414
100
AcDbEntity
  8
0
100
AcDbSpline
 62
7
  6
CONTINUOUS
 70
0
 71
3
 72
11
 73
7
 74
0
 42
0.0000001
 43
0.0000001
 44
0.0000000001
 40
0.0
 40
0.0
 40
0.0
 40
0.0
 40
0.1000775404
 40
0.2914577637
 40
0.5905544026
 40
1.0
 40
1.0
 40
1.0
 40
1.0
 10
5.5050053499
 20
7.0500553068
 30
0.0
 10
5.5050030471
 20
7.0500547855
 30
0.0
 10
5.5049963306
 20
7.0500593091
 30
0.0
 10
5.5049891053
 20
7.0500706369
 30
0.0
 10
5.5049789329
 20
7.0500896007
 30
0.0
 10
5.5049723851
 20
7.0501049073
 30
0.0
 10
5.5049686885
 20
7.0501138318
 30
0.0
  0
LINE
  5
415
100
AcDbEntity
  8
0
100
AcDbLine
 62
7
  6
CONTINUOUS
 10
5.5191310485
 20
7.0161855408
 11
5.5188120316
 21
7.0166930473
  0
SPLINE
  5
416
100
AcDbEntity
  8
0
100
AcDbSpline
 62
7
  6
CONTINUOUS
 70
0
 71
3
 72
11
 73
7
 74
0
 42
0.0000001
 43
0.0000001
 44
0.0000000001
 40
0.0
 40
0.0
 40
0.0
 40
0.0
 40
0.4094456252
 40
0.7085422682
 40
0.8999224659
 40
1.0
 40
1.0
 40
1.0
 40
1.0
 10
5.6447564708
 20
6.7126362718
 30
0.0
 10
5.6447527741
 20
6.7126451963
 30
0.0
 10
5.6447465807
 20
6.7126606497
 30
0.0
 10
5.6447403643
 20
6.7126812521
 30
0.0
 10
5.6447374633
 20
6.7126943711
 30
0.0
 10
5.644739014
 20
6.7127023191
 30
0.0
 10
5.6447410109
 20
6.7127035788
 30
0.0
  0
LINE
  5
417
100
AcDbEntity
  8
0
100
AcDbLine
 62
7
  6
CONTINUOUS
 10
5.6309131293
 20
6.746057057
 11
5.630779847
 21
6.7466414973
  0
SPLINE
  5
418
100
AcDbEntity
  8
0
100
AcDbSpline
 62
7
  6
CONTINUOUS
 70
0
 71
3
 72
18
 73
14
 74
0
 42
0.0000001
 43
0.0000001
 44
0.0000000001
 40
0.0
 40
0.0
 40
0.0
 40
0.0
 40
0.2038458756
 40
0.3899564408
 40
0.5549246619
 40
0.695897022
 40
0.8106688709
 40
0.8578256127
 40
0.8981046042
 40
0.9316739613
 40
0.9589906644
 40
0.9810876446
 40
1.0
 40
1.0
 40
1.0
 40
1.0
 10
5.6059682889
 20
6.8062792306
 30
0.0
 10
5.6059269201
 20
6.8063791037
 30
0.0
 10
5.6058502574
 20
6.8065712047
 30
0.0
 10
5.605749781
 20
6.8068478583
 30
0.0
 10
5.605670119
 20
6.8070964398
 30
0.0
 10
5.6056127298
 20
6.8073121316
 30
0.0
 10
5.6055821637
 20
6.8074700982
 30
0.0
 10
5.6055712669
 20
6.807576854
 30
0.0
 10
5.6055697098
 20
6.8076410886
 30
0.0
 10
5.6055741375
 20
6.8076947018
 30
0.0
 10
5.605584661
 20
6.8077376928
 30
0.0
 10
5.6056016303
 20
6.8077703163
 30
0.0
 10
5.6056187514
 20
6.8077849497
 30
0.0
 10
5.6056276977
 20
6.8077894834
 30
0.0
  0
SPLINE
  5
419
100
AcDbEntity
  8
0
100
AcDbSpline
 62
7
  6
CONTINUOUS
 70
0
 71
3
 72
19
 73
15
 74
0
 42
0.0000001
 43
0.0000001
 44
0.0000000001
 40
0.0
 40
0.0
 40
0.0
 40
0.0
 40
0.1876364137
 40
0.3682781013
 40
0.5352615281
 40
0.6824835072
 40
0.7470308719
 40
0.8047899501
 40
0.855327984
 40
0.8983393494
 40
0.9337073966
 40
0.9616384196
 40
0.9829814723
 40
1.0
 40
1.0
 40
1.0
 40
1.0
 10
5.5748625812
 20
6.8813750525
 30
0.0
 10
5.5747959449
 20
6.8815359268
 30
0.0
 10
5.5746705231
 20
6.8818539333
 30
0.0
 10
5.5745046356
 20
6.882322265
 30
0.0
 10
5.574368422
 20
6.8827609505
 30
0.0
 10
5.5742800687
 20
6.8831013705
 30
0.0
 10
5.5742294792
 20
6.8833463803
 30
0.0
 10
5.5742033577
 20
6.8835046934
 30
0.0
 10
5.5741875046
 20
6.8836442932
 30
0.0
 10
5.574182019
 20
6.8837639136
 30
0.0
 10
5.574186774
 20
6.883862693
 30
0.0
 10
5.5742018883
 20
6.883940122
 30
0.0
 10
5.574227447
 20
6.8839971694
 30
0.0
 10
5.5742559624
 20
6.8840215215
 30
0.0
 10
5.5742705535
 20
6.8840275659
 30
0.0
  0
SPLINE
  5
41A
100
AcDbEntity
  8
0
100
AcDbSpline
 62
7
  6
CONTINUOUS
 70
0
 71
3
 72
21
 73
17
 74
0
 42
0.0000001
 43
0.0000001
 44
0.0000000001
 40
0.0
 40
0.0
 40
0.0
 40
0.0
 40
0.1625088682
 40
0.3334627228
 40
0.502248844
 40
0.6583885474
 40
0.7286707352
 40
0.7923054015
 40
0.8483574221
 40
0.8960510917
 40
0.9348232908
 40
0.9644362435
 40
0.9759176257
 40
0.9853791097
 40
0.9931837372
 40
1.0
 40
1.0
 40
1.0
 40
1.0
 10
5.5437568732
 20
6.9564708742
 30
0.0
 10
5.5436751225
 20
6.9566682377
 30
0.0
 10
5.5435176144
 20
6.9570774984
 30
0.0
 10
5.5433055573
 20
6.9577029113
 30
0.0
 10
5.5431204937
 20
6.9583281135
 30
0.0
 10
5.5429939987
 20
6.958832225
 30
0.0
 10
5.5429163981
 20
6.9592055852
 30
0.0
 10
5.542873379
 20
6.9594516313
 30
0.0
 10
5.5428440495
 20
6.9596697538
 30
0.0
 10
5.5428286845
 20
6.9598566239
 30
0.0
 10
5.5428274633
 20
6.9600092956
 30
0.0
 10
5.5428383273
 20
6.9601142975
 30
0.0
 10
5.5428564539
 20
6.9601784337
 30
0.0
 10
5.5428725605
 20
6.9602128737
 30
0.0
 10
5.5428926508
 20
6.9602379079
 30
0.0
 10
5.5429097127
 20
6.9602479724
 30
0.0
 10
5.5429182282
 20
6.9602507604
 30
0.0
  0
LINE
  5
41B
100
AcDbEntity
  8
0
100
AcDbLine
 62
7
  6
CONTINUOUS
 10
5.5188120316
 20
7.0166930473
 11
5.5178105029
 21
7.0203568086
  0
LINE
  5
41C
100
AcDbEntity
  8
0
100
AcDbLine
 62
7
  6
CONTINUOUS
 10
5.5178105029
 20
7.0203568086
 11
5.5177767685
 21
7.0213657632
  0
LINE
  5
41D
100
AcDbEntity
  8
0
100
AcDbLine
 62
7
  6
CONTINUOUS
 10
5.5049686885
 20
7.0501138318
 11
5.5048159559
 21
7.0506039281
  0
LINE
  5
41E
100
AcDbEntity
  8
0
100
AcDbLine
 62
7
  6
CONTINUOUS
 10
5.5048159559
 20
7.0506039281
 11
5.5038937175
 21
7.0546832189
  0
LINE
  5
41F
100
AcDbEntity
  8
0
100
AcDbLine
 62
7
  6
CONTINUOUS
 10
5.5038937175
 20
7.0546832189
 11
5.5038240375
 21
7.0552776966
  0
SPLINE
  5
420
100
AcDbEntity
  8
0
100
AcDbSpline
 62
7
  6
CONTINUOUS
 70
0
 71
3
 72
18
 73
14
 74
0
 42
0.0000001
 43
0.0000001
 44
0.0000000001
 40
0.0
 40
0.0
 40
0.0
 40
0.0
 40
0.0189123557
 40
0.041009336
 40
0.0683260382
 40
0.1018953937
 40
0.1421743826
 40
0.1893311251
 40
0.3041029663
 40
0.4450753106
 40
0.610043533
 40
0.7961541195
 40
1.0
 40
1.0
 40
1.0
 40
1.0
 10
5.5445839488
 20
6.9551621298
 30
0.0
 10
5.5445744171
 20
6.9551590097
 30
0.0
 10
5.5445519633
 20
6.9551572506
 30
0.0
 10
5.5445168958
 20
6.9551683197
 30
0.0
 10
5.5444790554
 20
6.9551912777
 30
0.0
 10
5.5444380143
 20
6.9552260572
 30
0.0
 10
5.5443936946
 20
6.9552725789
 30
0.0
 10
5.544325912
 20
6.9553557718
 30
0.0
 10
5.5442358262
 20
6.9554890846
 30
0.0
 10
5.5441238894
 20
6.955682182
 30
0.0
 10
5.5440044453
 20
6.9559142852
 30
0.0
 10
5.5438798692
 20
6.9561809564
 30
0.0
 10
5.5437982419
 20
6.9563710011
 30
0.0
 10
5.5437568732
 20
6.9564708742
 30
0.0
  0
SPLINE
  5
421
100
AcDbEntity
  8
0
100
AcDbSpline
 62
7
  6
CONTINUOUS
 70
0
 71
3
 72
19
 73
15
 74
0
 42
0.0000001
 43
0.0000001
 44
0.0000000001
 40
0.0
 40
0.0
 40
0.0
 40
0.0
 40
0.0170185267
 40
0.0383615736
 40
0.0662926642
 40
0.1016607725
 40
0.1446721244
 40
0.1952101444
 40
0.2529692753
 40
0.3175167224
 40
0.4647385684
 40
0.6317220122
 40
0.8123636441
 40
1.0
 40
1.0
 40
1.0
 40
1.0
 10
5.5763195646
 20
6.8790808154
 30
0.0
 10
5.5763049732
 20
6.879074772
 30
0.0
 10
5.5762675901
 20
6.879071828
 30
0.0
 10
5.5762091788
 20
6.879094094
 30
0.0
 10
5.5761437408
 20
6.8791381572
 30
0.0
 10
5.5760705308
 20
6.8792046426
 30
0.0
 10
5.5759898253
 20
6.879293106
 30
0.0
 10
5.5759023232
 20
6.8794030278
 30
0.0
 10
5.5758088495
 20
6.8795334428
 30
0.0
 10
5.5756713737
 20
6.8797424631
 30
0.0
 10
5.5754931356
 20
6.8800456516
 30
0.0
 10
5.5752792557
 20
6.8804521666
 30
0.0
 10
5.5750653955
 20
6.8809006271
 30
0.0
 10
5.5749292175
 20
6.8812141782
 30
0.0
 10
5.5748625812
 20
6.8813750525
 30
0.0
  0
LINE
  5
422
100
AcDbEntity
  8
0
100
AcDbLine
 62
7
  6
CONTINUOUS
 10
5.5996400244
 20
6.7670413243
 11
5.5996104013
 21
6.7671727851
  0
LINE
  5
423
100
AcDbEntity
  8
0
100
AcDbLine
 62
7
  6
CONTINUOUS
 10
5.5828137921
 20
6.8076634444
 11
5.5825670023
 21
6.8087656616
  0
SPLINE
  5
424
100
AcDbEntity
  8
0
100
AcDbSpline
 62
7
  6
CONTINUOUS
 70
0
 71
3
 72
21
 73
17
 74
0
 42
0.0000001
 43
0.0000001
 44
0.0000000001
 40
0.0
 40
0.0
 40
0.0
 40
0.0
 40
0.0068162622
 40
0.0146208905
 40
0.0240823751
 40
0.0355637569
 40
0.0651767049
 40
0.1039489004
 40
0.1516425739
 40
0.2076945932
 40
0.271329257
 40
0.3416114461
 40
0.4977511451
 40
0.66653726
 40
0.8374911175
 40
1.0
 40
1.0
 40
1.0
 40
1.0
 10
5.6080480606
 20
6.8030134359
 30
0.0
 10
5.6080400678
 20
6.8030093859
 30
0.0
 10
5.6080208865
 20
6.803004438
 30
0.0
 10
5.6079889786
 20
6.8030079338
 30
0.0
 10
5.6079532368
 20
6.8030208975
 30
0.0
 10
5.6078950683
 20
6.8030534312
 30
0.0
 10
5.6078131387
 20
6.8031199968
 30
0.0
 10
5.607706047
 20
6.8032288155
 30
0.0
 10
5.6075847746
 20
6.8033718173
 30
0.0
 10
5.6074512777
 20
6.8035467923
 30
0.0
 10
5.607307716
 20
6.8037511922
 30
0.0
 10
5.6070985824
 20
6.8040700697
 30
0.0
 10
5.6068315672
 20
6.8045159759
 30
0.0
 10
5.6065203423
 20
6.8050889202
 30
0.0
 10
5.6062280556
 20
6.805681101
 30
0.0
 10
5.6060500395
 20
6.806081867
 30
0.0
 10
5.6059682889
 20
6.8062792306
 30
0.0
  0
SPLINE
  5
425
100
AcDbEntity
  8
0
100
AcDbSpline
 62
7
  6
CONTINUOUS
 70
0
 71
3
 72
19
 73
15
 74
0
 42
0.0000001
 43
0.0000001
 44
0.0000000001
 40
0.0
 40
0.0
 40
0.0
 40
0.0
 40
0.1877193593
 40
0.3684160438
 40
0.5354101019
 40
0.6825992331
 40
0.7471194976
 40
0.8048486233
 40
0.8553575842
 40
0.8983450382
 40
0.9336974957
 40
0.9616234736
 40
0.982972159
 40
1.0
 40
1.0
 40
1.0
 40
1.0
 10
5.5555883755
 20
6.8733914151
 30
0.0
 10
5.5555216951
 20
6.8735523958
 30
0.0
 10
5.5553962513
 20
6.8738706138
 30
0.0
 10
5.5552305128
 20
6.8743392623
 30
0.0
 10
5.5550946146
 20
6.8747781852
 30
0.0
 10
5.5550066274
 20
6.8751187348
 30
0.0
 10
5.5549563645
 20
6.8753637829
 30
0.0
 10
5.5549304772
 20
6.8755220896
 30
0.0
 10
5.5549148459
 20
6.8756616682
 30
0.0
 10
5.5549095593
 20
6.8757812605
 30
0.0
 10
5.5549144842
 20
6.8758800118
 30
0.0
 10
5.5549297344
 20
6.8759574182
 30
0.0
 10
5.5549553919
 20
6.8760144425
 30
0.0
 10
5.5549839345
 20
6.876038786
 30
0.0
 10
5.5549985366
 20
6.8760448352
 30
0.0
  0
SPLINE
  5
426
100
AcDbEntity
  8
0
100
AcDbSpline
 62
7
  6
CONTINUOUS
 70
0
 71
3
 72
22
 73
18
 74
0
 42
0.0000001
 43
0.0000001
 44
0.0000000001
 40
0.0
 40
0.0
 40
0.0
 40
0.0
 40
0.1491602275
 40
0.3143504823
 40
0.4833731384
 40
0.6437470639
 40
0.7169681603
 40
0.7837317252
 40
0.8428425604
 40
0.8932780601
 40
0.9342381674
 40
0.9510026992
 40
0.9652571492
 40
0.9770361591
 40
0.9864738187
 40
0.9938916558
 40
1.0
 40
1.0
 40
1.0
 40
1.0
 10
5.5283629584
 20
6.9391193855
 30
0.0
 10
5.5282802908
 20
6.9393189629
 30
0.0
 10
5.5281192589
 20
6.9397450441
 30
0.0
 10
5.5279000078
 20
6.9404100363
 30
0.0
 10
5.5277018982
 20
6.9410985545
 30
0.0
 10
5.5275623533
 20
6.9416649019
 30
0.0
 10
5.527473446
 20
6.9420907577
 30
0.0
 10
5.5274222906
 20
6.9423745643
 30
0.0
 10
5.5273854126
 20
6.9426272987
 30
0.0
 10
5.5273634527
 20
6.9428442253
 30
0.0
 10
5.5273571465
 20
6.9430009448
 30
0.0
 10
5.527361271
 20
6.9431051672
 30
0.0
 10
5.5273680202
 20
6.9431668452
 30
0.0
 10
5.5273785496
 20
6.9432172486
 30
0.0
 10
5.5273929218
 20
6.9432563635
 30
0.0
 10
5.527411421
 20
6.9432845752
 30
0.0
 10
5.5274283719
 20
6.9432959404
 30
0.0
 10
5.5274367697
 20
6.9432987216
 30
0.0
  0
LINE
  5
427
100
AcDbEntity
  8
0
100
AcDbLine
 62
7
  6
CONTINUOUS
 10
5.5115367248
 20
6.979741505
 11
5.5113973833
 21
6.9801524936
  0
LINE
  5
428
100
AcDbEntity
  8
0
100
AcDbLine
 62
7
  6
CONTINUOUS
 10
5.5113973833
 20
6.9801524936
 11
5.5104571075
 21
6.9842274042
  0
LINE
  5
429
100
AcDbEntity
  8
0
100
AcDbLine
 62
7
  6
CONTINUOUS
 10
5.5104571075
 20
6.9842274042
 11
5.5104041413
 21
6.9848510418
  0
LINE
  5
42A
100
AcDbEntity
  8
0
100
AcDbLine
 62
7
  6
CONTINUOUS
 10
5.6334851968
 20
6.7420209063
 11
5.6327956328
 21
6.7427581695
  0
LINE
  5
42B
100
AcDbEntity
  8
0
100
AcDbLine
 62
7
  6
CONTINUOUS
 10
5.6327956328
 20
6.7427581695
 11
5.6309131293
 21
6.746057057
  0
SPLINE
  5
42C
100
AcDbEntity
  8
0
100
AcDbSpline
 62
7
  6
CONTINUOUS
 70
0
 71
3
 72
25
 73
21
 74
0
 42
0.0000001
 43
0.0000001
 44
0.0000000001
 40
0.0
 40
0.0
 40
0.0
 40
0.0
 40
0.0413087032
 40
0.0898676697
 40
0.1532825554
 40
0.2286787241
 40
0.3134254697
 40
0.3585034144
 40
0.404902183
 40
0.4522161142
 40
0.5000000013
 40
0.5477838881
 40
0.5950978185
 40
0.6414965863
 40
0.686574531
 40
0.7713212763
 40
0.8467174449
 40
0.9101323308
 40
0.9586912964
 40
1.0
 40
1.0
 40
1.0
 40
1.0
 10
5.6206444776
 20
5.6809757357
 30
0.0
 10
5.6216804326
 20
5.6830901008
 30
0.0
 10
5.6238811559
 20
5.6877162529
 30
0.0
 10
5.6274153726
 20
5.6957078257
 30
0.0
 10
5.6313606123
 20
5.7056363469
 30
0.0
 10
5.6354240407
 20
5.7177218138
 30
0.0
 10
5.6383503388
 20
5.7290622102
 30
0.0
 10
5.6402079781
 20
5.738936824
 30
0.0
 10
5.6412841522
 20
5.7467777737
 30
0.0
 10
5.6419561051
 20
5.7548188101
 30
0.0
 10
5.6421846716
 20
5.7629639249
 30
0.0
 10
5.6419561051
 20
5.7711090397
 30
0.0
 10
5.6412841522
 20
5.779150076
 30
0.0
 10
5.6402079781
 20
5.7869910256
 30
0.0
 10
5.6383503388
 20
5.7968656393
 30
0.0
 10
5.6354240407
 20
5.8082060357
 30
0.0
 10
5.6313606123
 20
5.8202915025
 30
0.0
 10
5.6274153726
 20
5.8302200237
 30
0.0
 10
5.6238811559
 20
5.8382115965
 30
0.0
 10
5.6216804326
 20
5.8428377486
 30
0.0
 10
5.6206444776
 20
5.8449521137
 30
0.0
  0
SPLINE
  5
42D
100
AcDbEntity
  8
0
100
AcDbSpline
 62
7
  6
CONTINUOUS
 70
0
 71
3
 72
23
 73
19
 74
0
 42
0.0000001
 43
0.0000001
 44
0.0000000001
 40
0.0
 40
0.0
 40
0.0
 40
0.0
 40
0.05142818
 40
0.104984554
 40
0.1604704053
 40
0.2177121725
 40
0.2765624011
 40
0.3368993014
 40
0.3986187102
 40
0.4616269325
 40
0.5258341817
 40
0.5911484343
 40
0.6574705538
 40
0.7246910618
 40
0.7926889037
 40
0.861332622
 40
0.9304829709
 40
1.0
 40
1.0
 40
1.0
 40
1.0
 10
5.7011975618
 20
5.3937255033
 30
0.0
 10
5.7009265594
 20
5.3952108783
 30
0.0
 10
5.7003001559
 20
5.3982297206
 30
0.0
 10
5.6992220798
 20
5.4028161135
 30
0.0
 10
5.6980572779
 20
5.4075571177
 30
0.0
 10
5.6968667682
 20
5.4124518469
 30
0.0
 10
5.6957033124
 20
5.417499546
 30
0.0
 10
5.6946138937
 20
5.4226983937
 30
0.0
 10
5.6936407055
 20
5.4280446819
 30
0.0
 10
5.6928225719
 20
5.4335321224
 30
0.0
 10
5.6921954108
 20
5.4391511989
 30
0.0
 10
5.691792437
 20
5.4448886587
 30
0.0
 10
5.6916439836
 20
5.4507271608
 30
0.0
 10
5.6917771963
 20
5.4566451482
 30
0.0
 10
5.6922150018
 20
5.4626170603
 30
0.0
 10
5.6929766598
 20
5.4686137536
 30
0.0
 10
5.6940735732
 20
5.4746036967
 30
0.0
 10
5.6950355212
 20
5.4785623116
 30
0.0
 10
5.6955734347
 20
5.4805311203
 30
0.0
  0
LINE
  5
42E
100
AcDbEntity
  8
0
100
AcDbLine
 62
7
  6
CONTINUOUS
 10
5.690605027
 20
5.4821013556
 11
5.6954612102
 21
5.4805460838
  0
LINE
  5
42F
100
AcDbEntity
  8
0
100
AcDbLine
 62
7
  6
CONTINUOUS
 10
5.8853295974
 20
5.4821013556
 11
5.8804734372
 21
5.4805460005
  0
SPLINE
  5
430
100
AcDbEntity
  8
0
100
AcDbSpline
 62
7
  6
CONTINUOUS
 70
0
 71
3
 72
11
 73
7
 74
0
 42
0.0000001
 43
0.0000001
 44
0.0000000001
 40
0.0
 40
0.0
 40
0.0
 40
0.0
 40
0.4682995271
 40
0.5969433178
 40
0.7289561542
 40
1.0
 40
1.0
 40
1.0
 40
1.0
 10
5.8786714767
 20
5.3946746897
 30
0.0
 10
5.8781635549
 20
5.394278789
 30
0.0
 10
5.8773766259
 20
5.3939440515
 30
0.0
 10
5.876393478
 20
5.3937549803
 30
0.0
 10
5.8756651861
 20
5.3936786211
 30
0.0
 10
5.8751080669
 20
5.3936896778
 30
0.0
 10
5.8747370626
 20
5.3937255033
 30
0.0
  0
SPLINE
  5
431
100
AcDbEntity
  8
0
100
AcDbSpline
 62
7
  6
CONTINUOUS
 70
0
 71
3
 72
11
 73
7
 74
0
 42
0.0000001
 43
0.0000001
 44
0.0000000001
 40
0.0
 40
0.0
 40
0.0
 40
0.0
 40
0.468299527
 40
0.5969433178
 40
0.7289561541
 40
1.0
 40
1.0
 40
1.0
 40
1.0
 10
5.6972631477
 20
5.3946746897
 30
0.0
 10
5.6977710696
 20
5.394278789
 30
0.0
 10
5.6985579986
 20
5.3939440515
 30
0.0
 10
5.6995411464
 20
5.3937549803
 30
0.0
 10
5.7002694384
 20
5.3936786211
 30
0.0
 10
5.7008265575
 20
5.3936896778
 30
0.0
 10
5.7011975618
 20
5.3937255033
 30
0.0
  0
LINE
  5
432
100
AcDbEntity
  8
0
100
AcDbLine
 62
7
  6
CONTINUOUS
 10
5.7272088848
 20
5.4803277372
 11
5.7256362864
 21
5.4805310709
  0
SPLINE
  5
433
100
AcDbEntity
  8
0
100
AcDbSpline
 62
7
  6
CONTINUOUS
 70
0
 71
3
 72
14
 73
10
 74
0
 42
0.0000001
 43
0.0000001
 44
0.0000000001
 40
0.0
 40
0.0
 40
0.0
 40
0.0
 40
0.1027241274
 40
0.2093250172
 40
0.3227463093
 40
0.4445035614
 40
0.5746830254
 40
0.7121860687
 40
1.0
 40
1.0
 40
1.0
 40
1.0
 10
5.7301673122
 20
5.3972952804
 30
0.0
 10
5.7301673122
 20
5.3970608476
 30
0.0
 10
5.7300984745
 20
5.3965806618
 30
0.0
 10
5.7297974846
 20
5.3958997546
 30
0.0
 10
5.7293149704
 20
5.3952782311
 30
0.0
 10
5.7286727166
 20
5.394738256
 30
0.0
 10
5.7278956931
 20
5.3942974682
 30
0.0
 10
5.7267032427
 20
5.3938561686
 30
0.0
 10
5.7257241495
 20
5.3937255033
 30
0.0
 10
5.7250673122
 20
5.3937255033
 30
0.0
  0
SPLINE
  5
434
100
AcDbEntity
  8
0
100
AcDbSpline
 62
7
  6
CONTINUOUS
 70
0
 71
3
 72
16
 73
12
 74
0
 42
0.0000001
 43
0.0000001
 44
0.0000000001
 40
0.0
 40
0.0
 40
0.0
 40
0.0
 40
0.0470218519
 40
0.0947828436
 40
0.194839987
 40
0.3044462869
 40
0.4253976682
 40
0.5575351742
 40
0.6992248731
 40
0.8478095145
 40
1.0
 40
1.0
 40
1.0
 40
1.0
 10
5.7301673122
 20
5.3789957437
 30
0.0
 10
5.7301673122
 20
5.3788930851
 30
0.0
 10
5.7301505783
 20
5.3786857698
 30
0.0
 10
5.7300497318
 20
5.3782709805
 30
0.0
 10
5.729791634
 20
5.3777623597
 30
0.0
 10
5.7293070555
 20
5.3772190502
 30
0.0
 10
5.7286649421
 20
5.376747571
 30
0.0
 10
5.7278895956
 20
5.3763630124
 30
0.0
 10
5.7270093915
 20
5.3760780532
 30
0.0
 10
5.7260569447
 20
5.375902815
 30
0.0
 10
5.7253995761
 20
5.3758635443
 30
0.0
 10
5.7250673122
 20
5.3758635443
 30
0.0
  0
SPLINE
  5
435
100
AcDbEntity
  8
0
100
AcDbSpline
 62
7
  6
CONTINUOUS
 70
0
 71
3
 72
16
 73
12
 74
0
 42
0.0000001
 43
0.0000001
 44
0.0000000001
 40
0.0
 40
0.0
 40
0.0
 40
0.0
 40
0.0470218519
 40
0.0947828436
 40
0.194839987
 40
0.3044462869
 40
0.4253976682
 40
0.5575351742
 40
0.6992248731
 40
0.8478095145
 40
1.0
 40
1.0
 40
1.0
 40
1.0
 10
5.8457673122
 20
5.3789957437
 30
0.0
 10
5.8457673122
 20
5.3788930851
 30
0.0
 10
5.8457840461
 20
5.3786857698
 30
0.0
 10
5.8458848926
 20
5.3782709805
 30
0.0
 10
5.8461429904
 20
5.3777623597
 30
0.0
 10
5.846627569
 20
5.3772190502
 30
0.0
 10
5.8472696824
 20
5.376747571
 30
0.0
 10
5.8480450289
 20
5.3763630124
 30
0.0
 10
5.8489252329
 20
5.3760780532
 30
0.0
 10
5.8498776798
 20
5.375902815
 30
0.0
 10
5.8505350483
 20
5.3758635443
 30
0.0
 10
5.8508673122
 20
5.3758635443
 30
0.0
  0
SPLINE
  5
436
100
AcDbEntity
  8
0
100
AcDbSpline
 62
7
  6
CONTINUOUS
 70
0
 71
3
 72
14
 73
10
 74
0
 42
0.0000001
 43
0.0000001
 44
0.0000000001
 40
0.0
 40
0.0
 40
0.0
 40
0.0
 40
0.1027241274
 40
0.2093250172
 40
0.3227463093
 40
0.4445035614
 40
0.5746830254
 40
0.7121860687
 40
1.0
 40
1.0
 40
1.0
 40
1.0
 10
5.8457673122
 20
5.3972952804
 30
0.0
 10
5.8457673122
 20
5.3970608476
 30
0.0
 10
5.8458361499
 20
5.3965806618
 30
0.0
 10
5.8461371398
 20
5.3958997546
 30
0.0
 10
5.8466196541
 20
5.3952782311
 30
0.0
 10
5.8472619079
 20
5.394738256
 30
0.0
 10
5.8480389313
 20
5.3942974682
 30
0.0
 10
5.8492313817
 20
5.3938561686
 30
0.0
 10
5.8502104749
 20
5.3937255033
 30
0.0
 10
5.8508673122
 20
5.3937255033
 30
0.0
  0
LINE
  5
437
100
AcDbEntity
  8
0
100
AcDbLine
 62
7
  6
CONTINUOUS
 10
5.8502983381
 20
5.4805310709
 11
5.8487257361
 21
5.4803277514
  0
SPLINE
  5
438
100
AcDbEntity
  8
0
100
AcDbSpline
 62
7
  6
CONTINUOUS
 70
0
 71
3
 72
27
 73
23
 74
0
 42
0.0000001
 43
0.0000001
 44
0.0000000001
 40
0.0
 40
0.0
 40
0.0
 40
0.0
 40
0.0506043287
 40
0.1033492061
 40
0.1581664184
 40
0.2149799075
 40
0.273701897
 40
0.3342277793
 40
0.3964298146
 40
0.4601503161
 40
0.525199123
 40
0.5913574275
 40
0.6247931327
 40
0.6584190264
 40
0.6922067749
 40
0.7261302334
 40
0.7601655696
 40
0.7942911015
 40
0.8627136844
 40
0.8970079482
 40
0.9313314588
 40
1.0
 40
1.0
 40
1.0
 40
1.0
 10
5.8747370626
 20
5.3937255033
 30
0.0
 10
5.8743061819
 20
5.391503961
 30
0.0
 10
5.8733675299
 20
5.3869779041
 30
0.0
 10
5.8716966833
 20
5.3801034342
 30
0.0
 10
5.8696593887
 20
5.3730380431
 30
0.0
 10
5.8671786622
 20
5.3658313192
 30
0.0
 10
5.8641746402
 20
5.3585479159
 30
0.0
 10
5.8605667297
 20
5.3512717526
 30
0.0
 10
5.8562788872
 20
5.3441096893
 30
0.0
 10
5.8512480322
 20
5.3371930839
 30
0.0
 10
5.8454382651
 20
5.3306742767
 30
0.0
 10
5.8399658234
 20
5.3257242234
 30
0.0
 10
5.8352240155
 20
5.3221134153
 30
0.0
 10
5.831482561
 20
5.3195908252
 30
0.0
 10
5.8275833136
 20
5.3172768737
 30
0.0
 10
5.8235396081
 20
5.3151855674
 30
0.0
 10
5.8193675851
 20
5.3133259164
 30
0.0
 10
5.8136531236
 20
5.3111622567
 30
0.0
 10
5.8077506163
 20
5.3094896587
 30
0.0
 10
5.8017329069
 20
5.3083176567
 30
0.0
 10
5.7956488954
 20
5.3074790655
 30
0.0
 10
5.7910380565
 20
5.3072270607
 30
0.0
 10
5.7879673122
 20
5.3072269567
 30
0.0
  0
SPLINE
  5
439
100
AcDbEntity
  8
0
100
AcDbSpline
 62
7
  6
CONTINUOUS
 70
0
 71
3
 72
39
 73
35
 74
0
 42
0.0000001
 43
0.0000001
 44
0.0000000001
 40
0.0
 40
0.0
 40
0.0
 40
0.0
 40
0.0268990332
 40
0.0544914959
 40
0.0828060077
 40
0.1118532929
 40
0.1416243643
 40
0.172089363
 40
0.2031985155
 40
0.234885435
 40
0.2670724793
 40
0.2996769754
 40
0.3326172777
 40
0.3658174393
 40
0.3992100784
 40
0.4327369638
 40
0.4663481643
 40
0.4999999919
 40
0.5336517546
 40
0.56726301
 40
0.60078993
 40
0.6341825601
 40
0.6673827242
 40
0.7003230266
 40
0.7329275245
 40
0.7651145718
 40
0.7968014911
 40
0.8279106387
 40
0.8583756376
 40
0.8881467122
 40
0.9171939969
 40
0.9455085077
 40
0.9731009686
 40
1.0
 40
1.0
 40
1.0
 40
1.0
 10
5.7250673122
 20
5.3758635443
 30
0.0
 10
5.7250673199
 20
5.3741135688
 30
0.0
 10
5.7252228006
 20
5.3705665678
 30
0.0
 10
5.7259356941
 20
5.3652198432
 30
0.0
 10
5.7271619744
 20
5.3598226324
 30
0.0
 10
5.7289283483
 20
5.3544274789
 30
0.0
 10
5.7312545038
 20
5.3490953448
 30
0.0
 10
5.7341505015
 20
5.3438952692
 30
0.0
 10
5.7376143346
 20
5.3389018128
 30
0.0
 10
5.7416305504
 20
5.3341920162
 30
0.0
 10
5.7461700079
 20
5.3298418985
 30
0.0
 10
5.7511905608
 20
5.3259227709
 30
0.0
 10
5.7566392243
 20
5.3224987497
 30
0.0
 10
5.7624542019
 20
5.3196243997
 30
0.0
 10
5.7685675765
 20
5.3173440093
 30
0.0
 10
5.7749074548
 20
5.3156919022
 30
0.0
 10
5.7813992248
 20
5.3146909346
 30
0.0
 10
5.7879673192
 20
5.3143559926
 30
0.0
 10
5.7945353911
 20
5.3146910593
 30
0.0
 10
5.8010272283
 20
5.3156916511
 30
0.0
 10
5.8073670414
 20
5.3173440622
 30
0.0
 10
5.813480438
 20
5.3196243682
 30
0.0
 10
5.8192954103
 20
5.3224987404
 30
0.0
 10
5.824744069
 20
5.3259227656
 30
0.0
 10
5.8297646239
 20
5.3298418926
 30
0.0
 10
5.8343040738
 20
5.3341920179
 30
0.0
 10
5.8383202977
 20
5.3389018077
 30
0.0
 10
5.8417841175
 20
5.3438952734
 30
0.0
 10
5.8446801156
 20
5.3490953477
 30
0.0
 10
5.8470062812
 20
5.3544274779
 30
0.0
 10
5.8487726524
 20
5.3598226327
 30
0.0
 10
5.8499989303
 20
5.3652198437
 30
0.0
 10
5.8507118207
 20
5.3705665683
 30
0.0
 10
5.8508673037
 20
5.3741135689
 30
0.0
 10
5.8508673122
 20
5.3758635443
 30
0.0
  0
SPLINE
  5
43A
100
AcDbEntity
  8
0
100
AcDbSpline
 62
7
  6
CONTINUOUS
 70
0
 71
3
 72
27
 73
23
 74
0
 42
0.0000001
 43
0.0000001
 44
0.0000000001
 40
0.0
 40
0.0
 40
0.0
 40
0.0
 40
0.0686687401
 40
0.1029923501
 40
0.1372867124
 40
0.2057094952
 40
0.2738424253
 40
0.3077660024
 40
0.3415539148
 40
0.3751798669
 40
0.4086156205
 40
0.4418320985
 40
0.474799327
 40
0.5398483688
 40
0.6035690289
 40
0.6657712626
 40
0.7262973153
 40
0.7850194733
 40
0.8418331282
 40
0.8966504999
 40
0.9493955277
 40
1.0
 40
1.0
 40
1.0
 40
1.0
 10
5.7879673122
 20
5.3072269567
 30
0.0
 10
5.7848965674
 20
5.3072270656
 30
0.0
 10
5.7802857001
 20
5.3074790639
 30
0.0
 10
5.7742017598
 20
5.3083176415
 30
0.0
 10
5.768183767
 20
5.3094897523
 30
0.0
 10
5.7608165864
 20
5.3115773304
 30
0.0
 10
5.7537497015
 20
5.3144848056
 30
0.0
 10
5.7483514301
 20
5.317276925
 30
0.0
 10
5.744451871
 20
5.3195906018
 30
0.0
 10
5.7407105999
 20
5.3221132588
 30
0.0
 10
5.7371412409
 20
5.324831713
 30
0.0
 10
5.7337530684
 20
5.3277277547
 30
0.0
 10
5.7295082816
 20
5.331783625
 30
0.0
 10
5.724686156
 20
5.3371932362
 30
0.0
 10
5.7196558837
 20
5.3441096544
 30
0.0
 10
5.7153678545
 20
5.3512717469
 30
0.0
 10
5.7117600017
 20
5.3585479101
 30
0.0
 10
5.7087559695
 20
5.3658313172
 30
0.0
 10
5.7062752434
 20
5.3730380411
 30
0.0
 10
5.7042379486
 20
5.380103434
 30
0.0
 10
5.7025670993
 20
5.3869779042
 30
0.0
 10
5.7016284433
 20
5.3915039609
 30
0.0
 10
5.7011975618
 20
5.3937255033
 30
0.0
  0
SPLINE
  5
43B
100
AcDbEntity
  8
0
100
AcDbSpline
 62
7
  6
CONTINUOUS
 70
0
 71
3
 72
23
 73
19
 74
0
 42
0.0000001
 43
0.0000001
 44
0.0000000001
 40
0.0
 40
0.0
 40
0.0
 40
0.0
 40
0.0684312552
 40
0.1365690345
 40
0.2043020043
 40
0.2715167423
 40
0.33810417
 40
0.4039608397
 40
0.4689900717
 40
0.5331006999
 40
0.5962042218
 40
0.6582100911
 40
0.7190190559
 40
0.7785160538
 40
0.8365618066
 40
0.8929789939
 40
0.9475495562
 40
1.0
 40
1.0
 40
1.0
 40
1.0
 10
5.8853295974
 20
5.4821013556
 30
0.0
 10
5.8858782684
 20
5.4801479382
 30
0.0
 10
5.8868597767
 20
5.4762165981
 30
0.0
 10
5.8879873544
 20
5.4702616815
 30
0.0
 10
5.8887736367
 20
5.4642885219
 30
0.0
 10
5.8892292379
 20
5.4583274691
 30
0.0
 10
5.8893698835
 20
5.4524065822
 30
0.0
 10
5.8892158502
 20
5.4465511477
 30
0.0
 10
5.8887914943
 20
5.4407830274
 30
0.0
 10
5.8881247469
 20
5.4351203974
 30
0.0
 10
5.8872467763
 20
5.4295777357
 30
0.0
 10
5.8861919354
 20
5.4241660476
 30
0.0
 10
5.8849980093
 20
5.4188932608
 30
0.0
 10
5.8837070275
 20
5.4137647025
 30
0.0
 10
5.8823663973
 20
5.4087838995
 30
0.0
 10
5.8810315271
 20
5.4039530255
 30
0.0
 10
5.8797672703
 20
5.3992748515
 30
0.0
 10
5.8790082625
 20
5.396192958
 30
0.0
 10
5.8786714767
 20
5.3946746897
 30
0.0
  0
SPLINE
  5
43C
100
AcDbEntity
  8
0
100
AcDbSpline
 62
7
  6
CONTINUOUS
 70
0
 71
3
 72
26
 73
22
 74
0
 42
0.0000001
 43
0.0000001
 44
0.0000000001
 40
0.0
 40
0.0
 40
0.0
 40
0.0
 40
0.05180995
 40
0.1055486087
 40
0.2185105667
 40
0.2776187935
 40
0.3383461514
 40
0.4005776003
 40
0.4641712401
 40
0.5289565532
 40
0.594738303
 40
0.6279505317
 40
0.6613344246
 40
0.694864424
 40
0.7285174409
 40
0.7622721914
 40
0.7961089082
 40
0.8639372782
 40
0.8979283461
 40
0.931946259
 40
1.0
 40
1.0
 40
1.0
 40
1.0
 10
5.8786714767
 20
5.3946746897
 30
0.0
 10
5.8781537186
 20
5.3923403652
 30
0.0
 10
5.877035182
 20
5.3875983245
 30
0.0
 10
5.8743881245
 20
5.3778666253
 30
0.0
 10
5.8710145002
 20
5.3679849051
 30
0.0
 10
5.8666874246
 20
5.3581443519
 30
0.0
 10
5.8627968671
 20
5.3506886315
 30
0.0
 10
5.8582386424
 20
5.3433737265
 30
0.0
 10
5.8529529687
 20
5.3363266461
 30
0.0
 10
5.8469052328
 20
5.3296949273
 30
0.0
 10
5.8412461588
 20
5.3246601789
 30
0.0
 10
5.8363607692
 20
5.3209874321
 30
0.0
 10
5.8325148445
 20
5.3184213184
 30
0.0
 10
5.8285124713
 20
5.31606654
 30
0.0
 10
5.8243667016
 20
5.3139367227
 30
0.0
 10
5.8200928396
 20
5.3120416567
 30
0.0
 10
5.8142427118
 20
5.309835583
 30
0.0
 10
5.8082031949
 20
5.3081278734
 30
0.0
 10
5.8020469608
 20
5.3069306288
 30
0.0
 10
5.7958240071
 20
5.3060734273
 30
0.0
 10
5.7911080264
 20
5.3058158764
 30
0.0
 10
5.7879673122
 20
5.3058157822
 30
0.0
  0
LINE
  5
43D
100
AcDbEntity
  8
0
100
AcDbLine
 62
7
  6
CONTINUOUS
 10
5.6475984842
 20
6.7081754775
 11
5.6471254862
 21
6.7087926846
  0
LINE
  5
43E
100
AcDbEntity
  8
0
100
AcDbLine
 62
7
  6
CONTINUOUS
 10
5.6471254862
 20
6.7087926846
 11
5.6449950382
 21
6.7121816965
  0
LINE
  5
43F
100
AcDbEntity
  8
0
100
AcDbLine
 62
7
  6
CONTINUOUS
 10
5.6449950382
 20
6.7121816965
 11
5.6447564708
 21
6.7126362718
  0
LINE
  5
440
100
AcDbEntity
  8
0
100
AcDbLine
 62
7
  6
CONTINUOUS
 10
5.514192939
 20
7.0011022496
 11
5.5139964919
 21
7.0014141209
  0
LINE
  5
441
100
AcDbEntity
  8
0
100
AcDbLine
 62
7
  6
CONTINUOUS
 10
5.5528604048
 20
6.828750392
 11
5.5526891072
 21
6.8295345224
  0
SPLINE
  5
442
100
AcDbEntity
  8
0
100
AcDbSpline
 62
7
  6
CONTINUOUS
 70
0
 71
3
 72
17
 73
13
 74
0
 42
0.0000001
 43
0.0000001
 44
0.0000000001
 40
0.0
 40
0.0
 40
0.0
 40
0.0
 40
0.0191663046
 40
0.0413193287
 40
0.0685026424
 40
0.101780489
 40
0.1882682767
 40
0.3020337891
 40
0.4422136919
 40
0.6069759192
 40
0.7939001618
 40
1.0
 40
1.0
 40
1.0
 40
1.0
 10
5.536432996
 20
6.9478577083
 30
0.0
 10
5.5364244524
 20
6.9478549033
 30
0.0
 10
5.5364044821
 20
6.9478531608
 30
0.0
 10
5.5363732415
 20
6.9478625398
 30
0.0
 10
5.5363396885
 20
6.9478824122
 30
0.0
 10
5.5362866452
 20
6.9479267578
 30
0.0
 10
5.5362153082
 20
6.9480106774
 30
0.0
 10
5.5361255081
 20
6.9481428591
 30
0.0
 10
5.5360270085
 20
6.9483130047
 30
0.0
 10
5.5359215103
 20
6.9485183099
 30
0.0
 10
5.5358109079
 20
6.948755545
 30
0.0
 10
5.5357381881
 20
6.9489250248
 30
0.0
 10
5.5357011842
 20
6.94901436
 30
0.0
  0
SPLINE
  5
443
100
AcDbEntity
  8
0
100
AcDbSpline
 62
7
  6
CONTINUOUS
 70
0
 71
3
 72
19
 73
15
 74
0
 42
0.0000001
 43
0.0000001
 44
0.0000000001
 40
0.0
 40
0.0
 40
0.0
 40
0.0
 40
0.1879701433
 40
0.3688327753
 40
0.5358586814
 40
0.6829502189
 40
0.7473897032
 40
0.8050300412
 40
0.8554531551
 40
0.8983700343
 40
0.9336763448
 40
0.9615863658
 40
0.9829492163
 40
1.0
 40
1.0
 40
1.0
 40
1.0
 10
5.537476922
 20
6.8658894054
 30
0.0
 10
5.5374101081
 20
6.8660507083
 30
0.0
 10
5.5372846057
 20
6.8663695688
 30
0.0
 10
5.5371193506
 20
6.8668391865
 30
0.0
 10
5.5369844496
 20
6.8672788397
 30
0.0
 10
5.5368976045
 20
6.8676197893
 30
0.0
 10
5.5368483489
 20
6.8678649592
 30
0.0
 10
5.5368231786
 20
6.8680232499
 30
0.0
 10
5.5368082213
 20
6.8681627677
 30
0.0
 10
5.5368035355
 20
6.8682822772
 30
0.0
 10
5.5368089672
 20
6.8683809435
 30
0.0
 10
5.5368246176
 20
6.8684582795
 30
0.0
 10
5.536850559
 20
6.8685152302
 30
0.0
 10
5.536879174
 20
6.8685395482
 30
0.0
 10
5.5368938052
 20
6.8685456103
 30
0.0
  0
SPLINE
  5
444
100
AcDbEntity
  8
0
100
AcDbSpline
 62
7
  6
CONTINUOUS
 70
0
 71
3
 72
20
 73
16
 74
0
 42
0.0000001
 43
0.0000001
 44
0.0000000001
 40
0.0
 40
0.0
 40
0.0
 40
0.0
 40
0.1358735083
 40
0.2951466899
 40
0.4641797325
 40
0.6285961295
 40
0.7745919222
 40
0.8368163334
 40
0.8901061825
 40
0.9334180015
 40
0.9510905824
 40
0.9660283945
 40
0.9782235072
 40
0.9877532915
 40
1.0
 40
1.0
 40
1.0
 40
1.0
 10
5.5220934388
 20
6.9030284186
 30
0.0
 10
5.5220126934
 20
6.9032233551
 30
0.0
 10
5.521854183
 20
6.9036537595
 30
0.0
 10
5.521635824
 20
6.904340855
 30
0.0
 10
5.5214311863
 20
6.9050783207
 30
0.0
 10
5.5212571522
 20
6.9058023583
 30
0.0
 10
5.5211433352
 20
6.9063699606
 30
0.0
 10
5.5210802592
 20
6.9067711956
 30
0.0
 10
5.5210507403
 20
6.9070161286
 30
0.0
 10
5.5210381149
 20
6.9071932459
 30
0.0
 10
5.5210374559
 20
6.907311259
 30
0.0
 10
5.5210409196
 20
6.9073806393
 30
0.0
 10
5.5210487116
 20
6.9074376036
 30
0.0
 10
5.5210613637
 20
6.9074874761
 30
0.0
 10
5.5210812663
 20
6.9075212589
 30
0.0
 10
5.5210991889
 20
6.9075276197
 30
0.0
  0
LINE
  5
445
100
AcDbEntity
  8
0
100
AcDbLine
 62
7
  6
CONTINUOUS
 10
5.579240465
 20
6.7909711483
 11
5.5792112222
 21
6.7911025652
  0
LINE
  5
446
100
AcDbEntity
  8
0
100
AcDbLine
 62
7
  6
CONTINUOUS
 10
5.5667869477
 20
6.8210366002
 11
5.5665424055
 21
6.8221386523
  0
SPLINE
  5
447
100
AcDbEntity
  8
0
100
AcDbSpline
 62
7
  6
CONTINUOUS
 70
0
 71
3
 72
19
 73
15
 74
0
 42
0.0000001
 43
0.0000001
 44
0.0000000001
 40
0.0
 40
0.0
 40
0.0
 40
0.0
 40
0.0170211151
 40
0.0383670633
 40
0.0662988297
 40
0.10166505
 40
0.1446722782
 40
0.1952045026
 40
0.2529571481
 40
0.3174982991
 40
0.4647114151
 40
0.6316951745
 40
0.8123470249
 40
1.0
 40
1.0
 40
1.0
 40
1.0
 10
5.5668080842
 20
6.8751410312
 30
0.0
 10
5.5667934895
 20
6.8751349865
 30
0.0
 10
5.566756101
 20
6.8751320367
 30
0.0
 10
5.5666976714
 20
6.8751542793
 30
0.0
 10
5.5666322035
 20
6.8751983115
 30
0.0
 10
5.5665589552
 20
6.8752647578
 30
0.0
 10
5.5664782033
 20
6.8753531758
 30
0.0
 10
5.5663906473
 20
6.8754630482
 30
0.0
 10
5.5662971135
 20
6.8755934132
 30
0.0
 10
5.5661595449
 20
6.8758023702
 30
0.0
 10
5.5659811847
 20
6.8761055013
 30
0.0
 10
5.5657671732
 20
6.876511987
 30
0.0
 10
5.5655532082
 20
6.876960466
 30
0.0
 10
5.5654169918
 20
6.877274055
 30
0.0
 10
5.5653503448
 20
6.8774349551
 30
0.0
  0
SPLINE
  5
448
100
AcDbEntity
  8
0
100
AcDbSpline
 62
7
  6
CONTINUOUS
 70
0
 71
3
 72
19
 73
15
 74
0
 42
0.0000001
 43
0.0000001
 44
0.0000000001
 40
0.0
 40
0.0
 40
0.0
 40
0.0
 40
0.1878340975
 40
0.3686085486
 40
0.5356210753
 40
0.6827698419
 40
0.7472545648
 40
0.8049435268
 40
0.8554125785
 40
0.8983658158
 40
0.9336940872
 40
0.961609228
 40
0.9829614802
 40
1.0
 40
1.0
 40
1.0
 40
1.0
 10
5.5466367326
 20
6.8696835232
 30
0.0
 10
5.5465699954
 20
6.8698446411
 30
0.0
 10
5.5464445114
 20
6.8701631255
 30
0.0
 10
5.5462789123
 20
6.8706321601
 30
0.0
 10
5.5461433413
 20
6.8710713562
 30
0.0
 10
5.5460557436
 20
6.8714120407
 30
0.0
 10
5.5460058333
 20
6.8716571127
 30
0.0
 10
5.5459802009
 20
6.8718153915
 30
0.0
 10
5.5459648119
 20
6.8719549245
 30
0.0
 10
5.5459597438
 20
6.8720744641
 30
0.0
 10
5.545964856
 20
6.8721731652
 30
0.0
 10
5.5459802568
 20
6.8722505323
 30
0.0
 10
5.5460060275
 20
6.8723075217
 30
0.0
 10
5.5460346006
 20
6.8723318503
 30
0.0
 10
5.5460492153
 20
6.872337905
 30
0.0
  0
SPLINE
  5
449
100
AcDbEntity
  8
0
100
AcDbSpline
 62
7
  6
CONTINUOUS
 70
0
 71
3
 72
22
 73
18
 74
0
 42
0.0000001
 43
0.0000001
 44
0.0000000001
 40
0.0
 40
0.0
 40
0.0
 40
0.0
 40
0.1491234877
 40
0.3142756855
 40
0.4832253741
 40
0.6435032717
 40
0.7166843931
 40
0.7834251008
 40
0.842538082
 40
0.8930060148
 40
0.9340297329
 40
0.9508361199
 40
0.965137122
 40
0.9769643001
 40
0.9864462637
 40
0.9938939071
 40
1.0
 40
1.0
 40
1.0
 40
1.0
 10
5.5264865172
 20
6.9183304459
 30
0.0
 10
5.5264038052
 20
6.9185301304
 30
0.0
 10
5.5262428154
 20
6.9189564977
 30
0.0
 10
5.5260238866
 20
6.9196219496
 30
0.0
 10
5.5258262537
 20
6.9203108771
 30
0.0
 10
5.5256871098
 20
6.9208774802
 30
0.0
 10
5.5255984296
 20
6.9213034955
 30
0.0
 10
5.5255473609
 20
6.9215874572
 30
0.0
 10
5.5255104788
 20
6.921840409
 30
0.0
 10
5.5254884175
 20
6.9220576389
 30
0.0
 10
5.525481946
 20
6.92221467
 30
0.0
 10
5.525485875
 20
6.9223192008
 30
0.0
 10
5.5254924698
 20
6.9223811419
 30
0.0
 10
5.5255028267
 20
6.9224318243
 30
0.0
 10
5.5255170084
 20
6.9224712269
 30
0.0
 10
5.525535265
 20
6.9224997284
 30
0.0
 10
5.5255520677
 20
6.922511396
 30
0.0
 10
5.5255604249
 20
6.9225143084
 30
0.0
  0
LINE
  5
44A
100
AcDbEntity
  8
0
100
AcDbLine
 62
7
  6
CONTINUOUS
 10
5.5140329989
 20
6.9483958975
 11
5.5138940601
 21
6.9488063569
  0
LINE
  5
44B
100
AcDbEntity
  8
0
100
AcDbLine
 62
7
  6
CONTINUOUS
 10
5.5138940601
 20
6.9488063569
 11
5.5129536214
 21
6.9528857564
  0
LINE
  5
44C
100
AcDbEntity
  8
0
100
AcDbLine
 62
7
  6
CONTINUOUS
 10
5.5129536214
 20
6.9528857564
 11
5.5128987147
 21
6.9535136054
  0
LINE
  5
44D
100
AcDbEntity
  8
0
100
AcDbLine
 62
7
  6
CONTINUOUS
 10
5.5971736204
 20
6.8024422254
 11
5.5962885642
 21
6.8034025208
  0
LINE
  5
44E
100
AcDbEntity
  8
0
100
AcDbLine
 62
7
  6
CONTINUOUS
 10
5.5962885642
 20
6.8034025208
 11
5.5949995049
 21
6.8058555501
  0
LINE
  5
44F
100
AcDbEntity
  8
0
100
AcDbLine
 62
7
  6
CONTINUOUS
 10
5.6193948039
 20
6.7492330414
 11
5.6187338153
 21
6.7499837305
  0
LINE
  5
450
100
AcDbEntity
  8
0
100
AcDbLine
 62
7
  6
CONTINUOUS
 10
5.6187338153
 20
6.7499837305
 11
5.616704196
 21
6.7534557886
  0
LINE
  5
451
100
AcDbEntity
  8
0
100
AcDbLine
 62
7
  6
CONTINUOUS
 10
5.616704196
 20
6.7534557886
 11
5.6166225788
 21
6.753815224
  0
SPLINE
  5
452
100
AcDbEntity
  8
0
100
AcDbSpline
 62
7
  6
CONTINUOUS
 70
0
 71
3
 72
17
 73
13
 74
0
 42
0.0000001
 43
0.0000001
 44
0.0000000001
 40
0.0
 40
0.0
 40
0.0
 40
0.0
 40
0.2060998339
 40
0.3930240551
 40
0.5577862787
 40
0.6979661929
 40
0.8117317182
 40
0.8982195066
 40
0.931497356
 40
0.9586806705
 40
0.9808336955
 40
1.0
 40
1.0
 40
1.0
 40
1.0
 10
5.5949995049
 20
6.8058555501
 30
0.0
 10
5.594962501
 20
6.8059448853
 30
0.0
 10
5.5948940814
 20
6.8061161462
 30
0.0
 10
5.5948045386
 20
6.8063621045
 30
0.0
 10
5.5947339643
 20
6.8065818757
 30
0.0
 10
5.594683303
 20
6.8067718365
 30
0.0
 10
5.5946533347
 20
6.8069288014
 30
0.0
 10
5.5946444374
 20
6.8070385843
 30
0.0
 10
5.5946505876
 20
6.8071074487
 30
0.0
 10
5.5946602613
 20
6.8071452262
 30
0.0
 10
5.5946757197
 20
6.8071739486
 30
0.0
 10
5.594691073
 20
6.8071868376
 30
0.0
 10
5.5946990977
 20
6.8071908954
 30
0.0
  0
SPLINE
  5
453
100
AcDbEntity
  8
0
100
AcDbSpline
 62
7
  6
CONTINUOUS
 70
0
 71
3
 72
19
 73
15
 74
0
 42
0.0000001
 43
0.0000001
 44
0.0000000001
 40
0.0
 40
0.0
 40
0.0
 40
0.0
 40
0.1876529645
 40
0.3683048025
 40
0.535288577
 40
0.6825016962
 40
0.7470428505
 40
0.8047954976
 40
0.8553277214
 40
0.8983349496
 40
0.9337011718
 40
0.961632939
 40
0.9829788851
 40
1.0
 40
1.0
 40
1.0
 40
1.0
 10
5.5653503448
 20
6.8774349551
 30
0.0
 10
5.5652836978
 20
6.8775958552
 30
0.0
 10
5.5651582764
 20
6.8779139156
 30
0.0
 10
5.56499245
 20
6.8783823343
 30
0.0
 10
5.5648563502
 20
6.8788210921
 30
0.0
 10
5.5647681238
 20
6.8791615578
 30
0.0
 10
5.5647176446
 20
6.8794065884
 30
0.0
 10
5.564691601
 20
6.8795649089
 30
0.0
 10
5.5646758209
 20
6.8797045119
 30
0.0
 10
5.5646704002
 20
6.879824133
 30
0.0
 10
5.5646752099
 20
6.879922912
 30
0.0
 10
5.5646903672
 20
6.8800003402
 30
0.0
 10
5.5647159553
 20
6.8800573841
 30
0.0
 10
5.5647444788
 20
6.8800817359
 30
0.0
 10
5.5647590731
 20
6.8800877817
 30
0.0
  0
SPLINE
  5
454
100
AcDbEntity
  8
0
100
AcDbSpline
 62
7
  6
CONTINUOUS
 70
0
 71
3
 72
21
 73
17
 74
0
 42
0.0000001
 43
0.0000001
 44
0.0000000001
 40
0.0
 40
0.0
 40
0.0
 40
0.0
 40
0.1571675748
 40
0.3258388204
 40
0.4947458422
 40
0.6525989118
 40
0.7240617993
 40
0.7889493874
 40
0.8462221988
 40
0.8950055784
 40
0.9346419147
 40
0.9647943023
 40
0.9763858548
 40
0.9858277066
 40
0.9934693942
 40
1.0
 40
1.0
 40
1.0
 40
1.0
 10
5.5357011842
 20
6.94901436
 30
0.0
 10
5.5356186648
 20
6.9492135795
 30
0.0
 10
5.5354589554
 20
6.9496313395
 30
0.0
 10
5.5352430161
 20
6.9502750367
 30
0.0
 10
5.5350519801
 20
6.950927543
 30
0.0
 10
5.5349198466
 20
6.9514579062
 30
0.0
 10
5.534837549
 20
6.9518531205
 30
0.0
 10
5.5347912256
 20
6.9521147557
 30
0.0
 10
5.5347589135
 20
6.952347107
 30
0.0
 10
5.5347409583
 20
6.9525463365
 30
0.0
 10
5.534737614
 20
6.9527090577
 30
0.0
 10
5.5347469388
 20
6.9528208685
 30
0.0
 10
5.5347641548
 20
6.9528891437
 30
0.0
 10
5.5347796922
 20
6.9529255318
 30
0.0
 10
5.5347993088
 20
6.9529518938
 30
0.0
 10
5.5348164179
 20
6.9529624829
 30
0.0
 10
5.5348249311
 20
6.9529652768
 30
0.0
  0
LINE
  5
455
100
AcDbEntity
  8
0
100
AcDbLine
 62
7
  6
CONTINUOUS
 10
5.5139964919
 20
7.0014141209
 11
5.512959478
 21
7.0054052842
  0
LINE
  5
456
100
AcDbEntity
  8
0
100
AcDbLine
 62
7
  6
CONTINUOUS
 10
5.512959478
 20
7.0054052842
 11
5.5129131058
 21
7.0063026012
  0
LINE
  5
457
100
AcDbEntity
  8
0
100
AcDbLine
 62
7
  6
CONTINUOUS
 10
5.511608735
 20
6.9796276015
 11
5.5115367248
 21
6.979741505
  0
LINE
  5
458
100
AcDbEntity
  8
0
100
AcDbLine
 62
7
  6
CONTINUOUS
 10
5.5289678369
 20
6.9381654935
 11
5.5283629584
 21
6.9391193855
  0
SPLINE
  5
459
100
AcDbEntity
  8
0
100
AcDbSpline
 62
7
  6
CONTINUOUS
 70
0
 71
3
 72
19
 73
15
 74
0
 42
0.0000001
 43
0.0000001
 44
0.0000000001
 40
0.0
 40
0.0
 40
0.0
 40
0.0
 40
0.017027841
 40
0.0383765283
 40
0.0663025052
 40
0.1016549601
 40
0.1446424134
 40
0.195151375
 40
0.2528804993
 40
0.3174007612
 40
0.4645898884
 40
0.6315839329
 40
0.8122806289
 40
1.0
 40
1.0
 40
1.0
 40
1.0
 10
5.5570475478
 20
6.8710980846
 30
0.0
 10
5.5570329451
 20
6.8710920368
 30
0.0
 10
5.556995549
 20
6.8710890676
 30
0.0
 10
5.5569370841
 20
6.8711112472
 30
0.0
 10
5.556871566
 20
6.8711551983
 30
0.0
 10
5.5567982559
 20
6.8712215436
 30
0.0
 10
5.5567174295
 20
6.8713098463
 30
0.0
 10
5.5566297856
 20
6.8714195963
 30
0.0
 10
5.556536151
 20
6.8715498411
 30
0.0
 10
5.556398417
 20
6.8717586576
 30
0.0
 10
5.5562198285
 20
6.8720616788
 30
0.0
 10
5.5560055576
 20
6.8724681386
 30
0.0
 10
5.5557913679
 20
6.872916718
 30
0.0
 10
5.555655056
 20
6.8732304343
 30
0.0
 10
5.5555883755
 20
6.8733914151
 30
0.0
  0
LINE
  5
45A
100
AcDbEntity
  8
0
100
AcDbLine
 62
7
  6
CONTINUOUS
 10
5.522526777
 20
6.9023528289
 11
5.5220934388
 21
6.9030284186
  0
LINE
  5
45B
100
AcDbEntity
  8
0
100
AcDbLine
 62
7
  6
CONTINUOUS
 10
5.5851141147
 20
6.8040532931
 11
5.5842892916
 21
6.8049308344
  0
LINE
  5
45C
100
AcDbEntity
  8
0
100
AcDbLine
 62
7
  6
CONTINUOUS
 10
5.5842892916
 20
6.8049308344
 11
5.5828137921
 21
6.8076634444
  0
LINE
  5
45D
100
AcDbEntity
  8
0
100
AcDbLine
 62
7
  6
CONTINUOUS
 10
5.602452155
 20
6.7626274787
 11
5.601887391
 21
6.7633356433
  0
LINE
  5
45E
100
AcDbEntity
  8
0
100
AcDbLine
 62
7
  6
CONTINUOUS
 10
5.601887391
 20
6.7633356433
 11
5.5998321214
 21
6.7666521568
  0
LINE
  5
45F
100
AcDbEntity
  8
0
100
AcDbLine
 62
7
  6
CONTINUOUS
 10
5.5998321214
 20
6.7666521568
 11
5.5996400244
 21
6.7670413243
  0
LINE
  5
460
100
AcDbEntity
  8
0
100
AcDbLine
 62
7
  6
CONTINUOUS
 10
5.8803626401
 20
5.4805310796
 11
5.8804734372
 21
5.4805460005
  0
LINE
  5
461
100
AcDbEntity
  8
0
100
AcDbLine
 62
7
  6
CONTINUOUS
 10
5.6954612102
 20
5.4805460838
 11
5.6955713853
 21
5.4805311205
  0
SPLINE
  5
462
100
AcDbEntity
  8
0
100
AcDbSpline
 62
7
  6
CONTINUOUS
 70
0
 71
3
 72
19
 73
15
 74
0
 42
0.0000001
 43
0.0000001
 44
0.0000000001
 40
0.0
 40
0.0
 40
0.0
 40
0.0
 40
0.0170507858
 40
0.0384136358
 40
0.0663236593
 40
0.1016299767
 40
0.1445468608
 40
0.194969975
 40
0.252610313
 40
0.3170497964
 40
0.4641413439
 40
0.631167254
 40
0.8120298769
 40
1.0
 40
1.0
 40
1.0
 40
1.0
 10
5.5389428167
 20
6.863598859
 30
0.0
 10
5.5389281843
 20
6.8635927997
 30
0.0
 10
5.538890755
 20
6.8635897614
 30
0.0
 10
5.5388321415
 20
6.8636116882
 30
0.0
 10
5.5387663902
 20
6.8636553066
 30
0.0
 10
5.5386927817
 20
6.8637212333
 30
0.0
 10
5.538611589
 20
6.8638090527
 30
0.0
 10
5.5385235115
 20
6.8639182831
 30
0.0
 10
5.5384293812
 20
6.8640480096
 30
0.0
 10
5.5382908488
 20
6.8642561999
 30
0.0
 10
5.5381111699
 20
6.8645586964
 30
0.0
 10
5.5378956775
 20
6.8649649676
 30
0.0
 10
5.5376804606
 20
6.8654138904
 30
0.0
 10
5.5375437358
 20
6.8657281025
 30
0.0
 10
5.537476922
 20
6.8658894054
 30
0.0
  0
SPLINE
  5
463
100
AcDbEntity
  8
0
100
AcDbSpline
 62
7
  6
CONTINUOUS
 70
0
 71
3
 72
23
 73
19
 74
0
 42
0.0000001
 43
0.0000001
 44
0.0000000001
 40
0.0
 40
0.0
 40
0.0
 40
0.0
 40
0.0695169674
 40
0.1386670878
 40
0.2073107031
 40
0.2753084498
 40
0.3425289058
 40
0.4088509951
 40
0.4741652411
 40
0.5383724949
 40
0.6013807021
 40
0.6631000723
 40
0.7234370846
 40
0.7822875129
 40
0.8395291992
 40
0.8950152889
 40
0.9485717385
 40
1.0
 40
1.0
 40
1.0
 40
1.0
 10
5.8803620673
 20
5.4805310795
 30
0.0
 10
5.8808999724
 20
5.4785622763
 30
0.0
 10
5.881860613
 20
5.4746033669
 30
0.0
 10
5.8829581721
 20
5.4686135998
 30
0.0
 10
5.8837195777
 20
5.462616887
 30
0.0
 10
5.884157459
 20
5.4566450124
 30
0.0
 10
5.8842906394
 20
5.4507270428
 30
0.0
 10
5.8841421934
 20
5.4448885604
 30
0.0
 10
5.8837392102
 20
5.4391511178
 30
0.0
 10
5.8831120441
 20
5.4335320583
 30
0.0
 10
5.8822939078
 20
5.4280446353
 30
0.0
 10
5.8813207164
 20
5.4226983609
 30
0.0
 10
5.8802312576
 20
5.4174995288
 30
0.0
 10
5.8790678696
 20
5.4124518226
 30
0.0
 10
5.8778774443
 20
5.4075570758
 30
0.0
 10
5.8767126303
 20
5.4028160833
 30
0.0
 10
5.87563422
 20
5.3982297667
 30
0.0
 10
5.8750080639
 20
5.3952108767
 30
0.0
 10
5.8747370626
 20
5.3937255033
 30
0.0
  0
SPLINE
  5
464
100
AcDbEntity
  8
0
100
AcDbSpline
 62
7
  6
CONTINUOUS
 70
0
 71
3
 72
21
 73
17
 74
0
 42
0.0000001
 43
0.0000001
 44
0.0000000001
 40
0.0
 40
0.0
 40
0.0
 40
0.0
 40
0.0524561877
 40
0.1070324613
 40
0.1634560978
 40
0.2215074811
 40
0.2810108474
 40
0.3418263754
 40
0.4038388313
 40
0.4669490802
 40
0.5310665438
 40
0.5961026963
 40
0.6619663767
 40
0.7285608965
 40
0.8634728021
 40
1.0
 40
1.0
 40
1.0
 40
1.0
 10
5.6972631477
 20
5.3946746897
 30
0.0
 10
5.6969263615
 20
5.3961929626
 30
0.0
 10
5.6961673274
 20
5.3992748511
 30
0.0
 10
5.6949031045
 20
5.4039530489
 30
0.0
 10
5.6935681742
 20
5.4087838997
 30
0.0
 10
5.6922276143
 20
5.4137647187
 30
0.0
 10
5.6909366142
 20
5.4188932585
 30
0.0
 10
5.6897426915
 20
5.4241660488
 30
0.0
 10
5.6886878473
 20
5.4295777386
 30
0.0
 10
5.6878098771
 20
5.4351203977
 30
0.0
 10
5.6871431317
 20
5.4407830358
 30
0.0
 10
5.6867187666
 20
5.4465511241
 30
0.0
 10
5.6865647704
 20
5.4524066783
 30
0.0
 10
5.686752906
 20
5.4603340875
 30
0.0
 10
5.6877845344
 20
5.470323087
 30
0.0
 10
5.6895104818
 20
5.4782045103
 30
0.0
 10
5.690605027
 20
5.4821013556
 30
0.0
  0
SPLINE
  5
465
100
AcDbEntity
  8
0
100
AcDbSpline
 62
7
  6
CONTINUOUS
 70
0
 71
3
 72
26
 73
22
 74
0
 42
0.0000001
 43
0.0000001
 44
0.0000000001
 40
0.0
 40
0.0
 40
0.0
 40
0.0
 40
0.0680539893
 40
0.1020720255
 40
0.1360632135
 40
0.2038918331
 40
0.2714562505
 40
0.3051094039
 40
0.3386396785
 40
0.3720235856
 40
0.4052358375
 40
0.4382507867
 40
0.4710414769
 40
0.5358271432
 40
0.599420923
 40
0.6616526503
 40
0.7223802212
 40
0.7814886544
 40
0.8944510232
 40
0.9481898608
 40
1.0
 40
1.0
 40
1.0
 40
1.0
 10
5.7879673122
 20
5.3058157822
 30
0.0
 10
5.7848265974
 20
5.3058158812
 30
0.0
 10
5.7801105888
 20
5.3060734305
 30
0.0
 10
5.773887705
 20
5.306930612
 30
0.0
 10
5.7677311901
 20
5.3081279728
 30
0.0
 10
5.760192262
 20
5.3102595326
 30
0.0
 10
5.7529561384
 20
5.3132234632
 30
0.0
 10
5.7474222472
 20
5.3160665621
 30
0.0
 10
5.7434196039
 20
5.3184211352
 30
0.0
 10
5.7395738406
 20
5.3209872852
 30
0.0
 10
5.7358976306
 20
5.3237514145
 30
0.0
 10
5.7323998212
 20
5.3266957299
 30
0.0
 10
5.7280029475
 20
5.3308211623
 30
0.0
 10
5.7229812272
 20
5.3363267919
 30
0.0
 10
5.7176961234
 20
5.3433736945
 30
0.0
 10
5.7131377208
 20
5.3506886281
 30
0.0
 10
5.7092472103
 20
5.3581443456
 30
0.0
 10
5.7049201223
 20
5.3679849035
 30
0.0
 10
5.7015465006
 20
5.3778666228
 30
0.0
 10
5.6988994447
 20
5.3875983243
 30
0.0
 10
5.6977809059
 20
5.3923403647
 30
0.0
 10
5.6972631477
 20
5.3946746897
 30
0.0
  0
LINE
  5
466
100
AcDbEntity
  8
0
100
AcDbLine
 62
7
  6
CONTINUOUS
 10
5.5141052469
 20
6.9482822939
 11
5.5140329989
 21
6.9483958975
  0
LINE
  5
467
100
AcDbEntity
  8
0
100
AcDbLine
 62
7
  6
CONTINUOUS
 10
5.5270928683
 20
6.9173782601
 11
5.5264865172
 21
6.9183304459
  0
SPLINE
  5
468
100
AcDbEntity
  8
0
100
AcDbSpline
 62
7
  6
CONTINUOUS
 70
0
 71
3
 72
19
 73
15
 74
0
 42
0.0000001
 43
0.0000001
 44
0.0000000001
 40
0.0
 40
0.0
 40
0.0
 40
0.0
 40
0.0170385192
 40
0.038390773
 40
0.0663059124
 40
0.1016341801
 40
0.1445874156
 40
0.1950564677
 40
0.2527454289
 40
0.3172301503
 40
0.4643789112
 40
0.6313914271
 40
0.8121658886
 40
1.0
 40
1.0
 40
1.0
 40
1.0
 10
5.5480982265
 20
6.8673911542
 30
0.0
 10
5.5480836111
 20
6.8673851014
 30
0.0
 10
5.5480462039
 20
6.8673821002
 30
0.0
 10
5.5479876836
 20
6.8674041751
 30
0.0
 10
5.5479220869
 20
6.8674479919
 30
0.0
 10
5.5478486798
 20
6.8675141692
 30
0.0
 10
5.5477677362
 20
6.8676022802
 30
0.0
 10
5.5476799531
 20
6.8677118266
 30
0.0
 10
5.547586158
 20
6.8678418714
 30
0.0
 10
5.5474481578
 20
6.8680504554
 30
0.0
 10
5.5472691985
 20
6.8683532966
 30
0.0
 10
5.5470545031
 20
6.8687597183
 30
0.0
 10
5.5468399417
 20
6.8692084721
 30
0.0
 10
5.5467034699
 20
6.8695224052
 30
0.0
 10
5.5466367326
 20
6.8696835232
 30
0.0
  0
ENDSEC
  0
SECTION
  2
OBJECTS
  0
DICTIONARY
  5
C
100
AcDbDictionary
280
0
281
1
  3
ACAD_GROUP
350
D
  3
ACAD_MLINESTYLE
350
17
  3
ACAD_LAYOUT
350
1A
  3
ACAD_PLOTSETTINGS
350
19
  3
ACAD_PLOTSTYLENAME
350
E
  0
DICTIONARY
  5
D
102
{ACAD_REACTORS
330
C
102
}
100
AcDbDictionary
280
0
281
1
  0
ACDBDICTIONARYWDFLT
  5
E
102
{ACAD_REACTORS
330
C
102
}
100
AcDbDictionary
281
1
  3
Normal
350
F
100
AcDbDictionaryWithDefault
340
F
  0
DICTIONARY
  5
17
102
{ACAD_REACTORS
330
C
102
}
100
AcDbDictionary
280
0
281
1
  3
Standard
350
18
  0
DICTIONARY
  5
19
102
{ACAD_REACTORS
330
C
102
}
100
AcDbDictionary
281
1
  0
DICTIONARY
  5
1A
102
{ACAD_REACTORS
330
C
102
}
100
AcDbDictionary
281
1
  3
Model
350
469
  3
Layout1
350
46A
  0
ACDBPLACEHOLDER
  5
F
102
{ACAD_REACTORS
330
E
102
}
  0
MLINESTYLE
  5
18
102
{ACAD_REACTORS
330
17
102
}
100
AcDbMlineStyle
  2
STANDARD
 70
0
  3

 62
256
 51
90.0
 52
90.0
 71
2
 49
0.5
 62
256
  6
BYLAYER
 49
-0.5
 62
256
  6
BYLAYER
  0
LAYOUT
  5
469
102
{ACAD_REACTORS
330
1A
102
}
100
AcDbPlotSettings
  1

  2
none_device
  4
ANSI_A_(11.00_x_8.50_Inches)
  6

 40
0.0
 41
0.0
 42
0.0
 43
0.0
 44
279.4
 45
215.9
 46
0.0
 47
0.0
 48
0.0
 49
0.0
140
0.0
141
0.0
142
1.0
143
1.0
 70
1024
 72
0
 73
0
 74
0
  7

 75
0
147
1.0
148
0.0
149
0.0
100
AcDbLayout
  1
Model
 70
0
 71
0
 10
0.0
 20
0.0
 11
11.0
 21
8.5
 12
0.0
 22
0.0
 32
0.0
 14
0.0
 24
0.0
 34
0.0
 15
0.0
 25
0.0
 35
0.0
146
0.0
 13
0.0
 23
0.0
 33
0.0
 16
1.0
 26
0.0
 36
0.0
 17
0.0
 27
1.0
 37
0.0
 76
0
330
202
345
0
346
0
  0
LAYOUT
  5
46A
102
{ACAD_REACTORS
330
1A
102
}
100
AcDbPlotSettings
  1

  2
none_device
  4
ANSI_A_(11.00_x_8.50_Inches)
  6

 40
0.0
 41
0.0
 42
0.0
 43
0.0
 44
279.4
 45
215.9
 46
0.0
 47
0.0
 48
0.0
 49
0.0
140
0.0
141
0.0
142
1.0
143
1.0
 70
0
 72
0
 73
0
 74
0
  7

 75
0
147
1.0
148
0.0
149
0.0
100
AcDbLayout
  1
Layout1
 70
0
 71
1
 10
0.0
 20
0.0
 11
11.0
 21
8.5
 12
0.0
 22
0.0
 32
0.0
 14
0.0
 24
0.0
 34
0.0
 15
0.0
 25
0.0
 35
0.0
146
0.0
 13
0.0
 23
0.0
 33
0.0
 16
1.0
 26
0.0
 36
0.0
 17
0.0
 27
1.0
 37
0.0
 76
0
330
203
345
0
346
0
  0
ENDSEC
  0
EOF
