999
DXF file: 2940_front.dxf
999
Pro/ENGINEER 2019352 by Parametric Technology Corporation
  0
SECTION
  2
HEADER
  9
$ACADVER
  1
AC1032
  9
$DWGCODEPAGE
  3
ANSI_1252
  9
$EXTMAX
 10
11.0
 20
8.5
 30
0.0
  9
$EXTMIN
 10
0.0
 20
0.0
 30
0.0
  9
$LIMMIN
 10
0.0
 20
0.0
  9
$LIMMAX
 10
11.0
 20
8.5
  9
$VIEWCTR
 10
5.5
 20
4.25
  9
$VIEWSIZE
 40
8.5
  9
$CLAYER
  8
0
  9
$LTSCALE
 40
0.605
  9
$CELTYPE
  6
BYLAYER
  9
$DIMSCALE
 40
1.0
  9
$DIMASZ
 40
0.1
  9
$DIMEXO
 40
0.0625
  9
$DIMDLI
 40
0.418
  9
$DIMEXE
 40
0.125
  9
$DIMCEN
 40
0.099
  9
$DIMLFAC
 40
1.0
  9
$DIMBLK
  1
_FILLED
  9
$DIMALT
 70
1
  9
$DIMALTD
 70
2
  9
$DIMALTTD
 70
2
  9
$DIMALTF
 40
25.4
  9
$DIMTXT
 40
0.08
  9
$DIMTOL
 70
1
  9
$DIMLIM
 70
0
  9
$DIMTFAC
 40
1.0
  9
$DIMTP
 40
0.001
  9
$DIMTM
 40
0.001
  9
$DIMGAP
 40
0.09
  9
$DIMDSEP
 70
46
  9
$AUNITS
 70
0
  9
$PDMODE
 70
3
  9
$PDSIZE
 40
0.3125
  9
$HANDSEED
  5
99A
  9
$TILEMODE
 70
1
  9
$MEASUREMENT
 70
0
  9
$INSUNITS
 70
1
  0
ENDSEC
  0
SECTION
  2
CLASSES
  0
CLASS
  1
ACDBDICTIONARYWDFLT
  2
AcDbDictionaryWithDefault
  3
AutoCAD 2000
 90
0
 91
1
280
0
281
0
  0
CLASS
  1
ACDBPLACEHOLDER
  2
AcDbPlaceHolder
  3
AutoCAD 2000
 90
0
 91
1
280
0
281
0
  0
CLASS
  1
LAYOUT
  2
AcDbLayout
  3
AutoCAD 2000
 90
0
 91
0
280
0
281
0
  0
ENDSEC
  0
SECTION
  2
TABLES
  0
TABLE
  2
VPORT
  5
8
100
AcDbSymbolTable
 70
2
  0
VPORT
  5
1F4
100
AcDbSymbolTableRecord
100
AcDbViewportTableRecord
  2
*ACTIVE
 70
0
 10
0.0
 20
0.0
 11
1.0
 21
1.0
 12
5.5
 22
4.25
 13
0.0
 23
0.0
 14
1.0
 24
1.0
 15
0.0
 25
0.0
 16
0.0
 26
0.0
 36
1.0
 17
0.0
 27
0.0
 37
0.0
 40
8.5
 41
1.2941176471
 42
50.0
 43
0.0
 44
0.0
 50
0.0
 51
0.0
 71
0
 72
100
 73
1
 74
1
 75
0
 76
0
 77
0
 78
0
  0
ENDTAB
  0
TABLE
  2
LTYPE
  5
5
100
AcDbSymbolTable
 70
6
  0
LTYPE
  5
14
100
AcDbSymbolTableRecord
100
AcDbLinetypeTableRecord
  2
BYBLOCK
 70
0
  3

 72
65
 73
0
 40
0.0
  0
LTYPE
  5
15
100
AcDbSymbolTableRecord
100
AcDbLinetypeTableRecord
  2
BYLAYER
 70
0
  3

 72
65
 73
0
 40
0.0
  0
LTYPE
  5
16
100
AcDbSymbolTableRecord
100
AcDbLinetypeTableRecord
  2
CONTINUOUS
 70
64
  3
Solid line
 72
65
 73
0
 40
0.0
  0
LTYPE
  5
1F5
100
AcDbSymbolTableRecord
100
AcDbLinetypeTableRecord
  2
CENTER
 70
64
  3
____ _ ____ _ ____ _ ____ _ ____ _ ____ _ ____
 72
65
 73
4
 40
0.6
 49
0.375
 74
0
 49
-0.075
 74
0
 49
0.075
 74
0
 49
-0.075
 74
0
  0
LTYPE
  5
1F6
100
AcDbSymbolTableRecord
100
AcDbLinetypeTableRecord
  2
HIDDEN
 70
64
  3
- - - - - - - - - - - - - - - - - - - -
 72
65
 73
2
 40
0.2
 49
0.1
 74
0
 49
-0.1
 74
0
  0
LTYPE
  5
1F7
100
AcDbSymbolTableRecord
100
AcDbLinetypeTableRecord
  2
PHANTOM
 70
64
  3
_____ _ _ _____ _ _ _____ _ _ _____
 72
65
 73
6
 40
0.8
 49
0.45
 74
0
 49
-0.05
 74
0
 49
0.1
 74
0
 49
-0.05
 74
0
 49
0.1
 74
0
 49
-0.05
 74
0
  0
LTYPE
  5
1F8
100
AcDbSymbolTableRecord
100
AcDbLinetypeTableRecord
  2
DOT
 70
64
  3
. . . . . . . . . . . . . . . . . . . .
 72
65
 73
2
 40
0.2
 49
0.1
 74
0
 49
-0.1
 74
0
  0
LTYPE
  5
1F9
100
AcDbSymbolTableRecord
100
AcDbLinetypeTableRecord
  2
DASHED
 70
64
  3
- - - - - - - - - - - - - - - - - - - -
 72
65
 73
2
 40
0.2
 49
0.1
 74
0
 49
-0.1
 74
0
  0
ENDTAB
  0
TABLE
  2
LAYER
  5
2
100
AcDbSymbolTable
 70
36
  0
LAYER
  5
10
100
AcDbSymbolTableRecord
100
AcDbLayerTableRecord
  2
0
 70
0
 62
7
  6
CONTINUOUS
370
-3
390
F
  0
LAYER
  5
1FA
100
AcDbSymbolTableRecord
100
AcDbLayerTableRecord
  2
DEFAULT_1
 70
0
 62
7
  6
CENTER
370
-3
390
F
  0
LAYER
  5
1FB
100
AcDbSymbolTableRecord
100
AcDbLayerTableRecord
  2
DEFAULT_2
 70
0
 62
8
  6
HIDDEN
370
-3
390
F
  0
LAYER
  5
1FC
100
AcDbSymbolTableRecord
100
AcDbLayerTableRecord
  2
DEFAULT_3
 70
0
 62
7
  6
PHANTOM
370
-3
390
F
  0
LAYER
  5
1FD
100
AcDbSymbolTableRecord
100
AcDbLayerTableRecord
  2
DEFAULT_COORDINATE_SYSTEM
 70
0
 62
7
  6
CONTINUOUS
370
-3
390
F
  0
LAYER
  5
1FE
100
AcDbSymbolTableRecord
100
AcDbLayerTableRecord
  2
DEFAULT_DATUM_AXES
 70
0
 62
7
  6
CONTINUOUS
370
-3
390
F
  0
LAYER
  5
1FF
100
AcDbSymbolTableRecord
100
AcDbLayerTableRecord
  2
DEFAULT_DATUM_PLANES
 70
0
 62
7
  6
CONTINUOUS
370
-3
390
F
  0
ENDTAB
  0
TABLE
  2
STYLE
  5
3
100
AcDbSymbolTable
 70
1
  0
STYLE
  5
11
100
AcDbSymbolTableRecord
100
AcDbTextStyleTableRecord
  2
STANDARD
 70
0
 40
0.0
 41
0.8
 50
0.0
 71
0
 42
0.2
  3
txt
  4

  0
STYLE
  5
200
100
AcDbSymbolTableRecord
100
AcDbTextStyleTableRecord
  2
TEXTSTYLE_1
 70
0
 40
0.0
 41
0.8
 50
0.0
 71
0
 42
0.2
  3
gdt
  4

  0
ENDTAB
  0
TABLE
  2
VIEW
  5
6
100
AcDbSymbolTable
 70
0
  0
ENDTAB
  0
TABLE
  2
UCS
  5
7
100
AcDbSymbolTable
 70
0
  0
ENDTAB
  0
TABLE
  2
APPID
  5
9
100
AcDbSymbolTable
 70
1
  0
APPID
  5
201
100
AcDbSymbolTableRecord
100
AcDbRegAppTableRecord
  2
ACAD
 70
0
  0
ENDTAB
  0
TABLE
  2
BLOCK_RECORD
  5
1
100
AcDbSymbolTable
 70
0
  0
BLOCK_RECORD
  5
202
100
AcDbSymbolTableRecord
100
AcDbBlockTableRecord
  2
*Model_Space
  0
BLOCK_RECORD
  5
203
100
AcDbSymbolTableRecord
100
AcDbBlockTableRecord
  2
*Paper_Space
  0
BLOCK_RECORD
  5
204
100
AcDbSymbolTableRecord
100
AcDbBlockTableRecord
  2
_FILLED
  0
ENDTAB
  0
TABLE
  2
DIMSTYLE
  5
A
100
AcDbSymbolTable
 70
1
100
AcDbDimStyleTable
 71
0
  0
DIMSTYLE
105
205
100
AcDbSymbolTableRecord
100
AcDbDimStyleTableRecord
  2
STANDARD
 70
0
  3

  4

 40
1.0
 41
0.1
 42
0.0625
 43
0.38
 44
0.125
 45
0.0
 46
0.0
 47
0.001
 48
0.001
140
0.08
141
0.09
142
0.0
143
25.4
144
1.0
145
0.0
146
1.0
147
0.09
 71
1.0
 72
0.0
 73
1
 74
1
 75
0
 76
0
 77
0
 78
4
 79
1
170
1
171
2
172
0
173
0
174
0
175
0
176
0
177
0
178
0
270
2
179
3
271
3
272
3
273
2
274
2
275
0
280
0
281
0
282
0
283
1
284
4
285
0
286
0
287
3
288
0
340
11
278
46
341
204
342
204
343
204
344
204
  0
ENDTAB
  0
ENDSEC
  0
SECTION
  2
BLOCKS
  0
BLOCK
  5
20
100
AcDbEntity
  8
0
100
AcDbBlockBegin
  2
*Model_Space
 70
0
 10
0.0
 20
0.0
 30
0.0
  3
*Model_Space
  1

  0
ENDBLK
  5
21
100
AcDbEntity
  8
0
100
AcDbBlockEnd
  0
BLOCK
  5
1C
100
AcDbEntity
  8
0
100
AcDbBlockBegin
  2
*Paper_Space
 70
0
 10
0.0
 20
0.0
 30
0.0
  3
*Paper_Space
  1

  0
ENDBLK
  5
1D
100
AcDbEntity
  8
0
100
AcDbBlockEnd
  0
BLOCK
  5
206
100
AcDbEntity
  8
0
100
AcDbBlockBegin
  2
_FILLED
 70
64
 10
0.0
 20
0.0
  3
_FILLED
  1

  0
SOLID
  5
207
100
AcDbEntity
  8
0
  6
BYBLOCK
 62
0
100
AcDbTrace
 10
0.0
 20
0.0
 11
-1.0
 21
0.2
 12
-1.0
 22
-0.2
 13
-1.0
 23
-0.2
  0
ENDBLK
  5
208
100
AcDbEntity
  8
0
  6
BYBLOCK
 62
0
100
AcDbBlockEnd
  0
ENDSEC
  0
SECTION
  2
ENTITIES
  0
MTEXT
  5
209
100
AcDbEntity
  8
0
100
AcDbMText
 62
2
  6
CONTINUOUS
  7
STANDARD
 71
3
 72
1
 10
5.69214633
 20
1.5853799404
 30
0.0
 11
1.0
 21
0.0
 31
0.0
 73
2
 44
0.9
  1
SCALE 0.500
 40
0.08
 41
0.704
  0
LINE
  5
20A
100
AcDbEntity
  8
0
100
AcDbLine
 62
7
  6
CONTINUOUS
 10
0.0
 20
0.0
 11
0.0
 21
8.5
  0
LINE
  5
20B
100
AcDbEntity
  8
0
100
AcDbLine
 62
7
  6
CONTINUOUS
 10
0.0
 20
0.0
 11
11.0
 21
0.0
  0
LINE
  5
20C
100
AcDbEntity
  8
0
100
AcDbLine
 62
7
  6
CONTINUOUS
 10
0.0
 20
8.5
 11
11.0
 21
8.5
  0
LINE
  5
20D
100
AcDbEntity
  8
0
100
AcDbLine
 62
7
  6
CONTINUOUS
 10
11.0
 20
0.0
 11
11.0
 21
8.5
  0
LINE
  5
20E
100
AcDbEntity
  8
0
100
AcDbLine
 62
7
  6
CONTINUOUS
 10
1.4704179737
 20
4.6231054737
 11
1.4704179737
 21
4.3006054737
  0
LINE
  5
20F
100
AcDbEntity
  8
0
100
AcDbLine
 62
7
  6
CONTINUOUS
 10
1.5304179737
 20
4.6231054737
 11
1.5304179737
 21
4.3006054737
  0
LINE
  5
210
100
AcDbEntity
  8
0
100
AcDbLine
 62
7
  6
CONTINUOUS
 10
2.7979179737
 20
3.1363554737
 11
2.7979179737
 21
3.0963554737
  0
LINE
  5
211
100
AcDbEntity
  8
0
100
AcDbLine
 62
7
  6
CONTINUOUS
 10
2.7980032445
 20
3.2113554737
 11
2.7980032445
 21
3.2513554737
  0
LINE
  5
212
100
AcDbEntity
  8
0
100
AcDbLine
 62
7
  6
CONTINUOUS
 10
2.798183075
 20
3.2113554737
 11
2.798183075
 21
3.2513554737
  0
LINE
  5
213
100
AcDbEntity
  8
0
100
AcDbLine
 62
7
  6
CONTINUOUS
 10
2.7991251222
 20
3.2113554737
 11
2.7991251222
 21
3.2513554737
  0
LINE
  5
214
100
AcDbEntity
  8
0
100
AcDbLine
 62
7
  6
CONTINUOUS
 10
2.7996641209
 20
3.2113554737
 11
2.7996641209
 21
3.2513554737
  0
LINE
  5
215
100
AcDbEntity
  8
0
100
AcDbLine
 62
7
  6
CONTINUOUS
 10
2.8015456332
 20
3.2113554737
 11
2.8015456332
 21
3.2513554737
  0
LINE
  5
216
100
AcDbEntity
  8
0
100
AcDbLine
 62
7
  6
CONTINUOUS
 10
2.8024423227
 20
3.2113554737
 11
2.8024423227
 21
3.2513554737
  0
LINE
  5
217
100
AcDbEntity
  8
DEFAULT_2
100
AcDbLine
 62
8
  6
HIDDEN
 10
2.8049179737
 20
3.2513554737
 11
2.8049179737
 21
3.2113554737
  0
LINE
  5
218
100
AcDbEntity
  8
0
100
AcDbLine
 62
7
  6
CONTINUOUS
 10
2.805258143
 20
3.2113554737
 11
2.805258143
 21
3.2513554737
  0
LINE
  5
219
100
AcDbEntity
  8
DEFAULT_2
100
AcDbLine
 62
8
  6
HIDDEN
 10
2.8055593514
 20
3.2513554737
 11
2.8055593514
 21
3.2113554737
  0
LINE
  5
21A
100
AcDbEntity
  8
0
100
AcDbLine
 62
7
  6
CONTINUOUS
 10
2.8065100655
 20
3.2113554737
 11
2.8065100655
 21
3.2513554737
  0
LINE
  5
21B
100
AcDbEntity
  8
DEFAULT_2
100
AcDbLine
 62
8
  6
HIDDEN
 10
2.8074817266
 20
3.2513554737
 11
2.8074817266
 21
3.2113554737
  0
LINE
  5
21C
100
AcDbEntity
  8
0
100
AcDbLine
 62
7
  6
CONTINUOUS
 10
2.810252476
 20
3.2113554737
 11
2.810252476
 21
3.2513554737
  0
LINE
  5
21D
100
AcDbEntity
  8
DEFAULT_2
100
AcDbLine
 62
8
  6
HIDDEN
 10
2.8106798303
 20
3.2513554737
 11
2.8106798303
 21
3.2113554737
  0
LINE
  5
21E
100
AcDbEntity
  8
0
100
AcDbLine
 62
7
  6
CONTINUOUS
 10
2.8118562
 20
3.2113554737
 11
2.8118562
 21
3.2513554737
  0
LINE
  5
21F
100
AcDbEntity
  8
DEFAULT_2
100
AcDbLine
 62
8
  6
HIDDEN
 10
2.8151448965
 20
3.2513554737
 11
2.8151448965
 21
3.2113554737
  0
LINE
  5
220
100
AcDbEntity
  8
0
100
AcDbLine
 62
7
  6
CONTINUOUS
 10
2.8165149428
 20
3.2113554737
 11
2.8165149428
 21
3.2513554737
  0
LINE
  5
221
100
AcDbEntity
  8
0
100
AcDbLine
 62
7
  6
CONTINUOUS
 10
2.8184660728
 20
3.2113554737
 11
2.8184660728
 21
3.2513554737
  0
LINE
  5
222
100
AcDbEntity
  8
0
100
AcDbLine
 62
7
  6
CONTINUOUS
 10
2.8204179737
 20
4.3118554737
 11
2.8204179737
 21
4.6118554737
  0
LINE
  5
223
100
AcDbEntity
  8
DEFAULT_2
100
AcDbLine
 62
8
  6
HIDDEN
 10
2.8208646869
 20
3.2513554737
 11
2.8208646869
 21
3.2113554737
  0
LINE
  5
224
100
AcDbEntity
  8
0
100
AcDbLine
 62
7
  6
CONTINUOUS
 10
2.8229179737
 20
3.2113554737
 11
2.8229179737
 21
3.1613554737
  0
LINE
  5
225
100
AcDbEntity
  8
0
100
AcDbLine
 62
7
  6
CONTINUOUS
 10
2.8240283787
 20
3.2113554737
 11
2.8240283787
 21
3.2513554737
  0
LINE
  5
226
100
AcDbEntity
  8
0
100
AcDbLine
 62
7
  6
CONTINUOUS
 10
2.8263215667
 20
3.2113554737
 11
2.8263215667
 21
3.2513554737
  0
LINE
  5
227
100
AcDbEntity
  8
DEFAULT_2
100
AcDbLine
 62
8
  6
HIDDEN
 10
2.827823524
 20
3.2513554737
 11
2.827823524
 21
3.2113554737
  0
LINE
  5
228
100
AcDbEntity
  8
0
100
AcDbLine
 62
7
  6
CONTINUOUS
 10
2.8327721898
 20
3.2113554737
 11
2.8327721898
 21
3.2513554737
  0
LINE
  5
229
100
AcDbEntity
  8
0
100
AcDbLine
 62
7
  6
CONTINUOUS
 10
2.8354011502
 20
3.2113554737
 11
2.8354011502
 21
3.2513554737
  0
LINE
  5
22A
100
AcDbEntity
  8
DEFAULT_2
100
AcDbLine
 62
8
  6
HIDDEN
 10
2.8360023341
 20
3.2513554737
 11
2.8360023341
 21
3.2113554737
  0
LINE
  5
22B
100
AcDbEntity
  8
0
100
AcDbLine
 62
7
  6
CONTINUOUS
 10
2.8427224098
 20
3.2113554737
 11
2.8427224098
 21
3.2513554737
  0
LINE
  5
22C
100
AcDbEntity
  8
DEFAULT_2
100
AcDbLine
 62
8
  6
HIDDEN
 10
2.8453786995
 20
3.2513554737
 11
2.8453786995
 21
3.2113554737
  0
LINE
  5
22D
100
AcDbEntity
  8
0
100
AcDbLine
 62
7
  6
CONTINUOUS
 10
2.845679937
 20
3.2113554737
 11
2.845679937
 21
3.2513554737
  0
LINE
  5
22E
100
AcDbEntity
  8
0
100
AcDbLine
 62
7
  6
CONTINUOUS
 10
2.853851766
 20
3.2113554737
 11
2.853851766
 21
3.2513554737
  0
LINE
  5
22F
100
AcDbEntity
  8
DEFAULT_2
100
AcDbLine
 62
8
  6
HIDDEN
 10
2.8559269203
 20
3.2513554737
 11
2.8559269203
 21
3.2113554737
  0
LINE
  5
230
100
AcDbEntity
  8
0
100
AcDbLine
 62
7
  6
CONTINUOUS
 10
2.8571297535
 20
3.2113554737
 11
2.8571297535
 21
3.2513554737
  0
LINE
  5
231
100
AcDbEntity
  8
0
100
AcDbLine
 62
7
  6
CONTINUOUS
 10
2.8661297535
 20
3.2113554737
 11
2.8661297535
 21
3.2513554737
  0
LINE
  5
232
100
AcDbEntity
  8
DEFAULT_2
100
AcDbLine
 62
8
  6
HIDDEN
 10
2.8676180847
 20
3.2513554737
 11
2.8676180847
 21
3.2113554737
  0
LINE
  5
233
100
AcDbEntity
  8
0
100
AcDbLine
 62
7
  6
CONTINUOUS
 10
2.8697192167
 20
3.2113554737
 11
2.8697192167
 21
3.2513554737
  0
LINE
  5
234
100
AcDbEntity
  8
0
100
AcDbLine
 62
7
  6
CONTINUOUS
 10
2.8795227193
 20
3.2113554737
 11
2.8795227193
 21
3.2513554737
  0
LINE
  5
235
100
AcDbEntity
  8
DEFAULT_2
100
AcDbLine
 62
8
  6
HIDDEN
 10
2.8804201479
 20
3.2513554737
 11
2.8804201479
 21
3.2113554737
  0
LINE
  5
236
100
AcDbEntity
  8
0
100
AcDbLine
 62
7
  6
CONTINUOUS
 10
2.8829179737
 20
4.6118554737
 11
2.8829179737
 21
4.3118554737
  0
LINE
  5
237
100
AcDbEntity
  8
0
100
AcDbLine
 62
7
  6
CONTINUOUS
 10
2.8834138196
 20
3.2113554737
 11
2.8834138196
 21
3.2513554737
  0
LINE
  5
238
100
AcDbEntity
  8
0
100
AcDbLine
 62
7
  6
CONTINUOUS
 10
2.8939939541
 20
3.2113554737
 11
2.8939939541
 21
3.2513554737
  0
LINE
  5
239
100
AcDbEntity
  8
DEFAULT_2
100
AcDbLine
 62
8
  6
HIDDEN
 10
2.8942980203
 20
3.2513554737
 11
2.8942980203
 21
3.2113554737
  0
LINE
  5
23A
100
AcDbEntity
  8
0
100
AcDbLine
 62
7
  6
CONTINUOUS
 10
2.8981760263
 20
3.2113554737
 11
2.8981760263
 21
3.2513554737
  0
LINE
  5
23B
100
AcDbEntity
  8
DEFAULT_2
100
AcDbLine
 62
8
  6
HIDDEN
 10
2.9029179737
 20
4.5643554737
 11
2.9029179737
 21
4.3593554737
  0
LINE
  5
23C
100
AcDbEntity
  8
0
100
AcDbLine
 62
7
  6
CONTINUOUS
 10
2.9092136637
 20
3.2513554737
 11
2.9092136637
 21
3.2113554737
  0
LINE
  5
23D
100
AcDbEntity
  8
0
100
AcDbLine
 62
7
  6
CONTINUOUS
 10
2.9095037933
 20
3.2113554737
 11
2.9095037933
 21
3.2513554737
  0
LINE
  5
23E
100
AcDbEntity
  8
0
100
AcDbLine
 62
7
  6
CONTINUOUS
 10
2.9139653747
 20
3.2113554737
 11
2.9139653747
 21
3.2513554737
  0
LINE
  5
23F
100
AcDbEntity
  8
0
100
AcDbLine
 62
7
  6
CONTINUOUS
 10
2.9154291746
 20
3.9013554737
 11
2.9154291746
 21
3.9513554737
  0
LINE
  5
240
100
AcDbEntity
  8
DEFAULT_2
100
AcDbLine
 62
8
  6
HIDDEN
 10
2.9155445092
 20
3.9013554737
 11
2.9155445092
 21
3.9513554737
  0
LINE
  5
241
100
AcDbEntity
  8
0
100
AcDbLine
 62
7
  6
CONTINUOUS
 10
2.9157398661
 20
3.9013554737
 11
2.9157398661
 21
3.9513554737
  0
LINE
  5
242
100
AcDbEntity
  8
0
100
AcDbLine
 62
7
  6
CONTINUOUS
 10
2.9160857325
 20
3.9013554737
 11
2.9160857325
 21
3.9513554737
  0
LINE
  5
243
100
AcDbEntity
  8
DEFAULT_2
100
AcDbLine
 62
8
  6
HIDDEN
 10
2.9164762136
 20
3.9013554737
 11
2.9164762136
 21
3.9513554737
  0
LINE
  5
244
100
AcDbEntity
  8
DEFAULT_2
100
AcDbLine
 62
8
  6
HIDDEN
 10
2.9170521996
 20
3.9013554737
 11
2.9170521996
 21
3.9513554737
  0
LINE
  5
245
100
AcDbEntity
  8
0
100
AcDbLine
 62
7
  6
CONTINUOUS
 10
2.9176373394
 20
3.9013554737
 11
2.9176373394
 21
3.9513554737
  0
LINE
  5
246
100
AcDbEntity
  8
0
100
AcDbLine
 62
7
  6
CONTINUOUS
 10
2.9184427586
 20
3.9013554737
 11
2.9184427586
 21
3.9513554737
  0
LINE
  5
247
100
AcDbEntity
  8
DEFAULT_2
100
AcDbLine
 62
8
  6
HIDDEN
 10
2.9192218598
 20
3.9013554737
 11
2.9192218598
 21
3.9513554737
  0
LINE
  5
248
100
AcDbEntity
  8
DEFAULT_2
100
AcDbLine
 62
8
  6
HIDDEN
 10
2.9202557525
 20
3.9013554737
 11
2.9202557525
 21
3.9513554737
  0
LINE
  5
249
100
AcDbEntity
  8
0
100
AcDbLine
 62
7
  6
CONTINUOUS
 10
2.9204179737
 20
4.5788554737
 11
2.9204179737
 21
4.3448554737
  0
LINE
  5
24A
100
AcDbEntity
  8
0
100
AcDbLine
 62
7
  6
CONTINUOUS
 10
2.9212278866
 20
3.9013554737
 11
2.9212278866
 21
3.9513554737
  0
LINE
  5
24B
100
AcDbEntity
  8
0
100
AcDbLine
 62
7
  6
CONTINUOUS
 10
2.9224890205
 20
3.9013554737
 11
2.9224890205
 21
3.9513554737
  0
LINE
  5
24C
100
AcDbEntity
  8
DEFAULT_2
100
AcDbLine
 62
8
  6
HIDDEN
 10
2.922887825
 20
3.9513554737
 11
2.922887825
 21
3.9013554737
  0
LINE
  5
24D
100
AcDbEntity
  8
DEFAULT_2
100
AcDbLine
 62
8
  6
HIDDEN
 10
2.9236530292
 20
3.9013554737
 11
2.9236530292
 21
3.9513554737
  0
LINE
  5
24E
100
AcDbEntity
  8
DEFAULT_2
100
AcDbLine
 62
8
  6
HIDDEN
 10
2.9237225978
 20
3.9513554737
 11
2.9237225978
 21
3.9013554737
  0
LINE
  5
24F
100
AcDbEntity
  8
DEFAULT_2
100
AcDbLine
 62
8
  6
HIDDEN
 10
2.9249735133
 20
3.9513554737
 11
2.9249735133
 21
3.9013554737
  0
LINE
  5
250
100
AcDbEntity
  8
0
100
AcDbLine
 62
7
  6
CONTINUOUS
 10
2.9251261953
 20
3.2513554737
 11
2.9251261953
 21
3.2113554737
  0
LINE
  5
251
100
AcDbEntity
  8
DEFAULT_2
100
AcDbLine
 62
8
  6
HIDDEN
 10
2.9251399014
 20
3.9013554737
 11
2.9251399014
 21
3.9513554737
  0
LINE
  5
252
100
AcDbEntity
  8
0
100
AcDbLine
 62
7
  6
CONTINUOUS
 10
2.9260097256
 20
3.2113554737
 11
2.9260097256
 21
3.2513554737
  0
LINE
  5
253
100
AcDbEntity
  8
0
100
AcDbLine
 62
7
  6
CONTINUOUS
 10
2.9264943973
 20
3.9013554737
 11
2.9264943973
 21
3.9513554737
  0
LINE
  5
254
100
AcDbEntity
  8
DEFAULT_2
100
AcDbLine
 62
8
  6
HIDDEN
 10
2.9266390808
 20
3.9513554737
 11
2.9266390808
 21
3.9013554737
  0
LINE
  5
255
100
AcDbEntity
  8
0
100
AcDbLine
 62
7
  6
CONTINUOUS
 10
2.928205236
 20
3.9013554737
 11
2.928205236
 21
3.9513554737
  0
LINE
  5
256
100
AcDbEntity
  8
DEFAULT_2
100
AcDbLine
 62
8
  6
HIDDEN
 10
2.9287173154
 20
3.9513554737
 11
2.9287173154
 21
3.9013554737
  0
LINE
  5
257
100
AcDbEntity
  8
DEFAULT_2
100
AcDbLine
 62
8
  6
HIDDEN
 10
2.929748605
 20
3.9013554737
 11
2.929748605
 21
3.9513554737
  0
LINE
  5
258
100
AcDbEntity
  8
0
100
AcDbLine
 62
7
  6
CONTINUOUS
 10
2.9307385871
 20
3.2113554737
 11
2.9307385871
 21
3.2513554737
  0
LINE
  5
259
100
AcDbEntity
  8
DEFAULT_2
100
AcDbLine
 62
8
  6
HIDDEN
 10
2.9312057404
 20
3.9513554737
 11
2.9312057404
 21
3.9013554737
  0
LINE
  5
25A
100
AcDbEntity
  8
DEFAULT_2
100
AcDbLine
 62
8
  6
HIDDEN
 10
2.9316813712
 20
3.9013554737
 11
2.9316813712
 21
3.9513554737
  0
LINE
  5
25B
100
AcDbEntity
  8
0
100
AcDbLine
 62
7
  6
CONTINUOUS
 10
2.9334117741
 20
3.9013554737
 11
2.9334117741
 21
3.9513554737
  0
LINE
  5
25C
100
AcDbEntity
  8
DEFAULT_2
100
AcDbLine
 62
8
  6
HIDDEN
 10
2.9341013904
 20
3.9513554737
 11
2.9341013904
 21
3.9013554737
  0
LINE
  5
25D
100
AcDbEntity
  8
0
100
AcDbLine
 62
7
  6
CONTINUOUS
 10
2.9355641646
 20
3.9013554737
 11
2.9355641646
 21
3.9513554737
  0
LINE
  5
25E
100
AcDbEntity
  8
DEFAULT_2
100
AcDbLine
 62
8
  6
HIDDEN
 10
2.9374008145
 20
3.9513554737
 11
2.9374008145
 21
3.9013554737
  0
LINE
  5
25F
100
AcDbEntity
  8
DEFAULT_2
100
AcDbLine
 62
8
  6
HIDDEN
 10
2.9374795392
 20
3.9013554737
 11
2.9374795392
 21
3.9513554737
  0
LINE
  5
260
100
AcDbEntity
  8
DEFAULT_2
100
AcDbLine
 62
8
  6
HIDDEN
 10
2.9398489889
 20
3.9013554737
 11
2.9398489889
 21
3.9513554737
  0
LINE
  5
261
100
AcDbEntity
  8
DEFAULT_2
100
AcDbLine
 62
8
  6
HIDDEN
 10
2.9411000807
 20
3.9513554737
 11
2.9411000807
 21
3.9013554737
  0
LINE
  5
262
100
AcDbEntity
  8
0
100
AcDbLine
 62
7
  6
CONTINUOUS
 10
2.9419470526
 20
3.9013554737
 11
2.9419470526
 21
3.9513554737
  0
LINE
  5
263
100
AcDbEntity
  8
0
100
AcDbLine
 62
7
  6
CONTINUOUS
 10
2.9419920001
 20
3.2513554737
 11
2.9419920001
 21
3.2113554737
  0
LINE
  5
264
100
AcDbEntity
  8
0
100
AcDbLine
 62
7
  6
CONTINUOUS
 10
2.9434665092
 20
3.2113554737
 11
2.9434665092
 21
3.2513554737
  0
LINE
  5
265
100
AcDbEntity
  8
0
100
AcDbLine
 62
7
  6
CONTINUOUS
 10
2.9445307378
 20
3.9013554737
 11
2.9445307378
 21
3.9513554737
  0
LINE
  5
266
100
AcDbEntity
  8
DEFAULT_2
100
AcDbLine
 62
8
  6
HIDDEN
 10
2.9451947806
 20
3.9513554737
 11
2.9451947806
 21
3.9013554737
  0
LINE
  5
267
100
AcDbEntity
  8
DEFAULT_2
100
AcDbLine
 62
8
  6
HIDDEN
 10
2.9468089903
 20
3.9013554737
 11
2.9468089903
 21
3.9513554737
  0
LINE
  5
268
100
AcDbEntity
  8
0
100
AcDbLine
 62
7
  6
CONTINUOUS
 10
2.9484496895
 20
3.2113554737
 11
2.9484496895
 21
3.2513554737
  0
LINE
  5
269
100
AcDbEntity
  8
DEFAULT_2
100
AcDbLine
 62
8
  6
HIDDEN
 10
2.9496038319
 20
3.9013554737
 11
2.9496038319
 21
3.9513554737
  0
LINE
  5
26A
100
AcDbEntity
  8
DEFAULT_2
100
AcDbLine
 62
8
  6
HIDDEN
 10
2.9496800344
 20
3.9513554737
 11
2.9496800344
 21
3.9013554737
  0
LINE
  5
26B
100
AcDbEntity
  8
0
100
AcDbLine
 62
7
  6
CONTINUOUS
 10
2.9520595582
 20
3.9013554737
 11
2.9520595582
 21
3.9513554737
  0
LINE
  5
26C
100
AcDbEntity
  8
DEFAULT_2
100
AcDbLine
 62
8
  6
HIDDEN
 10
2.954550497
 20
3.9513554737
 11
2.954550497
 21
3.9013554737
  0
LINE
  5
26D
100
AcDbEntity
  8
0
100
AcDbLine
 62
7
  6
CONTINUOUS
 10
2.9550622257
 20
3.9013554737
 11
2.9550622257
 21
3.9513554737
  0
LINE
  5
26E
100
AcDbEntity
  8
DEFAULT_2
100
AcDbLine
 62
8
  6
HIDDEN
 10
2.9576924992
 20
3.9013554737
 11
2.9576924992
 21
3.9513554737
  0
LINE
  5
26F
100
AcDbEntity
  8
0
100
AcDbLine
 62
7
  6
CONTINUOUS
 10
2.9597648499
 20
3.2513554737
 11
2.9597648499
 21
3.2113554737
  0
LINE
  5
270
100
AcDbEntity
  8
DEFAULT_2
100
AcDbLine
 62
8
  6
HIDDEN
 10
2.9598003641
 20
3.9513554737
 11
2.9598003641
 21
3.9013554737
  0
LINE
  5
271
100
AcDbEntity
  8
0
100
AcDbLine
 62
7
  6
CONTINUOUS
 10
2.9604179737
 20
3.9013554737
 11
2.9604179737
 21
3.2913554737
  0
LINE
  5
272
100
AcDbEntity
  8
DEFAULT_2
100
AcDbLine
 62
8
  6
HIDDEN
 10
2.9608994141
 20
3.9013554737
 11
2.9608994141
 21
3.9513554737
  0
LINE
  5
273
100
AcDbEntity
  8
0
100
AcDbLine
 62
7
  6
CONTINUOUS
 10
2.9618262964
 20
3.2113554737
 11
2.9618262964
 21
3.2513554737
  0
LINE
  5
274
100
AcDbEntity
  8
0
100
AcDbLine
 62
7
  6
CONTINUOUS
 10
2.9637011003
 20
3.9013554737
 11
2.9637011003
 21
3.9513554737
  0
LINE
  5
275
100
AcDbEntity
  8
DEFAULT_2
100
AcDbLine
 62
8
  6
HIDDEN
 10
2.9654233793
 20
3.9513554737
 11
2.9654233793
 21
3.9013554737
  0
LINE
  5
276
100
AcDbEntity
  8
0
100
AcDbLine
 62
7
  6
CONTINUOUS
 10
2.9670501369
 20
3.2113554737
 11
2.9670501369
 21
3.2513554737
  0
LINE
  5
277
100
AcDbEntity
  8
0
100
AcDbLine
 62
7
  6
CONTINUOUS
 10
2.9671084409
 20
3.9013554737
 11
2.9671084409
 21
3.9513554737
  0
LINE
  5
278
100
AcDbEntity
  8
DEFAULT_2
100
AcDbLine
 62
8
  6
HIDDEN
 10
2.970078201
 20
3.9013554737
 11
2.970078201
 21
3.9513554737
  0
LINE
  5
279
100
AcDbEntity
  8
DEFAULT_2
100
AcDbLine
 62
8
  6
HIDDEN
 10
2.9714128417
 20
3.9513554737
 11
2.9714128417
 21
3.9013554737
  0
LINE
  5
27A
100
AcDbEntity
  8
0
100
AcDbLine
 62
7
  6
CONTINUOUS
 10
2.9729179737
 20
3.2913554737
 11
2.9729179737
 21
3.2863554737
  0
LINE
  5
27B
100
AcDbEntity
  8
DEFAULT_2
100
AcDbLine
 62
8
  6
HIDDEN
 10
2.9736819068
 20
3.9013554737
 11
2.9736819068
 21
3.9513554737
  0
LINE
  5
27C
100
AcDbEntity
  8
0
100
AcDbLine
 62
7
  6
CONTINUOUS
 10
2.9768162016
 20
3.9013554737
 11
2.9768162016
 21
3.9513554737
  0
LINE
  5
27D
100
AcDbEntity
  8
DEFAULT_2
100
AcDbLine
 62
8
  6
HIDDEN
 10
2.9777616135
 20
3.9513554737
 11
2.9777616135
 21
3.9013554737
  0
LINE
  5
27E
100
AcDbEntity
  8
0
100
AcDbLine
 62
7
  6
CONTINUOUS
 10
2.9783960306
 20
3.2513554737
 11
2.9783960306
 21
3.2113554737
  0
LINE
  5
27F
100
AcDbEntity
  8
0
100
AcDbLine
 62
7
  6
CONTINUOUS
 10
2.9806119779
 20
3.9013554737
 11
2.9806119779
 21
3.9513554737
  0
LINE
  5
280
100
AcDbEntity
  8
0
100
AcDbLine
 62
7
  6
CONTINUOUS
 10
2.9810387642
 20
3.2113554737
 11
2.9810387642
 21
3.2513554737
  0
LINE
  5
281
100
AcDbEntity
  8
DEFAULT_2
100
AcDbLine
 62
8
  6
HIDDEN
 10
2.9839070722
 20
3.9013554737
 11
2.9839070722
 21
3.9513554737
  0
LINE
  5
282
100
AcDbEntity
  8
DEFAULT_2
100
AcDbLine
 62
8
  6
HIDDEN
 10
2.9844621287
 20
3.9513554737
 11
2.9844621287
 21
3.9013554737
  0
LINE
  5
283
100
AcDbEntity
  8
0
100
AcDbLine
 62
7
  6
CONTINUOUS
 10
2.9864889468
 20
3.2113554737
 11
2.9864889468
 21
3.2513554737
  0
LINE
  5
284
100
AcDbEntity
  8
DEFAULT_2
100
AcDbLine
 62
8
  6
HIDDEN
 10
2.9878903956
 20
3.9013554737
 11
2.9878903956
 21
3.9513554737
  0
LINE
  5
285
100
AcDbEntity
  8
0
100
AcDbLine
 62
7
  6
CONTINUOUS
 10
2.9913423626
 20
3.9013554737
 11
2.9913423626
 21
3.9513554737
  0
LINE
  5
286
100
AcDbEntity
  8
DEFAULT_2
100
AcDbLine
 62
8
  6
HIDDEN
 10
2.9915064021
 20
3.9513554737
 11
2.9915064021
 21
3.9013554737
  0
LINE
  5
287
100
AcDbEntity
  8
0
100
AcDbLine
 62
7
  6
CONTINUOUS
 10
2.9955084861
 20
3.9013554737
 11
2.9955084861
 21
3.9513554737
  0
LINE
  5
288
100
AcDbEntity
  8
0
100
AcDbLine
 62
7
  6
CONTINUOUS
 10
2.9978344756
 20
3.2513554737
 11
2.9978344756
 21
3.2113554737
  0
LINE
  5
289
100
AcDbEntity
  8
DEFAULT_2
100
AcDbLine
 62
8
  6
HIDDEN
 10
2.998886039
 20
3.9513554737
 11
2.998886039
 21
3.9013554737
  0
LINE
  5
28A
100
AcDbEntity
  8
DEFAULT_2
100
AcDbLine
 62
8
  6
HIDDEN
 10
2.999113212
 20
3.9013554737
 11
2.999113212
 21
3.9513554737
  0
LINE
  5
28B
100
AcDbEntity
  8
0
100
AcDbLine
 62
7
  6
CONTINUOUS
 10
3.0010512527
 20
3.2113554737
 11
3.0010512527
 21
3.2513554737
  0
LINE
  5
28C
100
AcDbEntity
  8
DEFAULT_2
100
AcDbLine
 62
8
  6
HIDDEN
 10
3.0034571706
 20
3.9013554737
 11
3.0034571706
 21
3.9513554737
  0
LINE
  5
28D
100
AcDbEntity
  8
0
100
AcDbLine
 62
7
  6
CONTINUOUS
 10
3.006592245
 20
3.9513554737
 11
3.006592245
 21
3.9013554737
  0
LINE
  5
28E
100
AcDbEntity
  8
0
100
AcDbLine
 62
7
  6
CONTINUOUS
 10
3.0067128387
 20
3.2113554737
 11
3.0067128387
 21
3.2513554737
  0
LINE
  5
28F
100
AcDbEntity
  8
0
100
AcDbLine
 62
7
  6
CONTINUOUS
 10
3.0072103597
 20
3.9013554737
 11
3.0072103597
 21
3.9513554737
  0
LINE
  5
290
100
AcDbEntity
  8
0
100
AcDbLine
 62
7
  6
CONTINUOUS
 10
3.0117269768
 20
3.9013554737
 11
3.0117269768
 21
3.9513554737
  0
LINE
  5
291
100
AcDbEntity
  8
DEFAULT_2
100
AcDbLine
 62
8
  6
HIDDEN
 10
3.0146158364
 20
3.9513554737
 11
3.0146158364
 21
3.9013554737
  0
LINE
  5
292
100
AcDbEntity
  8
DEFAULT_2
100
AcDbLine
 62
8
  6
HIDDEN
 10
3.0156241562
 20
3.9013554737
 11
3.0156241562
 21
3.9513554737
  0
LINE
  5
293
100
AcDbEntity
  8
0
100
AcDbLine
 62
7
  6
CONTINUOUS
 10
3.0180269053
 20
3.2513554737
 11
3.0180269053
 21
3.2113554737
  0
LINE
  5
294
100
AcDbEntity
  8
DEFAULT_2
100
AcDbLine
 62
8
  6
HIDDEN
 10
3.0203080491
 20
3.9013554737
 11
3.0203080491
 21
3.9513554737
  0
LINE
  5
295
100
AcDbEntity
  8
0
100
AcDbLine
 62
7
  6
CONTINUOUS
 10
3.0218089089
 20
3.2113554737
 11
3.0218089089
 21
3.2513554737
  0
LINE
  5
296
100
AcDbEntity
  8
0
100
AcDbLine
 62
7
  6
CONTINUOUS
 10
3.0229472513
 20
3.9513554737
 11
3.0229472513
 21
3.9013554737
  0
LINE
  5
297
100
AcDbEntity
  8
0
100
AcDbLine
 62
7
  6
CONTINUOUS
 10
3.0243445746
 20
3.9013554737
 11
3.0243445746
 21
3.9513554737
  0
LINE
  5
298
100
AcDbEntity
  8
0
100
AcDbLine
 62
7
  6
CONTINUOUS
 10
3.0276663804
 20
3.2113554737
 11
3.0276663804
 21
3.2513554737
  0
LINE
  5
299
100
AcDbEntity
  8
0
100
AcDbLine
 62
7
  6
CONTINUOUS
 10
3.0291901615
 20
3.9013554737
 11
3.0291901615
 21
3.9513554737
  0
LINE
  5
29A
100
AcDbEntity
  8
DEFAULT_2
100
AcDbLine
 62
8
  6
HIDDEN
 10
3.0315765611
 20
3.9513554737
 11
3.0315765611
 21
3.9013554737
  0
LINE
  5
29B
100
AcDbEntity
  8
DEFAULT_2
100
AcDbLine
 62
8
  6
HIDDEN
 10
3.0333612226
 20
3.9013554737
 11
3.0333612226
 21
3.9513554737
  0
LINE
  5
29C
100
AcDbEntity
  8
DEFAULT_2
100
AcDbLine
 62
8
  6
HIDDEN
 10
3.0383627289
 20
3.9013554737
 11
3.0383627289
 21
3.9513554737
  0
LINE
  5
29D
100
AcDbEntity
  8
0
100
AcDbLine
 62
7
  6
CONTINUOUS
 10
3.0389179737
 20
3.2513554737
 11
3.0389179737
 21
3.2113554737
  0
LINE
  5
29E
100
AcDbEntity
  8
0
100
AcDbLine
 62
7
  6
CONTINUOUS
 10
3.0404934819
 20
3.9513554737
 11
3.0404934819
 21
3.9013554737
  0
LINE
  5
29F
100
AcDbEntity
  8
0
100
AcDbLine
 62
7
  6
CONTINUOUS
 10
3.042663355
 20
3.9013554737
 11
3.042663355
 21
3.9513554737
  0
LINE
  5
2A0
100
AcDbEntity
  8
0
100
AcDbLine
 62
7
  6
CONTINUOUS
 10
3.0432548377
 20
3.2113554737
 11
3.0432548377
 21
3.2513554737
  0
LINE
  5
2A1
100
AcDbEntity
  8
0
100
AcDbLine
 62
7
  6
CONTINUOUS
 10
3.0478148202
 20
3.9013554737
 11
3.0478148202
 21
3.9513554737
  0
LINE
  5
2A2
100
AcDbEntity
  8
0
100
AcDbLine
 62
7
  6
CONTINUOUS
 10
3.0492921397
 20
3.2113554737
 11
3.0492921397
 21
3.2513554737
  0
LINE
  5
2A3
100
AcDbEntity
  8
DEFAULT_2
100
AcDbLine
 62
8
  6
HIDDEN
 10
3.0496873875
 20
3.9513554737
 11
3.0496873875
 21
3.9013554737
  0
LINE
  5
2A4
100
AcDbEntity
  8
DEFAULT_2
100
AcDbLine
 62
8
  6
HIDDEN
 10
3.0522398861
 20
3.9013554737
 11
3.0522398861
 21
3.9513554737
  0
LINE
  5
2A5
100
AcDbEntity
  8
DEFAULT_2
100
AcDbLine
 62
8
  6
HIDDEN
 10
3.0575351713
 20
3.9013554737
 11
3.0575351713
 21
3.9513554737
  0
LINE
  5
2A6
100
AcDbEntity
  8
0
100
AcDbLine
 62
7
  6
CONTINUOUS
 10
3.0591473211
 20
3.9513554737
 11
3.0591473211
 21
3.9013554737
  0
LINE
  5
2A7
100
AcDbEntity
  8
0
100
AcDbLine
 62
7
  6
CONTINUOUS
 10
3.0604504198
 20
3.2513554737
 11
3.0604504198
 21
3.2113554737
  0
LINE
  5
2A8
100
AcDbEntity
  8
0
100
AcDbLine
 62
7
  6
CONTINUOUS
 10
3.0620794034
 20
3.9013554737
 11
3.0620794034
 21
3.9513554737
  0
LINE
  5
2A9
100
AcDbEntity
  8
0
100
AcDbLine
 62
7
  6
CONTINUOUS
 10
3.0653302571
 20
3.2113554737
 11
3.0653302571
 21
3.2513554737
  0
LINE
  5
2AA
100
AcDbEntity
  8
0
100
AcDbLine
 62
7
  6
CONTINUOUS
 10
3.067512198
 20
3.9013554737
 11
3.067512198
 21
3.9513554737
  0
LINE
  5
2AB
100
AcDbEntity
  8
DEFAULT_2
100
AcDbLine
 62
8
  6
HIDDEN
 10
3.0688620093
 20
3.9513554737
 11
3.0688620093
 21
3.9013554737
  0
LINE
  5
2AC
100
AcDbEntity
  8
0
100
AcDbLine
 62
7
  6
CONTINUOUS
 10
3.0715308418
 20
3.2113554737
 11
3.0715308418
 21
3.2513554737
  0
LINE
  5
2AD
100
AcDbEntity
  8
DEFAULT_2
100
AcDbLine
 62
8
  6
HIDDEN
 10
3.0721701811
 20
3.9013554737
 11
3.0721701811
 21
3.9513554737
  0
LINE
  5
2AE
100
AcDbEntity
  8
0
100
AcDbLine
 62
7
  6
CONTINUOUS
 10
3.0729179737
 20
4.0738554737
 11
3.0729179737
 21
4.0288554737
  0
LINE
  5
2AF
100
AcDbEntity
  8
DEFAULT_2
100
AcDbLine
 62
8
  6
HIDDEN
 10
3.0777340108
 20
3.9013554737
 11
3.0777340108
 21
3.9513554737
  0
LINE
  5
2B0
100
AcDbEntity
  8
0
100
AcDbLine
 62
7
  6
CONTINUOUS
 10
3.0788198748
 20
3.9513554737
 11
3.0788198748
 21
3.9013554737
  0
LINE
  5
2B1
100
AcDbEntity
  8
0
100
AcDbLine
 62
7
  6
CONTINUOUS
 10
3.0825001936
 20
3.9013554737
 11
3.0825001936
 21
3.9513554737
  0
LINE
  5
2B2
100
AcDbEntity
  8
0
100
AcDbLine
 62
7
  6
CONTINUOUS
 10
3.0825652247
 20
3.2513554737
 11
3.0825652247
 21
3.2113554737
  0
LINE
  5
2B3
100
AcDbEntity
  8
0
100
AcDbLine
 62
7
  6
CONTINUOUS
 10
3.0879746601
 20
3.2113554737
 11
3.0879746601
 21
3.2513554737
  0
LINE
  5
2B4
100
AcDbEntity
  8
0
100
AcDbLine
 62
7
  6
CONTINUOUS
 10
3.0881884279
 20
3.9013554737
 11
3.0881884279
 21
3.9513554737
  0
LINE
  5
2B5
100
AcDbEntity
  8
DEFAULT_2
100
AcDbLine
 62
8
  6
HIDDEN
 10
3.0890090507
 20
3.9513554737
 11
3.0890090507
 21
3.9013554737
  0
LINE
  5
2B6
100
AcDbEntity
  8
DEFAULT_2
100
AcDbLine
 62
8
  6
HIDDEN
 10
3.0930571307
 20
3.9013554737
 11
3.0930571307
 21
3.9513554737
  0
LINE
  5
2B7
100
AcDbEntity
  8
0
100
AcDbLine
 62
7
  6
CONTINUOUS
 10
3.0943215321
 20
3.2113554737
 11
3.0943215321
 21
3.2513554737
  0
LINE
  5
2B8
100
AcDbEntity
  8
0
100
AcDbLine
 62
7
  6
CONTINUOUS
 10
3.0979179737
 20
4.3643554737
 11
3.0979179737
 21
4.5593554737
  0
LINE
  5
2B9
100
AcDbEntity
  8
DEFAULT_2
100
AcDbLine
 62
8
  6
HIDDEN
 10
3.0988629907
 20
3.9013554737
 11
3.0988629907
 21
3.9513554737
  0
LINE
  5
2BA
100
AcDbEntity
  8
0
100
AcDbLine
 62
7
  6
CONTINUOUS
 10
3.0994173943
 20
3.9513554737
 11
3.0994173943
 21
3.9013554737
  0
LINE
  5
2BB
100
AcDbEntity
  8
0
100
AcDbLine
 62
7
  6
CONTINUOUS
 10
3.1038284113
 20
3.9013554737
 11
3.1038284113
 21
3.9513554737
  0
LINE
  5
2BC
100
AcDbEntity
  8
0
100
AcDbLine
 62
7
  6
CONTINUOUS
 10
3.1052017733
 20
3.2513554737
 11
3.1052017733
 21
3.2113554737
  0
LINE
  5
2BD
100
AcDbEntity
  8
0
100
AcDbLine
 62
7
  6
CONTINUOUS
 10
3.1097449782
 20
3.9013554737
 11
3.1097449782
 21
3.9513554737
  0
LINE
  5
2BE
100
AcDbEntity
  8
DEFAULT_2
100
AcDbLine
 62
8
  6
HIDDEN
 10
3.1100325018
 20
3.9513554737
 11
3.1100325018
 21
3.9013554737
  0
LINE
  5
2BF
100
AcDbEntity
  8
0
100
AcDbLine
 62
7
  6
CONTINUOUS
 10
3.1111259798
 20
3.2113554737
 11
3.1111259798
 21
3.2513554737
  0
LINE
  5
2C0
100
AcDbEntity
  8
DEFAULT_2
100
AcDbLine
 62
8
  6
HIDDEN
 10
3.1148011992
 20
3.9013554737
 11
3.1148011992
 21
3.9513554737
  0
LINE
  5
2C1
100
AcDbEntity
  8
0
100
AcDbLine
 62
7
  6
CONTINUOUS
 10
3.1176017428
 20
3.2113554737
 11
3.1176017428
 21
3.2513554737
  0
LINE
  5
2C2
100
AcDbEntity
  8
0
100
AcDbLine
 62
7
  6
CONTINUOUS
 10
3.1208417231
 20
3.9513554737
 11
3.1208417231
 21
3.9013554737
  0
LINE
  5
2C3
100
AcDbEntity
  8
0
100
AcDbLine
 62
7
  6
CONTINUOUS
 10
3.1241679737
 20
4.0888554737
 11
3.1241679737
 21
4.194669204
  0
LINE
  5
2C4
100
AcDbEntity
  8
0
100
AcDbLine
 62
7
  6
CONTINUOUS
 10
3.1259624178
 20
3.9013554737
 11
3.1259624178
 21
3.9513554737
  0
LINE
  5
2C5
100
AcDbEntity
  8
0
100
AcDbLine
 62
7
  6
CONTINUOUS
 10
3.1282980203
 20
3.2513554737
 11
3.1282980203
 21
3.2113554737
  0
LINE
  5
2C6
100
AcDbEntity
  8
DEFAULT_2
100
AcDbLine
 62
8
  6
HIDDEN
 10
3.1318321765
 20
3.9513554737
 11
3.1318321765
 21
3.9013554737
  0
LINE
  5
2C7
100
AcDbEntity
  8
0
100
AcDbLine
 62
7
  6
CONTINUOUS
 10
3.1320791221
 20
3.9013554737
 11
3.1320791221
 21
3.9513554737
  0
LINE
  5
2C8
100
AcDbEntity
  8
0
100
AcDbLine
 62
7
  6
CONTINUOUS
 10
3.1347207601
 20
3.2113554737
 11
3.1347207601
 21
3.2513554737
  0
LINE
  5
2C9
100
AcDbEntity
  8
DEFAULT_2
100
AcDbLine
 62
8
  6
HIDDEN
 10
3.1372987661
 20
3.9013554737
 11
3.1372987661
 21
3.9513554737
  0
LINE
  5
2CA
100
AcDbEntity
  8
0
100
AcDbLine
 62
7
  6
CONTINUOUS
 10
3.1413076645
 20
3.2113554737
 11
3.1413076645
 21
3.2513554737
  0
LINE
  5
2CB
100
AcDbEntity
  8
0
100
AcDbLine
 62
7
  6
CONTINUOUS
 10
3.1429907645
 20
3.9513554737
 11
3.1429907645
 21
3.9013554737
  0
LINE
  5
2CC
100
AcDbEntity
  8
DEFAULT_2
100
AcDbLine
 62
8
  6
HIDDEN
 10
3.1435046625
 20
3.9013554737
 11
3.1435046625
 21
3.9513554737
  0
LINE
  5
2CD
100
AcDbEntity
  8
0
100
AcDbLine
 62
7
  6
CONTINUOUS
 10
3.1487967344
 20
3.9013554737
 11
3.1487967344
 21
3.9513554737
  0
LINE
  5
2CE
100
AcDbEntity
  8
0
100
AcDbLine
 62
7
  6
CONTINUOUS
 10
3.1517906605
 20
3.2513554737
 11
3.1517906605
 21
3.2113554737
  0
LINE
  5
2CF
100
AcDbEntity
  8
DEFAULT_2
100
AcDbLine
 62
8
  6
HIDDEN
 10
3.1543041892
 20
3.9513554737
 11
3.1543041892
 21
3.9013554737
  0
LINE
  5
2D0
100
AcDbEntity
  8
0
100
AcDbLine
 62
7
  6
CONTINUOUS
 10
3.1550844272
 20
3.9013554737
 11
3.1550844272
 21
3.9513554737
  0
LINE
  5
2D1
100
AcDbEntity
  8
0
100
AcDbLine
 62
7
  6
CONTINUOUS
 10
3.1586943294
 20
3.2113554737
 11
3.1586943294
 21
3.2513554737
  0
LINE
  5
2D2
100
AcDbEntity
  8
DEFAULT_2
100
AcDbLine
 62
8
  6
HIDDEN
 10
3.1604426203
 20
3.9013554737
 11
3.1604426203
 21
3.9513554737
  0
LINE
  5
2D3
100
AcDbEntity
  8
0
100
AcDbLine
 62
7
  6
CONTINUOUS
 10
3.1653743209
 20
3.2113554737
 11
3.1653743209
 21
3.2513554737
  0
LINE
  5
2D4
100
AcDbEntity
  8
0
100
AcDbLine
 62
7
  6
CONTINUOUS
 10
3.1657589682
 20
3.9513554737
 11
3.1657589682
 21
3.9013554737
  0
LINE
  5
2D5
100
AcDbEntity
  8
DEFAULT_2
100
AcDbLine
 62
8
  6
HIDDEN
 10
3.1668046164
 20
3.9013554737
 11
3.1668046164
 21
3.9513554737
  0
LINE
  5
2D6
100
AcDbEntity
  8
0
100
AcDbLine
 62
7
  6
CONTINUOUS
 10
3.1722225452
 20
3.9013554737
 11
3.1722225452
 21
3.9513554737
  0
LINE
  5
2D7
100
AcDbEntity
  8
0
100
AcDbLine
 62
7
  6
CONTINUOUS
 10
3.1754179737
 20
4.2743554737
 11
3.1754179737
 21
4.2868554737
  0
LINE
  5
2D8
100
AcDbEntity
  8
0
100
AcDbLine
 62
7
  6
CONTINUOUS
 10
3.1756153023
 20
3.2513554737
 11
3.1756153023
 21
3.2113554737
  0
LINE
  5
2D9
100
AcDbEntity
  8
DEFAULT_2
100
AcDbLine
 62
8
  6
HIDDEN
 10
3.1773414506
 20
3.9513554737
 11
3.1773414506
 21
3.9013554737
  0
LINE
  5
2DA
100
AcDbEntity
  8
0
100
AcDbLine
 62
7
  6
CONTINUOUS
 10
3.1786512629
 20
3.9013554737
 11
3.1786512629
 21
3.9513554737
  0
LINE
  5
2DB
100
AcDbEntity
  8
0
100
AcDbLine
 62
7
  6
CONTINUOUS
 10
3.1829809777
 20
3.2113554737
 11
3.1829809777
 21
3.2513554737
  0
LINE
  5
2DC
100
AcDbEntity
  8
DEFAULT_2
100
AcDbLine
 62
8
  6
HIDDEN
 10
3.1841224708
 20
3.9013554737
 11
3.1841224708
 21
3.9513554737
  0
LINE
  5
2DD
100
AcDbEntity
  8
0
100
AcDbLine
 62
7
  6
CONTINUOUS
 10
3.1890378333
 20
3.9513554737
 11
3.1890378333
 21
3.9013554737
  0
LINE
  5
2DE
100
AcDbEntity
  8
0
100
AcDbLine
 62
7
  6
CONTINUOUS
 10
3.189735747
 20
3.2113554737
 11
3.189735747
 21
3.2513554737
  0
LINE
  5
2DF
100
AcDbEntity
  8
DEFAULT_2
100
AcDbLine
 62
8
  6
HIDDEN
 10
3.1906102488
 20
3.9013554737
 11
3.1906102488
 21
3.9513554737
  0
LINE
  5
2E0
100
AcDbEntity
  8
0
100
AcDbLine
 62
7
  6
CONTINUOUS
 10
3.1961282156
 20
3.9013554737
 11
3.1961282156
 21
3.9513554737
  0
LINE
  5
2E1
100
AcDbEntity
  8
0
100
AcDbLine
 62
7
  6
CONTINUOUS
 10
3.199706644
 20
3.2513554737
 11
3.199706644
 21
3.2113554737
  0
LINE
  5
2E2
100
AcDbEntity
  8
DEFAULT_2
100
AcDbLine
 62
8
  6
HIDDEN
 10
3.2008341776
 20
3.9513554737
 11
3.2008341776
 21
3.9013554737
  0
LINE
  5
2E3
100
AcDbEntity
  8
0
100
AcDbLine
 62
7
  6
CONTINUOUS
 10
3.2026673224
 20
3.9013554737
 11
3.2026673224
 21
3.9513554737
  0
LINE
  5
2E4
100
AcDbEntity
  8
0
100
AcDbLine
 62
7
  6
CONTINUOUS
 10
3.2075141371
 20
3.2113554737
 11
3.2075141371
 21
3.2513554737
  0
LINE
  5
2E5
100
AcDbEntity
  8
DEFAULT_2
100
AcDbLine
 62
8
  6
HIDDEN
 10
3.2082254723
 20
3.9013554737
 11
3.2082254723
 21
3.9513554737
  0
LINE
  5
2E6
100
AcDbEntity
  8
0
100
AcDbLine
 62
7
  6
CONTINUOUS
 10
3.2127164255
 20
3.9513554737
 11
3.2127164255
 21
3.9013554737
  0
LINE
  5
2E7
100
AcDbEntity
  8
0
100
AcDbLine
 62
7
  6
CONTINUOUS
 10
3.2143251698
 20
3.2113554737
 11
3.2143251698
 21
3.2513554737
  0
LINE
  5
2E8
100
AcDbEntity
  8
DEFAULT_2
100
AcDbLine
 62
8
  6
HIDDEN
 10
3.214808115
 20
3.9013554737
 11
3.214808115
 21
3.9513554737
  0
LINE
  5
2E9
100
AcDbEntity
  8
0
100
AcDbLine
 62
7
  6
CONTINUOUS
 10
3.2203998242
 20
3.9013554737
 11
3.2203998242
 21
3.9513554737
  0
LINE
  5
2EA
100
AcDbEntity
  8
0
100
AcDbLine
 62
7
  6
CONTINUOUS
 10
3.2239986528
 20
3.2513554737
 11
3.2239986528
 21
3.2113554737
  0
LINE
  5
2EB
100
AcDbEntity
  8
DEFAULT_2
100
AcDbLine
 62
8
  6
HIDDEN
 10
3.2246704168
 20
3.9513554737
 11
3.2246704168
 21
3.9013554737
  0
LINE
  5
2EC
100
AcDbEntity
  8
0
100
AcDbLine
 62
7
  6
CONTINUOUS
 10
3.2270181582
 20
3.9013554737
 11
3.2270181582
 21
3.9513554737
  0
LINE
  5
2ED
100
AcDbEntity
  8
0
100
AcDbLine
 62
7
  6
CONTINUOUS
 10
3.2322265639
 20
3.2113554737
 11
3.2322265639
 21
3.2513554737
  0
LINE
  5
2EE
100
AcDbEntity
  8
DEFAULT_2
100
AcDbLine
 62
8
  6
HIDDEN
 10
3.232636763
 20
3.9013554737
 11
3.232636763
 21
3.9513554737
  0
LINE
  5
2EF
100
AcDbEntity
  8
0
100
AcDbLine
 62
7
  6
CONTINUOUS
 10
3.2366819056
 20
3.9513554737
 11
3.2366819056
 21
3.9013554737
  0
LINE
  5
2F0
100
AcDbEntity
  8
0
100
AcDbLine
 62
7
  6
CONTINUOUS
 10
3.2390751914
 20
3.2113554737
 11
3.2390751914
 21
3.2513554737
  0
LINE
  5
2F1
100
AcDbEntity
  8
DEFAULT_2
100
AcDbLine
 62
8
  6
HIDDEN
 10
3.2392829011
 20
3.9013554737
 11
3.2392829011
 21
3.9513554737
  0
LINE
  5
2F2
100
AcDbEntity
  8
0
100
AcDbLine
 62
7
  6
CONTINUOUS
 10
3.2449217056
 20
3.9013554737
 11
3.2449217056
 21
3.9513554737
  0
LINE
  5
2F3
100
AcDbEntity
  8
0
100
AcDbLine
 62
7
  6
CONTINUOUS
 10
3.2484247461
 20
3.2513554737
 11
3.2484247461
 21
3.2113554737
  0
LINE
  5
2F4
100
AcDbEntity
  8
DEFAULT_2
100
AcDbLine
 62
8
  6
HIDDEN
 10
3.2487365775
 20
3.9513554737
 11
3.2487365775
 21
3.9013554737
  0
LINE
  5
2F5
100
AcDbEntity
  8
0
100
AcDbLine
 62
7
  6
CONTINUOUS
 10
3.2515877275
 20
3.9013554737
 11
3.2515877275
 21
3.9513554737
  0
LINE
  5
2F6
100
AcDbEntity
  8
0
100
AcDbLine
 62
7
  6
CONTINUOUS
 10
3.257050523
 20
3.2113554737
 11
3.257050523
 21
3.2513554737
  0
LINE
  5
2F7
100
AcDbEntity
  8
DEFAULT_2
100
AcDbLine
 62
8
  6
HIDDEN
 10
3.257240012
 20
3.9013554737
 11
3.257240012
 21
3.9513554737
  0
LINE
  5
2F8
100
AcDbEntity
  8
0
100
AcDbLine
 62
7
  6
CONTINUOUS
 10
3.2608200669
 20
3.9513554737
 11
3.2608200669
 21
3.9013554737
  0
LINE
  5
2F9
100
AcDbEntity
  8
0
100
AcDbLine
 62
7
  6
CONTINUOUS
 10
3.2639179737
 20
3.2113554737
 11
3.2639179737
 21
3.2513554737
  0
LINE
  5
2FA
100
AcDbEntity
  8
DEFAULT_2
100
AcDbLine
 62
8
  6
HIDDEN
 10
3.2639179737
 20
3.9013554737
 11
3.2639179737
 21
3.9513554737
  0
LINE
  5
2FB
100
AcDbEntity
  8
0
100
AcDbLine
 62
7
  6
CONTINUOUS
 10
3.2695770021
 20
3.9013554737
 11
3.2695770021
 21
3.9513554737
  0
LINE
  5
2FC
100
AcDbEntity
  8
DEFAULT_2
100
AcDbLine
 62
8
  6
HIDDEN
 10
3.2729179737
 20
3.9513554737
 11
3.2729179737
 21
3.9013554737
  0
LINE
  5
2FD
100
AcDbEntity
  8
0
100
AcDbLine
 62
7
  6
CONTINUOUS
 10
3.2729179737
 20
3.2513554737
 11
3.2729179737
 21
3.2113554737
  0
LINE
  5
2FE
100
AcDbEntity
  8
0
100
AcDbLine
 62
7
  6
CONTINUOUS
 10
3.2762589452
 20
3.9013554737
 11
3.2762589452
 21
3.9513554737
  0
LINE
  5
2FF
100
AcDbEntity
  8
0
100
AcDbLine
 62
7
  6
CONTINUOUS
 10
3.2819179737
 20
3.2113554737
 11
3.2819179737
 21
3.2513554737
  0
LINE
  5
300
100
AcDbEntity
  8
DEFAULT_2
100
AcDbLine
 62
8
  6
HIDDEN
 10
3.2819179737
 20
3.9013554737
 11
3.2819179737
 21
3.9513554737
  0
LINE
  5
301
100
AcDbEntity
  8
0
100
AcDbLine
 62
7
  6
CONTINUOUS
 10
3.2850158804
 20
3.9513554737
 11
3.2850158804
 21
3.9013554737
  0
LINE
  5
302
100
AcDbEntity
  8
DEFAULT_2
100
AcDbLine
 62
8
  6
HIDDEN
 10
3.2885959353
 20
3.9013554737
 11
3.2885959353
 21
3.9513554737
  0
LINE
  5
303
100
AcDbEntity
  8
0
100
AcDbLine
 62
7
  6
CONTINUOUS
 10
3.2887854243
 20
3.2113554737
 11
3.2887854243
 21
3.2513554737
  0
LINE
  5
304
100
AcDbEntity
  8
0
100
AcDbLine
 62
7
  6
CONTINUOUS
 10
3.2942482198
 20
3.9013554737
 11
3.2942482198
 21
3.9513554737
  0
LINE
  5
305
100
AcDbEntity
  8
DEFAULT_2
100
AcDbLine
 62
8
  6
HIDDEN
 10
3.2970993698
 20
3.9513554737
 11
3.2970993698
 21
3.9013554737
  0
LINE
  5
306
100
AcDbEntity
  8
0
100
AcDbLine
 62
7
  6
CONTINUOUS
 10
3.2974112012
 20
3.2513554737
 11
3.2974112012
 21
3.2113554737
  0
LINE
  5
307
100
AcDbEntity
  8
0
100
AcDbLine
 62
7
  6
CONTINUOUS
 10
3.3009142417
 20
3.9013554737
 11
3.3009142417
 21
3.9513554737
  0
LINE
  5
308
100
AcDbEntity
  8
DEFAULT_2
100
AcDbLine
 62
8
  6
HIDDEN
 10
3.3065530462
 20
3.9013554737
 11
3.3065530462
 21
3.9513554737
  0
LINE
  5
309
100
AcDbEntity
  8
0
100
AcDbLine
 62
7
  6
CONTINUOUS
 10
3.3067607559
 20
3.2113554737
 11
3.3067607559
 21
3.2513554737
  0
LINE
  5
30A
100
AcDbEntity
  8
0
100
AcDbLine
 62
7
  6
CONTINUOUS
 10
3.3091540417
 20
3.9513554737
 11
3.3091540417
 21
3.9013554737
  0
LINE
  5
30B
100
AcDbEntity
  8
DEFAULT_2
100
AcDbLine
 62
8
  6
HIDDEN
 10
3.3131991843
 20
3.9013554737
 11
3.3131991843
 21
3.9513554737
  0
LINE
  5
30C
100
AcDbEntity
  8
0
100
AcDbLine
 62
7
  6
CONTINUOUS
 10
3.3136093834
 20
3.2113554737
 11
3.3136093834
 21
3.2513554737
  0
LINE
  5
30D
100
AcDbEntity
  8
0
100
AcDbLine
 62
7
  6
CONTINUOUS
 10
3.3188177891
 20
3.9013554737
 11
3.3188177891
 21
3.9513554737
  0
LINE
  5
30E
100
AcDbEntity
  8
DEFAULT_2
100
AcDbLine
 62
8
  6
HIDDEN
 10
3.3211655305
 20
3.9513554737
 11
3.3211655305
 21
3.9013554737
  0
LINE
  5
30F
100
AcDbEntity
  8
0
100
AcDbLine
 62
7
  6
CONTINUOUS
 10
3.3218372945
 20
3.2513554737
 11
3.3218372945
 21
3.2113554737
  0
LINE
  5
310
100
AcDbEntity
  8
0
100
AcDbLine
 62
7
  6
CONTINUOUS
 10
3.3254361231
 20
3.9013554737
 11
3.3254361231
 21
3.9513554737
  0
LINE
  5
311
100
AcDbEntity
  8
DEFAULT_2
100
AcDbLine
 62
8
  6
HIDDEN
 10
3.3310278323
 20
3.9013554737
 11
3.3310278323
 21
3.9513554737
  0
LINE
  5
312
100
AcDbEntity
  8
0
100
AcDbLine
 62
7
  6
CONTINUOUS
 10
3.3315107775
 20
3.2113554737
 11
3.3315107775
 21
3.2513554737
  0
LINE
  5
313
100
AcDbEntity
  8
0
100
AcDbLine
 62
7
  6
CONTINUOUS
 10
3.3331195218
 20
3.9513554737
 11
3.3331195218
 21
3.9013554737
  0
LINE
  5
314
100
AcDbEntity
  8
DEFAULT_2
100
AcDbLine
 62
8
  6
HIDDEN
 10
3.337610475
 20
3.9013554737
 11
3.337610475
 21
3.9513554737
  0
LINE
  5
315
100
AcDbEntity
  8
0
100
AcDbLine
 62
7
  6
CONTINUOUS
 10
3.3383218102
 20
3.2113554737
 11
3.3383218102
 21
3.2513554737
  0
LINE
  5
316
100
AcDbEntity
  8
0
100
AcDbLine
 62
7
  6
CONTINUOUS
 10
3.3431686249
 20
3.9013554737
 11
3.3431686249
 21
3.9513554737
  0
LINE
  5
317
100
AcDbEntity
  8
DEFAULT_2
100
AcDbLine
 62
8
  6
HIDDEN
 10
3.3450017697
 20
3.9513554737
 11
3.3450017697
 21
3.9013554737
  0
LINE
  5
318
100
AcDbEntity
  8
0
100
AcDbLine
 62
7
  6
CONTINUOUS
 10
3.3461293033
 20
3.2513554737
 11
3.3461293033
 21
3.2113554737
  0
LINE
  5
319
100
AcDbEntity
  8
0
100
AcDbLine
 62
7
  6
CONTINUOUS
 10
3.3497077317
 20
3.9013554737
 11
3.3497077317
 21
3.9513554737
  0
LINE
  5
31A
100
AcDbEntity
  8
DEFAULT_2
100
AcDbLine
 62
8
  6
HIDDEN
 10
3.3552256985
 20
3.9013554737
 11
3.3552256985
 21
3.9513554737
  0
LINE
  5
31B
100
AcDbEntity
  8
0
100
AcDbLine
 62
7
  6
CONTINUOUS
 10
3.3561002003
 20
3.2113554737
 11
3.3561002003
 21
3.2513554737
  0
LINE
  5
31C
100
AcDbEntity
  8
0
100
AcDbLine
 62
7
  6
CONTINUOUS
 10
3.356798114
 20
3.9513554737
 11
3.356798114
 21
3.9013554737
  0
LINE
  5
31D
100
AcDbEntity
  8
DEFAULT_2
100
AcDbLine
 62
8
  6
HIDDEN
 10
3.3617134765
 20
3.9013554737
 11
3.3617134765
 21
3.9513554737
  0
LINE
  5
31E
100
AcDbEntity
  8
0
100
AcDbLine
 62
7
  6
CONTINUOUS
 10
3.3628549696
 20
3.2113554737
 11
3.3628549696
 21
3.2513554737
  0
LINE
  5
31F
100
AcDbEntity
  8
0
100
AcDbLine
 62
7
  6
CONTINUOUS
 10
3.3671846844
 20
3.9013554737
 11
3.3671846844
 21
3.9513554737
  0
LINE
  5
320
100
AcDbEntity
  8
DEFAULT_2
100
AcDbLine
 62
8
  6
HIDDEN
 10
3.3684944967
 20
3.9513554737
 11
3.3684944967
 21
3.9013554737
  0
LINE
  5
321
100
AcDbEntity
  8
0
100
AcDbLine
 62
7
  6
CONTINUOUS
 10
3.370220645
 20
3.2513554737
 11
3.370220645
 21
3.2113554737
  0
LINE
  5
322
100
AcDbEntity
  8
0
100
AcDbLine
 62
7
  6
CONTINUOUS
 10
3.3704179737
 20
4.2743554737
 11
3.3704179737
 21
4.2868554737
  0
LINE
  5
323
100
AcDbEntity
  8
0
100
AcDbLine
 62
7
  6
CONTINUOUS
 10
3.3736134021
 20
3.9013554737
 11
3.3736134021
 21
3.9513554737
  0
LINE
  5
324
100
AcDbEntity
  8
DEFAULT_2
100
AcDbLine
 62
8
  6
HIDDEN
 10
3.3790313309
 20
3.9013554737
 11
3.3790313309
 21
3.9513554737
  0
LINE
  5
325
100
AcDbEntity
  8
0
100
AcDbLine
 62
7
  6
CONTINUOUS
 10
3.3800769791
 20
3.9513554737
 11
3.3800769791
 21
3.9013554737
  0
LINE
  5
326
100
AcDbEntity
  8
0
100
AcDbLine
 62
7
  6
CONTINUOUS
 10
3.3804616264
 20
3.2113554737
 11
3.3804616264
 21
3.2513554737
  0
LINE
  5
327
100
AcDbEntity
  8
DEFAULT_2
100
AcDbLine
 62
8
  6
HIDDEN
 10
3.385393327
 20
3.9013554737
 11
3.385393327
 21
3.9513554737
  0
LINE
  5
328
100
AcDbEntity
  8
0
100
AcDbLine
 62
7
  6
CONTINUOUS
 10
3.3871416179
 20
3.2113554737
 11
3.3871416179
 21
3.2513554737
  0
LINE
  5
329
100
AcDbEntity
  8
0
100
AcDbLine
 62
7
  6
CONTINUOUS
 10
3.3907515201
 20
3.9013554737
 11
3.3907515201
 21
3.9513554737
  0
LINE
  5
32A
100
AcDbEntity
  8
DEFAULT_2
100
AcDbLine
 62
8
  6
HIDDEN
 10
3.3915317581
 20
3.9513554737
 11
3.3915317581
 21
3.9013554737
  0
LINE
  5
32B
100
AcDbEntity
  8
0
100
AcDbLine
 62
7
  6
CONTINUOUS
 10
3.3940452868
 20
3.2513554737
 11
3.3940452868
 21
3.2113554737
  0
LINE
  5
32C
100
AcDbEntity
  8
0
100
AcDbLine
 62
7
  6
CONTINUOUS
 10
3.3970392129
 20
3.9013554737
 11
3.3970392129
 21
3.9513554737
  0
LINE
  5
32D
100
AcDbEntity
  8
DEFAULT_2
100
AcDbLine
 62
8
  6
HIDDEN
 10
3.4023312848
 20
3.9013554737
 11
3.4023312848
 21
3.9513554737
  0
LINE
  5
32E
100
AcDbEntity
  8
0
100
AcDbLine
 62
7
  6
CONTINUOUS
 10
3.4028451828
 20
3.9513554737
 11
3.4028451828
 21
3.9013554737
  0
LINE
  5
32F
100
AcDbEntity
  8
0
100
AcDbLine
 62
7
  6
CONTINUOUS
 10
3.4045282828
 20
3.2113554737
 11
3.4045282828
 21
3.2513554737
  0
LINE
  5
330
100
AcDbEntity
  8
DEFAULT_2
100
AcDbLine
 62
8
  6
HIDDEN
 10
3.4085371812
 20
3.9013554737
 11
3.4085371812
 21
3.9513554737
  0
LINE
  5
331
100
AcDbEntity
  8
0
100
AcDbLine
 62
7
  6
CONTINUOUS
 10
3.4111151872
 20
3.2113554737
 11
3.4111151872
 21
3.2513554737
  0
LINE
  5
332
100
AcDbEntity
  8
0
100
AcDbLine
 62
7
  6
CONTINUOUS
 10
3.4137568252
 20
3.9013554737
 11
3.4137568252
 21
3.9513554737
  0
LINE
  5
333
100
AcDbEntity
  8
DEFAULT_2
100
AcDbLine
 62
8
  6
HIDDEN
 10
3.4140037708
 20
3.9513554737
 11
3.4140037708
 21
3.9013554737
  0
LINE
  5
334
100
AcDbEntity
  8
0
100
AcDbLine
 62
7
  6
CONTINUOUS
 10
3.417537927
 20
3.2513554737
 11
3.417537927
 21
3.2113554737
  0
LINE
  5
335
100
AcDbEntity
  8
0
100
AcDbLine
 62
7
  6
CONTINUOUS
 10
3.4198735295
 20
3.9013554737
 11
3.4198735295
 21
3.9513554737
  0
LINE
  5
336
100
AcDbEntity
  8
0
100
AcDbLine
 62
7
  6
CONTINUOUS
 10
3.4216679737
 20
4.0888554737
 11
3.4216679737
 21
4.194669204
  0
LINE
  5
337
100
AcDbEntity
  8
0
100
AcDbLine
 62
7
  6
CONTINUOUS
 10
3.4249942242
 20
3.9513554737
 11
3.4249942242
 21
3.9013554737
  0
LINE
  5
338
100
AcDbEntity
  8
0
100
AcDbLine
 62
7
  6
CONTINUOUS
 10
3.4282342045
 20
3.2113554737
 11
3.4282342045
 21
3.2513554737
  0
LINE
  5
339
100
AcDbEntity
  8
DEFAULT_2
100
AcDbLine
 62
8
  6
HIDDEN
 10
3.4310347481
 20
3.9013554737
 11
3.4310347481
 21
3.9513554737
  0
LINE
  5
33A
100
AcDbEntity
  8
0
100
AcDbLine
 62
7
  6
CONTINUOUS
 10
3.4347099675
 20
3.2113554737
 11
3.4347099675
 21
3.2513554737
  0
LINE
  5
33B
100
AcDbEntity
  8
DEFAULT_2
100
AcDbLine
 62
8
  6
HIDDEN
 10
3.4358034455
 20
3.9513554737
 11
3.4358034455
 21
3.9013554737
  0
LINE
  5
33C
100
AcDbEntity
  8
0
100
AcDbLine
 62
7
  6
CONTINUOUS
 10
3.4360909691
 20
3.9013554737
 11
3.4360909691
 21
3.9513554737
  0
LINE
  5
33D
100
AcDbEntity
  8
0
100
AcDbLine
 62
7
  6
CONTINUOUS
 10
3.440634174
 20
3.2513554737
 11
3.440634174
 21
3.2113554737
  0
LINE
  5
33E
100
AcDbEntity
  8
0
100
AcDbLine
 62
7
  6
CONTINUOUS
 10
3.442007536
 20
3.9013554737
 11
3.442007536
 21
3.9513554737
  0
LINE
  5
33F
100
AcDbEntity
  8
0
100
AcDbLine
 62
7
  6
CONTINUOUS
 10
3.446418553
 20
3.9513554737
 11
3.446418553
 21
3.9013554737
  0
LINE
  5
340
100
AcDbEntity
  8
DEFAULT_2
100
AcDbLine
 62
8
  6
HIDDEN
 10
3.4469729566
 20
3.9013554737
 11
3.4469729566
 21
3.9513554737
  0
LINE
  5
341
100
AcDbEntity
  8
0
100
AcDbLine
 62
7
  6
CONTINUOUS
 10
3.4515144152
 20
3.2113554737
 11
3.4515144152
 21
3.2513554737
  0
LINE
  5
342
100
AcDbEntity
  8
DEFAULT_2
100
AcDbLine
 62
8
  6
HIDDEN
 10
3.4527788166
 20
3.9013554737
 11
3.4527788166
 21
3.9513554737
  0
LINE
  5
343
100
AcDbEntity
  8
DEFAULT_2
100
AcDbLine
 62
8
  6
HIDDEN
 10
3.4568268966
 20
3.9513554737
 11
3.4568268966
 21
3.9013554737
  0
LINE
  5
344
100
AcDbEntity
  8
0
100
AcDbLine
 62
7
  6
CONTINUOUS
 10
3.4576475194
 20
3.9013554737
 11
3.4576475194
 21
3.9513554737
  0
LINE
  5
345
100
AcDbEntity
  8
0
100
AcDbLine
 62
7
  6
CONTINUOUS
 10
3.4578612872
 20
3.2113554737
 11
3.4578612872
 21
3.2513554737
  0
LINE
  5
346
100
AcDbEntity
  8
0
100
AcDbLine
 62
7
  6
CONTINUOUS
 10
3.4632707226
 20
3.2513554737
 11
3.4632707226
 21
3.2113554737
  0
LINE
  5
347
100
AcDbEntity
  8
0
100
AcDbLine
 62
7
  6
CONTINUOUS
 10
3.4633357537
 20
3.9013554737
 11
3.4633357537
 21
3.9513554737
  0
LINE
  5
348
100
AcDbEntity
  8
0
100
AcDbLine
 62
7
  6
CONTINUOUS
 10
3.4670160725
 20
3.9513554737
 11
3.4670160725
 21
3.9013554737
  0
LINE
  5
349
100
AcDbEntity
  8
DEFAULT_2
100
AcDbLine
 62
8
  6
HIDDEN
 10
3.4681019365
 20
3.9013554737
 11
3.4681019365
 21
3.9513554737
  0
LINE
  5
34A
100
AcDbEntity
  8
0
100
AcDbLine
 62
7
  6
CONTINUOUS
 10
3.4729179737
 20
4.0738554737
 11
3.4729179737
 21
4.0288554737
  0
LINE
  5
34B
100
AcDbEntity
  8
DEFAULT_2
100
AcDbLine
 62
8
  6
HIDDEN
 10
3.4736657662
 20
3.9013554737
 11
3.4736657662
 21
3.9513554737
  0
LINE
  5
34C
100
AcDbEntity
  8
0
100
AcDbLine
 62
7
  6
CONTINUOUS
 10
3.4743051055
 20
3.2113554737
 11
3.4743051055
 21
3.2513554737
  0
LINE
  5
34D
100
AcDbEntity
  8
DEFAULT_2
100
AcDbLine
 62
8
  6
HIDDEN
 10
3.476973938
 20
3.9513554737
 11
3.476973938
 21
3.9013554737
  0
LINE
  5
34E
100
AcDbEntity
  8
0
100
AcDbLine
 62
7
  6
CONTINUOUS
 10
3.4783237493
 20
3.9013554737
 11
3.4783237493
 21
3.9513554737
  0
LINE
  5
34F
100
AcDbEntity
  8
0
100
AcDbLine
 62
7
  6
CONTINUOUS
 10
3.4805056902
 20
3.2113554737
 11
3.4805056902
 21
3.2513554737
  0
LINE
  5
350
100
AcDbEntity
  8
0
100
AcDbLine
 62
7
  6
CONTINUOUS
 10
3.4837565439
 20
3.9013554737
 11
3.4837565439
 21
3.9513554737
  0
LINE
  5
351
100
AcDbEntity
  8
0
100
AcDbLine
 62
7
  6
CONTINUOUS
 10
3.4853855275
 20
3.2513554737
 11
3.4853855275
 21
3.2113554737
  0
LINE
  5
352
100
AcDbEntity
  8
0
100
AcDbLine
 62
7
  6
CONTINUOUS
 10
3.4866886262
 20
3.9513554737
 11
3.4866886262
 21
3.9013554737
  0
LINE
  5
353
100
AcDbEntity
  8
DEFAULT_2
100
AcDbLine
 62
8
  6
HIDDEN
 10
3.488300776
 20
3.9013554737
 11
3.488300776
 21
3.9513554737
  0
LINE
  5
354
100
AcDbEntity
  8
DEFAULT_2
100
AcDbLine
 62
8
  6
HIDDEN
 10
3.4935960612
 20
3.9013554737
 11
3.4935960612
 21
3.9513554737
  0
LINE
  5
355
100
AcDbEntity
  8
DEFAULT_2
100
AcDbLine
 62
8
  6
HIDDEN
 10
3.4961485598
 20
3.9513554737
 11
3.4961485598
 21
3.9013554737
  0
LINE
  5
356
100
AcDbEntity
  8
0
100
AcDbLine
 62
7
  6
CONTINUOUS
 10
3.4965438076
 20
3.2113554737
 11
3.4965438076
 21
3.2513554737
  0
LINE
  5
357
100
AcDbEntity
  8
0
100
AcDbLine
 62
7
  6
CONTINUOUS
 10
3.4980211271
 20
3.9013554737
 11
3.4980211271
 21
3.9513554737
  0
LINE
  5
358
100
AcDbEntity
  8
0
100
AcDbLine
 62
7
  6
CONTINUOUS
 10
3.5025811096
 20
3.2113554737
 11
3.5025811096
 21
3.2513554737
  0
LINE
  5
359
100
AcDbEntity
  8
0
100
AcDbLine
 62
7
  6
CONTINUOUS
 10
3.5031725923
 20
3.9013554737
 11
3.5031725923
 21
3.9513554737
  0
LINE
  5
35A
100
AcDbEntity
  8
0
100
AcDbLine
 62
7
  6
CONTINUOUS
 10
3.5053424654
 20
3.9513554737
 11
3.5053424654
 21
3.9013554737
  0
LINE
  5
35B
100
AcDbEntity
  8
0
100
AcDbLine
 62
7
  6
CONTINUOUS
 10
3.5069179737
 20
3.2513554737
 11
3.5069179737
 21
3.2113554737
  0
LINE
  5
35C
100
AcDbEntity
  8
DEFAULT_2
100
AcDbLine
 62
8
  6
HIDDEN
 10
3.5074732184
 20
3.9013554737
 11
3.5074732184
 21
3.9513554737
  0
LINE
  5
35D
100
AcDbEntity
  8
DEFAULT_2
100
AcDbLine
 62
8
  6
HIDDEN
 10
3.5124747247
 20
3.9013554737
 11
3.5124747247
 21
3.9513554737
  0
LINE
  5
35E
100
AcDbEntity
  8
DEFAULT_2
100
AcDbLine
 62
8
  6
HIDDEN
 10
3.5142593862
 20
3.9513554737
 11
3.5142593862
 21
3.9013554737
  0
LINE
  5
35F
100
AcDbEntity
  8
0
100
AcDbLine
 62
7
  6
CONTINUOUS
 10
3.5166457858
 20
3.9013554737
 11
3.5166457858
 21
3.9513554737
  0
LINE
  5
360
100
AcDbEntity
  8
0
100
AcDbLine
 62
7
  6
CONTINUOUS
 10
3.5181695669
 20
3.2113554737
 11
3.5181695669
 21
3.2513554737
  0
LINE
  5
361
100
AcDbEntity
  8
0
100
AcDbLine
 62
7
  6
CONTINUOUS
 10
3.5214913727
 20
3.9013554737
 11
3.5214913727
 21
3.9513554737
  0
LINE
  5
362
100
AcDbEntity
  8
0
100
AcDbLine
 62
7
  6
CONTINUOUS
 10
3.522888696
 20
3.9513554737
 11
3.522888696
 21
3.9013554737
  0
LINE
  5
363
100
AcDbEntity
  8
0
100
AcDbLine
 62
7
  6
CONTINUOUS
 10
3.5240270384
 20
3.2113554737
 11
3.5240270384
 21
3.2513554737
  0
LINE
  5
364
100
AcDbEntity
  8
DEFAULT_2
100
AcDbLine
 62
8
  6
HIDDEN
 10
3.5255278982
 20
3.9013554737
 11
3.5255278982
 21
3.9513554737
  0
LINE
  5
365
100
AcDbEntity
  8
0
100
AcDbLine
 62
7
  6
CONTINUOUS
 10
3.527809042
 20
3.2513554737
 11
3.527809042
 21
3.2113554737
  0
LINE
  5
366
100
AcDbEntity
  8
DEFAULT_2
100
AcDbLine
 62
8
  6
HIDDEN
 10
3.5302117911
 20
3.9013554737
 11
3.5302117911
 21
3.9513554737
  0
LINE
  5
367
100
AcDbEntity
  8
DEFAULT_2
100
AcDbLine
 62
8
  6
HIDDEN
 10
3.5312201109
 20
3.9513554737
 11
3.5312201109
 21
3.9013554737
  0
LINE
  5
368
100
AcDbEntity
  8
0
100
AcDbLine
 62
7
  6
CONTINUOUS
 10
3.5341089706
 20
3.9013554737
 11
3.5341089706
 21
3.9513554737
  0
LINE
  5
369
100
AcDbEntity
  8
0
100
AcDbLine
 62
7
  6
CONTINUOUS
 10
3.5386255876
 20
3.9013554737
 11
3.5386255876
 21
3.9513554737
  0
LINE
  5
36A
100
AcDbEntity
  8
0
100
AcDbLine
 62
7
  6
CONTINUOUS
 10
3.5391231086
 20
3.2113554737
 11
3.5391231086
 21
3.2513554737
  0
LINE
  5
36B
100
AcDbEntity
  8
0
100
AcDbLine
 62
7
  6
CONTINUOUS
 10
3.5392437023
 20
3.9513554737
 11
3.5392437023
 21
3.9013554737
  0
LINE
  5
36C
100
AcDbEntity
  8
DEFAULT_2
100
AcDbLine
 62
8
  6
HIDDEN
 10
3.5423787767
 20
3.9013554737
 11
3.5423787767
 21
3.9513554737
  0
LINE
  5
36D
100
AcDbEntity
  8
0
100
AcDbLine
 62
7
  6
CONTINUOUS
 10
3.5447846946
 20
3.2113554737
 11
3.5447846946
 21
3.2513554737
  0
LINE
  5
36E
100
AcDbEntity
  8
DEFAULT_2
100
AcDbLine
 62
8
  6
HIDDEN
 10
3.5467227353
 20
3.9013554737
 11
3.5467227353
 21
3.9513554737
  0
LINE
  5
36F
100
AcDbEntity
  8
DEFAULT_2
100
AcDbLine
 62
8
  6
HIDDEN
 10
3.5469499083
 20
3.9513554737
 11
3.5469499083
 21
3.9013554737
  0
LINE
  5
370
100
AcDbEntity
  8
0
100
AcDbLine
 62
7
  6
CONTINUOUS
 10
3.5480014717
 20
3.2513554737
 11
3.5480014717
 21
3.2113554737
  0
LINE
  5
371
100
AcDbEntity
  8
0
100
AcDbLine
 62
7
  6
CONTINUOUS
 10
3.5503274612
 20
3.9013554737
 11
3.5503274612
 21
3.9513554737
  0
LINE
  5
372
100
AcDbEntity
  8
DEFAULT_2
100
AcDbLine
 62
8
  6
HIDDEN
 10
3.5543295452
 20
3.9513554737
 11
3.5543295452
 21
3.9013554737
  0
LINE
  5
373
100
AcDbEntity
  8
0
100
AcDbLine
 62
7
  6
CONTINUOUS
 10
3.5544935847
 20
3.9013554737
 11
3.5544935847
 21
3.9513554737
  0
LINE
  5
374
100
AcDbEntity
  8
DEFAULT_2
100
AcDbLine
 62
8
  6
HIDDEN
 10
3.5579455517
 20
3.9013554737
 11
3.5579455517
 21
3.9513554737
  0
LINE
  5
375
100
AcDbEntity
  8
0
100
AcDbLine
 62
7
  6
CONTINUOUS
 10
3.5593470005
 20
3.2113554737
 11
3.5593470005
 21
3.2513554737
  0
LINE
  5
376
100
AcDbEntity
  8
DEFAULT_2
100
AcDbLine
 62
8
  6
HIDDEN
 10
3.5613738186
 20
3.9513554737
 11
3.5613738186
 21
3.9013554737
  0
LINE
  5
377
100
AcDbEntity
  8
DEFAULT_2
100
AcDbLine
 62
8
  6
HIDDEN
 10
3.5619288751
 20
3.9013554737
 11
3.5619288751
 21
3.9513554737
  0
LINE
  5
378
100
AcDbEntity
  8
0
100
AcDbLine
 62
7
  6
CONTINUOUS
 10
3.5647971831
 20
3.2113554737
 11
3.5647971831
 21
3.2513554737
  0
LINE
  5
379
100
AcDbEntity
  8
0
100
AcDbLine
 62
7
  6
CONTINUOUS
 10
3.5652239694
 20
3.9013554737
 11
3.5652239694
 21
3.9513554737
  0
LINE
  5
37A
100
AcDbEntity
  8
0
100
AcDbLine
 62
7
  6
CONTINUOUS
 10
3.5674399167
 20
3.2513554737
 11
3.5674399167
 21
3.2113554737
  0
LINE
  5
37B
100
AcDbEntity
  8
DEFAULT_2
100
AcDbLine
 62
8
  6
HIDDEN
 10
3.5680743338
 20
3.9513554737
 11
3.5680743338
 21
3.9013554737
  0
LINE
  5
37C
100
AcDbEntity
  8
0
100
AcDbLine
 62
7
  6
CONTINUOUS
 10
3.5690197457
 20
3.9013554737
 11
3.5690197457
 21
3.9513554737
  0
LINE
  5
37D
100
AcDbEntity
  8
DEFAULT_2
100
AcDbLine
 62
8
  6
HIDDEN
 10
3.5721540405
 20
3.9013554737
 11
3.5721540405
 21
3.9513554737
  0
LINE
  5
37E
100
AcDbEntity
  8
0
100
AcDbLine
 62
7
  6
CONTINUOUS
 10
3.5729179737
 20
3.2913554737
 11
3.5729179737
 21
3.2863554737
  0
LINE
  5
37F
100
AcDbEntity
  8
DEFAULT_2
100
AcDbLine
 62
8
  6
HIDDEN
 10
3.5744231056
 20
3.9513554737
 11
3.5744231056
 21
3.9013554737
  0
LINE
  5
380
100
AcDbEntity
  8
DEFAULT_2
100
AcDbLine
 62
8
  6
HIDDEN
 10
3.5757577463
 20
3.9013554737
 11
3.5757577463
 21
3.9513554737
  0
LINE
  5
381
100
AcDbEntity
  8
0
100
AcDbLine
 62
7
  6
CONTINUOUS
 10
3.5787275064
 20
3.9013554737
 11
3.5787275064
 21
3.9513554737
  0
LINE
  5
382
100
AcDbEntity
  8
0
100
AcDbLine
 62
7
  6
CONTINUOUS
 10
3.5787858104
 20
3.2113554737
 11
3.5787858104
 21
3.2513554737
  0
LINE
  5
383
100
AcDbEntity
  8
DEFAULT_2
100
AcDbLine
 62
8
  6
HIDDEN
 10
3.580412568
 20
3.9513554737
 11
3.580412568
 21
3.9013554737
  0
LINE
  5
384
100
AcDbEntity
  8
0
100
AcDbLine
 62
7
  6
CONTINUOUS
 10
3.582134847
 20
3.9013554737
 11
3.582134847
 21
3.9513554737
  0
LINE
  5
385
100
AcDbEntity
  8
0
100
AcDbLine
 62
7
  6
CONTINUOUS
 10
3.5840096509
 20
3.2113554737
 11
3.5840096509
 21
3.2513554737
  0
LINE
  5
386
100
AcDbEntity
  8
DEFAULT_2
100
AcDbLine
 62
8
  6
HIDDEN
 10
3.5849365332
 20
3.9013554737
 11
3.5849365332
 21
3.9513554737
  0
LINE
  5
387
100
AcDbEntity
  8
0
100
AcDbLine
 62
7
  6
CONTINUOUS
 10
3.5854179737
 20
3.9013554737
 11
3.5854179737
 21
3.2913554737
  0
LINE
  5
388
100
AcDbEntity
  8
DEFAULT_2
100
AcDbLine
 62
8
  6
HIDDEN
 10
3.5860355832
 20
3.9513554737
 11
3.5860355832
 21
3.9013554737
  0
LINE
  5
389
100
AcDbEntity
  8
0
100
AcDbLine
 62
7
  6
CONTINUOUS
 10
3.5860710974
 20
3.2513554737
 11
3.5860710974
 21
3.2113554737
  0
LINE
  5
38A
100
AcDbEntity
  8
DEFAULT_2
100
AcDbLine
 62
8
  6
HIDDEN
 10
3.5881434482
 20
3.9013554737
 11
3.5881434482
 21
3.9513554737
  0
LINE
  5
38B
100
AcDbEntity
  8
0
100
AcDbLine
 62
7
  6
CONTINUOUS
 10
3.5907737216
 20
3.9013554737
 11
3.5907737216
 21
3.9513554737
  0
LINE
  5
38C
100
AcDbEntity
  8
DEFAULT_2
100
AcDbLine
 62
8
  6
HIDDEN
 10
3.5912854503
 20
3.9513554737
 11
3.5912854503
 21
3.9013554737
  0
LINE
  5
38D
100
AcDbEntity
  8
0
100
AcDbLine
 62
7
  6
CONTINUOUS
 10
3.5937763891
 20
3.9013554737
 11
3.5937763891
 21
3.9513554737
  0
LINE
  5
38E
100
AcDbEntity
  8
DEFAULT_2
100
AcDbLine
 62
8
  6
HIDDEN
 10
3.5961559129
 20
3.9513554737
 11
3.5961559129
 21
3.9013554737
  0
LINE
  5
38F
100
AcDbEntity
  8
DEFAULT_2
100
AcDbLine
 62
8
  6
HIDDEN
 10
3.5962321154
 20
3.9013554737
 11
3.5962321154
 21
3.9513554737
  0
LINE
  5
390
100
AcDbEntity
  8
0
100
AcDbLine
 62
7
  6
CONTINUOUS
 10
3.5973862578
 20
3.2113554737
 11
3.5973862578
 21
3.2513554737
  0
LINE
  5
391
100
AcDbEntity
  8
DEFAULT_2
100
AcDbLine
 62
8
  6
HIDDEN
 10
3.599026957
 20
3.9013554737
 11
3.599026957
 21
3.9513554737
  0
LINE
  5
392
100
AcDbEntity
  8
DEFAULT_2
100
AcDbLine
 62
8
  6
HIDDEN
 10
3.6006411667
 20
3.9513554737
 11
3.6006411667
 21
3.9013554737
  0
LINE
  5
393
100
AcDbEntity
  8
0
100
AcDbLine
 62
7
  6
CONTINUOUS
 10
3.6013052095
 20
3.9013554737
 11
3.6013052095
 21
3.9513554737
  0
LINE
  5
394
100
AcDbEntity
  8
0
100
AcDbLine
 62
7
  6
CONTINUOUS
 10
3.6023694381
 20
3.2113554737
 11
3.6023694381
 21
3.2513554737
  0
LINE
  5
395
100
AcDbEntity
  8
0
100
AcDbLine
 62
7
  6
CONTINUOUS
 10
3.6038439472
 20
3.2513554737
 11
3.6038439472
 21
3.2113554737
  0
LINE
  5
396
100
AcDbEntity
  8
0
100
AcDbLine
 62
7
  6
CONTINUOUS
 10
3.6038888947
 20
3.9013554737
 11
3.6038888947
 21
3.9513554737
  0
LINE
  5
397
100
AcDbEntity
  8
DEFAULT_2
100
AcDbLine
 62
8
  6
HIDDEN
 10
3.6047358666
 20
3.9513554737
 11
3.6047358666
 21
3.9013554737
  0
LINE
  5
398
100
AcDbEntity
  8
DEFAULT_2
100
AcDbLine
 62
8
  6
HIDDEN
 10
3.6059869584
 20
3.9013554737
 11
3.6059869584
 21
3.9513554737
  0
LINE
  5
399
100
AcDbEntity
  8
DEFAULT_2
100
AcDbLine
 62
8
  6
HIDDEN
 10
3.6083564081
 20
3.9013554737
 11
3.6083564081
 21
3.9513554737
  0
LINE
  5
39A
100
AcDbEntity
  8
DEFAULT_2
100
AcDbLine
 62
8
  6
HIDDEN
 10
3.6084351328
 20
3.9513554737
 11
3.6084351328
 21
3.9013554737
  0
LINE
  5
39B
100
AcDbEntity
  8
0
100
AcDbLine
 62
7
  6
CONTINUOUS
 10
3.6102717827
 20
3.9013554737
 11
3.6102717827
 21
3.9513554737
  0
LINE
  5
39C
100
AcDbEntity
  8
DEFAULT_2
100
AcDbLine
 62
8
  6
HIDDEN
 10
3.6117345569
 20
3.9513554737
 11
3.6117345569
 21
3.9013554737
  0
LINE
  5
39D
100
AcDbEntity
  8
0
100
AcDbLine
 62
7
  6
CONTINUOUS
 10
3.6124241732
 20
3.9013554737
 11
3.6124241732
 21
3.9513554737
  0
LINE
  5
39E
100
AcDbEntity
  8
DEFAULT_2
100
AcDbLine
 62
8
  6
HIDDEN
 10
3.6141545761
 20
3.9013554737
 11
3.6141545761
 21
3.9513554737
  0
LINE
  5
39F
100
AcDbEntity
  8
DEFAULT_2
100
AcDbLine
 62
8
  6
HIDDEN
 10
3.6146302069
 20
3.9513554737
 11
3.6146302069
 21
3.9013554737
  0
LINE
  5
3A0
100
AcDbEntity
  8
0
100
AcDbLine
 62
7
  6
CONTINUOUS
 10
3.6150973602
 20
3.2113554737
 11
3.6150973602
 21
3.2513554737
  0
LINE
  5
3A1
100
AcDbEntity
  8
DEFAULT_2
100
AcDbLine
 62
8
  6
HIDDEN
 10
3.6160873423
 20
3.9013554737
 11
3.6160873423
 21
3.9513554737
  0
LINE
  5
3A2
100
AcDbEntity
  8
DEFAULT_2
100
AcDbLine
 62
8
  6
HIDDEN
 10
3.6171186319
 20
3.9513554737
 11
3.6171186319
 21
3.9013554737
  0
LINE
  5
3A3
100
AcDbEntity
  8
0
100
AcDbLine
 62
7
  6
CONTINUOUS
 10
3.6176307113
 20
3.9013554737
 11
3.6176307113
 21
3.9513554737
  0
LINE
  5
3A4
100
AcDbEntity
  8
DEFAULT_2
100
AcDbLine
 62
8
  6
HIDDEN
 10
3.6191968665
 20
3.9513554737
 11
3.6191968665
 21
3.9013554737
  0
LINE
  5
3A5
100
AcDbEntity
  8
0
100
AcDbLine
 62
7
  6
CONTINUOUS
 10
3.61934155
 20
3.9013554737
 11
3.61934155
 21
3.9513554737
  0
LINE
  5
3A6
100
AcDbEntity
  8
0
100
AcDbLine
 62
7
  6
CONTINUOUS
 10
3.6198262217
 20
3.2113554737
 11
3.6198262217
 21
3.2513554737
  0
LINE
  5
3A7
100
AcDbEntity
  8
DEFAULT_2
100
AcDbLine
 62
8
  6
HIDDEN
 10
3.6206960459
 20
3.9013554737
 11
3.6206960459
 21
3.9513554737
  0
LINE
  5
3A8
100
AcDbEntity
  8
0
100
AcDbLine
 62
7
  6
CONTINUOUS
 10
3.620709752
 20
3.2513554737
 11
3.620709752
 21
3.2113554737
  0
LINE
  5
3A9
100
AcDbEntity
  8
DEFAULT_2
100
AcDbLine
 62
8
  6
HIDDEN
 10
3.620862434
 20
3.9513554737
 11
3.620862434
 21
3.9013554737
  0
LINE
  5
3AA
100
AcDbEntity
  8
DEFAULT_2
100
AcDbLine
 62
8
  6
HIDDEN
 10
3.6221133495
 20
3.9513554737
 11
3.6221133495
 21
3.9013554737
  0
LINE
  5
3AB
100
AcDbEntity
  8
DEFAULT_2
100
AcDbLine
 62
8
  6
HIDDEN
 10
3.6221829181
 20
3.9013554737
 11
3.6221829181
 21
3.9513554737
  0
LINE
  5
3AC
100
AcDbEntity
  8
DEFAULT_2
100
AcDbLine
 62
8
  6
HIDDEN
 10
3.6229481223
 20
3.9513554737
 11
3.6229481223
 21
3.9013554737
  0
LINE
  5
3AD
100
AcDbEntity
  8
0
100
AcDbLine
 62
7
  6
CONTINUOUS
 10
3.6233469268
 20
3.9013554737
 11
3.6233469268
 21
3.9513554737
  0
LINE
  5
3AE
100
AcDbEntity
  8
0
100
AcDbLine
 62
7
  6
CONTINUOUS
 10
3.6246080607
 20
3.9013554737
 11
3.6246080607
 21
3.9513554737
  0
LINE
  5
3AF
100
AcDbEntity
  8
DEFAULT_2
100
AcDbLine
 62
8
  6
HIDDEN
 10
3.6255801948
 20
3.9013554737
 11
3.6255801948
 21
3.9513554737
  0
LINE
  5
3B0
100
AcDbEntity
  8
DEFAULT_2
100
AcDbLine
 62
8
  6
HIDDEN
 10
3.6266140875
 20
3.9013554737
 11
3.6266140875
 21
3.9513554737
  0
LINE
  5
3B1
100
AcDbEntity
  8
0
100
AcDbLine
 62
7
  6
CONTINUOUS
 10
3.6273931887
 20
3.9013554737
 11
3.6273931887
 21
3.9513554737
  0
LINE
  5
3B2
100
AcDbEntity
  8
0
100
AcDbLine
 62
7
  6
CONTINUOUS
 10
3.6281986079
 20
3.9013554737
 11
3.6281986079
 21
3.9513554737
  0
LINE
  5
3B3
100
AcDbEntity
  8
DEFAULT_2
100
AcDbLine
 62
8
  6
HIDDEN
 10
3.6287837477
 20
3.9013554737
 11
3.6287837477
 21
3.9513554737
  0
LINE
  5
3B4
100
AcDbEntity
  8
DEFAULT_2
100
AcDbLine
 62
8
  6
HIDDEN
 10
3.6293597338
 20
3.9013554737
 11
3.6293597338
 21
3.9513554737
  0
LINE
  5
3B5
100
AcDbEntity
  8
0
100
AcDbLine
 62
7
  6
CONTINUOUS
 10
3.6297502148
 20
3.9013554737
 11
3.6297502148
 21
3.9513554737
  0
LINE
  5
3B6
100
AcDbEntity
  8
0
100
AcDbLine
 62
7
  6
CONTINUOUS
 10
3.6300960812
 20
3.9013554737
 11
3.6300960812
 21
3.9513554737
  0
LINE
  5
3B7
100
AcDbEntity
  8
DEFAULT_2
100
AcDbLine
 62
8
  6
HIDDEN
 10
3.6302914381
 20
3.9013554737
 11
3.6302914381
 21
3.9513554737
  0
LINE
  5
3B8
100
AcDbEntity
  8
0
100
AcDbLine
 62
7
  6
CONTINUOUS
 10
3.6304067727
 20
3.9013554737
 11
3.6304067727
 21
3.9513554737
  0
LINE
  5
3B9
100
AcDbEntity
  8
0
100
AcDbLine
 62
7
  6
CONTINUOUS
 10
3.6318705726
 20
3.2113554737
 11
3.6318705726
 21
3.2513554737
  0
LINE
  5
3BA
100
AcDbEntity
  8
0
100
AcDbLine
 62
7
  6
CONTINUOUS
 10
3.636332154
 20
3.2113554737
 11
3.636332154
 21
3.2513554737
  0
LINE
  5
3BB
100
AcDbEntity
  8
0
100
AcDbLine
 62
7
  6
CONTINUOUS
 10
3.6366222836
 20
3.2513554737
 11
3.6366222836
 21
3.2113554737
  0
LINE
  5
3BC
100
AcDbEntity
  8
0
100
AcDbLine
 62
7
  6
CONTINUOUS
 10
3.647659921
 20
3.2113554737
 11
3.647659921
 21
3.2513554737
  0
LINE
  5
3BD
100
AcDbEntity
  8
DEFAULT_2
100
AcDbLine
 62
8
  6
HIDDEN
 10
3.651537927
 20
3.2513554737
 11
3.651537927
 21
3.2113554737
  0
LINE
  5
3BE
100
AcDbEntity
  8
0
100
AcDbLine
 62
7
  6
CONTINUOUS
 10
3.6518419932
 20
3.2113554737
 11
3.6518419932
 21
3.2513554737
  0
LINE
  5
3BF
100
AcDbEntity
  8
0
100
AcDbLine
 62
7
  6
CONTINUOUS
 10
3.6624221277
 20
3.2113554737
 11
3.6624221277
 21
3.2513554737
  0
LINE
  5
3C0
100
AcDbEntity
  8
DEFAULT_2
100
AcDbLine
 62
8
  6
HIDDEN
 10
3.6654157994
 20
3.2513554737
 11
3.6654157994
 21
3.2113554737
  0
LINE
  5
3C1
100
AcDbEntity
  8
0
100
AcDbLine
 62
7
  6
CONTINUOUS
 10
3.666313228
 20
3.2113554737
 11
3.666313228
 21
3.2513554737
  0
LINE
  5
3C2
100
AcDbEntity
  8
0
100
AcDbLine
 62
7
  6
CONTINUOUS
 10
3.6761167306
 20
3.2113554737
 11
3.6761167306
 21
3.2513554737
  0
LINE
  5
3C3
100
AcDbEntity
  8
DEFAULT_2
100
AcDbLine
 62
8
  6
HIDDEN
 10
3.6782178626
 20
3.2513554737
 11
3.6782178626
 21
3.2113554737
  0
LINE
  5
3C4
100
AcDbEntity
  8
0
100
AcDbLine
 62
7
  6
CONTINUOUS
 10
3.6797061938
 20
3.2113554737
 11
3.6797061938
 21
3.2513554737
  0
LINE
  5
3C5
100
AcDbEntity
  8
0
100
AcDbLine
 62
7
  6
CONTINUOUS
 10
3.6887061938
 20
3.2113554737
 11
3.6887061938
 21
3.2513554737
  0
LINE
  5
3C6
100
AcDbEntity
  8
DEFAULT_2
100
AcDbLine
 62
8
  6
HIDDEN
 10
3.689909027
 20
3.2513554737
 11
3.689909027
 21
3.2113554737
  0
LINE
  5
3C7
100
AcDbEntity
  8
0
100
AcDbLine
 62
7
  6
CONTINUOUS
 10
3.6919841813
 20
3.2113554737
 11
3.6919841813
 21
3.2513554737
  0
LINE
  5
3C8
100
AcDbEntity
  8
0
100
AcDbLine
 62
7
  6
CONTINUOUS
 10
3.7001560103
 20
3.2113554737
 11
3.7001560103
 21
3.2513554737
  0
LINE
  5
3C9
100
AcDbEntity
  8
DEFAULT_2
100
AcDbLine
 62
8
  6
HIDDEN
 10
3.7004572478
 20
3.2513554737
 11
3.7004572478
 21
3.2113554737
  0
LINE
  5
3CA
100
AcDbEntity
  8
0
100
AcDbLine
 62
7
  6
CONTINUOUS
 10
3.7031135375
 20
3.2113554737
 11
3.7031135375
 21
3.2513554737
  0
LINE
  5
3CB
100
AcDbEntity
  8
DEFAULT_2
100
AcDbLine
 62
8
  6
HIDDEN
 10
3.7098336133
 20
3.2513554737
 11
3.7098336133
 21
3.2113554737
  0
LINE
  5
3CC
100
AcDbEntity
  8
0
100
AcDbLine
 62
7
  6
CONTINUOUS
 10
3.7104347971
 20
3.2113554737
 11
3.7104347971
 21
3.2513554737
  0
LINE
  5
3CD
100
AcDbEntity
  8
0
100
AcDbLine
 62
7
  6
CONTINUOUS
 10
3.7130637575
 20
3.2113554737
 11
3.7130637575
 21
3.2513554737
  0
LINE
  5
3CE
100
AcDbEntity
  8
DEFAULT_2
100
AcDbLine
 62
8
  6
HIDDEN
 10
3.7180124233
 20
3.2513554737
 11
3.7180124233
 21
3.2113554737
  0
LINE
  5
3CF
100
AcDbEntity
  8
0
100
AcDbLine
 62
7
  6
CONTINUOUS
 10
3.7195143806
 20
3.2113554737
 11
3.7195143806
 21
3.2513554737
  0
LINE
  5
3D0
100
AcDbEntity
  8
0
100
AcDbLine
 62
7
  6
CONTINUOUS
 10
3.7218075686
 20
3.2113554737
 11
3.7218075686
 21
3.2513554737
  0
LINE
  5
3D1
100
AcDbEntity
  8
0
100
AcDbLine
 62
7
  6
CONTINUOUS
 10
3.7229179737
 20
3.2113554737
 11
3.7229179737
 21
3.1613554737
  0
LINE
  5
3D2
100
AcDbEntity
  8
DEFAULT_2
100
AcDbLine
 62
8
  6
HIDDEN
 10
3.7249712604
 20
3.2513554737
 11
3.7249712604
 21
3.2113554737
  0
LINE
  5
3D3
100
AcDbEntity
  8
0
100
AcDbLine
 62
7
  6
CONTINUOUS
 10
3.7273698745
 20
3.2113554737
 11
3.7273698745
 21
3.2513554737
  0
LINE
  5
3D4
100
AcDbEntity
  8
0
100
AcDbLine
 62
7
  6
CONTINUOUS
 10
3.7293210045
 20
3.2113554737
 11
3.7293210045
 21
3.2513554737
  0
LINE
  5
3D5
100
AcDbEntity
  8
DEFAULT_2
100
AcDbLine
 62
8
  6
HIDDEN
 10
3.7306910508
 20
3.2513554737
 11
3.7306910508
 21
3.2113554737
  0
LINE
  5
3D6
100
AcDbEntity
  8
0
100
AcDbLine
 62
7
  6
CONTINUOUS
 10
3.7339797473
 20
3.2113554737
 11
3.7339797473
 21
3.2513554737
  0
LINE
  5
3D7
100
AcDbEntity
  8
DEFAULT_2
100
AcDbLine
 62
8
  6
HIDDEN
 10
3.735156117
 20
3.2513554737
 11
3.735156117
 21
3.2113554737
  0
LINE
  5
3D8
100
AcDbEntity
  8
0
100
AcDbLine
 62
7
  6
CONTINUOUS
 10
3.7355834713
 20
3.2113554737
 11
3.7355834713
 21
3.2513554737
  0
LINE
  5
3D9
100
AcDbEntity
  8
DEFAULT_2
100
AcDbLine
 62
8
  6
HIDDEN
 10
3.7383542207
 20
3.2513554737
 11
3.7383542207
 21
3.2113554737
  0
LINE
  5
3DA
100
AcDbEntity
  8
0
100
AcDbLine
 62
7
  6
CONTINUOUS
 10
3.7393258818
 20
3.2113554737
 11
3.7393258818
 21
3.2513554737
  0
LINE
  5
3DB
100
AcDbEntity
  8
DEFAULT_2
100
AcDbLine
 62
8
  6
HIDDEN
 10
3.7402765959
 20
3.2513554737
 11
3.7402765959
 21
3.2113554737
  0
LINE
  5
3DC
100
AcDbEntity
  8
0
100
AcDbLine
 62
7
  6
CONTINUOUS
 10
3.7405778043
 20
3.2113554737
 11
3.7405778043
 21
3.2513554737
  0
LINE
  5
3DD
100
AcDbEntity
  8
DEFAULT_2
100
AcDbLine
 62
8
  6
HIDDEN
 10
3.7409179737
 20
3.2513554737
 11
3.7409179737
 21
3.2113554737
  0
LINE
  5
3DE
100
AcDbEntity
  8
0
100
AcDbLine
 62
7
  6
CONTINUOUS
 10
3.7229179737
 20
3.1613554737
 11
3.7479179737
 21
3.1363554737
  0
LINE
  5
3DF
100
AcDbEntity
  8
0
100
AcDbLine
 62
7
  6
CONTINUOUS
 10
3.7433936246
 20
3.2113554737
 11
3.7433936246
 21
3.2513554737
  0
LINE
  5
3E0
100
AcDbEntity
  8
0
100
AcDbLine
 62
7
  6
CONTINUOUS
 10
3.7442903141
 20
3.2113554737
 11
3.7442903141
 21
3.2513554737
  0
LINE
  5
3E1
100
AcDbEntity
  8
0
100
AcDbLine
 62
7
  6
CONTINUOUS
 10
3.7461718264
 20
3.2113554737
 11
3.7461718264
 21
3.2513554737
  0
LINE
  5
3E2
100
AcDbEntity
  8
0
100
AcDbLine
 62
7
  6
CONTINUOUS
 10
3.7467108251
 20
3.2113554737
 11
3.7467108251
 21
3.2513554737
  0
LINE
  5
3E3
100
AcDbEntity
  8
0
100
AcDbLine
 62
7
  6
CONTINUOUS
 10
3.7476528723
 20
3.2113554737
 11
3.7476528723
 21
3.2513554737
  0
LINE
  5
3E4
100
AcDbEntity
  8
0
100
AcDbLine
 62
7
  6
CONTINUOUS
 10
3.7478327028
 20
3.2113554737
 11
3.7478327028
 21
3.2513554737
  0
LINE
  5
3E5
100
AcDbEntity
  8
0
100
AcDbLine
 62
7
  6
CONTINUOUS
 10
3.7479179737
 20
3.1363554737
 11
3.7479179737
 21
3.0963554737
  0
LINE
  5
3E6
100
AcDbEntity
  8
0
100
AcDbLine
 62
7
  6
CONTINUOUS
 10
2.8229179737
 20
3.1613554737
 11
2.7979179737
 21
3.1363554737
  0
LINE
  5
3E7
100
AcDbEntity
  8
0
100
AcDbLine
 62
7
  6
CONTINUOUS
 10
7.7479179737
 20
3.0963554737
 11
6.7979179737
 21
3.0963554737
  0
LINE
  5
3E8
100
AcDbEntity
  8
0
100
AcDbLine
 62
7
  6
CONTINUOUS
 10
5.8604179737
 20
3.0963554737
 11
4.6854179737
 21
3.0963554737
  0
LINE
  5
3E9
100
AcDbEntity
  8
0
100
AcDbLine
 62
7
  6
CONTINUOUS
 10
2.7979179737
 20
3.0963554737
 11
3.7479179737
 21
3.0963554737
  0
LINE
  5
3EA
100
AcDbEntity
  8
0
100
AcDbLine
 62
7
  6
CONTINUOUS
 10
7.7479179737
 20
3.1363554737
 11
6.7979179737
 21
3.1363554737
  0
LINE
  5
3EB
100
AcDbEntity
  8
0
100
AcDbLine
 62
7
  6
CONTINUOUS
 10
5.8604179737
 20
3.1363554737
 11
4.6854179737
 21
3.1363554737
  0
LINE
  5
3EC
100
AcDbEntity
  8
0
100
AcDbLine
 62
7
  6
CONTINUOUS
 10
2.7979179737
 20
3.1363554737
 11
3.7479179737
 21
3.1363554737
  0
LINE
  5
3ED
100
AcDbEntity
  8
0
100
AcDbLine
 62
7
  6
CONTINUOUS
 10
7.7229179737
 20
3.1613554737
 11
6.8229179737
 21
3.1613554737
  0
LINE
  5
3EE
100
AcDbEntity
  8
0
100
AcDbLine
 62
7
  6
CONTINUOUS
 10
5.8354179737
 20
3.1613554737
 11
4.7104179737
 21
3.1613554737
  0
LINE
  5
3EF
100
AcDbEntity
  8
0
100
AcDbLine
 62
7
  6
CONTINUOUS
 10
2.8229179737
 20
3.1613554737
 11
3.7229179737
 21
3.1613554737
  0
LINE
  5
3F0
100
AcDbEntity
  8
0
100
AcDbLine
 62
7
  6
CONTINUOUS
 10
7.7478327028
 20
3.2113554737
 11
6.7980032445
 21
3.2113554737
  0
LINE
  5
3F1
100
AcDbEntity
  8
0
100
AcDbLine
 62
7
  6
CONTINUOUS
 10
3.7478327028
 20
3.2113554737
 11
2.7980032445
 21
3.2113554737
  0
LINE
  5
3F2
100
AcDbEntity
  8
0
100
AcDbLine
 62
7
  6
CONTINUOUS
 10
2.7980032445
 20
3.2513554737
 11
3.7478327028
 21
3.2513554737
  0
LINE
  5
3F3
100
AcDbEntity
  8
0
100
AcDbLine
 62
7
  6
CONTINUOUS
 10
6.7980032445
 20
3.2513554737
 11
7.7478327028
 21
3.2513554737
  0
LINE
  5
3F4
100
AcDbEntity
  8
0
100
AcDbLine
 62
7
  6
CONTINUOUS
 10
5.8604110703
 20
3.2563554737
 11
4.8142725408
 21
3.2563554737
  0
LINE
  5
3F5
100
AcDbEntity
  8
DEFAULT_2
100
AcDbLine
 62
8
  6
HIDDEN
 10
4.8142725408
 20
3.2563554737
 11
4.814232989
 21
3.2563554737
  0
LINE
  5
3F6
100
AcDbEntity
  8
DEFAULT_2
100
AcDbLine
 62
8
  6
HIDDEN
 10
4.6854940788
 20
3.2563554737
 11
4.6854288955
 21
3.2563554737
  0
LINE
  5
3F7
100
AcDbEntity
  8
0
100
AcDbLine
 62
7
  6
CONTINUOUS
 10
4.814232989
 20
3.2563554737
 11
4.6854940788
 21
3.2563554737
  0
LINE
  5
3F8
100
AcDbEntity
  8
0
100
AcDbLine
 62
7
  6
CONTINUOUS
 10
4.6854288955
 20
3.2563554737
 11
4.685424877
 21
3.2563554737
  0
LINE
  5
3F9
100
AcDbEntity
  8
0
100
AcDbLine
 62
7
  6
CONTINUOUS
 10
4.6854179737
 20
3.1363554737
 11
4.6854179737
 21
3.0963554737
  0
LINE
  5
3FA
100
AcDbEntity
  8
0
100
AcDbLine
 62
7
  6
CONTINUOUS
 10
4.685424877
 20
3.2563554737
 11
4.685424877
 21
3.2963554737
  0
LINE
  5
3FB
100
AcDbEntity
  8
0
100
AcDbLine
 62
7
  6
CONTINUOUS
 10
4.6854940788
 20
3.2563554737
 11
4.6854940788
 21
3.2963554737
  0
LINE
  5
3FC
100
AcDbEntity
  8
DEFAULT_2
100
AcDbLine
 62
8
  6
HIDDEN
 10
4.6856133691
 20
3.2563554737
 11
4.6856133691
 21
3.2963554737
  0
LINE
  5
3FD
100
AcDbEntity
  8
DEFAULT_2
100
AcDbLine
 62
8
  6
HIDDEN
 10
4.6858209441
 20
3.2563554737
 11
4.6858209441
 21
3.2963554737
  0
LINE
  5
3FE
100
AcDbEntity
  8
0
100
AcDbLine
 62
7
  6
CONTINUOUS
 10
4.6860594725
 20
3.2563554737
 11
4.6860594725
 21
3.2963554737
  0
LINE
  5
3FF
100
AcDbEntity
  8
0
100
AcDbLine
 62
7
  6
CONTINUOUS
 10
4.6864053296
 20
3.2563554737
 11
4.6864053296
 21
3.2963554737
  0
LINE
  5
400
100
AcDbEntity
  8
DEFAULT_2
100
AcDbLine
 62
8
  6
HIDDEN
 10
4.6867629913
 20
3.2563554737
 11
4.6867629913
 21
3.2963554737
  0
LINE
  5
401
100
AcDbEntity
  8
DEFAULT_2
100
AcDbLine
 62
8
  6
HIDDEN
 10
4.6872469789
 20
3.2563554737
 11
4.6872469789
 21
3.2963554737
  0
LINE
  5
402
100
AcDbEntity
  8
0
100
AcDbLine
 62
7
  6
CONTINUOUS
 10
4.6877236171
 20
3.2563554737
 11
4.6877236171
 21
3.2963554737
  0
LINE
  5
403
100
AcDbEntity
  8
0
100
AcDbLine
 62
7
  6
CONTINUOUS
 10
4.6883455228
 20
3.2563554737
 11
4.6883455228
 21
3.2963554737
  0
LINE
  5
404
100
AcDbEntity
  8
DEFAULT_2
100
AcDbLine
 62
8
  6
HIDDEN
 10
4.6889409285
 20
3.2563554737
 11
4.6889409285
 21
3.2963554737
  0
LINE
  5
405
100
AcDbEntity
  8
DEFAULT_2
100
AcDbLine
 62
8
  6
HIDDEN
 10
4.6897004796
 20
3.2563554737
 11
4.6897004796
 21
3.2963554737
  0
LINE
  5
406
100
AcDbEntity
  8
0
100
AcDbLine
 62
7
  6
CONTINUOUS
 10
4.6904143915
 20
3.2563554737
 11
4.6904143915
 21
3.2963554737
  0
LINE
  5
407
100
AcDbEntity
  8
0
100
AcDbLine
 62
7
  6
CONTINUOUS
 10
4.6913112548
 20
3.2563554737
 11
4.6913112548
 21
3.2963554737
  0
LINE
  5
408
100
AcDbEntity
  8
DEFAULT_2
100
AcDbLine
 62
8
  6
HIDDEN
 10
4.6921433599
 20
3.2563554737
 11
4.6921433599
 21
3.2963554737
  0
LINE
  5
409
100
AcDbEntity
  8
DEFAULT_2
100
AcDbLine
 62
8
  6
HIDDEN
 10
4.6924498028
 20
3.2963554737
 11
4.6924498028
 21
3.2563554737
  0
LINE
  5
40A
100
AcDbEntity
  8
DEFAULT_2
100
AcDbLine
 62
8
  6
HIDDEN
 10
4.6927044154
 20
3.2963554737
 11
4.6927044154
 21
3.2563554737
  0
LINE
  5
40B
100
AcDbEntity
  8
DEFAULT_2
100
AcDbLine
 62
8
  6
HIDDEN
 10
4.693177142
 20
3.2563554737
 11
4.693177142
 21
3.2963554737
  0
LINE
  5
40C
100
AcDbEntity
  8
DEFAULT_2
100
AcDbLine
 62
8
  6
HIDDEN
 10
4.6932135287
 20
3.2963554737
 11
4.6932135287
 21
3.2563554737
  0
LINE
  5
40D
100
AcDbEntity
  8
DEFAULT_2
100
AcDbLine
 62
8
  6
HIDDEN
 10
4.6939769196
 20
3.2963554737
 11
4.6939769196
 21
3.2563554737
  0
LINE
  5
40E
100
AcDbEntity
  8
0
100
AcDbLine
 62
7
  6
CONTINUOUS
 10
4.6941270752
 20
3.2563554737
 11
4.6941270752
 21
3.2963554737
  0
LINE
  5
40F
100
AcDbEntity
  8
DEFAULT_2
100
AcDbLine
 62
8
  6
HIDDEN
 10
4.6949942532
 20
3.2963554737
 11
4.6949942532
 21
3.2563554737
  0
LINE
  5
410
100
AcDbEntity
  8
0
100
AcDbLine
 62
7
  6
CONTINUOUS
 10
4.6952973226
 20
3.2563554737
 11
4.6952973226
 21
3.2963554737
  0
LINE
  5
411
100
AcDbEntity
  8
DEFAULT_2
100
AcDbLine
 62
8
  6
HIDDEN
 10
4.6962650832
 20
3.2963554737
 11
4.6962650832
 21
3.2563554737
  0
LINE
  5
412
100
AcDbEntity
  8
DEFAULT_2
100
AcDbLine
 62
8
  6
HIDDEN
 10
4.6963646673
 20
3.2563554737
 11
4.6963646673
 21
3.2963554737
  0
LINE
  5
413
100
AcDbEntity
  8
DEFAULT_2
100
AcDbLine
 62
8
  6
HIDDEN
 10
4.6976708668
 20
3.2563554737
 11
4.6976708668
 21
3.2963554737
  0
LINE
  5
414
100
AcDbEntity
  8
DEFAULT_2
100
AcDbLine
 62
8
  6
HIDDEN
 10
4.6977888523
 20
3.2963554737
 11
4.6977888523
 21
3.2563554737
  0
LINE
  5
415
100
AcDbEntity
  8
0
100
AcDbLine
 62
7
  6
CONTINUOUS
 10
4.6988551547
 20
3.2563554737
 11
4.6988551547
 21
3.2963554737
  0
LINE
  5
416
100
AcDbEntity
  8
DEFAULT_2
100
AcDbLine
 62
8
  6
HIDDEN
 10
4.6995648919
 20
3.2963554737
 11
4.6995648919
 21
3.2563554737
  0
LINE
  5
417
100
AcDbEntity
  8
0
100
AcDbLine
 62
7
  6
CONTINUOUS
 10
4.7002967333
 20
3.2563554737
 11
4.7002967333
 21
3.2963554737
  0
LINE
  5
418
100
AcDbEntity
  8
DEFAULT_2
100
AcDbLine
 62
8
  6
HIDDEN
 10
4.7015924232
 20
3.2963554737
 11
4.7015924232
 21
3.2563554737
  0
LINE
  5
419
100
AcDbEntity
  8
DEFAULT_2
100
AcDbLine
 62
8
  6
HIDDEN
 10
4.7031737704
 20
3.2563554737
 11
4.7031737704
 21
3.2963554737
  0
LINE
  5
41A
100
AcDbEntity
  8
DEFAULT_2
100
AcDbLine
 62
8
  6
HIDDEN
 10
4.7038705568
 20
3.2963554737
 11
4.7038705568
 21
3.2563554737
  0
LINE
  5
41B
100
AcDbEntity
  8
0
100
AcDbLine
 62
7
  6
CONTINUOUS
 10
4.7045903355
 20
3.2563554737
 11
4.7045903355
 21
3.2963554737
  0
LINE
  5
41C
100
AcDbEntity
  8
0
100
AcDbLine
 62
7
  6
CONTINUOUS
 10
4.7063007162
 20
3.2563554737
 11
4.7063007162
 21
3.2963554737
  0
LINE
  5
41D
100
AcDbEntity
  8
DEFAULT_2
100
AcDbLine
 62
8
  6
HIDDEN
 10
4.7063982933
 20
3.2963554737
 11
4.7063982933
 21
3.2563554737
  0
LINE
  5
41E
100
AcDbEntity
  8
DEFAULT_2
100
AcDbLine
 62
8
  6
HIDDEN
 10
4.7078325132
 20
3.2563554737
 11
4.7078325132
 21
3.2963554737
  0
LINE
  5
41F
100
AcDbEntity
  8
DEFAULT_2
100
AcDbLine
 62
8
  6
HIDDEN
 10
4.7091745242
 20
3.2963554737
 11
4.7091745242
 21
3.2563554737
  0
LINE
  5
420
100
AcDbEntity
  8
DEFAULT_2
100
AcDbLine
 62
8
  6
HIDDEN
 10
4.7096761991
 20
3.2563554737
 11
4.7096761991
 21
3.2963554737
  0
LINE
  5
421
100
AcDbEntity
  8
0
100
AcDbLine
 62
7
  6
CONTINUOUS
 10
4.7104179737
 20
3.2563554737
 11
4.7104179737
 21
3.1613554737
  0
LINE
  5
422
100
AcDbEntity
  8
0
100
AcDbLine
 62
7
  6
CONTINUOUS
 10
4.7113225561
 20
3.2563554737
 11
4.7113225561
 21
3.2963554737
  0
LINE
  5
423
100
AcDbEntity
  8
DEFAULT_2
100
AcDbLine
 62
8
  6
HIDDEN
 10
4.7121980315
 20
3.2963554737
 11
4.7121980315
 21
3.2563554737
  0
LINE
  5
424
100
AcDbEntity
  8
0
100
AcDbLine
 62
7
  6
CONTINUOUS
 10
4.7132987383
 20
3.2563554737
 11
4.7132987383
 21
3.2963554737
  0
LINE
  5
425
100
AcDbEntity
  8
DEFAULT_2
100
AcDbLine
 62
8
  6
HIDDEN
 10
4.7150589333
 20
3.2563554737
 11
4.7150589333
 21
3.2963554737
  0
LINE
  5
426
100
AcDbEntity
  8
DEFAULT_2
100
AcDbLine
 62
8
  6
HIDDEN
 10
4.7154674891
 20
3.2963554737
 11
4.7154674891
 21
3.2563554737
  0
LINE
  5
427
100
AcDbEntity
  8
DEFAULT_2
100
AcDbLine
 62
8
  6
HIDDEN
 10
4.7171667451
 20
3.2563554737
 11
4.7171667451
 21
3.2963554737
  0
LINE
  5
428
100
AcDbEntity
  8
DEFAULT_2
100
AcDbLine
 62
8
  6
HIDDEN
 10
4.7189814629
 20
3.2963554737
 11
4.7189814629
 21
3.2563554737
  0
LINE
  5
429
100
AcDbEntity
  8
0
100
AcDbLine
 62
7
  6
CONTINUOUS
 10
4.7190400059
 20
3.2563554737
 11
4.7190400059
 21
3.2963554737
  0
LINE
  5
42A
100
AcDbEntity
  8
0
100
AcDbLine
 62
7
  6
CONTINUOUS
 10
4.7212785228
 20
3.2563554737
 11
4.7212785228
 21
3.2963554737
  0
LINE
  5
42B
100
AcDbEntity
  8
DEFAULT_2
100
AcDbLine
 62
8
  6
HIDDEN
 10
4.7227384116
 20
3.2963554737
 11
4.7227384116
 21
3.2563554737
  0
LINE
  5
42C
100
AcDbEntity
  8
DEFAULT_2
100
AcDbLine
 62
8
  6
HIDDEN
 10
4.7232640277
 20
3.2563554737
 11
4.7232640277
 21
3.2963554737
  0
LINE
  5
42D
100
AcDbEntity
  8
DEFAULT_2
100
AcDbLine
 62
8
  6
HIDDEN
 10
4.7256322677
 20
3.2563554737
 11
4.7256322677
 21
3.2963554737
  0
LINE
  5
42E
100
AcDbEntity
  8
DEFAULT_2
100
AcDbLine
 62
8
  6
HIDDEN
 10
4.7267366873
 20
3.2963554737
 11
4.7267366873
 21
3.2563554737
  0
LINE
  5
42F
100
AcDbEntity
  8
0
100
AcDbLine
 62
7
  6
CONTINUOUS
 10
4.7277291459
 20
3.2563554737
 11
4.7277291459
 21
3.2963554737
  0
LINE
  5
430
100
AcDbEntity
  8
0
100
AcDbLine
 62
7
  6
CONTINUOUS
 10
4.7302260702
 20
3.2563554737
 11
4.7302260702
 21
3.2963554737
  0
LINE
  5
431
100
AcDbEntity
  8
DEFAULT_2
100
AcDbLine
 62
8
  6
HIDDEN
 10
4.7309745361
 20
3.2963554737
 11
4.7309745361
 21
3.2563554737
  0
LINE
  5
432
100
AcDbEntity
  8
DEFAULT_2
100
AcDbLine
 62
8
  6
HIDDEN
 10
4.7324334019
 20
3.2563554737
 11
4.7324334019
 21
3.2963554737
  0
LINE
  5
433
100
AcDbEntity
  8
DEFAULT_2
100
AcDbLine
 62
8
  6
HIDDEN
 10
4.7350579154
 20
3.2563554737
 11
4.7350579154
 21
3.2963554737
  0
LINE
  5
434
100
AcDbEntity
  8
DEFAULT_2
100
AcDbLine
 62
8
  6
HIDDEN
 10
4.7354500992
 20
3.2963554737
 11
4.7354500992
 21
3.2563554737
  0
LINE
  5
435
100
AcDbEntity
  8
0
100
AcDbLine
 62
7
  6
CONTINUOUS
 10
4.7373747323
 20
3.2563554737
 11
4.7373747323
 21
3.2963554737
  0
LINE
  5
436
100
AcDbEntity
  8
0
100
AcDbLine
 62
7
  6
CONTINUOUS
 10
4.7401256837
 20
3.2563554737
 11
4.7401256837
 21
3.2963554737
  0
LINE
  5
437
100
AcDbEntity
  8
DEFAULT_2
100
AcDbLine
 62
8
  6
HIDDEN
 10
4.7401614134
 20
3.2963554737
 11
4.7401614134
 21
3.2563554737
  0
LINE
  5
438
100
AcDbEntity
  8
DEFAULT_2
100
AcDbLine
 62
8
  6
HIDDEN
 10
4.7425509696
 20
3.2563554737
 11
4.7425509696
 21
3.2963554737
  0
LINE
  5
439
100
AcDbEntity
  8
DEFAULT_2
100
AcDbLine
 62
8
  6
HIDDEN
 10
4.7451064123
 20
3.2963554737
 11
4.7451064123
 21
3.2563554737
  0
LINE
  5
43A
100
AcDbEntity
  8
DEFAULT_2
100
AcDbLine
 62
8
  6
HIDDEN
 10
4.7454271524
 20
3.2563554737
 11
4.7454271524
 21
3.2963554737
  0
LINE
  5
43B
100
AcDbEntity
  8
0
100
AcDbLine
 62
7
  6
CONTINUOUS
 10
4.7479598435
 20
3.2563554737
 11
4.7479598435
 21
3.2963554737
  0
LINE
  5
43C
100
AcDbEntity
  8
DEFAULT_2
100
AcDbLine
 62
8
  6
HIDDEN
 10
4.7502829269
 20
3.2963554737
 11
4.7502829269
 21
3.2563554737
  0
LINE
  5
43D
100
AcDbEntity
  8
0
100
AcDbLine
 62
7
  6
CONTINUOUS
 10
4.7509599959
 20
3.2563554737
 11
4.7509599959
 21
3.2963554737
  0
LINE
  5
43E
100
AcDbEntity
  8
DEFAULT_2
100
AcDbLine
 62
8
  6
HIDDEN
 10
4.7535989814
 20
3.2563554737
 11
4.7535989814
 21
3.2963554737
  0
LINE
  5
43F
100
AcDbEntity
  8
DEFAULT_2
100
AcDbLine
 62
8
  6
HIDDEN
 10
4.7556886864
 20
3.2963554737
 11
4.7556886864
 21
3.2563554737
  0
LINE
  5
440
100
AcDbEntity
  8
DEFAULT_2
100
AcDbLine
 62
8
  6
HIDDEN
 10
4.7567217875
 20
3.2563554737
 11
4.7567217875
 21
3.2963554737
  0
LINE
  5
441
100
AcDbEntity
  8
0
100
AcDbLine
 62
7
  6
CONTINUOUS
 10
4.7594659097
 20
3.2563554737
 11
4.7594659097
 21
3.2963554737
  0
LINE
  5
442
100
AcDbEntity
  8
DEFAULT_2
100
AcDbLine
 62
8
  6
HIDDEN
 10
4.7613213197
 20
3.2963554737
 11
4.7613213197
 21
3.2563554737
  0
LINE
  5
443
100
AcDbEntity
  8
0
100
AcDbLine
 62
7
  6
CONTINUOUS
 10
4.7627099998
 20
3.2563554737
 11
4.7627099998
 21
3.2963554737
  0
LINE
  5
444
100
AcDbEntity
  8
DEFAULT_2
100
AcDbLine
 62
8
  6
HIDDEN
 10
4.7655580551
 20
3.2563554737
 11
4.7655580551
 21
3.2963554737
  0
LINE
  5
445
100
AcDbEntity
  8
DEFAULT_2
100
AcDbLine
 62
8
  6
HIDDEN
 10
4.7671783563
 20
3.2963554737
 11
4.7671783563
 21
3.2563554737
  0
LINE
  5
446
100
AcDbEntity
  8
DEFAULT_2
100
AcDbLine
 62
8
  6
HIDDEN
 10
4.7689220061
 20
3.2563554737
 11
4.7689220061
 21
3.2963554737
  0
LINE
  5
447
100
AcDbEntity
  8
0
100
AcDbLine
 62
7
  6
CONTINUOUS
 10
4.7718727453
 20
3.2563554737
 11
4.7718727453
 21
3.2963554737
  0
LINE
  5
448
100
AcDbEntity
  8
DEFAULT_2
100
AcDbLine
 62
8
  6
HIDDEN
 10
4.773257227
 20
3.2963554737
 11
4.773257227
 21
3.2563554737
  0
LINE
  5
449
100
AcDbEntity
  8
0
100
AcDbLine
 62
7
  6
CONTINUOUS
 10
4.7753550818
 20
3.2563554737
 11
4.7753550818
 21
3.2963554737
  0
LINE
  5
44A
100
AcDbEntity
  8
DEFAULT_2
100
AcDbLine
 62
8
  6
HIDDEN
 10
4.7784072105
 20
3.2563554737
 11
4.7784072105
 21
3.2963554737
  0
LINE
  5
44B
100
AcDbEntity
  8
DEFAULT_2
100
AcDbLine
 62
8
  6
HIDDEN
 10
4.7795552654
 20
3.2963554737
 11
4.7795552654
 21
3.2563554737
  0
LINE
  5
44C
100
AcDbEntity
  8
DEFAULT_2
100
AcDbLine
 62
8
  6
HIDDEN
 10
4.782006405
 20
3.2563554737
 11
4.782006405
 21
3.2963554737
  0
LINE
  5
44D
100
AcDbEntity
  8
0
100
AcDbLine
 62
7
  6
CONTINUOUS
 10
4.7851585844
 20
3.2563554737
 11
4.7851585844
 21
3.2963554737
  0
LINE
  5
44E
100
AcDbEntity
  8
DEFAULT_2
100
AcDbLine
 62
8
  6
HIDDEN
 10
4.786069709
 20
3.2963554737
 11
4.786069709
 21
3.2563554737
  0
LINE
  5
44F
100
AcDbEntity
  8
0
100
AcDbLine
 62
7
  6
CONTINUOUS
 10
7.6557801016
 20
3.2758554737
 11
6.8900558457
 21
3.2758554737
  0
LINE
  5
450
100
AcDbEntity
  8
0
100
AcDbLine
 62
7
  6
CONTINUOUS
 10
3.6557801016
 20
3.2758554737
 11
2.8900558457
 21
3.2758554737
  0
LINE
  5
451
100
AcDbEntity
  8
0
100
AcDbLine
 62
7
  6
CONTINUOUS
 10
7.6414710136
 20
3.2863554737
 11
6.9043649337
 21
3.2863554737
  0
LINE
  5
452
100
AcDbEntity
  8
0
100
AcDbLine
 62
7
  6
CONTINUOUS
 10
3.6414710136
 20
3.2863554737
 11
2.9043649337
 21
3.2863554737
  0
LINE
  5
453
100
AcDbEntity
  8
0
100
AcDbLine
 62
7
  6
CONTINUOUS
 10
2.9604179737
 20
3.2913554737
 11
3.5854179737
 21
3.2913554737
  0
LINE
  5
454
100
AcDbEntity
  8
0
100
AcDbLine
 62
7
  6
CONTINUOUS
 10
6.9604179737
 20
3.2913554737
 11
7.5854179737
 21
3.2913554737
  0
LINE
  5
455
100
AcDbEntity
  8
DEFAULT_2
100
AcDbLine
 62
8
  6
HIDDEN
 10
4.8142725408
 20
3.2963554737
 11
4.814232989
 21
3.2963554737
  0
LINE
  5
456
100
AcDbEntity
  8
DEFAULT_2
100
AcDbLine
 62
8
  6
HIDDEN
 10
4.685424877
 20
3.2963554737
 11
4.6854940788
 21
3.2963554737
  0
LINE
  5
457
100
AcDbEntity
  8
0
100
AcDbLine
 62
7
  6
CONTINUOUS
 10
4.6854940788
 20
3.2963554737
 11
4.814232989
 21
3.2963554737
  0
LINE
  5
458
100
AcDbEntity
  8
0
100
AcDbLine
 62
7
  6
CONTINUOUS
 10
4.8142725408
 20
3.2963554737
 11
5.8604110703
 21
3.2963554737
  0
LINE
  5
459
100
AcDbEntity
  8
0
100
AcDbLine
 62
7
  6
CONTINUOUS
 10
5.7700089237
 20
3.3232785506
 11
4.7758270236
 21
3.3232785506
  0
LINE
  5
45A
100
AcDbEntity
  8
0
100
AcDbLine
 62
7
  6
CONTINUOUS
 10
5.7567021207
 20
3.3313554737
 11
4.7891338266
 21
3.3313554737
  0
LINE
  5
45B
100
AcDbEntity
  8
0
100
AcDbLine
 62
7
  6
CONTINUOUS
 10
5.6791679737
 20
3.3363554737
 11
4.8666679737
 21
3.3363554737
  0
LINE
  5
45C
100
AcDbEntity
  8
0
100
AcDbLine
 62
7
  6
CONTINUOUS
 10
4.7888730582
 20
3.2563554737
 11
4.7888730582
 21
3.2963554737
  0
LINE
  5
45D
100
AcDbEntity
  8
DEFAULT_2
100
AcDbLine
 62
8
  6
HIDDEN
 10
4.7921239058
 20
3.2563554737
 11
4.7921239058
 21
3.2963554737
  0
LINE
  5
45E
100
AcDbEntity
  8
DEFAULT_2
100
AcDbLine
 62
8
  6
HIDDEN
 10
4.7927977003
 20
3.2963554737
 11
4.7927977003
 21
3.2563554737
  0
LINE
  5
45F
100
AcDbEntity
  8
DEFAULT_2
100
AcDbLine
 62
8
  6
HIDDEN
 10
4.7959520295
 20
3.2563554737
 11
4.7959520295
 21
3.2963554737
  0
LINE
  5
460
100
AcDbEntity
  8
0
100
AcDbLine
 62
7
  6
CONTINUOUS
 10
4.7993001193
 20
3.2563554737
 11
4.7993001193
 21
3.2963554737
  0
LINE
  5
461
100
AcDbEntity
  8
DEFAULT_2
100
AcDbLine
 62
8
  6
HIDDEN
 10
4.7997362882
 20
3.2963554737
 11
4.7997362882
 21
3.2563554737
  0
LINE
  5
462
100
AcDbEntity
  8
0
100
AcDbLine
 62
7
  6
CONTINUOUS
 10
4.8032402139
 20
3.2563554737
 11
4.8032402139
 21
3.2963554737
  0
LINE
  5
463
100
AcDbEntity
  8
DEFAULT_2
100
AcDbLine
 62
8
  6
HIDDEN
 10
4.8066840773
 20
3.2563554737
 11
4.8066840773
 21
3.2963554737
  0
LINE
  5
464
100
AcDbEntity
  8
DEFAULT_2
100
AcDbLine
 62
8
  6
HIDDEN
 10
4.8068824293
 20
3.2963554737
 11
4.8068824293
 21
3.2563554737
  0
LINE
  5
465
100
AcDbEntity
  8
DEFAULT_2
100
AcDbLine
 62
8
  6
HIDDEN
 10
4.8107344144
 20
3.2563554737
 11
4.8107344144
 21
3.2963554737
  0
LINE
  5
466
100
AcDbEntity
  8
DEFAULT_2
100
AcDbLine
 62
8
  6
HIDDEN
 10
4.814232989
 20
3.2963554737
 11
4.814232989
 21
3.2563554737
  0
LINE
  5
467
100
AcDbEntity
  8
0
100
AcDbLine
 62
7
  6
CONTINUOUS
 10
4.8142725408
 20
3.2563554737
 11
4.8142725408
 21
3.2963554737
  0
LINE
  5
468
100
AcDbEntity
  8
0
100
AcDbLine
 62
7
  6
CONTINUOUS
 10
4.8166770328
 20
3.9813554737
 11
4.8166770328
 21
3.9313554737
  0
LINE
  5
469
100
AcDbEntity
  8
DEFAULT_2
100
AcDbLine
 62
8
  6
HIDDEN
 10
4.8167643035
 20
3.9813554737
 11
4.8167643035
 21
3.9313554737
  0
LINE
  5
46A
100
AcDbEntity
  8
0
100
AcDbLine
 62
7
  6
CONTINUOUS
 10
4.8169186865
 20
3.9813554737
 11
4.8169186865
 21
3.9313554737
  0
LINE
  5
46B
100
AcDbEntity
  8
0
100
AcDbLine
 62
7
  6
CONTINUOUS
 10
4.8171804358
 20
3.9813554737
 11
4.8171804358
 21
3.9313554737
  0
LINE
  5
46C
100
AcDbEntity
  8
DEFAULT_2
100
AcDbLine
 62
8
  6
HIDDEN
 10
4.8174890905
 20
3.9813554737
 11
4.8174890905
 21
3.9313554737
  0
LINE
  5
46D
100
AcDbEntity
  8
DEFAULT_2
100
AcDbLine
 62
8
  6
HIDDEN
 10
4.8179251297
 20
3.9813554737
 11
4.8179251297
 21
3.9313554737
  0
LINE
  5
46E
100
AcDbEntity
  8
0
100
AcDbLine
 62
7
  6
CONTINUOUS
 10
4.8183878334
 20
3.9813554737
 11
4.8183878334
 21
3.9313554737
  0
LINE
  5
46F
100
AcDbEntity
  8
0
100
AcDbLine
 62
7
  6
CONTINUOUS
 10
4.8184313439
 20
3.2563554737
 11
4.8184313439
 21
3.2963554737
  0
LINE
  5
470
100
AcDbEntity
  8
0
100
AcDbLine
 62
7
  6
CONTINUOUS
 10
4.8189978482
 20
3.9813554737
 11
4.8189978482
 21
3.9313554737
  0
LINE
  5
471
100
AcDbEntity
  8
DEFAULT_2
100
AcDbLine
 62
8
  6
HIDDEN
 10
4.8196142675
 20
3.9813554737
 11
4.8196142675
 21
3.9313554737
  0
LINE
  5
472
100
AcDbEntity
  8
DEFAULT_2
100
AcDbLine
 62
8
  6
HIDDEN
 10
4.820397818
 20
3.9813554737
 11
4.820397818
 21
3.9313554737
  0
LINE
  5
473
100
AcDbEntity
  8
0
100
AcDbLine
 62
7
  6
CONTINUOUS
 10
4.8211675085
 20
3.9813554737
 11
4.8211675085
 21
3.9313554737
  0
LINE
  5
474
100
AcDbEntity
  8
DEFAULT_2
100
AcDbLine
 62
8
  6
HIDDEN
 10
4.821784743
 20
3.2963554737
 11
4.821784743
 21
3.2563554737
  0
LINE
  5
475
100
AcDbEntity
  8
DEFAULT_2
100
AcDbLine
 62
8
  6
HIDDEN
 10
4.8220621814
 20
3.2563554737
 11
4.8220621814
 21
3.2963554737
  0
LINE
  5
476
100
AcDbEntity
  8
0
100
AcDbLine
 62
7
  6
CONTINUOUS
 10
4.8221240298
 20
3.9813554737
 11
4.8221240298
 21
3.9313554737
  0
LINE
  5
477
100
AcDbEntity
  8
DEFAULT_2
100
AcDbLine
 62
8
  6
HIDDEN
 10
4.8230464365
 20
3.9813554737
 11
4.8230464365
 21
3.9313554737
  0
LINE
  5
478
100
AcDbEntity
  8
DEFAULT_2
100
AcDbLine
 62
8
  6
HIDDEN
 10
4.823708461
 20
3.9313554737
 11
4.823708461
 21
3.9813554737
  0
LINE
  5
479
100
AcDbEntity
  8
DEFAULT_2
100
AcDbLine
 62
8
  6
HIDDEN
 10
4.8240323162
 20
3.9313554737
 11
4.8240323162
 21
3.9813554737
  0
LINE
  5
47A
100
AcDbEntity
  8
DEFAULT_2
100
AcDbLine
 62
8
  6
HIDDEN
 10
4.8241752391
 20
3.9813554737
 11
4.8241752391
 21
3.9313554737
  0
LINE
  5
47B
100
AcDbEntity
  8
DEFAULT_2
100
AcDbLine
 62
8
  6
HIDDEN
 10
4.8246797931
 20
3.9313554737
 11
4.8246797931
 21
3.9813554737
  0
LINE
  5
47C
100
AcDbEntity
  8
0
100
AcDbLine
 62
7
  6
CONTINUOUS
 10
4.825249697
 20
3.9813554737
 11
4.825249697
 21
3.9313554737
  0
LINE
  5
47D
100
AcDbEntity
  8
DEFAULT_2
100
AcDbLine
 62
8
  6
HIDDEN
 10
4.825650425
 20
3.9313554737
 11
4.825650425
 21
3.9813554737
  0
LINE
  5
47E
100
AcDbEntity
  8
DEFAULT_2
100
AcDbLine
 62
8
  6
HIDDEN
 10
4.8263276263
 20
3.2563554737
 11
4.8263276263
 21
3.2963554737
  0
LINE
  5
47F
100
AcDbEntity
  8
0
100
AcDbLine
 62
7
  6
CONTINUOUS
 10
4.826549967
 20
3.9813554737
 11
4.826549967
 21
3.9313554737
  0
LINE
  5
480
100
AcDbEntity
  8
DEFAULT_2
100
AcDbLine
 62
8
  6
HIDDEN
 10
4.826943512
 20
3.9313554737
 11
4.826943512
 21
3.9813554737
  0
LINE
  5
481
100
AcDbEntity
  8
DEFAULT_2
100
AcDbLine
 62
8
  6
HIDDEN
 10
4.8277757016
 20
3.9813554737
 11
4.8277757016
 21
3.9313554737
  0
LINE
  5
482
100
AcDbEntity
  8
DEFAULT_2
100
AcDbLine
 62
8
  6
HIDDEN
 10
4.8285581219
 20
3.9313554737
 11
4.8285581219
 21
3.9813554737
  0
LINE
  5
483
100
AcDbEntity
  8
DEFAULT_2
100
AcDbLine
 62
8
  6
HIDDEN
 10
4.8292465016
 20
3.9813554737
 11
4.8292465016
 21
3.9313554737
  0
LINE
  5
484
100
AcDbEntity
  8
0
100
AcDbLine
 62
7
  6
CONTINUOUS
 10
4.829534379
 20
3.2963554737
 11
4.829534379
 21
3.2563554737
  0
LINE
  5
485
100
AcDbEntity
  8
0
100
AcDbLine
 62
7
  6
CONTINUOUS
 10
4.8300495823
 20
3.2563554737
 11
4.8300495823
 21
3.2963554737
  0
LINE
  5
486
100
AcDbEntity
  8
DEFAULT_2
100
AcDbLine
 62
8
  6
HIDDEN
 10
4.8304930906
 20
3.9313554737
 11
4.8304930906
 21
3.9813554737
  0
LINE
  5
487
100
AcDbEntity
  8
0
100
AcDbLine
 62
7
  6
CONTINUOUS
 10
4.8306226291
 20
3.9813554737
 11
4.8306226291
 21
3.9313554737
  0
LINE
  5
488
100
AcDbEntity
  8
0
100
AcDbLine
 62
7
  6
CONTINUOUS
 10
4.8322628988
 20
3.9813554737
 11
4.8322628988
 21
3.9313554737
  0
LINE
  5
489
100
AcDbEntity
  8
DEFAULT_2
100
AcDbLine
 62
8
  6
HIDDEN
 10
4.8327470232
 20
3.9313554737
 11
4.8327470232
 21
3.9813554737
  0
LINE
  5
48A
100
AcDbEntity
  8
DEFAULT_2
100
AcDbLine
 62
8
  6
HIDDEN
 10
4.833788427
 20
3.9813554737
 11
4.833788427
 21
3.9313554737
  0
LINE
  5
48B
100
AcDbEntity
  8
0
100
AcDbLine
 62
7
  6
CONTINUOUS
 10
4.8344197979
 20
3.2563554737
 11
4.8344197979
 21
3.2963554737
  0
LINE
  5
48C
100
AcDbEntity
  8
DEFAULT_2
100
AcDbLine
 62
8
  6
HIDDEN
 10
4.8353182947
 20
3.9313554737
 11
4.8353182947
 21
3.9813554737
  0
LINE
  5
48D
100
AcDbEntity
  8
DEFAULT_2
100
AcDbLine
 62
8
  6
HIDDEN
 10
4.8355969839
 20
3.9813554737
 11
4.8355969839
 21
3.9313554737
  0
LINE
  5
48E
100
AcDbEntity
  8
0
100
AcDbLine
 62
7
  6
CONTINUOUS
 10
4.8372708131
 20
3.9813554737
 11
4.8372708131
 21
3.9313554737
  0
LINE
  5
48F
100
AcDbEntity
  8
DEFAULT_2
100
AcDbLine
 62
8
  6
HIDDEN
 10
4.8374784977
 20
3.2963554737
 11
4.8374784977
 21
3.2563554737
  0
LINE
  5
490
100
AcDbEntity
  8
DEFAULT_2
100
AcDbLine
 62
8
  6
HIDDEN
 10
4.8382050514
 20
3.9313554737
 11
4.8382050514
 21
3.9813554737
  0
LINE
  5
491
100
AcDbEntity
  8
DEFAULT_2
100
AcDbLine
 62
8
  6
HIDDEN
 10
4.8382312398
 20
3.2563554737
 11
4.8382312398
 21
3.2963554737
  0
LINE
  5
492
100
AcDbEntity
  8
0
100
AcDbLine
 62
7
  6
CONTINUOUS
 10
4.8392463532
 20
3.9813554737
 11
4.8392463532
 21
3.9313554737
  0
LINE
  5
493
100
AcDbEntity
  8
DEFAULT_2
100
AcDbLine
 62
8
  6
HIDDEN
 10
4.8410672767
 20
3.9813554737
 11
4.8410672767
 21
3.9313554737
  0
LINE
  5
494
100
AcDbEntity
  8
DEFAULT_2
100
AcDbLine
 62
8
  6
HIDDEN
 10
4.841405212
 20
3.9313554737
 11
4.841405212
 21
3.9813554737
  0
LINE
  5
495
100
AcDbEntity
  8
DEFAULT_2
100
AcDbLine
 62
8
  6
HIDDEN
 10
4.8427043094
 20
3.2563554737
 11
4.8427043094
 21
3.2963554737
  0
LINE
  5
496
100
AcDbEntity
  8
DEFAULT_2
100
AcDbLine
 62
8
  6
HIDDEN
 10
4.8432083757
 20
3.9813554737
 11
4.8432083757
 21
3.9313554737
  0
LINE
  5
497
100
AcDbEntity
  8
DEFAULT_2
100
AcDbLine
 62
8
  6
HIDDEN
 10
4.8449164694
 20
3.9313554737
 11
4.8449164694
 21
3.9813554737
  0
LINE
  5
498
100
AcDbEntity
  8
0
100
AcDbLine
 62
7
  6
CONTINUOUS
 10
4.8451750807
 20
3.9813554737
 11
4.8451750807
 21
3.9313554737
  0
LINE
  5
499
100
AcDbEntity
  8
0
100
AcDbLine
 62
7
  6
CONTINUOUS
 10
4.8456136146
 20
3.2963554737
 11
4.8456136146
 21
3.2563554737
  0
LINE
  5
49A
100
AcDbEntity
  8
0
100
AcDbLine
 62
7
  6
CONTINUOUS
 10
4.8466035654
 20
3.2563554737
 11
4.8466035654
 21
3.2963554737
  0
LINE
  5
49B
100
AcDbEntity
  8
0
100
AcDbLine
 62
7
  6
CONTINUOUS
 10
4.8474801951
 20
3.9813554737
 11
4.8474801951
 21
3.9313554737
  0
LINE
  5
49C
100
AcDbEntity
  8
DEFAULT_2
100
AcDbLine
 62
8
  6
HIDDEN
 10
4.8487362923
 20
3.9313554737
 11
4.8487362923
 21
3.9813554737
  0
LINE
  5
49D
100
AcDbEntity
  8
DEFAULT_2
100
AcDbLine
 62
8
  6
HIDDEN
 10
4.8495912637
 20
3.9813554737
 11
4.8495912637
 21
3.9313554737
  0
LINE
  5
49E
100
AcDbEntity
  8
0
100
AcDbLine
 62
7
  6
CONTINUOUS
 10
4.8511775268
 20
3.2563554737
 11
4.8511775268
 21
3.2963554737
  0
LINE
  5
49F
100
AcDbEntity
  8
DEFAULT_2
100
AcDbLine
 62
8
  6
HIDDEN
 10
4.8520587316
 20
3.9813554737
 11
4.8520587316
 21
3.9313554737
  0
LINE
  5
4A0
100
AcDbEntity
  8
DEFAULT_2
100
AcDbLine
 62
8
  6
HIDDEN
 10
4.8528619266
 20
3.9313554737
 11
4.8528619266
 21
3.9813554737
  0
LINE
  5
4A1
100
AcDbEntity
  8
DEFAULT_2
100
AcDbLine
 62
8
  6
HIDDEN
 10
4.8539361612
 20
3.2963554737
 11
4.8539361612
 21
3.2563554737
  0
LINE
  5
4A2
100
AcDbEntity
  8
0
100
AcDbLine
 62
7
  6
CONTINUOUS
 10
4.8543126418
 20
3.9813554737
 11
4.8543126418
 21
3.9313554737
  0
LINE
  5
4A3
100
AcDbEntity
  8
DEFAULT_2
100
AcDbLine
 62
8
  6
HIDDEN
 10
4.8551628865
 20
3.2563554737
 11
4.8551628865
 21
3.2963554737
  0
LINE
  5
4A4
100
AcDbEntity
  8
0
100
AcDbLine
 62
7
  6
CONTINUOUS
 10
4.8569406843
 20
3.9813554737
 11
4.8569406843
 21
3.9313554737
  0
LINE
  5
4A5
100
AcDbEntity
  8
DEFAULT_2
100
AcDbLine
 62
8
  6
HIDDEN
 10
4.8572903981
 20
3.9313554737
 11
4.8572903981
 21
3.9813554737
  0
LINE
  5
4A6
100
AcDbEntity
  8
DEFAULT_2
100
AcDbLine
 62
8
  6
HIDDEN
 10
4.8593358112
 20
3.9813554737
 11
4.8593358112
 21
3.9313554737
  0
LINE
  5
4A7
100
AcDbEntity
  8
DEFAULT_2
100
AcDbLine
 62
8
  6
HIDDEN
 10
4.8598357334
 20
3.2563554737
 11
4.8598357334
 21
3.2963554737
  0
LINE
  5
4A8
100
AcDbEntity
  8
DEFAULT_2
100
AcDbLine
 62
8
  6
HIDDEN
 10
4.8620185141
 20
3.9313554737
 11
4.8620185141
 21
3.9813554737
  0
LINE
  5
4A9
100
AcDbEntity
  8
DEFAULT_2
100
AcDbLine
 62
8
  6
HIDDEN
 10
4.8621225336
 20
3.9813554737
 11
4.8621225336
 21
3.9313554737
  0
LINE
  5
4AA
100
AcDbEntity
  8
0
100
AcDbLine
 62
7
  6
CONTINUOUS
 10
4.8624424872
 20
3.2963554737
 11
4.8624424872
 21
3.2563554737
  0
LINE
  5
4AB
100
AcDbEntity
  8
0
100
AcDbLine
 62
7
  6
CONTINUOUS
 10
4.8639054488
 20
3.2563554737
 11
4.8639054488
 21
3.2963554737
  0
LINE
  5
4AC
100
AcDbEntity
  8
0
100
AcDbLine
 62
7
  6
CONTINUOUS
 10
4.8646571504
 20
3.9813554737
 11
4.8646571504
 21
3.9313554737
  0
LINE
  5
4AD
100
AcDbEntity
  8
0
100
AcDbLine
 62
7
  6
CONTINUOUS
 10
4.8666679737
 20
3.9313554737
 11
4.8666679737
 21
3.3363554737
  0
LINE
  5
4AE
100
AcDbEntity
  8
DEFAULT_2
100
AcDbLine
 62
8
  6
HIDDEN
 10
4.8670428659
 20
3.9313554737
 11
4.8670428659
 21
3.9813554737
  0
LINE
  5
4AF
100
AcDbEntity
  8
0
100
AcDbLine
 62
7
  6
CONTINUOUS
 10
4.8676005437
 20
3.9813554737
 11
4.8676005437
 21
3.9313554737
  0
LINE
  5
4B0
100
AcDbEntity
  8
0
100
AcDbLine
 62
7
  6
CONTINUOUS
 10
4.8686751317
 20
3.2563554737
 11
4.8686751317
 21
3.2963554737
  0
LINE
  5
4B1
100
AcDbEntity
  8
DEFAULT_2
100
AcDbLine
 62
8
  6
HIDDEN
 10
4.8702728231
 20
3.9813554737
 11
4.8702728231
 21
3.9313554737
  0
LINE
  5
4B2
100
AcDbEntity
  8
DEFAULT_2
100
AcDbLine
 62
8
  6
HIDDEN
 10
4.8711288612
 20
3.2963554737
 11
4.8711288612
 21
3.2563554737
  0
LINE
  5
4B3
100
AcDbEntity
  8
DEFAULT_2
100
AcDbLine
 62
8
  6
HIDDEN
 10
4.8723598312
 20
3.9313554737
 11
4.8723598312
 21
3.9813554737
  0
LINE
  5
4B4
100
AcDbEntity
  8
DEFAULT_2
100
AcDbLine
 62
8
  6
HIDDEN
 10
4.8728274176
 20
3.2563554737
 11
4.8728274176
 21
3.2963554737
  0
LINE
  5
4B5
100
AcDbEntity
  8
DEFAULT_2
100
AcDbLine
 62
8
  6
HIDDEN
 10
4.8733707652
 20
3.9813554737
 11
4.8733707652
 21
3.9313554737
  0
LINE
  5
4B6
100
AcDbEntity
  8
0
100
AcDbLine
 62
7
  6
CONTINUOUS
 10
4.8761787807
 20
3.9813554737
 11
4.8761787807
 21
3.9313554737
  0
LINE
  5
4B7
100
AcDbEntity
  8
DEFAULT_2
100
AcDbLine
 62
8
  6
HIDDEN
 10
4.8776918441
 20
3.2563554737
 11
4.8776918441
 21
3.2963554737
  0
LINE
  5
4B8
100
AcDbEntity
  8
DEFAULT_2
100
AcDbLine
 62
8
  6
HIDDEN
 10
4.8779655767
 20
3.9313554737
 11
4.8779655767
 21
3.9813554737
  0
LINE
  5
4B9
100
AcDbEntity
  8
0
100
AcDbLine
 62
7
  6
CONTINUOUS
 10
4.8794290382
 20
3.9813554737
 11
4.8794290382
 21
3.9313554737
  0
LINE
  5
4BA
100
AcDbEntity
  8
0
100
AcDbLine
 62
7
  6
CONTINUOUS
 10
4.8799914733
 20
3.2963554737
 11
4.8799914733
 21
3.2563554737
  0
LINE
  5
4BB
100
AcDbEntity
  8
0
100
AcDbLine
 62
7
  6
CONTINUOUS
 10
4.8819248792
 20
3.2563554737
 11
4.8819248792
 21
3.2963554737
  0
LINE
  5
4BC
100
AcDbEntity
  8
DEFAULT_2
100
AcDbLine
 62
8
  6
HIDDEN
 10
4.8823707652
 20
3.9813554737
 11
4.8823707652
 21
3.9313554737
  0
LINE
  5
4BD
100
AcDbEntity
  8
DEFAULT_2
100
AcDbLine
 62
8
  6
HIDDEN
 10
4.883856061
 20
3.9313554737
 11
4.883856061
 21
3.9813554737
  0
LINE
  5
4BE
100
AcDbEntity
  8
DEFAULT_2
100
AcDbLine
 62
8
  6
HIDDEN
 10
4.8857709949
 20
3.9813554737
 11
4.8857709949
 21
3.9313554737
  0
LINE
  5
4BF
100
AcDbEntity
  8
0
100
AcDbLine
 62
7
  6
CONTINUOUS
 10
4.8868819158
 20
3.2563554737
 11
4.8868819158
 21
3.2963554737
  0
LINE
  5
4C0
100
AcDbEntity
  8
0
100
AcDbLine
 62
7
  6
CONTINUOUS
 10
4.8888443127
 20
3.9813554737
 11
4.8888443127
 21
3.9313554737
  0
LINE
  5
4C1
100
AcDbEntity
  8
DEFAULT_2
100
AcDbLine
 62
8
  6
HIDDEN
 10
4.8890264358
 20
3.2963554737
 11
4.8890264358
 21
3.2563554737
  0
LINE
  5
4C2
100
AcDbEntity
  8
DEFAULT_2
100
AcDbLine
 62
8
  6
HIDDEN
 10
4.8900270374
 20
3.9313554737
 11
4.8900270374
 21
3.9813554737
  0
LINE
  5
4C3
100
AcDbEntity
  8
DEFAULT_2
100
AcDbLine
 62
8
  6
HIDDEN
 10
4.8911938434
 20
3.2563554737
 11
4.8911938434
 21
3.2963554737
  0
LINE
  5
4C4
100
AcDbEntity
  8
0
100
AcDbLine
 62
7
  6
CONTINUOUS
 10
4.8923920631
 20
3.9813554737
 11
4.8923920631
 21
3.9313554737
  0
LINE
  5
4C5
100
AcDbEntity
  8
DEFAULT_2
100
AcDbLine
 62
8
  6
HIDDEN
 10
4.8955947561
 20
3.9813554737
 11
4.8955947561
 21
3.9313554737
  0
LINE
  5
4C6
100
AcDbEntity
  8
DEFAULT_2
100
AcDbLine
 62
8
  6
HIDDEN
 10
4.8962413157
 20
3.2563554737
 11
4.8962413157
 21
3.2963554737
  0
LINE
  5
4C7
100
AcDbEntity
  8
DEFAULT_2
100
AcDbLine
 62
8
  6
HIDDEN
 10
4.8964740571
 20
3.9313554737
 11
4.8964740571
 21
3.9813554737
  0
LINE
  5
4C8
100
AcDbEntity
  8
0
100
AcDbLine
 62
7
  6
CONTINUOUS
 10
4.8979179737
 20
3.3363554737
 11
4.8979179737
 21
3.3313554737
  0
LINE
  5
4C9
100
AcDbEntity
  8
0
100
AcDbLine
 62
7
  6
CONTINUOUS
 10
4.8982297859
 20
3.2963554737
 11
4.8982297859
 21
3.2563554737
  0
LINE
  5
4CA
100
AcDbEntity
  8
DEFAULT_2
100
AcDbLine
 62
8
  6
HIDDEN
 10
4.8992874695
 20
3.9813554737
 11
4.8992874695
 21
3.9313554737
  0
LINE
  5
4CB
100
AcDbEntity
  8
0
100
AcDbLine
 62
7
  6
CONTINUOUS
 10
4.9006302444
 20
3.2563554737
 11
4.9006302444
 21
3.2963554737
  0
LINE
  5
4CC
100
AcDbEntity
  8
0
100
AcDbLine
 62
7
  6
CONTINUOUS
 10
4.9026172286
 20
3.9813554737
 11
4.9026172286
 21
3.9313554737
  0
LINE
  5
4CD
100
AcDbEntity
  8
DEFAULT_2
100
AcDbLine
 62
8
  6
HIDDEN
 10
4.9031924719
 20
3.9313554737
 11
4.9031924719
 21
3.9813554737
  0
LINE
  5
4CE
100
AcDbEntity
  8
0
100
AcDbLine
 62
7
  6
CONTINUOUS
 10
4.9057659385
 20
3.2563554737
 11
4.9057659385
 21
3.2963554737
  0
LINE
  5
4CF
100
AcDbEntity
  8
0
100
AcDbLine
 62
7
  6
CONTINUOUS
 10
4.9064522428
 20
3.9813554737
 11
4.9064522428
 21
3.9313554737
  0
LINE
  5
4D0
100
AcDbEntity
  8
DEFAULT_2
100
AcDbLine
 62
8
  6
HIDDEN
 10
4.9075974866
 20
3.2963554737
 11
4.9075974866
 21
3.2563554737
  0
LINE
  5
4D1
100
AcDbEntity
  8
DEFAULT_2
100
AcDbLine
 62
8
  6
HIDDEN
 10
4.9099066674
 20
3.9813554737
 11
4.9099066674
 21
3.9313554737
  0
LINE
  5
4D2
100
AcDbEntity
  8
DEFAULT_2
100
AcDbLine
 62
8
  6
HIDDEN
 10
4.9101774384
 20
3.9313554737
 11
4.9101774384
 21
3.9813554737
  0
LINE
  5
4D3
100
AcDbEntity
  8
DEFAULT_2
100
AcDbLine
 62
8
  6
HIDDEN
 10
4.910229943
 20
3.2563554737
 11
4.910229943
 21
3.2963554737
  0
LINE
  5
4D4
100
AcDbEntity
  8
DEFAULT_2
100
AcDbLine
 62
8
  6
HIDDEN
 10
4.9138812176
 20
3.9813554737
 11
4.9138812176
 21
3.9313554737
  0
LINE
  5
4D5
100
AcDbEntity
  8
DEFAULT_2
100
AcDbLine
 62
8
  6
HIDDEN
 10
4.9154516062
 20
3.2563554737
 11
4.9154516062
 21
3.2963554737
  0
LINE
  5
4D6
100
AcDbEntity
  8
0
100
AcDbLine
 62
7
  6
CONTINUOUS
 10
4.917125429
 20
3.2963554737
 11
4.917125429
 21
3.2563554737
  0
LINE
  5
4D7
100
AcDbEntity
  8
DEFAULT_2
100
AcDbLine
 62
8
  6
HIDDEN
 10
4.9174239207
 20
3.9313554737
 11
4.9174239207
 21
3.9813554737
  0
LINE
  5
4D8
100
AcDbEntity
  8
0
100
AcDbLine
 62
7
  6
CONTINUOUS
 10
4.9174578173
 20
3.9813554737
 11
4.9174578173
 21
3.9313554737
  0
LINE
  5
4D9
100
AcDbEntity
  8
0
100
AcDbLine
 62
7
  6
CONTINUOUS
 10
4.9199887287
 20
3.2563554737
 11
4.9199887287
 21
3.2963554737
  0
LINE
  5
4DA
100
AcDbEntity
  8
0
100
AcDbLine
 62
7
  6
CONTINUOUS
 10
4.921569038
 20
3.9813554737
 11
4.921569038
 21
3.9313554737
  0
LINE
  5
4DB
100
AcDbEntity
  8
DEFAULT_2
100
AcDbLine
 62
8
  6
HIDDEN
 10
4.9249266946
 20
3.9313554737
 11
4.9249266946
 21
3.9813554737
  0
LINE
  5
4DC
100
AcDbEntity
  8
DEFAULT_2
100
AcDbLine
 62
8
  6
HIDDEN
 10
4.9252652343
 20
3.9813554737
 11
4.9252652343
 21
3.9313554737
  0
LINE
  5
4DD
100
AcDbEntity
  8
0
100
AcDbLine
 62
7
  6
CONTINUOUS
 10
4.9252940705
 20
3.2563554737
 11
4.9252940705
 21
3.2963554737
  0
LINE
  5
4DE
100
AcDbEntity
  8
DEFAULT_2
100
AcDbLine
 62
8
  6
HIDDEN
 10
4.9268094337
 20
3.2963554737
 11
4.9268094337
 21
3.2563554737
  0
LINE
  5
4DF
100
AcDbEntity
  8
DEFAULT_2
100
AcDbLine
 62
8
  6
HIDDEN
 10
4.9295101616
 20
3.9813554737
 11
4.9295101616
 21
3.9313554737
  0
LINE
  5
4E0
100
AcDbEntity
  8
DEFAULT_2
100
AcDbLine
 62
8
  6
HIDDEN
 10
4.9299023208
 20
3.2563554737
 11
4.9299023208
 21
3.2963554737
  0
LINE
  5
4E1
100
AcDbEntity
  8
0
100
AcDbLine
 62
7
  6
CONTINUOUS
 10
4.9326803509
 20
3.9313554737
 11
4.9326803509
 21
3.9813554737
  0
LINE
  5
4E2
100
AcDbEntity
  8
0
100
AcDbLine
 62
7
  6
CONTINUOUS
 10
4.9333232897
 20
3.9813554737
 11
4.9333232897
 21
3.9313554737
  0
LINE
  5
4E3
100
AcDbEntity
  8
DEFAULT_2
100
AcDbLine
 62
8
  6
HIDDEN
 10
4.9352890141
 20
3.2563554737
 11
4.9352890141
 21
3.2963554737
  0
LINE
  5
4E4
100
AcDbEntity
  8
0
100
AcDbLine
 62
7
  6
CONTINUOUS
 10
4.9366452531
 20
3.2963554737
 11
4.9366452531
 21
3.2563554737
  0
LINE
  5
4E5
100
AcDbEntity
  8
0
100
AcDbLine
 62
7
  6
CONTINUOUS
 10
4.9376988632
 20
3.9813554737
 11
4.9376988632
 21
3.9313554737
  0
LINE
  5
4E6
100
AcDbEntity
  8
0
100
AcDbLine
 62
7
  6
CONTINUOUS
 10
4.9399663708
 20
3.2563554737
 11
4.9399663708
 21
3.2963554737
  0
LINE
  5
4E7
100
AcDbEntity
  8
DEFAULT_2
100
AcDbLine
 62
8
  6
HIDDEN
 10
4.9406792997
 20
3.9313554737
 11
4.9406792997
 21
3.9813554737
  0
LINE
  5
4E8
100
AcDbEntity
  8
DEFAULT_2
100
AcDbLine
 62
8
  6
HIDDEN
 10
4.9416261741
 20
3.9813554737
 11
4.9416261741
 21
3.9313554737
  0
LINE
  5
4E9
100
AcDbEntity
  8
0
100
AcDbLine
 62
7
  6
CONTINUOUS
 10
4.945432053
 20
3.2563554737
 11
4.945432053
 21
3.2963554737
  0
LINE
  5
4EA
100
AcDbEntity
  8
DEFAULT_2
100
AcDbLine
 62
8
  6
HIDDEN
 10
4.9461292392
 20
3.9813554737
 11
4.9461292392
 21
3.9313554737
  0
LINE
  5
4EB
100
AcDbEntity
  8
DEFAULT_2
100
AcDbLine
 62
8
  6
HIDDEN
 10
4.9466285728
 20
3.2963554737
 11
4.9466285728
 21
3.2563554737
  0
LINE
  5
4EC
100
AcDbEntity
  8
0
100
AcDbLine
 62
7
  6
CONTINUOUS
 10
4.9489177742
 20
3.9313554737
 11
4.9489177742
 21
3.9813554737
  0
LINE
  5
4ED
100
AcDbEntity
  8
0
100
AcDbLine
 62
7
  6
CONTINUOUS
 10
4.9501679015
 20
3.9813554737
 11
4.9501679015
 21
3.9313554737
  0
LINE
  5
4EE
100
AcDbEntity
  8
DEFAULT_2
100
AcDbLine
 62
8
  6
HIDDEN
 10
4.9501764645
 20
3.2563554737
 11
4.9501764645
 21
3.2963554737
  0
LINE
  5
4EF
100
AcDbEntity
  8
0
100
AcDbLine
 62
7
  6
CONTINUOUS
 10
4.9547952118
 20
3.9813554737
 11
4.9547952118
 21
3.9313554737
  0
LINE
  5
4F0
100
AcDbEntity
  8
DEFAULT_2
100
AcDbLine
 62
8
  6
HIDDEN
 10
4.955718738
 20
3.2563554737
 11
4.955718738
 21
3.2963554737
  0
LINE
  5
4F1
100
AcDbEntity
  8
0
100
AcDbLine
 62
7
  6
CONTINUOUS
 10
4.9567550138
 20
3.2963554737
 11
4.9567550138
 21
3.2563554737
  0
LINE
  5
4F2
100
AcDbEntity
  8
DEFAULT_2
100
AcDbLine
 62
8
  6
HIDDEN
 10
4.9573898349
 20
3.9313554737
 11
4.9573898349
 21
3.9813554737
  0
LINE
  5
4F3
100
AcDbEntity
  8
DEFAULT_2
100
AcDbLine
 62
8
  6
HIDDEN
 10
4.9589423139
 20
3.9813554737
 11
4.9589423139
 21
3.9313554737
  0
LINE
  5
4F4
100
AcDbEntity
  8
0
100
AcDbLine
 62
7
  6
CONTINUOUS
 10
4.9605281232
 20
3.2563554737
 11
4.9605281232
 21
3.2963554737
  0
LINE
  5
4F5
100
AcDbEntity
  8
DEFAULT_2
100
AcDbLine
 62
8
  6
HIDDEN
 10
4.9636905333
 20
3.9813554737
 11
4.9636905333
 21
3.9313554737
  0
LINE
  5
4F6
100
AcDbEntity
  8
0
100
AcDbLine
 62
7
  6
CONTINUOUS
 10
4.9660893739
 20
3.9313554737
 11
4.9660893739
 21
3.9813554737
  0
LINE
  5
4F7
100
AcDbEntity
  8
0
100
AcDbLine
 62
7
  6
CONTINUOUS
 10
4.9661445571
 20
3.2563554737
 11
4.9661445571
 21
3.2963554737
  0
LINE
  5
4F8
100
AcDbEntity
  8
DEFAULT_2
100
AcDbLine
 62
8
  6
HIDDEN
 10
4.9670201344
 20
3.2963554737
 11
4.9670201344
 21
3.2563554737
  0
LINE
  5
4F9
100
AcDbEntity
  8
0
100
AcDbLine
 62
7
  6
CONTINUOUS
 10
4.9679430853
 20
3.9813554737
 11
4.9679430853
 21
3.9313554737
  0
LINE
  5
4FA
100
AcDbEntity
  8
DEFAULT_2
100
AcDbLine
 62
8
  6
HIDDEN
 10
4.9710168065
 20
3.2563554737
 11
4.9710168065
 21
3.2963554737
  0
LINE
  5
4FB
100
AcDbEntity
  8
0
100
AcDbLine
 62
7
  6
CONTINUOUS
 10
4.9728087907
 20
3.9813554737
 11
4.9728087907
 21
3.9313554737
  0
LINE
  5
4FC
100
AcDbEntity
  8
DEFAULT_2
100
AcDbLine
 62
8
  6
HIDDEN
 10
4.9750101194
 20
3.9313554737
 11
4.9750101194
 21
3.9813554737
  0
LINE
  5
4FD
100
AcDbEntity
  8
DEFAULT_2
100
AcDbLine
 62
8
  6
HIDDEN
 10
4.9767049371
 20
3.2563554737
 11
4.9767049371
 21
3.2963554737
  0
LINE
  5
4FE
100
AcDbEntity
  8
DEFAULT_2
100
AcDbLine
 62
8
  6
HIDDEN
 10
4.9771637268
 20
3.9813554737
 11
4.9771637268
 21
3.9313554737
  0
LINE
  5
4FF
100
AcDbEntity
  8
0
100
AcDbLine
 62
7
  6
CONTINUOUS
 10
4.9774194318
 20
3.2963554737
 11
4.9774194318
 21
3.2563554737
  0
LINE
  5
500
100
AcDbEntity
  8
0
100
AcDbLine
 62
7
  6
CONTINUOUS
 10
4.9816379136
 20
3.2563554737
 11
4.9816379136
 21
3.2963554737
  0
LINE
  5
501
100
AcDbEntity
  8
DEFAULT_2
100
AcDbLine
 62
8
  6
HIDDEN
 10
4.9821434102
 20
3.9813554737
 11
4.9821434102
 21
3.9313554737
  0
LINE
  5
502
100
AcDbEntity
  8
0
100
AcDbLine
 62
7
  6
CONTINUOUS
 10
4.98414564
 20
3.9313554737
 11
4.98414564
 21
3.9813554737
  0
LINE
  5
503
100
AcDbEntity
  8
0
100
AcDbLine
 62
7
  6
CONTINUOUS
 10
4.9865975907
 20
3.9813554737
 11
4.9865975907
 21
3.9313554737
  0
LINE
  5
504
100
AcDbEntity
  8
0
100
AcDbLine
 62
7
  6
CONTINUOUS
 10
4.987395246
 20
3.2563554737
 11
4.987395246
 21
3.2963554737
  0
LINE
  5
505
100
AcDbEntity
  8
DEFAULT_2
100
AcDbLine
 62
8
  6
HIDDEN
 10
4.9879483447
 20
3.2963554737
 11
4.9879483447
 21
3.2563554737
  0
LINE
  5
506
100
AcDbEntity
  8
0
100
AcDbLine
 62
7
  6
CONTINUOUS
 10
4.9916679737
 20
4.1038554737
 11
4.9916679737
 21
4.0588554737
  0
LINE
  5
507
100
AcDbEntity
  8
0
100
AcDbLine
 62
7
  6
CONTINUOUS
 10
4.9916876621
 20
3.9813554737
 11
4.9916876621
 21
3.9313554737
  0
LINE
  5
508
100
AcDbEntity
  8
DEFAULT_2
100
AcDbLine
 62
8
  6
HIDDEN
 10
4.9923867857
 20
3.2563554737
 11
4.9923867857
 21
3.2963554737
  0
LINE
  5
509
100
AcDbEntity
  8
DEFAULT_2
100
AcDbLine
 62
8
  6
HIDDEN
 10
4.9934893494
 20
3.9313554737
 11
4.9934893494
 21
3.9813554737
  0
LINE
  5
50A
100
AcDbEntity
  8
DEFAULT_2
100
AcDbLine
 62
8
  6
HIDDEN
 10
4.9962378757
 20
3.9813554737
 11
4.9962378757
 21
3.9313554737
  0
LINE
  5
50B
100
AcDbEntity
  8
DEFAULT_2
100
AcDbLine
 62
8
  6
HIDDEN
 10
4.9982107945
 20
3.2563554737
 11
4.9982107945
 21
3.2963554737
  0
LINE
  5
50C
100
AcDbEntity
  8
0
100
AcDbLine
 62
7
  6
CONTINUOUS
 10
4.9986022546
 20
3.2963554737
 11
4.9986022546
 21
3.2563554737
  0
LINE
  5
50D
100
AcDbEntity
  8
DEFAULT_2
100
AcDbLine
 62
8
  6
HIDDEN
 10
5.0014346654
 20
3.9813554737
 11
5.0014346654
 21
3.9313554737
  0
LINE
  5
50E
100
AcDbEntity
  8
0
100
AcDbLine
 62
7
  6
CONTINUOUS
 10
5.0030345114
 20
3.9313554737
 11
5.0030345114
 21
3.9813554737
  0
LINE
  5
50F
100
AcDbEntity
  8
0
100
AcDbLine
 62
7
  6
CONTINUOUS
 10
5.0032587081
 20
3.2563554737
 11
5.0032587081
 21
3.2963554737
  0
LINE
  5
510
100
AcDbEntity
  8
0
100
AcDbLine
 62
7
  6
CONTINUOUS
 10
5.0060776318
 20
3.9813554737
 11
5.0060776318
 21
3.9313554737
  0
LINE
  5
511
100
AcDbEntity
  8
0
100
AcDbLine
 62
7
  6
CONTINUOUS
 10
5.0091468388
 20
3.2563554737
 11
5.0091468388
 21
3.2963554737
  0
LINE
  5
512
100
AcDbEntity
  8
DEFAULT_2
100
AcDbLine
 62
8
  6
HIDDEN
 10
5.0093764886
 20
3.2963554737
 11
5.0093764886
 21
3.2563554737
  0
LINE
  5
513
100
AcDbEntity
  8
0
100
AcDbLine
 62
7
  6
CONTINUOUS
 10
5.0113773932
 20
3.9813554737
 11
5.0113773932
 21
3.9313554737
  0
LINE
  5
514
100
AcDbEntity
  8
DEFAULT_2
100
AcDbLine
 62
8
  6
HIDDEN
 10
5.0127742445
 20
3.9313554737
 11
5.0127742445
 21
3.9813554737
  0
LINE
  5
515
100
AcDbEntity
  8
DEFAULT_2
100
AcDbLine
 62
8
  6
HIDDEN
 10
5.014248912
 20
3.2563554737
 11
5.014248912
 21
3.2963554737
  0
LINE
  5
516
100
AcDbEntity
  8
DEFAULT_2
100
AcDbLine
 62
8
  6
HIDDEN
 10
5.016109765
 20
3.9813554737
 11
5.016109765
 21
3.9313554737
  0
LINE
  5
517
100
AcDbEntity
  8
DEFAULT_2
100
AcDbLine
 62
8
  6
HIDDEN
 10
5.0201985817
 20
3.2563554737
 11
5.0201985817
 21
3.2963554737
  0
LINE
  5
518
100
AcDbEntity
  8
0
100
AcDbLine
 62
7
  6
CONTINUOUS
 10
5.0202663205
 20
3.2963554737
 11
5.0202663205
 21
3.2563554737
  0
LINE
  5
519
100
AcDbEntity
  8
DEFAULT_2
100
AcDbLine
 62
8
  6
HIDDEN
 10
5.0215086773
 20
3.9813554737
 11
5.0215086773
 21
3.9313554737
  0
LINE
  5
51A
100
AcDbEntity
  8
0
100
AcDbLine
 62
7
  6
CONTINUOUS
 10
5.0227015268
 20
3.9313554737
 11
5.0227015268
 21
3.9813554737
  0
LINE
  5
51B
100
AcDbEntity
  8
0
100
AcDbLine
 62
7
  6
CONTINUOUS
 10
5.0253525766
 20
3.2563554737
 11
5.0253525766
 21
3.2963554737
  0
LINE
  5
51C
100
AcDbEntity
  8
0
100
AcDbLine
 62
7
  6
CONTINUOUS
 10
5.0263270427
 20
3.9813554737
 11
5.0263270427
 21
3.9313554737
  0
LINE
  5
51D
100
AcDbEntity
  8
DEFAULT_2
100
AcDbLine
 62
8
  6
HIDDEN
 10
5.0312669737
 20
3.2963554737
 11
5.0312669737
 21
3.2563554737
  0
LINE
  5
51E
100
AcDbEntity
  8
0
100
AcDbLine
 62
7
  6
CONTINUOUS
 10
5.0313611757
 20
3.2563554737
 11
5.0313611757
 21
3.2963554737
  0
LINE
  5
51F
100
AcDbEntity
  8
0
100
AcDbLine
 62
7
  6
CONTINUOUS
 10
5.0318212136
 20
3.9813554737
 11
5.0318212136
 21
3.9313554737
  0
LINE
  5
520
100
AcDbEntity
  8
DEFAULT_2
100
AcDbLine
 62
8
  6
HIDDEN
 10
5.0328092013
 20
3.9313554737
 11
5.0328092013
 21
3.9813554737
  0
LINE
  5
521
100
AcDbEntity
  8
DEFAULT_2
100
AcDbLine
 62
8
  6
HIDDEN
 10
5.0365648317
 20
3.2563554737
 11
5.0365648317
 21
3.2963554737
  0
LINE
  5
522
100
AcDbEntity
  8
DEFAULT_2
100
AcDbLine
 62
8
  6
HIDDEN
 10
5.0367220989
 20
3.9813554737
 11
5.0367220989
 21
3.9313554737
  0
LINE
  5
523
100
AcDbEntity
  8
0
100
AcDbLine
 62
7
  6
CONTINUOUS
 10
5.0382929737
 20
4.1188554737
 11
5.0382929737
 21
4.7148554737
  0
LINE
  5
524
100
AcDbEntity
  8
DEFAULT_2
100
AcDbLine
 62
8
  6
HIDDEN
 10
5.0423075673
 20
3.9813554737
 11
5.0423075673
 21
3.9313554737
  0
LINE
  5
525
100
AcDbEntity
  8
0
100
AcDbLine
 62
7
  6
CONTINUOUS
 10
5.0423736231
 20
3.2963554737
 11
5.0423736231
 21
3.2563554737
  0
LINE
  5
526
100
AcDbEntity
  8
DEFAULT_2
100
AcDbLine
 62
8
  6
HIDDEN
 10
5.0426297246
 20
3.2563554737
 11
5.0426297246
 21
3.2963554737
  0
LINE
  5
527
100
AcDbEntity
  8
0
100
AcDbLine
 62
7
  6
CONTINUOUS
 10
5.0430899809
 20
3.9313554737
 11
5.0430899809
 21
3.9813554737
  0
LINE
  5
528
100
AcDbEntity
  8
0
100
AcDbLine
 62
7
  6
CONTINUOUS
 10
5.0441679737
 20
4.4003554737
 11
5.0441679737
 21
4.4318554737
  0
LINE
  5
529
100
AcDbEntity
  8
0
100
AcDbLine
 62
7
  6
CONTINUOUS
 10
5.0472874391
 20
3.9813554737
 11
5.0472874391
 21
3.9313554737
  0
LINE
  5
52A
100
AcDbEntity
  8
0
100
AcDbLine
 62
7
  6
CONTINUOUS
 10
5.047880759
 20
3.2563554737
 11
5.047880759
 21
3.2963554737
  0
LINE
  5
52B
100
AcDbEntity
  8
0
100
AcDbLine
 62
7
  6
CONTINUOUS
 10
5.0529601783
 20
3.9813554737
 11
5.0529601783
 21
3.9313554737
  0
LINE
  5
52C
100
AcDbEntity
  8
DEFAULT_2
100
AcDbLine
 62
8
  6
HIDDEN
 10
5.0535364538
 20
3.9313554737
 11
5.0535364538
 21
3.9813554737
  0
LINE
  5
52D
100
AcDbEntity
  8
DEFAULT_2
100
AcDbLine
 62
8
  6
HIDDEN
 10
5.0535813969
 20
3.2963554737
 11
5.0535813969
 21
3.2563554737
  0
LINE
  5
52E
100
AcDbEntity
  8
0
100
AcDbLine
 62
7
  6
CONTINUOUS
 10
5.0539992854
 20
3.2563554737
 11
5.0539992854
 21
3.2963554737
  0
LINE
  5
52F
100
AcDbEntity
  8
DEFAULT_2
100
AcDbLine
 62
8
  6
HIDDEN
 10
5.0580154466
 20
3.9813554737
 11
5.0580154466
 21
3.9313554737
  0
LINE
  5
530
100
AcDbEntity
  8
DEFAULT_2
100
AcDbLine
 62
8
  6
HIDDEN
 10
5.0592953951
 20
3.2563554737
 11
5.0592953951
 21
3.2963554737
  0
LINE
  5
531
100
AcDbEntity
  8
DEFAULT_2
100
AcDbLine
 62
8
  6
HIDDEN
 10
5.0637713668
 20
3.9813554737
 11
5.0637713668
 21
3.9313554737
  0
LINE
  5
532
100
AcDbEntity
  8
0
100
AcDbLine
 62
7
  6
CONTINUOUS
 10
5.0641410886
 20
3.9313554737
 11
5.0641410886
 21
3.9813554737
  0
LINE
  5
533
100
AcDbEntity
  8
0
100
AcDbLine
 62
7
  6
CONTINUOUS
 10
5.0648853789
 20
3.2963554737
 11
5.0648853789
 21
3.2563554737
  0
LINE
  5
534
100
AcDbEntity
  8
DEFAULT_2
100
AcDbLine
 62
8
  6
HIDDEN
 10
5.0654648713
 20
3.2563554737
 11
5.0654648713
 21
3.2963554737
  0
LINE
  5
535
100
AcDbEntity
  8
0
100
AcDbLine
 62
7
  6
CONTINUOUS
 10
5.0688983868
 20
3.9813554737
 11
5.0688983868
 21
3.9313554737
  0
LINE
  5
536
100
AcDbEntity
  8
0
100
AcDbLine
 62
7
  6
CONTINUOUS
 10
5.0708037331
 20
3.2563554737
 11
5.0708037331
 21
3.2963554737
  0
LINE
  5
537
100
AcDbEntity
  8
0
100
AcDbLine
 62
7
  6
CONTINUOUS
 10
5.0747333383
 20
3.9813554737
 11
5.0747333383
 21
3.9313554737
  0
LINE
  5
538
100
AcDbEntity
  8
DEFAULT_2
100
AcDbLine
 62
8
  6
HIDDEN
 10
5.07489624
 20
3.9313554737
 11
5.07489624
 21
3.9813554737
  0
LINE
  5
539
100
AcDbEntity
  8
DEFAULT_2
100
AcDbLine
 62
8
  6
HIDDEN
 10
5.0762806109
 20
3.2963554737
 11
5.0762806109
 21
3.2563554737
  0
LINE
  5
53A
100
AcDbEntity
  8
0
100
AcDbLine
 62
7
  6
CONTINUOUS
 10
5.0770214529
 20
3.2563554737
 11
5.0770214529
 21
3.2963554737
  0
LINE
  5
53B
100
AcDbEntity
  8
DEFAULT_2
100
AcDbLine
 62
8
  6
HIDDEN
 10
5.0799284139
 20
3.9813554737
 11
5.0799284139
 21
3.9313554737
  0
LINE
  5
53C
100
AcDbEntity
  8
DEFAULT_2
100
AcDbLine
 62
8
  6
HIDDEN
 10
5.0824007251
 20
3.2563554737
 11
5.0824007251
 21
3.2963554737
  0
LINE
  5
53D
100
AcDbEntity
  8
0
100
AcDbLine
 62
7
  6
CONTINUOUS
 10
5.0857941541
 20
3.9313554737
 11
5.0857941541
 21
3.9813554737
  0
LINE
  5
53E
100
AcDbEntity
  8
DEFAULT_2
100
AcDbLine
 62
8
  6
HIDDEN
 10
5.08583819
 20
3.9813554737
 11
5.08583819
 21
3.9313554737
  0
LINE
  5
53F
100
AcDbEntity
  8
0
100
AcDbLine
 62
7
  6
CONTINUOUS
 10
5.0877620946
 20
3.2963554737
 11
5.0877620946
 21
3.2563554737
  0
LINE
  5
540
100
AcDbEntity
  8
DEFAULT_2
100
AcDbLine
 62
8
  6
HIDDEN
 10
5.0886639612
 20
3.2563554737
 11
5.0886639612
 21
3.2963554737
  0
LINE
  5
541
100
AcDbEntity
  8
0
100
AcDbLine
 62
7
  6
CONTINUOUS
 10
5.0910975757
 20
3.9813554737
 11
5.0910975757
 21
3.9313554737
  0
LINE
  5
542
100
AcDbEntity
  8
0
100
AcDbLine
 62
7
  6
CONTINUOUS
 10
5.0940812843
 20
3.2563554737
 11
5.0940812843
 21
3.2963554737
  0
LINE
  5
543
100
AcDbEntity
  8
DEFAULT_2
100
AcDbLine
 62
8
  6
HIDDEN
 10
5.0968269742
 20
3.9313554737
 11
5.0968269742
 21
3.9813554737
  0
LINE
  5
544
100
AcDbEntity
  8
0
100
AcDbLine
 62
7
  6
CONTINUOUS
 10
5.0970779159
 20
3.9813554737
 11
5.0970779159
 21
3.9313554737
  0
LINE
  5
545
100
AcDbEntity
  8
DEFAULT_2
100
AcDbLine
 62
8
  6
HIDDEN
 10
5.0993247937
 20
3.2963554737
 11
5.0993247937
 21
3.2563554737
  0
LINE
  5
546
100
AcDbEntity
  8
0
100
AcDbLine
 62
7
  6
CONTINUOUS
 10
5.1003872894
 20
3.2563554737
 11
5.1003872894
 21
3.2963554737
  0
LINE
  5
547
100
AcDbEntity
  8
DEFAULT_2
100
AcDbLine
 62
8
  6
HIDDEN
 10
5.10239782
 20
3.9813554737
 11
5.10239782
 21
3.9313554737
  0
LINE
  5
548
100
AcDbEntity
  8
DEFAULT_2
100
AcDbLine
 62
8
  6
HIDDEN
 10
5.1058402871
 20
3.2563554737
 11
5.1058402871
 21
3.2963554737
  0
LINE
  5
549
100
AcDbEntity
  8
0
100
AcDbLine
 62
7
  6
CONTINUOUS
 10
5.1079867461
 20
3.9313554737
 11
5.1079867461
 21
3.9813554737
  0
LINE
  5
54A
100
AcDbEntity
  8
DEFAULT_2
100
AcDbLine
 62
8
  6
HIDDEN
 10
5.1084444128
 20
3.9813554737
 11
5.1084444128
 21
3.9313554737
  0
LINE
  5
54B
100
AcDbEntity
  8
0
100
AcDbLine
 62
7
  6
CONTINUOUS
 10
5.1109636366
 20
3.2963554737
 11
5.1109636366
 21
3.2563554737
  0
LINE
  5
54C
100
AcDbEntity
  8
DEFAULT_2
100
AcDbLine
 62
8
  6
HIDDEN
 10
5.1121862953
 20
3.2563554737
 11
5.1121862953
 21
3.2963554737
  0
LINE
  5
54D
100
AcDbEntity
  8
0
100
AcDbLine
 62
7
  6
CONTINUOUS
 10
5.1138209999
 20
3.9813554737
 11
5.1138209999
 21
3.9313554737
  0
LINE
  5
54E
100
AcDbEntity
  8
0
100
AcDbLine
 62
7
  6
CONTINUOUS
 10
5.1176725757
 20
3.2563554737
 11
5.1176725757
 21
3.2963554737
  0
LINE
  5
54F
100
AcDbEntity
  8
DEFAULT_2
100
AcDbLine
 62
8
  6
HIDDEN
 10
5.1192654243
 20
3.9313554737
 11
5.1192654243
 21
3.9813554737
  0
LINE
  5
550
100
AcDbEntity
  8
0
100
AcDbLine
 62
7
  6
CONTINUOUS
 10
5.1199294859
 20
3.9813554737
 11
5.1199294859
 21
3.9313554737
  0
LINE
  5
551
100
AcDbEntity
  8
DEFAULT_2
100
AcDbLine
 62
8
  6
HIDDEN
 10
5.122673518
 20
3.2963554737
 11
5.122673518
 21
3.2563554737
  0
LINE
  5
552
100
AcDbEntity
  8
0
100
AcDbLine
 62
7
  6
CONTINUOUS
 10
5.1240558034
 20
3.2563554737
 11
5.1240558034
 21
3.2963554737
  0
LINE
  5
553
100
AcDbEntity
  8
DEFAULT_2
100
AcDbLine
 62
8
  6
HIDDEN
 10
5.1253588799
 20
3.9813554737
 11
5.1253588799
 21
3.9313554737
  0
LINE
  5
554
100
AcDbEntity
  8
DEFAULT_2
100
AcDbLine
 62
8
  6
HIDDEN
 10
5.1295729601
 20
3.2563554737
 11
5.1295729601
 21
3.2963554737
  0
LINE
  5
555
100
AcDbEntity
  8
0
100
AcDbLine
 62
7
  6
CONTINUOUS
 10
5.1306548774
 20
3.9313554737
 11
5.1306548774
 21
3.9813554737
  0
LINE
  5
556
100
AcDbEntity
  8
DEFAULT_2
100
AcDbLine
 62
8
  6
HIDDEN
 10
5.1315248554
 20
3.9813554737
 11
5.1315248554
 21
3.9313554737
  0
LINE
  5
557
100
AcDbEntity
  8
0
100
AcDbLine
 62
7
  6
CONTINUOUS
 10
5.1344493015
 20
3.2963554737
 11
5.1344493015
 21
3.2563554737
  0
LINE
  5
558
100
AcDbEntity
  8
DEFAULT_2
100
AcDbLine
 62
8
  6
HIDDEN
 10
5.1359906073
 20
3.2563554737
 11
5.1359906073
 21
3.2963554737
  0
LINE
  5
559
100
AcDbEntity
  8
0
100
AcDbLine
 62
7
  6
CONTINUOUS
 10
5.1370031419
 20
3.9813554737
 11
5.1370031419
 21
3.9313554737
  0
LINE
  5
55A
100
AcDbEntity
  8
0
100
AcDbLine
 62
7
  6
CONTINUOUS
 10
5.1415362204
 20
3.2563554737
 11
5.1415362204
 21
3.2963554737
  0
LINE
  5
55B
100
AcDbEntity
  8
DEFAULT_2
100
AcDbLine
 62
8
  6
HIDDEN
 10
5.1421468944
 20
3.9313554737
 11
5.1421468944
 21
3.9813554737
  0
LINE
  5
55C
100
AcDbEntity
  8
0
100
AcDbLine
 62
7
  6
CONTINUOUS
 10
5.1432221614
 20
3.9813554737
 11
5.1432221614
 21
3.9313554737
  0
LINE
  5
55D
100
AcDbEntity
  8
DEFAULT_2
100
AcDbLine
 62
8
  6
HIDDEN
 10
5.146285822
 20
3.2963554737
 11
5.146285822
 21
3.2563554737
  0
LINE
  5
55E
100
AcDbEntity
  8
0
100
AcDbLine
 62
7
  6
CONTINUOUS
 10
5.1479854721
 20
3.2563554737
 11
5.1479854721
 21
3.2963554737
  0
LINE
  5
55F
100
AcDbEntity
  8
DEFAULT_2
100
AcDbLine
 62
8
  6
HIDDEN
 10
5.1487453909
 20
3.9813554737
 11
5.1487453909
 21
3.9313554737
  0
LINE
  5
560
100
AcDbEntity
  8
DEFAULT_2
100
AcDbLine
 62
8
  6
HIDDEN
 10
5.153557109
 20
3.2563554737
 11
5.153557109
 21
3.2963554737
  0
LINE
  5
561
100
AcDbEntity
  8
0
100
AcDbLine
 62
7
  6
CONTINUOUS
 10
5.1537331901
 20
3.9313554737
 11
5.1537331901
 21
3.9813554737
  0
LINE
  5
562
100
AcDbEntity
  8
DEFAULT_2
100
AcDbLine
 62
8
  6
HIDDEN
 10
5.1550129709
 20
3.9813554737
 11
5.1550129709
 21
3.9313554737
  0
LINE
  5
563
100
AcDbEntity
  8
0
100
AcDbLine
 62
7
  6
CONTINUOUS
 10
5.1581778876
 20
3.2963554737
 11
5.1581778876
 21
3.2563554737
  0
LINE
  5
564
100
AcDbEntity
  8
DEFAULT_2
100
AcDbLine
 62
8
  6
HIDDEN
 10
5.1600351365
 20
3.2563554737
 11
5.1600351365
 21
3.2963554737
  0
LINE
  5
565
100
AcDbEntity
  8
0
100
AcDbLine
 62
7
  6
CONTINUOUS
 10
5.1605771615
 20
3.9813554737
 11
5.1605771615
 21
3.9313554737
  0
LINE
  5
566
100
AcDbEntity
  8
DEFAULT_2
100
AcDbLine
 62
8
  6
HIDDEN
 10
5.1654054115
 20
3.9313554737
 11
5.1654054115
 21
3.9813554737
  0
LINE
  5
567
100
AcDbEntity
  8
0
100
AcDbLine
 62
7
  6
CONTINUOUS
 10
5.1656303533
 20
3.2563554737
 11
5.1656303533
 21
3.2963554737
  0
LINE
  5
568
100
AcDbEntity
  8
0
100
AcDbLine
 62
7
  6
CONTINUOUS
 10
5.1668887834
 20
3.9813554737
 11
5.1668887834
 21
3.9313554737
  0
LINE
  5
569
100
AcDbEntity
  8
DEFAULT_2
100
AcDbLine
 62
8
  6
HIDDEN
 10
5.1701202819
 20
3.2963554737
 11
5.1701202819
 21
3.2563554737
  0
LINE
  5
56A
100
AcDbEntity
  8
0
100
AcDbLine
 62
7
  6
CONTINUOUS
 10
5.172134315
 20
3.2563554737
 11
5.172134315
 21
3.2963554737
  0
LINE
  5
56B
100
AcDbEntity
  8
DEFAULT_2
100
AcDbLine
 62
8
  6
HIDDEN
 10
5.1724899236
 20
3.9813554737
 11
5.1724899236
 21
3.9313554737
  0
LINE
  5
56C
100
AcDbEntity
  8
0
100
AcDbLine
 62
7
  6
CONTINUOUS
 10
5.1771551434
 20
3.9313554737
 11
5.1771551434
 21
3.9813554737
  0
LINE
  5
56D
100
AcDbEntity
  8
DEFAULT_2
100
AcDbLine
 62
8
  6
HIDDEN
 10
5.1777506574
 20
3.2563554737
 11
5.1777506574
 21
3.2963554737
  0
LINE
  5
56E
100
AcDbEntity
  8
DEFAULT_2
100
AcDbLine
 62
8
  6
HIDDEN
 10
5.1788410371
 20
3.9813554737
 11
5.1788410371
 21
3.9313554737
  0
LINE
  5
56F
100
AcDbEntity
  8
0
100
AcDbLine
 62
7
  6
CONTINUOUS
 10
5.1821077667
 20
3.2963554737
 11
5.1821077667
 21
3.2563554737
  0
LINE
  5
570
100
AcDbEntity
  8
DEFAULT_2
100
AcDbLine
 62
8
  6
HIDDEN
 10
5.1842777005
 20
3.2563554737
 11
5.1842777005
 21
3.2963554737
  0
LINE
  5
571
100
AcDbEntity
  8
0
100
AcDbLine
 62
7
  6
CONTINUOUS
 10
5.1844750888
 20
3.9813554737
 11
5.1844750888
 21
3.9313554737
  0
LINE
  5
572
100
AcDbEntity
  8
DEFAULT_2
100
AcDbLine
 62
8
  6
HIDDEN
 10
5.1889739151
 20
3.9313554737
 11
5.1889739151
 21
3.9813554737
  0
LINE
  5
573
100
AcDbEntity
  8
0
100
AcDbLine
 62
7
  6
CONTINUOUS
 10
5.1899127051
 20
3.2563554737
 11
5.1899127051
 21
3.2963554737
  0
LINE
  5
574
100
AcDbEntity
  8
0
100
AcDbLine
 62
7
  6
CONTINUOUS
 10
5.190861115
 20
3.9813554737
 11
5.190861115
 21
3.9313554737
  0
LINE
  5
575
100
AcDbEntity
  8
DEFAULT_2
100
AcDbLine
 62
8
  6
HIDDEN
 10
5.1941350839
 20
3.2963554737
 11
5.1941350839
 21
3.2563554737
  0
LINE
  5
576
100
AcDbEntity
  8
0
100
AcDbLine
 62
7
  6
CONTINUOUS
 10
5.1964599666
 20
3.2563554737
 11
5.1964599666
 21
3.2963554737
  0
LINE
  5
577
100
AcDbEntity
  8
DEFAULT_2
100
AcDbLine
 62
8
  6
HIDDEN
 10
5.1965240164
 20
3.9813554737
 11
5.1965240164
 21
3.9313554737
  0
LINE
  5
578
100
AcDbEntity
  8
0
100
AcDbLine
 62
7
  6
CONTINUOUS
 10
5.2008532057
 20
3.9313554737
 11
5.2008532057
 21
3.9813554737
  0
LINE
  5
579
100
AcDbEntity
  8
DEFAULT_2
100
AcDbLine
 62
8
  6
HIDDEN
 10
5.2021111617
 20
3.2563554737
 11
5.2021111617
 21
3.2963554737
  0
LINE
  5
57A
100
AcDbEntity
  8
DEFAULT_2
100
AcDbLine
 62
8
  6
HIDDEN
 10
5.2029403514
 20
3.9813554737
 11
5.2029403514
 21
3.9313554737
  0
LINE
  5
57B
100
AcDbEntity
  8
0
100
AcDbLine
 62
7
  6
CONTINUOUS
 10
5.2061969578
 20
3.2963554737
 11
5.2061969578
 21
3.2563554737
  0
LINE
  5
57C
100
AcDbEntity
  8
0
100
AcDbLine
 62
7
  6
CONTINUOUS
 10
5.2086280198
 20
3.9813554737
 11
5.2086280198
 21
3.9313554737
  0
LINE
  5
57D
100
AcDbEntity
  8
DEFAULT_2
100
AcDbLine
 62
8
  6
HIDDEN
 10
5.2086757697
 20
3.2563554737
 11
5.2086757697
 21
3.2963554737
  0
LINE
  5
57E
100
AcDbEntity
  8
DEFAULT_2
100
AcDbLine
 62
8
  6
HIDDEN
 10
5.2127844511
 20
3.9313554737
 11
5.2127844511
 21
3.9813554737
  0
LINE
  5
57F
100
AcDbEntity
  8
0
100
AcDbLine
 62
7
  6
CONTINUOUS
 10
5.2143406764
 20
3.2563554737
 11
5.2143406764
 21
3.2963554737
  0
LINE
  5
580
100
AcDbEntity
  8
0
100
AcDbLine
 62
7
  6
CONTINUOUS
 10
5.2150700378
 20
3.9813554737
 11
5.2150700378
 21
3.9313554737
  0
LINE
  5
581
100
AcDbEntity
  8
DEFAULT_2
100
AcDbLine
 62
8
  6
HIDDEN
 10
5.2182880978
 20
3.2963554737
 11
5.2182880978
 21
3.2563554737
  0
LINE
  5
582
100
AcDbEntity
  8
DEFAULT_2
100
AcDbLine
 62
8
  6
HIDDEN
 10
5.2207783727
 20
3.9813554737
 11
5.2207783727
 21
3.9313554737
  0
LINE
  5
583
100
AcDbEntity
  8
0
100
AcDbLine
 62
7
  6
CONTINUOUS
 10
5.2209197516
 20
3.2563554737
 11
5.2209197516
 21
3.2963554737
  0
LINE
  5
584
100
AcDbEntity
  8
0
100
AcDbLine
 62
7
  6
CONTINUOUS
 10
5.2247590494
 20
3.9313554737
 11
5.2247590494
 21
3.9813554737
  0
LINE
  5
585
100
AcDbEntity
  8
DEFAULT_2
100
AcDbLine
 62
8
  6
HIDDEN
 10
5.2265958851
 20
3.2563554737
 11
5.2265958851
 21
3.2963554737
  0
LINE
  5
586
100
AcDbEntity
  8
DEFAULT_2
100
AcDbLine
 62
8
  6
HIDDEN
 10
5.2272414294
 20
3.9813554737
 11
5.2272414294
 21
3.9313554737
  0
LINE
  5
587
100
AcDbEntity
  8
0
100
AcDbLine
 62
7
  6
CONTINUOUS
 10
5.2304032002
 20
3.2963554737
 11
5.2304032002
 21
3.2563554737
  0
LINE
  5
588
100
AcDbEntity
  8
0
100
AcDbLine
 62
7
  6
CONTINUOUS
 10
5.2329663153
 20
3.9813554737
 11
5.2329663153
 21
3.9313554737
  0
LINE
  5
589
100
AcDbEntity
  8
DEFAULT_2
100
AcDbLine
 62
8
  6
HIDDEN
 10
5.2331865416
 20
3.2563554737
 11
5.2331865416
 21
3.2963554737
  0
LINE
  5
58A
100
AcDbEntity
  8
DEFAULT_2
100
AcDbLine
 62
8
  6
HIDDEN
 10
5.2367683677
 20
3.9313554737
 11
5.2367683677
 21
3.9813554737
  0
LINE
  5
58B
100
AcDbEntity
  8
0
100
AcDbLine
 62
7
  6
CONTINUOUS
 10
5.2388714122
 20
3.2563554737
 11
5.2388714122
 21
3.2963554737
  0
LINE
  5
58C
100
AcDbEntity
  8
0
100
AcDbLine
 62
7
  6
CONTINUOUS
 10
5.2394457512
 20
3.9813554737
 11
5.2394457512
 21
3.9313554737
  0
LINE
  5
58D
100
AcDbEntity
  8
DEFAULT_2
100
AcDbLine
 62
8
  6
HIDDEN
 10
5.2425369511
 20
3.2963554737
 11
5.2425369511
 21
3.2563554737
  0
LINE
  5
58E
100
AcDbEntity
  8
DEFAULT_2
100
AcDbLine
 62
8
  6
HIDDEN
 10
5.2451830609
 20
3.9813554737
 11
5.2451830609
 21
3.9313554737
  0
LINE
  5
58F
100
AcDbEntity
  8
0
100
AcDbLine
 62
7
  6
CONTINUOUS
 10
5.2454707591
 20
3.2563554737
 11
5.2454707591
 21
3.2963554737
  0
LINE
  5
590
100
AcDbEntity
  8
0
100
AcDbLine
 62
7
  6
CONTINUOUS
 10
5.2488037478
 20
3.9313554737
 11
5.2488037478
 21
3.9813554737
  0
LINE
  5
591
100
AcDbEntity
  8
DEFAULT_2
100
AcDbLine
 62
8
  6
HIDDEN
 10
5.2511618732
 20
3.2563554737
 11
5.2511618732
 21
3.2963554737
  0
LINE
  5
592
100
AcDbEntity
  8
DEFAULT_2
100
AcDbLine
 62
8
  6
HIDDEN
 10
5.2516742046
 20
3.9813554737
 11
5.2516742046
 21
3.9313554737
  0
LINE
  5
593
100
AcDbEntity
  8
0
100
AcDbLine
 62
7
  6
CONTINUOUS
 10
5.254684028
 20
3.2963554737
 11
5.254684028
 21
3.2563554737
  0
LINE
  5
594
100
AcDbEntity
  8
0
100
AcDbLine
 62
7
  6
CONTINUOUS
 10
5.2574198019
 20
3.9813554737
 11
5.2574198019
 21
3.9313554737
  0
LINE
  5
595
100
AcDbEntity
  8
DEFAULT_2
100
AcDbLine
 62
8
  6
HIDDEN
 10
5.2577670159
 20
3.2563554737
 11
5.2577670159
 21
3.2963554737
  0
LINE
  5
596
100
AcDbEntity
  8
DEFAULT_2
100
AcDbLine
 62
8
  6
HIDDEN
 10
5.2608565129
 20
3.9313554737
 11
5.2608565129
 21
3.9813554737
  0
LINE
  5
597
100
AcDbEntity
  8
0
100
AcDbLine
 62
7
  6
CONTINUOUS
 10
5.2634618772
 20
3.2563554737
 11
5.2634618772
 21
3.2963554737
  0
LINE
  5
598
100
AcDbEntity
  8
0
100
AcDbLine
 62
7
  6
CONTINUOUS
 10
5.2639179737
 20
3.9813554737
 11
5.2639179737
 21
3.9313554737
  0
LINE
  5
599
100
AcDbEntity
  8
DEFAULT_2
100
AcDbLine
 62
8
  6
HIDDEN
 10
5.266839103
 20
3.2963554737
 11
5.266839103
 21
3.2563554737
  0
LINE
  5
59A
100
AcDbEntity
  8
DEFAULT_2
100
AcDbLine
 62
8
  6
HIDDEN
 10
5.2696677161
 20
3.9813554737
 11
5.2696677161
 21
3.9313554737
  0
LINE
  5
59B
100
AcDbEntity
  8
0
100
AcDbLine
 62
7
  6
CONTINUOUS
 10
5.2700699184
 20
3.2563554737
 11
5.2700699184
 21
3.2963554737
  0
LINE
  5
59C
100
AcDbEntity
  8
0
100
AcDbLine
 62
7
  6
CONTINUOUS
 10
5.2729179737
 20
3.9313554737
 11
5.2729179737
 21
3.9813554737
  0
LINE
  5
59D
100
AcDbEntity
  8
DEFAULT_2
100
AcDbLine
 62
8
  6
HIDDEN
 10
5.2757660289
 20
3.2563554737
 11
5.2757660289
 21
3.2963554737
  0
LINE
  5
59E
100
AcDbEntity
  8
DEFAULT_2
100
AcDbLine
 62
8
  6
HIDDEN
 10
5.2761682312
 20
3.9813554737
 11
5.2761682312
 21
3.9313554737
  0
LINE
  5
59F
100
AcDbEntity
  8
0
100
AcDbLine
 62
7
  6
CONTINUOUS
 10
5.2789968443
 20
3.2963554737
 11
5.2789968443
 21
3.2563554737
  0
LINE
  5
5A0
100
AcDbEntity
  8
0
100
AcDbLine
 62
7
  6
CONTINUOUS
 10
5.2819179737
 20
3.9813554737
 11
5.2819179737
 21
3.9313554737
  0
LINE
  5
5A1
100
AcDbEntity
  8
DEFAULT_2
100
AcDbLine
 62
8
  6
HIDDEN
 10
5.2823740701
 20
3.2563554737
 11
5.2823740701
 21
3.2963554737
  0
LINE
  5
5A2
100
AcDbEntity
  8
DEFAULT_2
100
AcDbLine
 62
8
  6
HIDDEN
 10
5.2849794344
 20
3.9313554737
 11
5.2849794344
 21
3.9813554737
  0
LINE
  5
5A3
100
AcDbEntity
  8
0
100
AcDbLine
 62
7
  6
CONTINUOUS
 10
5.2880689314
 20
3.2563554737
 11
5.2880689314
 21
3.2963554737
  0
LINE
  5
5A4
100
AcDbEntity
  8
0
100
AcDbLine
 62
7
  6
CONTINUOUS
 10
5.2884161454
 20
3.9813554737
 11
5.2884161454
 21
3.9313554737
  0
LINE
  5
5A5
100
AcDbEntity
  8
DEFAULT_2
100
AcDbLine
 62
8
  6
HIDDEN
 10
5.2911519193
 20
3.2963554737
 11
5.2911519193
 21
3.2563554737
  0
LINE
  5
5A6
100
AcDbEntity
  8
DEFAULT_2
100
AcDbLine
 62
8
  6
HIDDEN
 10
5.2941617427
 20
3.9813554737
 11
5.2941617427
 21
3.9313554737
  0
LINE
  5
5A7
100
AcDbEntity
  8
0
100
AcDbLine
 62
7
  6
CONTINUOUS
 10
5.2946740741
 20
3.2563554737
 11
5.2946740741
 21
3.2963554737
  0
LINE
  5
5A8
100
AcDbEntity
  8
0
100
AcDbLine
 62
7
  6
CONTINUOUS
 10
5.2970321995
 20
3.9313554737
 11
5.2970321995
 21
3.9813554737
  0
LINE
  5
5A9
100
AcDbEntity
  8
DEFAULT_2
100
AcDbLine
 62
8
  6
HIDDEN
 10
5.3003651882
 20
3.2563554737
 11
5.3003651882
 21
3.2963554737
  0
LINE
  5
5AA
100
AcDbEntity
  8
DEFAULT_2
100
AcDbLine
 62
8
  6
HIDDEN
 10
5.3006528864
 20
3.9813554737
 11
5.3006528864
 21
3.9313554737
  0
LINE
  5
5AB
100
AcDbEntity
  8
0
100
AcDbLine
 62
7
  6
CONTINUOUS
 10
5.3032989963
 20
3.2963554737
 11
5.3032989963
 21
3.2563554737
  0
LINE
  5
5AC
100
AcDbEntity
  8
0
100
AcDbLine
 62
7
  6
CONTINUOUS
 10
5.3063901961
 20
3.9813554737
 11
5.3063901961
 21
3.9313554737
  0
LINE
  5
5AD
100
AcDbEntity
  8
DEFAULT_2
100
AcDbLine
 62
8
  6
HIDDEN
 10
5.3069645351
 20
3.2563554737
 11
5.3069645351
 21
3.2963554737
  0
LINE
  5
5AE
100
AcDbEntity
  8
DEFAULT_2
100
AcDbLine
 62
8
  6
HIDDEN
 10
6.9155445092
 20
3.9013554737
 11
6.9154291746
 21
3.9013554737
  0
LINE
  5
5AF
100
AcDbEntity
  8
0
100
AcDbLine
 62
7
  6
CONTINUOUS
 10
7.6304067727
 20
3.9013554737
 11
6.9155445092
 21
3.9013554737
  0
LINE
  5
5B0
100
AcDbEntity
  8
0
100
AcDbLine
 62
7
  6
CONTINUOUS
 10
3.6304067727
 20
3.9013554737
 11
2.9154291746
 21
3.9013554737
  0
LINE
  5
5B1
100
AcDbEntity
  8
DEFAULT_2
100
AcDbLine
 62
8
  6
HIDDEN
 10
4.9174578173
 20
3.9313554737
 11
4.9174239207
 21
3.9313554737
  0
LINE
  5
5B2
100
AcDbEntity
  8
0
100
AcDbLine
 62
7
  6
CONTINUOUS
 10
4.8166770328
 20
3.9313554737
 11
4.9174239207
 21
3.9313554737
  0
LINE
  5
5B3
100
AcDbEntity
  8
DEFAULT_2
100
AcDbLine
 62
8
  6
HIDDEN
 10
5.62837813
 20
3.9313554737
 11
5.6284120266
 21
3.9313554737
  0
LINE
  5
5B4
100
AcDbEntity
  8
0
100
AcDbLine
 62
7
  6
CONTINUOUS
 10
4.9174578173
 20
3.9313554737
 11
5.62837813
 21
3.9313554737
  0
LINE
  5
5B5
100
AcDbEntity
  8
0
100
AcDbLine
 62
7
  6
CONTINUOUS
 10
5.6284120266
 20
3.9313554737
 11
5.7291589145
 21
3.9313554737
  0
LINE
  5
5B6
100
AcDbEntity
  8
0
100
AcDbLine
 62
7
  6
CONTINUOUS
 10
2.9154291746
 20
3.9513554737
 11
3.6304067727
 21
3.9513554737
  0
LINE
  5
5B7
100
AcDbEntity
  8
DEFAULT_2
100
AcDbLine
 62
8
  6
HIDDEN
 10
7.6302914381
 20
3.9513554737
 11
7.6304067727
 21
3.9513554737
  0
LINE
  5
5B8
100
AcDbEntity
  8
0
100
AcDbLine
 62
7
  6
CONTINUOUS
 10
6.9154291746
 20
3.9513554737
 11
7.6302914381
 21
3.9513554737
  0
LINE
  5
5B9
100
AcDbEntity
  8
DEFAULT_2
100
AcDbLine
 62
8
  6
HIDDEN
 10
4.9174239207
 20
3.9813554737
 11
4.9174578173
 21
3.9813554737
  0
LINE
  5
5BA
100
AcDbEntity
  8
0
100
AcDbLine
 62
7
  6
CONTINUOUS
 10
4.8166770328
 20
3.9813554737
 11
4.9174239207
 21
3.9813554737
  0
LINE
  5
5BB
100
AcDbEntity
  8
DEFAULT_2
100
AcDbLine
 62
8
  6
HIDDEN
 10
5.62837813
 20
3.9813554737
 11
5.6284120266
 21
3.9813554737
  0
LINE
  5
5BC
100
AcDbEntity
  8
0
100
AcDbLine
 62
7
  6
CONTINUOUS
 10
4.9174578173
 20
3.9813554737
 11
5.62837813
 21
3.9813554737
  0
LINE
  5
5BD
100
AcDbEntity
  8
0
100
AcDbLine
 62
7
  6
CONTINUOUS
 10
5.6284120266
 20
3.9813554737
 11
5.7291589145
 21
3.9813554737
  0
LINE
  5
5BE
100
AcDbEntity
  8
0
100
AcDbLine
 62
7
  6
CONTINUOUS
 10
7.5145709365
 20
4.0071590451
 11
7.0312650108
 21
4.0071590451
  0
LINE
  5
5BF
100
AcDbEntity
  8
0
100
AcDbLine
 62
7
  6
CONTINUOUS
 10
3.5145709365
 20
4.0071590451
 11
3.0312650108
 21
4.0071590451
  0
LINE
  5
5C0
100
AcDbEntity
  8
0
100
AcDbLine
 62
7
  6
CONTINUOUS
 10
7.502078911
 20
4.0138554737
 11
7.0437570363
 21
4.0138554737
  0
LINE
  5
5C1
100
AcDbEntity
  8
0
100
AcDbLine
 62
7
  6
CONTINUOUS
 10
3.502078911
 20
4.0138554737
 11
3.0437570363
 21
4.0138554737
  0
LINE
  5
5C2
100
AcDbEntity
  8
0
100
AcDbLine
 62
7
  6
CONTINUOUS
 10
3.0729179737
 20
4.0288554737
 11
3.4729179737
 21
4.0288554737
  0
LINE
  5
5C3
100
AcDbEntity
  8
0
100
AcDbLine
 62
7
  6
CONTINUOUS
 10
7.0729179737
 20
4.0288554737
 11
7.4729179737
 21
4.0288554737
  0
LINE
  5
5C4
100
AcDbEntity
  8
0
100
AcDbLine
 62
7
  6
CONTINUOUS
 10
4.9561146039
 20
4.0384983308
 11
5.5897213434
 21
4.0384983308
  0
LINE
  5
5C5
100
AcDbEntity
  8
0
100
AcDbLine
 62
7
  6
CONTINUOUS
 10
5.578231552
 20
4.0438554737
 11
4.9676043953
 21
4.0438554737
  0
LINE
  5
5C6
100
AcDbEntity
  8
0
100
AcDbLine
 62
7
  6
CONTINUOUS
 10
5.8354179737
 20
3.1613554737
 11
5.8604179737
 21
3.1363554737
  0
LINE
  5
5C7
100
AcDbEntity
  8
DEFAULT_2
100
AcDbLine
 62
8
  6
HIDDEN
 10
5.3090675796
 20
3.9313554737
 11
5.3090675796
 21
3.9813554737
  0
LINE
  5
5C8
100
AcDbEntity
  8
0
100
AcDbLine
 62
7
  6
CONTINUOUS
 10
5.3126494057
 20
3.2563554737
 11
5.3126494057
 21
3.2963554737
  0
LINE
  5
5C9
100
AcDbEntity
  8
0
100
AcDbLine
 62
7
  6
CONTINUOUS
 10
5.312869632
 20
3.9813554737
 11
5.312869632
 21
3.9313554737
  0
LINE
  5
5CA
100
AcDbEntity
  8
DEFAULT_2
100
AcDbLine
 62
8
  6
HIDDEN
 10
5.3154327471
 20
3.2963554737
 11
5.3154327471
 21
3.2563554737
  0
LINE
  5
5CB
100
AcDbEntity
  8
DEFAULT_2
100
AcDbLine
 62
8
  6
HIDDEN
 10
5.3185945179
 20
3.9813554737
 11
5.3185945179
 21
3.9313554737
  0
LINE
  5
5CC
100
AcDbEntity
  8
0
100
AcDbLine
 62
7
  6
CONTINUOUS
 10
5.3192400622
 20
3.2563554737
 11
5.3192400622
 21
3.2963554737
  0
LINE
  5
5CD
100
AcDbEntity
  8
0
100
AcDbLine
 62
7
  6
CONTINUOUS
 10
5.3210768979
 20
3.9313554737
 11
5.3210768979
 21
3.9813554737
  0
LINE
  5
5CE
100
AcDbEntity
  8
DEFAULT_2
100
AcDbLine
 62
8
  6
HIDDEN
 10
5.3249161957
 20
3.2563554737
 11
5.3249161957
 21
3.2963554737
  0
LINE
  5
5CF
100
AcDbEntity
  8
DEFAULT_2
100
AcDbLine
 62
8
  6
HIDDEN
 10
5.3250575746
 20
3.9813554737
 11
5.3250575746
 21
3.9313554737
  0
LINE
  5
5D0
100
AcDbEntity
  8
0
100
AcDbLine
 62
7
  6
CONTINUOUS
 10
5.3275478495
 20
3.2963554737
 11
5.3275478495
 21
3.2563554737
  0
LINE
  5
5D1
100
AcDbEntity
  8
0
100
AcDbLine
 62
7
  6
CONTINUOUS
 10
5.3307659095
 20
3.9813554737
 11
5.3307659095
 21
3.9313554737
  0
LINE
  5
5D2
100
AcDbEntity
  8
DEFAULT_2
100
AcDbLine
 62
8
  6
HIDDEN
 10
5.3314952709
 20
3.2563554737
 11
5.3314952709
 21
3.2963554737
  0
LINE
  5
5D3
100
AcDbEntity
  8
DEFAULT_2
100
AcDbLine
 62
8
  6
HIDDEN
 10
5.3330514962
 20
3.9313554737
 11
5.3330514962
 21
3.9813554737
  0
LINE
  5
5D4
100
AcDbEntity
  8
0
100
AcDbLine
 62
7
  6
CONTINUOUS
 10
5.3371601776
 20
3.2563554737
 11
5.3371601776
 21
3.2963554737
  0
LINE
  5
5D5
100
AcDbEntity
  8
0
100
AcDbLine
 62
7
  6
CONTINUOUS
 10
5.3372079275
 20
3.9813554737
 11
5.3372079275
 21
3.9313554737
  0
LINE
  5
5D6
100
AcDbEntity
  8
DEFAULT_2
100
AcDbLine
 62
8
  6
HIDDEN
 10
5.3396389895
 20
3.2963554737
 11
5.3396389895
 21
3.2563554737
  0
LINE
  5
5D7
100
AcDbEntity
  8
DEFAULT_2
100
AcDbLine
 62
8
  6
HIDDEN
 10
5.3428955959
 20
3.9813554737
 11
5.3428955959
 21
3.9313554737
  0
LINE
  5
5D8
100
AcDbEntity
  8
0
100
AcDbLine
 62
7
  6
CONTINUOUS
 10
5.3437247856
 20
3.2563554737
 11
5.3437247856
 21
3.2963554737
  0
LINE
  5
5D9
100
AcDbEntity
  8
0
100
AcDbLine
 62
7
  6
CONTINUOUS
 10
5.3449827416
 20
3.9313554737
 11
5.3449827416
 21
3.9813554737
  0
LINE
  5
5DA
100
AcDbEntity
  8
DEFAULT_2
100
AcDbLine
 62
8
  6
HIDDEN
 10
5.3493119309
 20
3.9813554737
 11
5.3493119309
 21
3.9313554737
  0
LINE
  5
5DB
100
AcDbEntity
  8
DEFAULT_2
100
AcDbLine
 62
8
  6
HIDDEN
 10
5.3493759807
 20
3.2563554737
 11
5.3493759807
 21
3.2963554737
  0
LINE
  5
5DC
100
AcDbEntity
  8
0
100
AcDbLine
 62
7
  6
CONTINUOUS
 10
5.3517008634
 20
3.2963554737
 11
5.3517008634
 21
3.2563554737
  0
LINE
  5
5DD
100
AcDbEntity
  8
0
100
AcDbLine
 62
7
  6
CONTINUOUS
 10
5.3549748323
 20
3.9813554737
 11
5.3549748323
 21
3.9313554737
  0
LINE
  5
5DE
100
AcDbEntity
  8
DEFAULT_2
100
AcDbLine
 62
8
  6
HIDDEN
 10
5.3559232422
 20
3.2563554737
 11
5.3559232422
 21
3.2963554737
  0
LINE
  5
5DF
100
AcDbEntity
  8
DEFAULT_2
100
AcDbLine
 62
8
  6
HIDDEN
 10
5.3568620322
 20
3.9313554737
 11
5.3568620322
 21
3.9813554737
  0
LINE
  5
5E0
100
AcDbEntity
  8
0
100
AcDbLine
 62
7
  6
CONTINUOUS
 10
5.3613608585
 20
3.9813554737
 11
5.3613608585
 21
3.9313554737
  0
LINE
  5
5E1
100
AcDbEntity
  8
0
100
AcDbLine
 62
7
  6
CONTINUOUS
 10
5.3615582468
 20
3.2563554737
 11
5.3615582468
 21
3.2963554737
  0
LINE
  5
5E2
100
AcDbEntity
  8
DEFAULT_2
100
AcDbLine
 62
8
  6
HIDDEN
 10
5.3637281806
 20
3.2963554737
 11
5.3637281806
 21
3.2563554737
  0
LINE
  5
5E3
100
AcDbEntity
  8
DEFAULT_2
100
AcDbLine
 62
8
  6
HIDDEN
 10
5.3669949102
 20
3.9813554737
 11
5.3669949102
 21
3.9313554737
  0
LINE
  5
5E4
100
AcDbEntity
  8
0
100
AcDbLine
 62
7
  6
CONTINUOUS
 10
5.3680852899
 20
3.2563554737
 11
5.3680852899
 21
3.2963554737
  0
LINE
  5
5E5
100
AcDbEntity
  8
0
100
AcDbLine
 62
7
  6
CONTINUOUS
 10
5.3686808039
 20
3.9313554737
 11
5.3686808039
 21
3.9813554737
  0
LINE
  5
5E6
100
AcDbEntity
  8
DEFAULT_2
100
AcDbLine
 62
8
  6
HIDDEN
 10
5.3733460237
 20
3.9813554737
 11
5.3733460237
 21
3.9313554737
  0
LINE
  5
5E7
100
AcDbEntity
  8
DEFAULT_2
100
AcDbLine
 62
8
  6
HIDDEN
 10
5.3737016323
 20
3.2563554737
 11
5.3737016323
 21
3.2963554737
  0
LINE
  5
5E8
100
AcDbEntity
  8
0
100
AcDbLine
 62
7
  6
CONTINUOUS
 10
5.3757156654
 20
3.2963554737
 11
5.3757156654
 21
3.2563554737
  0
LINE
  5
5E9
100
AcDbEntity
  8
0
100
AcDbLine
 62
7
  6
CONTINUOUS
 10
5.3789471639
 20
3.9813554737
 11
5.3789471639
 21
3.9313554737
  0
LINE
  5
5EA
100
AcDbEntity
  8
DEFAULT_2
100
AcDbLine
 62
8
  6
HIDDEN
 10
5.380205594
 20
3.2563554737
 11
5.380205594
 21
3.2963554737
  0
LINE
  5
5EB
100
AcDbEntity
  8
DEFAULT_2
100
AcDbLine
 62
8
  6
HIDDEN
 10
5.3804305358
 20
3.9313554737
 11
5.3804305358
 21
3.9813554737
  0
LINE
  5
5EC
100
AcDbEntity
  8
0
100
AcDbLine
 62
7
  6
CONTINUOUS
 10
5.3852587858
 20
3.9813554737
 11
5.3852587858
 21
3.9313554737
  0
LINE
  5
5ED
100
AcDbEntity
  8
0
100
AcDbLine
 62
7
  6
CONTINUOUS
 10
5.3858008108
 20
3.2563554737
 11
5.3858008108
 21
3.2963554737
  0
LINE
  5
5EE
100
AcDbEntity
  8
DEFAULT_2
100
AcDbLine
 62
8
  6
HIDDEN
 10
5.3876580597
 20
3.2963554737
 11
5.3876580597
 21
3.2563554737
  0
LINE
  5
5EF
100
AcDbEntity
  8
DEFAULT_2
100
AcDbLine
 62
8
  6
HIDDEN
 10
5.3908229764
 20
3.9813554737
 11
5.3908229764
 21
3.9313554737
  0
LINE
  5
5F0
100
AcDbEntity
  8
0
100
AcDbLine
 62
7
  6
CONTINUOUS
 10
5.3921027572
 20
3.9313554737
 11
5.3921027572
 21
3.9813554737
  0
LINE
  5
5F1
100
AcDbEntity
  8
0
100
AcDbLine
 62
7
  6
CONTINUOUS
 10
5.3922788383
 20
3.2563554737
 11
5.3922788383
 21
3.2963554737
  0
LINE
  5
5F2
100
AcDbEntity
  8
DEFAULT_2
100
AcDbLine
 62
8
  6
HIDDEN
 10
5.3970905564
 20
3.9813554737
 11
5.3970905564
 21
3.9313554737
  0
LINE
  5
5F3
100
AcDbEntity
  8
DEFAULT_2
100
AcDbLine
 62
8
  6
HIDDEN
 10
5.3978504752
 20
3.2563554737
 11
5.3978504752
 21
3.2963554737
  0
LINE
  5
5F4
100
AcDbEntity
  8
0
100
AcDbLine
 62
7
  6
CONTINUOUS
 10
5.3995501253
 20
3.2963554737
 11
5.3995501253
 21
3.2563554737
  0
LINE
  5
5F5
100
AcDbEntity
  8
0
100
AcDbLine
 62
7
  6
CONTINUOUS
 10
5.4026137859
 20
3.9813554737
 11
5.4026137859
 21
3.9313554737
  0
LINE
  5
5F6
100
AcDbEntity
  8
DEFAULT_2
100
AcDbLine
 62
8
  6
HIDDEN
 10
5.4036890529
 20
3.9313554737
 11
5.4036890529
 21
3.9813554737
  0
LINE
  5
5F7
100
AcDbEntity
  8
DEFAULT_2
100
AcDbLine
 62
8
  6
HIDDEN
 10
5.4042997269
 20
3.2563554737
 11
5.4042997269
 21
3.2963554737
  0
LINE
  5
5F8
100
AcDbEntity
  8
0
100
AcDbLine
 62
7
  6
CONTINUOUS
 10
5.4088328054
 20
3.9813554737
 11
5.4088328054
 21
3.9313554737
  0
LINE
  5
5F9
100
AcDbEntity
  8
0
100
AcDbLine
 62
7
  6
CONTINUOUS
 10
5.40984534
 20
3.2563554737
 11
5.40984534
 21
3.2963554737
  0
LINE
  5
5FA
100
AcDbEntity
  8
DEFAULT_2
100
AcDbLine
 62
8
  6
HIDDEN
 10
5.4113866458
 20
3.2963554737
 11
5.4113866458
 21
3.2563554737
  0
LINE
  5
5FB
100
AcDbEntity
  8
DEFAULT_2
100
AcDbLine
 62
8
  6
HIDDEN
 10
5.414311092
 20
3.9813554737
 11
5.414311092
 21
3.9313554737
  0
LINE
  5
5FC
100
AcDbEntity
  8
0
100
AcDbLine
 62
7
  6
CONTINUOUS
 10
5.4151810699
 20
3.9313554737
 11
5.4151810699
 21
3.9813554737
  0
LINE
  5
5FD
100
AcDbEntity
  8
0
100
AcDbLine
 62
7
  6
CONTINUOUS
 10
5.4162629872
 20
3.2563554737
 11
5.4162629872
 21
3.2963554737
  0
LINE
  5
5FE
100
AcDbEntity
  8
DEFAULT_2
100
AcDbLine
 62
8
  6
HIDDEN
 10
5.4204770674
 20
3.9813554737
 11
5.4204770674
 21
3.9313554737
  0
LINE
  5
5FF
100
AcDbEntity
  8
DEFAULT_2
100
AcDbLine
 62
8
  6
HIDDEN
 10
5.4217801439
 20
3.2563554737
 11
5.4217801439
 21
3.2963554737
  0
LINE
  5
600
100
AcDbEntity
  8
0
100
AcDbLine
 62
7
  6
CONTINUOUS
 10
5.4231624293
 20
3.2963554737
 11
5.4231624293
 21
3.2563554737
  0
LINE
  5
601
100
AcDbEntity
  8
0
100
AcDbLine
 62
7
  6
CONTINUOUS
 10
5.4259064614
 20
3.9813554737
 11
5.4259064614
 21
3.9313554737
  0
LINE
  5
602
100
AcDbEntity
  8
DEFAULT_2
100
AcDbLine
 62
8
  6
HIDDEN
 10
5.426570523
 20
3.9313554737
 11
5.426570523
 21
3.9813554737
  0
LINE
  5
603
100
AcDbEntity
  8
DEFAULT_2
100
AcDbLine
 62
8
  6
HIDDEN
 10
5.4281633716
 20
3.2563554737
 11
5.4281633716
 21
3.2963554737
  0
LINE
  5
604
100
AcDbEntity
  8
0
100
AcDbLine
 62
7
  6
CONTINUOUS
 10
5.4320149474
 20
3.9813554737
 11
5.4320149474
 21
3.9313554737
  0
LINE
  5
605
100
AcDbEntity
  8
0
100
AcDbLine
 62
7
  6
CONTINUOUS
 10
5.433649652
 20
3.2563554737
 11
5.433649652
 21
3.2963554737
  0
LINE
  5
606
100
AcDbEntity
  8
DEFAULT_2
100
AcDbLine
 62
8
  6
HIDDEN
 10
5.4348723107
 20
3.2963554737
 11
5.4348723107
 21
3.2563554737
  0
LINE
  5
607
100
AcDbEntity
  8
DEFAULT_2
100
AcDbLine
 62
8
  6
HIDDEN
 10
5.4373915345
 20
3.9813554737
 11
5.4373915345
 21
3.9313554737
  0
LINE
  5
608
100
AcDbEntity
  8
0
100
AcDbLine
 62
7
  6
CONTINUOUS
 10
5.4378492012
 20
3.9313554737
 11
5.4378492012
 21
3.9813554737
  0
LINE
  5
609
100
AcDbEntity
  8
0
100
AcDbLine
 62
7
  6
CONTINUOUS
 10
5.4399956602
 20
3.2563554737
 11
5.4399956602
 21
3.2963554737
  0
LINE
  5
60A
100
AcDbEntity
  8
DEFAULT_2
100
AcDbLine
 62
8
  6
HIDDEN
 10
5.4434381273
 20
3.9813554737
 11
5.4434381273
 21
3.9313554737
  0
LINE
  5
60B
100
AcDbEntity
  8
DEFAULT_2
100
AcDbLine
 62
8
  6
HIDDEN
 10
5.4454486579
 20
3.2563554737
 11
5.4454486579
 21
3.2963554737
  0
LINE
  5
60C
100
AcDbEntity
  8
0
100
AcDbLine
 62
7
  6
CONTINUOUS
 10
5.4465111536
 20
3.2963554737
 11
5.4465111536
 21
3.2563554737
  0
LINE
  5
60D
100
AcDbEntity
  8
0
100
AcDbLine
 62
7
  6
CONTINUOUS
 10
5.4487580314
 20
3.9813554737
 11
5.4487580314
 21
3.9313554737
  0
LINE
  5
60E
100
AcDbEntity
  8
DEFAULT_2
100
AcDbLine
 62
8
  6
HIDDEN
 10
5.4490089731
 20
3.9313554737
 11
5.4490089731
 21
3.9813554737
  0
LINE
  5
60F
100
AcDbEntity
  8
DEFAULT_2
100
AcDbLine
 62
8
  6
HIDDEN
 10
5.4517546631
 20
3.2563554737
 11
5.4517546631
 21
3.2963554737
  0
LINE
  5
610
100
AcDbEntity
  8
0
100
AcDbLine
 62
7
  6
CONTINUOUS
 10
5.4547383716
 20
3.9813554737
 11
5.4547383716
 21
3.9313554737
  0
LINE
  5
611
100
AcDbEntity
  8
0
100
AcDbLine
 62
7
  6
CONTINUOUS
 10
5.4571719861
 20
3.2563554737
 11
5.4571719861
 21
3.2963554737
  0
LINE
  5
612
100
AcDbEntity
  8
DEFAULT_2
100
AcDbLine
 62
8
  6
HIDDEN
 10
5.4580738527
 20
3.2963554737
 11
5.4580738527
 21
3.2563554737
  0
LINE
  5
613
100
AcDbEntity
  8
DEFAULT_2
100
AcDbLine
 62
8
  6
HIDDEN
 10
5.4599977573
 20
3.9813554737
 11
5.4599977573
 21
3.9313554737
  0
LINE
  5
614
100
AcDbEntity
  8
0
100
AcDbLine
 62
7
  6
CONTINUOUS
 10
5.4600417932
 20
3.9313554737
 11
5.4600417932
 21
3.9813554737
  0
LINE
  5
615
100
AcDbEntity
  8
0
100
AcDbLine
 62
7
  6
CONTINUOUS
 10
5.4634352222
 20
3.2563554737
 11
5.4634352222
 21
3.2963554737
  0
LINE
  5
616
100
AcDbEntity
  8
DEFAULT_2
100
AcDbLine
 62
8
  6
HIDDEN
 10
5.4659075334
 20
3.9813554737
 11
5.4659075334
 21
3.9313554737
  0
LINE
  5
617
100
AcDbEntity
  8
DEFAULT_2
100
AcDbLine
 62
8
  6
HIDDEN
 10
5.4688144944
 20
3.2563554737
 11
5.4688144944
 21
3.2963554737
  0
LINE
  5
618
100
AcDbEntity
  8
0
100
AcDbLine
 62
7
  6
CONTINUOUS
 10
5.4695553364
 20
3.2963554737
 11
5.4695553364
 21
3.2563554737
  0
LINE
  5
619
100
AcDbEntity
  8
DEFAULT_2
100
AcDbLine
 62
8
  6
HIDDEN
 10
5.4709397073
 20
3.9313554737
 11
5.4709397073
 21
3.9813554737
  0
LINE
  5
61A
100
AcDbEntity
  8
0
100
AcDbLine
 62
7
  6
CONTINUOUS
 10
5.471102609
 20
3.9813554737
 11
5.471102609
 21
3.9313554737
  0
LINE
  5
61B
100
AcDbEntity
  8
DEFAULT_2
100
AcDbLine
 62
8
  6
HIDDEN
 10
5.4750322142
 20
3.2563554737
 11
5.4750322142
 21
3.2963554737
  0
LINE
  5
61C
100
AcDbEntity
  8
0
100
AcDbLine
 62
7
  6
CONTINUOUS
 10
5.4769375605
 20
3.9813554737
 11
5.4769375605
 21
3.9313554737
  0
LINE
  5
61D
100
AcDbEntity
  8
0
100
AcDbLine
 62
7
  6
CONTINUOUS
 10
5.4803710761
 20
3.2563554737
 11
5.4803710761
 21
3.2963554737
  0
LINE
  5
61E
100
AcDbEntity
  8
DEFAULT_2
100
AcDbLine
 62
8
  6
HIDDEN
 10
5.4809505684
 20
3.2963554737
 11
5.4809505684
 21
3.2563554737
  0
LINE
  5
61F
100
AcDbEntity
  8
0
100
AcDbLine
 62
7
  6
CONTINUOUS
 10
5.4816948587
 20
3.9313554737
 11
5.4816948587
 21
3.9813554737
  0
LINE
  5
620
100
AcDbEntity
  8
DEFAULT_2
100
AcDbLine
 62
8
  6
HIDDEN
 10
5.4820645805
 20
3.9813554737
 11
5.4820645805
 21
3.9313554737
  0
LINE
  5
621
100
AcDbEntity
  8
0
100
AcDbLine
 62
7
  6
CONTINUOUS
 10
5.4865405522
 20
3.2563554737
 11
5.4865405522
 21
3.2963554737
  0
LINE
  5
622
100
AcDbEntity
  8
DEFAULT_2
100
AcDbLine
 62
8
  6
HIDDEN
 10
5.4878205008
 20
3.9813554737
 11
5.4878205008
 21
3.9313554737
  0
LINE
  5
623
100
AcDbEntity
  8
DEFAULT_2
100
AcDbLine
 62
8
  6
HIDDEN
 10
5.4918366619
 20
3.2563554737
 11
5.4918366619
 21
3.2963554737
  0
LINE
  5
624
100
AcDbEntity
  8
0
100
AcDbLine
 62
7
  6
CONTINUOUS
 10
5.4922545504
 20
3.2963554737
 11
5.4922545504
 21
3.2563554737
  0
LINE
  5
625
100
AcDbEntity
  8
DEFAULT_2
100
AcDbLine
 62
8
  6
HIDDEN
 10
5.4922994935
 20
3.9313554737
 11
5.4922994935
 21
3.9813554737
  0
LINE
  5
626
100
AcDbEntity
  8
0
100
AcDbLine
 62
7
  6
CONTINUOUS
 10
5.492875769
 20
3.9813554737
 11
5.492875769
 21
3.9313554737
  0
LINE
  5
627
100
AcDbEntity
  8
DEFAULT_2
100
AcDbLine
 62
8
  6
HIDDEN
 10
5.4979551883
 20
3.2563554737
 11
5.4979551883
 21
3.2963554737
  0
LINE
  5
628
100
AcDbEntity
  8
0
100
AcDbLine
 62
7
  6
CONTINUOUS
 10
5.4985485082
 20
3.9813554737
 11
5.4985485082
 21
3.9313554737
  0
LINE
  5
629
100
AcDbEntity
  8
0
100
AcDbLine
 62
7
  6
CONTINUOUS
 10
5.5016679737
 20
4.4003554737
 11
5.5016679737
 21
4.4318554737
  0
LINE
  5
62A
100
AcDbEntity
  8
0
100
AcDbLine
 62
7
  6
CONTINUOUS
 10
5.5027459664
 20
3.9313554737
 11
5.5027459664
 21
3.9813554737
  0
LINE
  5
62B
100
AcDbEntity
  8
0
100
AcDbLine
 62
7
  6
CONTINUOUS
 10
5.5032062227
 20
3.2563554737
 11
5.5032062227
 21
3.2963554737
  0
LINE
  5
62C
100
AcDbEntity
  8
DEFAULT_2
100
AcDbLine
 62
8
  6
HIDDEN
 10
5.5034623242
 20
3.2963554737
 11
5.5034623242
 21
3.2563554737
  0
LINE
  5
62D
100
AcDbEntity
  8
DEFAULT_2
100
AcDbLine
 62
8
  6
HIDDEN
 10
5.50352838
 20
3.9813554737
 11
5.50352838
 21
3.9313554737
  0
LINE
  5
62E
100
AcDbEntity
  8
0
100
AcDbLine
 62
7
  6
CONTINUOUS
 10
5.5075429737
 20
4.1188554737
 11
5.5075429737
 21
4.7148554737
  0
LINE
  5
62F
100
AcDbEntity
  8
DEFAULT_2
100
AcDbLine
 62
8
  6
HIDDEN
 10
5.5091138484
 20
3.9813554737
 11
5.5091138484
 21
3.9313554737
  0
LINE
  5
630
100
AcDbEntity
  8
0
100
AcDbLine
 62
7
  6
CONTINUOUS
 10
5.5092711156
 20
3.2563554737
 11
5.5092711156
 21
3.2963554737
  0
LINE
  5
631
100
AcDbEntity
  8
DEFAULT_2
100
AcDbLine
 62
8
  6
HIDDEN
 10
5.513026746
 20
3.9313554737
 11
5.513026746
 21
3.9813554737
  0
LINE
  5
632
100
AcDbEntity
  8
0
100
AcDbLine
 62
7
  6
CONTINUOUS
 10
5.5140147337
 20
3.9813554737
 11
5.5140147337
 21
3.9313554737
  0
LINE
  5
633
100
AcDbEntity
  8
DEFAULT_2
100
AcDbLine
 62
8
  6
HIDDEN
 10
5.5144747716
 20
3.2563554737
 11
5.5144747716
 21
3.2963554737
  0
LINE
  5
634
100
AcDbEntity
  8
0
100
AcDbLine
 62
7
  6
CONTINUOUS
 10
5.5145689736
 20
3.2963554737
 11
5.5145689736
 21
3.2563554737
  0
LINE
  5
635
100
AcDbEntity
  8
0
100
AcDbLine
 62
7
  6
CONTINUOUS
 10
5.5195089046
 20
3.9813554737
 11
5.5195089046
 21
3.9313554737
  0
LINE
  5
636
100
AcDbEntity
  8
DEFAULT_2
100
AcDbLine
 62
8
  6
HIDDEN
 10
5.5204833707
 20
3.2563554737
 11
5.5204833707
 21
3.2963554737
  0
LINE
  5
637
100
AcDbEntity
  8
0
100
AcDbLine
 62
7
  6
CONTINUOUS
 10
5.5231344205
 20
3.9313554737
 11
5.5231344205
 21
3.9813554737
  0
LINE
  5
638
100
AcDbEntity
  8
DEFAULT_2
100
AcDbLine
 62
8
  6
HIDDEN
 10
5.52432727
 20
3.9813554737
 11
5.52432727
 21
3.9313554737
  0
LINE
  5
639
100
AcDbEntity
  8
DEFAULT_2
100
AcDbLine
 62
8
  6
HIDDEN
 10
5.5255696268
 20
3.2963554737
 11
5.5255696268
 21
3.2563554737
  0
LINE
  5
63A
100
AcDbEntity
  8
0
100
AcDbLine
 62
7
  6
CONTINUOUS
 10
5.5256373656
 20
3.2563554737
 11
5.5256373656
 21
3.2963554737
  0
LINE
  5
63B
100
AcDbEntity
  8
DEFAULT_2
100
AcDbLine
 62
8
  6
HIDDEN
 10
5.5297261823
 20
3.9813554737
 11
5.5297261823
 21
3.9313554737
  0
LINE
  5
63C
100
AcDbEntity
  8
0
100
AcDbLine
 62
7
  6
CONTINUOUS
 10
5.5315870353
 20
3.2563554737
 11
5.5315870353
 21
3.2963554737
  0
LINE
  5
63D
100
AcDbEntity
  8
DEFAULT_2
100
AcDbLine
 62
8
  6
HIDDEN
 10
5.5330617028
 20
3.9313554737
 11
5.5330617028
 21
3.9813554737
  0
LINE
  5
63E
100
AcDbEntity
  8
0
100
AcDbLine
 62
7
  6
CONTINUOUS
 10
5.5344585541
 20
3.9813554737
 11
5.5344585541
 21
3.9313554737
  0
LINE
  5
63F
100
AcDbEntity
  8
0
100
AcDbLine
 62
7
  6
CONTINUOUS
 10
5.5364594588
 20
3.2963554737
 11
5.5364594588
 21
3.2563554737
  0
LINE
  5
640
100
AcDbEntity
  8
DEFAULT_2
100
AcDbLine
 62
8
  6
HIDDEN
 10
5.5366891085
 20
3.2563554737
 11
5.5366891085
 21
3.2963554737
  0
LINE
  5
641
100
AcDbEntity
  8
0
100
AcDbLine
 62
7
  6
CONTINUOUS
 10
5.5397583155
 20
3.9813554737
 11
5.5397583155
 21
3.9313554737
  0
LINE
  5
642
100
AcDbEntity
  8
DEFAULT_2
100
AcDbLine
 62
8
  6
HIDDEN
 10
5.5425772392
 20
3.2563554737
 11
5.5425772392
 21
3.2963554737
  0
LINE
  5
643
100
AcDbEntity
  8
0
100
AcDbLine
 62
7
  6
CONTINUOUS
 10
5.5428014359
 20
3.9313554737
 11
5.5428014359
 21
3.9813554737
  0
LINE
  5
644
100
AcDbEntity
  8
DEFAULT_2
100
AcDbLine
 62
8
  6
HIDDEN
 10
5.5444012819
 20
3.9813554737
 11
5.5444012819
 21
3.9313554737
  0
LINE
  5
645
100
AcDbEntity
  8
DEFAULT_2
100
AcDbLine
 62
8
  6
HIDDEN
 10
5.5472336927
 20
3.2963554737
 11
5.5472336927
 21
3.2563554737
  0
LINE
  5
646
100
AcDbEntity
  8
0
100
AcDbLine
 62
7
  6
CONTINUOUS
 10
5.5476251528
 20
3.2563554737
 11
5.5476251528
 21
3.2963554737
  0
LINE
  5
647
100
AcDbEntity
  8
DEFAULT_2
100
AcDbLine
 62
8
  6
HIDDEN
 10
5.5495980716
 20
3.9813554737
 11
5.5495980716
 21
3.9313554737
  0
LINE
  5
648
100
AcDbEntity
  8
DEFAULT_2
100
AcDbLine
 62
8
  6
HIDDEN
 10
5.5523465979
 20
3.9313554737
 11
5.5523465979
 21
3.9813554737
  0
LINE
  5
649
100
AcDbEntity
  8
0
100
AcDbLine
 62
7
  6
CONTINUOUS
 10
5.5534491616
 20
3.2563554737
 11
5.5534491616
 21
3.2963554737
  0
LINE
  5
64A
100
AcDbEntity
  8
0
100
AcDbLine
 62
7
  6
CONTINUOUS
 10
5.5541482852
 20
3.9813554737
 11
5.5541482852
 21
3.9313554737
  0
LINE
  5
64B
100
AcDbEntity
  8
0
100
AcDbLine
 62
7
  6
CONTINUOUS
 10
5.5541679737
 20
4.1038554737
 11
5.5541679737
 21
4.0588554737
  0
LINE
  5
64C
100
AcDbEntity
  8
0
100
AcDbLine
 62
7
  6
CONTINUOUS
 10
5.5578876026
 20
3.2963554737
 11
5.5578876026
 21
3.2563554737
  0
LINE
  5
64D
100
AcDbEntity
  8
DEFAULT_2
100
AcDbLine
 62
8
  6
HIDDEN
 10
5.5584407013
 20
3.2563554737
 11
5.5584407013
 21
3.2963554737
  0
LINE
  5
64E
100
AcDbEntity
  8
0
100
AcDbLine
 62
7
  6
CONTINUOUS
 10
5.5592383566
 20
3.9813554737
 11
5.5592383566
 21
3.9313554737
  0
LINE
  5
64F
100
AcDbEntity
  8
0
100
AcDbLine
 62
7
  6
CONTINUOUS
 10
5.5616903073
 20
3.9313554737
 11
5.5616903073
 21
3.9813554737
  0
LINE
  5
650
100
AcDbEntity
  8
DEFAULT_2
100
AcDbLine
 62
8
  6
HIDDEN
 10
5.5636925371
 20
3.9813554737
 11
5.5636925371
 21
3.9313554737
  0
LINE
  5
651
100
AcDbEntity
  8
DEFAULT_2
100
AcDbLine
 62
8
  6
HIDDEN
 10
5.5641980337
 20
3.2563554737
 11
5.5641980337
 21
3.2963554737
  0
LINE
  5
652
100
AcDbEntity
  8
DEFAULT_2
100
AcDbLine
 62
8
  6
HIDDEN
 10
5.5684165155
 20
3.2963554737
 11
5.5684165155
 21
3.2563554737
  0
LINE
  5
653
100
AcDbEntity
  8
DEFAULT_2
100
AcDbLine
 62
8
  6
HIDDEN
 10
5.5686722205
 20
3.9813554737
 11
5.5686722205
 21
3.9313554737
  0
LINE
  5
654
100
AcDbEntity
  8
0
100
AcDbLine
 62
7
  6
CONTINUOUS
 10
4.7104179737
 20
3.1613554737
 11
4.6854179737
 21
3.1363554737
  0
LINE
  5
655
100
AcDbEntity
  8
0
100
AcDbLine
 62
7
  6
CONTINUOUS
 10
5.5541679737
 20
4.0588554737
 11
4.9916679737
 21
4.0588554737
  0
LINE
  5
656
100
AcDbEntity
  8
0
100
AcDbLine
 62
7
  6
CONTINUOUS
 10
7.4729179737
 20
4.0738554737
 11
7.0729179737
 21
4.0738554737
  0
LINE
  5
657
100
AcDbEntity
  8
0
100
AcDbLine
 62
7
  6
CONTINUOUS
 10
3.4729179737
 20
4.0738554737
 11
3.0729179737
 21
4.0738554737
  0
LINE
  5
658
100
AcDbEntity
  8
0
100
AcDbLine
 62
7
  6
CONTINUOUS
 10
7.4579179737
 20
4.0888554737
 11
7.0879179737
 21
4.0888554737
  0
LINE
  5
659
100
AcDbEntity
  8
0
100
AcDbLine
 62
7
  6
CONTINUOUS
 10
3.4579179737
 20
4.0888554737
 11
3.0879179737
 21
4.0888554737
  0
LINE
  5
65A
100
AcDbEntity
  8
0
100
AcDbLine
 62
7
  6
CONTINUOUS
 10
4.9916679737
 20
4.1038554737
 11
5.5541679737
 21
4.1038554737
  0
LINE
  5
65B
100
AcDbEntity
  8
0
100
AcDbLine
 62
7
  6
CONTINUOUS
 10
5.0066691183
 20
4.1188554737
 11
5.539166829
 21
4.1188554737
  0
LINE
  5
65C
100
AcDbEntity
  8
0
100
AcDbLine
 62
7
  6
CONTINUOUS
 10
7.4216679737
 20
4.194669204
 11
7.1241679737
 21
4.194669204
  0
LINE
  5
65D
100
AcDbEntity
  8
0
100
AcDbLine
 62
7
  6
CONTINUOUS
 10
3.4216679737
 20
4.194669204
 11
3.1241679737
 21
4.194669204
  0
LINE
  5
65E
100
AcDbEntity
  8
0
100
AcDbLine
 62
7
  6
CONTINUOUS
 10
7.4304179737
 20
4.2045907714
 11
7.1154179737
 21
4.2045907714
  0
LINE
  5
65F
100
AcDbEntity
  8
0
100
AcDbLine
 62
7
  6
CONTINUOUS
 10
3.4304179737
 20
4.2045907714
 11
3.1154179737
 21
4.2045907714
  0
LINE
  5
660
100
AcDbEntity
  8
0
100
AcDbLine
 62
7
  6
CONTINUOUS
 10
5.5075429737
 20
4.2128554737
 11
5.0382929737
 21
4.2128554737
  0
LINE
  5
661
100
AcDbEntity
  8
0
100
AcDbLine
 62
7
  6
CONTINUOUS
 10
3.4266679737
 20
4.2643554737
 11
3.1191679737
 21
4.2643554737
  0
LINE
  5
662
100
AcDbEntity
  8
0
100
AcDbLine
 62
7
  6
CONTINUOUS
 10
7.1191679737
 20
4.2643554737
 11
7.4266679737
 21
4.2643554737
  0
LINE
  5
663
100
AcDbEntity
  8
0
100
AcDbLine
 62
7
  6
CONTINUOUS
 10
3.1754179737
 20
4.2743554737
 11
3.3704179737
 21
4.2743554737
  0
LINE
  5
664
100
AcDbEntity
  8
0
100
AcDbLine
 62
7
  6
CONTINUOUS
 10
7.1754179737
 20
4.2743554737
 11
7.3704179737
 21
4.2743554737
  0
LINE
  5
665
100
AcDbEntity
  8
0
100
AcDbLine
 62
7
  6
CONTINUOUS
 10
3.1754179737
 20
4.2868554737
 11
3.3704179737
 21
4.2868554737
  0
LINE
  5
666
100
AcDbEntity
  8
0
100
AcDbLine
 62
7
  6
CONTINUOUS
 10
7.1754179737
 20
4.2868554737
 11
7.3704179737
 21
4.2868554737
  0
LINE
  5
667
100
AcDbEntity
  8
0
100
AcDbLine
 62
7
  6
CONTINUOUS
 10
9.0154179737
 20
4.3118554737
 11
7.7254179737
 21
4.3118554737
  0
LINE
  5
668
100
AcDbEntity
  8
0
100
AcDbLine
 62
7
  6
CONTINUOUS
 10
1.5304179737
 20
4.3118554737
 11
2.8204179737
 21
4.3118554737
  0
LINE
  5
669
100
AcDbEntity
  8
0
100
AcDbLine
 62
7
  6
CONTINUOUS
 10
5.5691310102
 20
3.2563554737
 11
5.5691310102
 21
3.2963554737
  0
LINE
  5
66A
100
AcDbEntity
  8
DEFAULT_2
100
AcDbLine
 62
8
  6
HIDDEN
 10
5.5708258279
 20
3.9313554737
 11
5.5708258279
 21
3.9813554737
  0
LINE
  5
66B
100
AcDbEntity
  8
0
100
AcDbLine
 62
7
  6
CONTINUOUS
 10
5.5730271566
 20
3.9813554737
 11
5.5730271566
 21
3.9313554737
  0
LINE
  5
66C
100
AcDbEntity
  8
0
100
AcDbLine
 62
7
  6
CONTINUOUS
 10
5.5748191408
 20
3.2563554737
 11
5.5748191408
 21
3.2963554737
  0
LINE
  5
66D
100
AcDbEntity
  8
0
100
AcDbLine
 62
7
  6
CONTINUOUS
 10
5.577892862
 20
3.9813554737
 11
5.577892862
 21
3.9313554737
  0
LINE
  5
66E
100
AcDbEntity
  8
0
100
AcDbLine
 62
7
  6
CONTINUOUS
 10
5.5788158129
 20
3.2963554737
 11
5.5788158129
 21
3.2563554737
  0
LINE
  5
66F
100
AcDbEntity
  8
DEFAULT_2
100
AcDbLine
 62
8
  6
HIDDEN
 10
5.5796913902
 20
3.2563554737
 11
5.5796913902
 21
3.2963554737
  0
LINE
  5
670
100
AcDbEntity
  8
0
100
AcDbLine
 62
7
  6
CONTINUOUS
 10
5.5797465734
 20
3.9313554737
 11
5.5797465734
 21
3.9813554737
  0
LINE
  5
671
100
AcDbEntity
  8
DEFAULT_2
100
AcDbLine
 62
8
  6
HIDDEN
 10
5.582145414
 20
3.9813554737
 11
5.582145414
 21
3.9313554737
  0
LINE
  5
672
100
AcDbEntity
  8
DEFAULT_2
100
AcDbLine
 62
8
  6
HIDDEN
 10
5.5853078241
 20
3.2563554737
 11
5.5853078241
 21
3.2963554737
  0
LINE
  5
673
100
AcDbEntity
  8
DEFAULT_2
100
AcDbLine
 62
8
  6
HIDDEN
 10
5.5868936334
 20
3.9813554737
 11
5.5868936334
 21
3.9313554737
  0
LINE
  5
674
100
AcDbEntity
  8
DEFAULT_2
100
AcDbLine
 62
8
  6
HIDDEN
 10
5.5884461124
 20
3.9313554737
 11
5.5884461124
 21
3.9813554737
  0
LINE
  5
675
100
AcDbEntity
  8
DEFAULT_2
100
AcDbLine
 62
8
  6
HIDDEN
 10
5.5890809335
 20
3.2963554737
 11
5.5890809335
 21
3.2563554737
  0
LINE
  5
676
100
AcDbEntity
  8
0
100
AcDbLine
 62
7
  6
CONTINUOUS
 10
5.5901172093
 20
3.2563554737
 11
5.5901172093
 21
3.2963554737
  0
LINE
  5
677
100
AcDbEntity
  8
0
100
AcDbLine
 62
7
  6
CONTINUOUS
 10
5.5910407355
 20
3.9813554737
 11
5.5910407355
 21
3.9313554737
  0
LINE
  5
678
100
AcDbEntity
  8
0
100
AcDbLine
 62
7
  6
CONTINUOUS
 10
5.5956594828
 20
3.2563554737
 11
5.5956594828
 21
3.2963554737
  0
LINE
  5
679
100
AcDbEntity
  8
0
100
AcDbLine
 62
7
  6
CONTINUOUS
 10
5.5956680458
 20
3.9813554737
 11
5.5956680458
 21
3.9313554737
  0
LINE
  5
67A
100
AcDbEntity
  8
0
100
AcDbLine
 62
7
  6
CONTINUOUS
 10
5.5969181731
 20
3.9313554737
 11
5.5969181731
 21
3.9813554737
  0
LINE
  5
67B
100
AcDbEntity
  8
0
100
AcDbLine
 62
7
  6
CONTINUOUS
 10
5.5992073745
 20
3.2963554737
 11
5.5992073745
 21
3.2563554737
  0
LINE
  5
67C
100
AcDbEntity
  8
DEFAULT_2
100
AcDbLine
 62
8
  6
HIDDEN
 10
5.5997067081
 20
3.9813554737
 11
5.5997067081
 21
3.9313554737
  0
LINE
  5
67D
100
AcDbEntity
  8
DEFAULT_2
100
AcDbLine
 62
8
  6
HIDDEN
 10
5.6004038943
 20
3.2563554737
 11
5.6004038943
 21
3.2963554737
  0
LINE
  5
67E
100
AcDbEntity
  8
DEFAULT_2
100
AcDbLine
 62
8
  6
HIDDEN
 10
5.6042097732
 20
3.9813554737
 11
5.6042097732
 21
3.9313554737
  0
LINE
  5
67F
100
AcDbEntity
  8
DEFAULT_2
100
AcDbLine
 62
8
  6
HIDDEN
 10
5.6051566476
 20
3.9313554737
 11
5.6051566476
 21
3.9813554737
  0
LINE
  5
680
100
AcDbEntity
  8
DEFAULT_2
100
AcDbLine
 62
8
  6
HIDDEN
 10
5.6058695765
 20
3.2563554737
 11
5.6058695765
 21
3.2963554737
  0
LINE
  5
681
100
AcDbEntity
  8
0
100
AcDbLine
 62
7
  6
CONTINUOUS
 10
5.6081370841
 20
3.9813554737
 11
5.6081370841
 21
3.9313554737
  0
LINE
  5
682
100
AcDbEntity
  8
DEFAULT_2
100
AcDbLine
 62
8
  6
HIDDEN
 10
5.6091906942
 20
3.2963554737
 11
5.6091906942
 21
3.2563554737
  0
LINE
  5
683
100
AcDbEntity
  8
0
100
AcDbLine
 62
7
  6
CONTINUOUS
 10
5.6105469332
 20
3.2563554737
 11
5.6105469332
 21
3.2963554737
  0
LINE
  5
684
100
AcDbEntity
  8
0
100
AcDbLine
 62
7
  6
CONTINUOUS
 10
5.6125126576
 20
3.9813554737
 11
5.6125126576
 21
3.9313554737
  0
LINE
  5
685
100
AcDbEntity
  8
0
100
AcDbLine
 62
7
  6
CONTINUOUS
 10
5.6131555964
 20
3.9313554737
 11
5.6131555964
 21
3.9813554737
  0
LINE
  5
686
100
AcDbEntity
  8
0
100
AcDbLine
 62
7
  6
CONTINUOUS
 10
5.6159336265
 20
3.2563554737
 11
5.6159336265
 21
3.2963554737
  0
LINE
  5
687
100
AcDbEntity
  8
DEFAULT_2
100
AcDbLine
 62
8
  6
HIDDEN
 10
5.6163257857
 20
3.9813554737
 11
5.6163257857
 21
3.9313554737
  0
LINE
  5
688
100
AcDbEntity
  8
0
100
AcDbLine
 62
7
  6
CONTINUOUS
 10
5.6190265136
 20
3.2963554737
 11
5.6190265136
 21
3.2563554737
  0
LINE
  5
689
100
AcDbEntity
  8
DEFAULT_2
100
AcDbLine
 62
8
  6
HIDDEN
 10
5.6205418768
 20
3.2563554737
 11
5.6205418768
 21
3.2963554737
  0
LINE
  5
68A
100
AcDbEntity
  8
DEFAULT_2
100
AcDbLine
 62
8
  6
HIDDEN
 10
5.620570713
 20
3.9813554737
 11
5.620570713
 21
3.9313554737
  0
LINE
  5
68B
100
AcDbEntity
  8
DEFAULT_2
100
AcDbLine
 62
8
  6
HIDDEN
 10
5.6209092528
 20
3.9313554737
 11
5.6209092528
 21
3.9813554737
  0
LINE
  5
68C
100
AcDbEntity
  8
0
100
AcDbLine
 62
7
  6
CONTINUOUS
 10
5.6242669093
 20
3.9813554737
 11
5.6242669093
 21
3.9313554737
  0
LINE
  5
68D
100
AcDbEntity
  8
DEFAULT_2
100
AcDbLine
 62
8
  6
HIDDEN
 10
5.6258472186
 20
3.2563554737
 11
5.6258472186
 21
3.2963554737
  0
LINE
  5
68E
100
AcDbEntity
  8
0
100
AcDbLine
 62
7
  6
CONTINUOUS
 10
5.62837813
 20
3.9813554737
 11
5.62837813
 21
3.9313554737
  0
LINE
  5
68F
100
AcDbEntity
  8
DEFAULT_2
100
AcDbLine
 62
8
  6
HIDDEN
 10
5.6284120266
 20
3.9313554737
 11
5.6284120266
 21
3.9813554737
  0
LINE
  5
690
100
AcDbEntity
  8
DEFAULT_2
100
AcDbLine
 62
8
  6
HIDDEN
 10
5.6287105183
 20
3.2963554737
 11
5.6287105183
 21
3.2563554737
  0
LINE
  5
691
100
AcDbEntity
  8
0
100
AcDbLine
 62
7
  6
CONTINUOUS
 10
5.6303843411
 20
3.2563554737
 11
5.6303843411
 21
3.2963554737
  0
LINE
  5
692
100
AcDbEntity
  8
DEFAULT_2
100
AcDbLine
 62
8
  6
HIDDEN
 10
5.6319547297
 20
3.9813554737
 11
5.6319547297
 21
3.9313554737
  0
LINE
  5
693
100
AcDbEntity
  8
0
100
AcDbLine
 62
7
  6
CONTINUOUS
 10
5.6356060043
 20
3.2563554737
 11
5.6356060043
 21
3.2963554737
  0
LINE
  5
694
100
AcDbEntity
  8
DEFAULT_2
100
AcDbLine
 62
8
  6
HIDDEN
 10
5.6356585089
 20
3.9313554737
 11
5.6356585089
 21
3.9813554737
  0
LINE
  5
695
100
AcDbEntity
  8
DEFAULT_2
100
AcDbLine
 62
8
  6
HIDDEN
 10
5.6359292799
 20
3.9813554737
 11
5.6359292799
 21
3.9313554737
  0
LINE
  5
696
100
AcDbEntity
  8
0
100
AcDbLine
 62
7
  6
CONTINUOUS
 10
5.6382384607
 20
3.2963554737
 11
5.6382384607
 21
3.2563554737
  0
LINE
  5
697
100
AcDbEntity
  8
0
100
AcDbLine
 62
7
  6
CONTINUOUS
 10
5.6393837045
 20
3.9813554737
 11
5.6393837045
 21
3.9313554737
  0
LINE
  5
698
100
AcDbEntity
  8
DEFAULT_2
100
AcDbLine
 62
8
  6
HIDDEN
 10
5.6400700088
 20
3.2563554737
 11
5.6400700088
 21
3.2963554737
  0
LINE
  5
699
100
AcDbEntity
  8
DEFAULT_2
100
AcDbLine
 62
8
  6
HIDDEN
 10
5.6426434754
 20
3.9313554737
 11
5.6426434754
 21
3.9813554737
  0
LINE
  5
69A
100
AcDbEntity
  8
0
100
AcDbLine
 62
7
  6
CONTINUOUS
 10
5.6432187187
 20
3.9813554737
 11
5.6432187187
 21
3.9313554737
  0
LINE
  5
69B
100
AcDbEntity
  8
DEFAULT_2
100
AcDbLine
 62
8
  6
HIDDEN
 10
5.6452057029
 20
3.2563554737
 11
5.6452057029
 21
3.2963554737
  0
LINE
  5
69C
100
AcDbEntity
  8
DEFAULT_2
100
AcDbLine
 62
8
  6
HIDDEN
 10
5.6465484778
 20
3.9813554737
 11
5.6465484778
 21
3.9313554737
  0
LINE
  5
69D
100
AcDbEntity
  8
DEFAULT_2
100
AcDbLine
 62
8
  6
HIDDEN
 10
5.6476061614
 20
3.2963554737
 11
5.6476061614
 21
3.2563554737
  0
LINE
  5
69E
100
AcDbEntity
  8
0
100
AcDbLine
 62
7
  6
CONTINUOUS
 10
5.6479179737
 20
3.3363554737
 11
5.6479179737
 21
3.3313554737
  0
LINE
  5
69F
100
AcDbEntity
  8
DEFAULT_2
100
AcDbLine
 62
8
  6
HIDDEN
 10
5.6493618902
 20
3.9313554737
 11
5.6493618902
 21
3.9813554737
  0
LINE
  5
6A0
100
AcDbEntity
  8
0
100
AcDbLine
 62
7
  6
CONTINUOUS
 10
5.6495946316
 20
3.2563554737
 11
5.6495946316
 21
3.2963554737
  0
LINE
  5
6A1
100
AcDbEntity
  8
DEFAULT_2
100
AcDbLine
 62
8
  6
HIDDEN
 10
5.6502411912
 20
3.9813554737
 11
5.6502411912
 21
3.9313554737
  0
LINE
  5
6A2
100
AcDbEntity
  8
0
100
AcDbLine
 62
7
  6
CONTINUOUS
 10
5.6534438842
 20
3.9813554737
 11
5.6534438842
 21
3.9313554737
  0
LINE
  5
6A3
100
AcDbEntity
  8
0
100
AcDbLine
 62
7
  6
CONTINUOUS
 10
5.6546421039
 20
3.2563554737
 11
5.6546421039
 21
3.2963554737
  0
LINE
  5
6A4
100
AcDbEntity
  8
DEFAULT_2
100
AcDbLine
 62
8
  6
HIDDEN
 10
5.6558089099
 20
3.9313554737
 11
5.6558089099
 21
3.9813554737
  0
LINE
  5
6A5
100
AcDbEntity
  8
0
100
AcDbLine
 62
7
  6
CONTINUOUS
 10
5.6568095115
 20
3.2963554737
 11
5.6568095115
 21
3.2563554737
  0
LINE
  5
6A6
100
AcDbEntity
  8
0
100
AcDbLine
 62
7
  6
CONTINUOUS
 10
5.6569916346
 20
3.9813554737
 11
5.6569916346
 21
3.9313554737
  0
LINE
  5
6A7
100
AcDbEntity
  8
DEFAULT_2
100
AcDbLine
 62
8
  6
HIDDEN
 10
5.6589540315
 20
3.2563554737
 11
5.6589540315
 21
3.2963554737
  0
LINE
  5
6A8
100
AcDbEntity
  8
DEFAULT_2
100
AcDbLine
 62
8
  6
HIDDEN
 10
5.6600649524
 20
3.9813554737
 11
5.6600649524
 21
3.9313554737
  0
LINE
  5
6A9
100
AcDbEntity
  8
DEFAULT_2
100
AcDbLine
 62
8
  6
HIDDEN
 10
5.6619798863
 20
3.9313554737
 11
5.6619798863
 21
3.9813554737
  0
LINE
  5
6AA
100
AcDbEntity
  8
DEFAULT_2
100
AcDbLine
 62
8
  6
HIDDEN
 10
5.6634651821
 20
3.9813554737
 11
5.6634651821
 21
3.9313554737
  0
LINE
  5
6AB
100
AcDbEntity
  8
DEFAULT_2
100
AcDbLine
 62
8
  6
HIDDEN
 10
5.6639110681
 20
3.2563554737
 11
5.6639110681
 21
3.2963554737
  0
LINE
  5
6AC
100
AcDbEntity
  8
DEFAULT_2
100
AcDbLine
 62
8
  6
HIDDEN
 10
5.6658444741
 20
3.2963554737
 11
5.6658444741
 21
3.2563554737
  0
LINE
  5
6AD
100
AcDbEntity
  8
0
100
AcDbLine
 62
7
  6
CONTINUOUS
 10
5.6664069091
 20
3.9813554737
 11
5.6664069091
 21
3.9313554737
  0
LINE
  5
6AE
100
AcDbEntity
  8
DEFAULT_2
100
AcDbLine
 62
8
  6
HIDDEN
 10
5.6678703706
 20
3.9313554737
 11
5.6678703706
 21
3.9813554737
  0
LINE
  5
6AF
100
AcDbEntity
  8
0
100
AcDbLine
 62
7
  6
CONTINUOUS
 10
5.6681441032
 20
3.2563554737
 11
5.6681441032
 21
3.2963554737
  0
LINE
  5
6B0
100
AcDbEntity
  8
0
100
AcDbLine
 62
7
  6
CONTINUOUS
 10
5.6696571666
 20
3.9813554737
 11
5.6696571666
 21
3.9313554737
  0
LINE
  5
6B1
100
AcDbEntity
  8
DEFAULT_2
100
AcDbLine
 62
8
  6
HIDDEN
 10
5.6724651821
 20
3.9813554737
 11
5.6724651821
 21
3.9313554737
  0
LINE
  5
6B2
100
AcDbEntity
  8
0
100
AcDbLine
 62
7
  6
CONTINUOUS
 10
5.6730085297
 20
3.2563554737
 11
5.6730085297
 21
3.2963554737
  0
LINE
  5
6B3
100
AcDbEntity
  8
DEFAULT_2
100
AcDbLine
 62
8
  6
HIDDEN
 10
5.6734761161
 20
3.9313554737
 11
5.6734761161
 21
3.9813554737
  0
LINE
  5
6B4
100
AcDbEntity
  8
0
100
AcDbLine
 62
7
  6
CONTINUOUS
 10
5.6747070861
 20
3.2963554737
 11
5.6747070861
 21
3.2563554737
  0
LINE
  5
6B5
100
AcDbEntity
  8
DEFAULT_2
100
AcDbLine
 62
8
  6
HIDDEN
 10
5.6755631242
 20
3.9813554737
 11
5.6755631242
 21
3.9313554737
  0
LINE
  5
6B6
100
AcDbEntity
  8
DEFAULT_2
100
AcDbLine
 62
8
  6
HIDDEN
 10
5.6771608156
 20
3.2563554737
 11
5.6771608156
 21
3.2963554737
  0
LINE
  5
6B7
100
AcDbEntity
  8
0
100
AcDbLine
 62
7
  6
CONTINUOUS
 10
5.6782354036
 20
3.9813554737
 11
5.6782354036
 21
3.9313554737
  0
LINE
  5
6B8
100
AcDbEntity
  8
DEFAULT_2
100
AcDbLine
 62
8
  6
HIDDEN
 10
5.6787930814
 20
3.9313554737
 11
5.6787930814
 21
3.9813554737
  0
LINE
  5
6B9
100
AcDbEntity
  8
0
100
AcDbLine
 62
7
  6
CONTINUOUS
 10
5.6791679737
 20
3.9313554737
 11
5.6791679737
 21
3.3363554737
  0
LINE
  5
6BA
100
AcDbEntity
  8
0
100
AcDbLine
 62
7
  6
CONTINUOUS
 10
5.6811787969
 20
3.9813554737
 11
5.6811787969
 21
3.9313554737
  0
LINE
  5
6BB
100
AcDbEntity
  8
DEFAULT_2
100
AcDbLine
 62
8
  6
HIDDEN
 10
5.6819304985
 20
3.2563554737
 11
5.6819304985
 21
3.2963554737
  0
LINE
  5
6BC
100
AcDbEntity
  8
DEFAULT_2
100
AcDbLine
 62
8
  6
HIDDEN
 10
5.6833934601
 20
3.2963554737
 11
5.6833934601
 21
3.2563554737
  0
LINE
  5
6BD
100
AcDbEntity
  8
DEFAULT_2
100
AcDbLine
 62
8
  6
HIDDEN
 10
5.6837134137
 20
3.9813554737
 11
5.6837134137
 21
3.9313554737
  0
LINE
  5
6BE
100
AcDbEntity
  8
DEFAULT_2
100
AcDbLine
 62
8
  6
HIDDEN
 10
5.6838174332
 20
3.9313554737
 11
5.6838174332
 21
3.9813554737
  0
LINE
  5
6BF
100
AcDbEntity
  8
0
100
AcDbLine
 62
7
  6
CONTINUOUS
 10
5.6860002139
 20
3.2563554737
 11
5.6860002139
 21
3.2963554737
  0
LINE
  5
6C0
100
AcDbEntity
  8
DEFAULT_2
100
AcDbLine
 62
8
  6
HIDDEN
 10
5.6865001361
 20
3.9813554737
 11
5.6865001361
 21
3.9313554737
  0
LINE
  5
6C1
100
AcDbEntity
  8
DEFAULT_2
100
AcDbLine
 62
8
  6
HIDDEN
 10
5.6885455492
 20
3.9313554737
 11
5.6885455492
 21
3.9813554737
  0
LINE
  5
6C2
100
AcDbEntity
  8
0
100
AcDbLine
 62
7
  6
CONTINUOUS
 10
5.688895263
 20
3.9813554737
 11
5.688895263
 21
3.9313554737
  0
LINE
  5
6C3
100
AcDbEntity
  8
0
100
AcDbLine
 62
7
  6
CONTINUOUS
 10
5.6906730608
 20
3.2563554737
 11
5.6906730608
 21
3.2963554737
  0
LINE
  5
6C4
100
AcDbEntity
  8
0
100
AcDbLine
 62
7
  6
CONTINUOUS
 10
5.6915233055
 20
3.9813554737
 11
5.6915233055
 21
3.9313554737
  0
LINE
  5
6C5
100
AcDbEntity
  8
0
100
AcDbLine
 62
7
  6
CONTINUOUS
 10
5.6918997861
 20
3.2963554737
 11
5.6918997861
 21
3.2563554737
  0
LINE
  5
6C6
100
AcDbEntity
  8
DEFAULT_2
100
AcDbLine
 62
8
  6
HIDDEN
 10
5.6929740207
 20
3.9313554737
 11
5.6929740207
 21
3.9813554737
  0
LINE
  5
6C7
100
AcDbEntity
  8
DEFAULT_2
100
AcDbLine
 62
8
  6
HIDDEN
 10
5.6937772157
 20
3.9813554737
 11
5.6937772157
 21
3.9313554737
  0
LINE
  5
6C8
100
AcDbEntity
  8
DEFAULT_2
100
AcDbLine
 62
8
  6
HIDDEN
 10
5.6946584205
 20
3.2563554737
 11
5.6946584205
 21
3.2963554737
  0
LINE
  5
6C9
100
AcDbEntity
  8
DEFAULT_2
100
AcDbLine
 62
8
  6
HIDDEN
 10
5.6962446836
 20
3.9813554737
 11
5.6962446836
 21
3.9313554737
  0
LINE
  5
6CA
100
AcDbEntity
  8
DEFAULT_2
100
AcDbLine
 62
8
  6
HIDDEN
 10
5.697099655
 20
3.9313554737
 11
5.697099655
 21
3.9813554737
  0
LINE
  5
6CB
100
AcDbEntity
  8
0
100
AcDbLine
 62
7
  6
CONTINUOUS
 10
5.6983557522
 20
3.9813554737
 11
5.6983557522
 21
3.9313554737
  0
LINE
  5
6CC
100
AcDbEntity
  8
DEFAULT_2
100
AcDbLine
 62
8
  6
HIDDEN
 10
5.6992323819
 20
3.2563554737
 11
5.6992323819
 21
3.2963554737
  0
LINE
  5
6CD
100
AcDbEntity
  8
DEFAULT_2
100
AcDbLine
 62
8
  6
HIDDEN
 10
5.7002223327
 20
3.2963554737
 11
5.7002223327
 21
3.2563554737
  0
LINE
  5
6CE
100
AcDbEntity
  8
0
100
AcDbLine
 62
7
  6
CONTINUOUS
 10
5.7006608666
 20
3.9813554737
 11
5.7006608666
 21
3.9313554737
  0
LINE
  5
6CF
100
AcDbEntity
  8
DEFAULT_2
100
AcDbLine
 62
8
  6
HIDDEN
 10
5.7009194779
 20
3.9313554737
 11
5.7009194779
 21
3.9813554737
  0
LINE
  5
6D0
100
AcDbEntity
  8
DEFAULT_2
100
AcDbLine
 62
8
  6
HIDDEN
 10
5.7026275716
 20
3.9813554737
 11
5.7026275716
 21
3.9313554737
  0
LINE
  5
6D1
100
AcDbEntity
  8
0
100
AcDbLine
 62
7
  6
CONTINUOUS
 10
5.7031316379
 20
3.2563554737
 11
5.7031316379
 21
3.2963554737
  0
LINE
  5
6D2
100
AcDbEntity
  8
DEFAULT_2
100
AcDbLine
 62
8
  6
HIDDEN
 10
5.7044307353
 20
3.9313554737
 11
5.7044307353
 21
3.9813554737
  0
LINE
  5
6D3
100
AcDbEntity
  8
DEFAULT_2
100
AcDbLine
 62
8
  6
HIDDEN
 10
5.7047686706
 20
3.9813554737
 11
5.7047686706
 21
3.9313554737
  0
LINE
  5
6D4
100
AcDbEntity
  8
0
100
AcDbLine
 62
7
  6
CONTINUOUS
 10
5.7065895941
 20
3.9813554737
 11
5.7065895941
 21
3.9313554737
  0
LINE
  5
6D5
100
AcDbEntity
  8
0
100
AcDbLine
 62
7
  6
CONTINUOUS
 10
5.7076047075
 20
3.2563554737
 11
5.7076047075
 21
3.2963554737
  0
LINE
  5
6D6
100
AcDbEntity
  8
DEFAULT_2
100
AcDbLine
 62
8
  6
HIDDEN
 10
5.7076308959
 20
3.9313554737
 11
5.7076308959
 21
3.9813554737
  0
LINE
  5
6D7
100
AcDbEntity
  8
0
100
AcDbLine
 62
7
  6
CONTINUOUS
 10
5.7083574496
 20
3.2963554737
 11
5.7083574496
 21
3.2563554737
  0
LINE
  5
6D8
100
AcDbEntity
  8
0
100
AcDbLine
 62
7
  6
CONTINUOUS
 10
5.7085651342
 20
3.9813554737
 11
5.7085651342
 21
3.9313554737
  0
LINE
  5
6D9
100
AcDbEntity
  8
DEFAULT_2
100
AcDbLine
 62
8
  6
HIDDEN
 10
5.7102389634
 20
3.9813554737
 11
5.7102389634
 21
3.9313554737
  0
LINE
  5
6DA
100
AcDbEntity
  8
DEFAULT_2
100
AcDbLine
 62
8
  6
HIDDEN
 10
5.7105176526
 20
3.9313554737
 11
5.7105176526
 21
3.9813554737
  0
LINE
  5
6DB
100
AcDbEntity
  8
DEFAULT_2
100
AcDbLine
 62
8
  6
HIDDEN
 10
5.7114161494
 20
3.2563554737
 11
5.7114161494
 21
3.2963554737
  0
LINE
  5
6DC
100
AcDbEntity
  8
DEFAULT_2
100
AcDbLine
 62
8
  6
HIDDEN
 10
5.7120475203
 20
3.9813554737
 11
5.7120475203
 21
3.9313554737
  0
LINE
  5
6DD
100
AcDbEntity
  8
DEFAULT_2
100
AcDbLine
 62
8
  6
HIDDEN
 10
5.7130889241
 20
3.9313554737
 11
5.7130889241
 21
3.9813554737
  0
LINE
  5
6DE
100
AcDbEntity
  8
0
100
AcDbLine
 62
7
  6
CONTINUOUS
 10
5.7135730485
 20
3.9813554737
 11
5.7135730485
 21
3.9313554737
  0
LINE
  5
6DF
100
AcDbEntity
  8
0
100
AcDbLine
 62
7
  6
CONTINUOUS
 10
5.7152133182
 20
3.9813554737
 11
5.7152133182
 21
3.9313554737
  0
LINE
  5
6E0
100
AcDbEntity
  8
DEFAULT_2
100
AcDbLine
 62
8
  6
HIDDEN
 10
5.7153428567
 20
3.9313554737
 11
5.7153428567
 21
3.9813554737
  0
LINE
  5
6E1
100
AcDbEntity
  8
DEFAULT_2
100
AcDbLine
 62
8
  6
HIDDEN
 10
5.715786365
 20
3.2563554737
 11
5.715786365
 21
3.2963554737
  0
LINE
  5
6E2
100
AcDbEntity
  8
DEFAULT_2
100
AcDbLine
 62
8
  6
HIDDEN
 10
5.7163015683
 20
3.2963554737
 11
5.7163015683
 21
3.2563554737
  0
LINE
  5
6E3
100
AcDbEntity
  8
DEFAULT_2
100
AcDbLine
 62
8
  6
HIDDEN
 10
5.7165894457
 20
3.9813554737
 11
5.7165894457
 21
3.9313554737
  0
LINE
  5
6E4
100
AcDbEntity
  8
DEFAULT_2
100
AcDbLine
 62
8
  6
HIDDEN
 10
5.7172778254
 20
3.9313554737
 11
5.7172778254
 21
3.9813554737
  0
LINE
  5
6E5
100
AcDbEntity
  8
DEFAULT_2
100
AcDbLine
 62
8
  6
HIDDEN
 10
5.7180602457
 20
3.9813554737
 11
5.7180602457
 21
3.9313554737
  0
LINE
  5
6E6
100
AcDbEntity
  8
DEFAULT_2
100
AcDbLine
 62
8
  6
HIDDEN
 10
5.7188924353
 20
3.9313554737
 11
5.7188924353
 21
3.9813554737
  0
LINE
  5
6E7
100
AcDbEntity
  8
0
100
AcDbLine
 62
7
  6
CONTINUOUS
 10
5.7192859803
 20
3.9813554737
 11
5.7192859803
 21
3.9313554737
  0
LINE
  5
6E8
100
AcDbEntity
  8
0
100
AcDbLine
 62
7
  6
CONTINUOUS
 10
5.719508321
 20
3.2563554737
 11
5.719508321
 21
3.2963554737
  0
LINE
  5
6E9
100
AcDbEntity
  8
DEFAULT_2
100
AcDbLine
 62
8
  6
HIDDEN
 10
5.7201855223
 20
3.9313554737
 11
5.7201855223
 21
3.9813554737
  0
LINE
  5
6EA
100
AcDbEntity
  8
0
100
AcDbLine
 62
7
  6
CONTINUOUS
 10
5.7205862503
 20
3.9813554737
 11
5.7205862503
 21
3.9313554737
  0
LINE
  5
6EB
100
AcDbEntity
  8
DEFAULT_2
100
AcDbLine
 62
8
  6
HIDDEN
 10
5.7211561542
 20
3.9313554737
 11
5.7211561542
 21
3.9813554737
  0
LINE
  5
6EC
100
AcDbEntity
  8
DEFAULT_2
100
AcDbLine
 62
8
  6
HIDDEN
 10
5.7216607082
 20
3.9813554737
 11
5.7216607082
 21
3.9313554737
  0
LINE
  5
6ED
100
AcDbEntity
  8
DEFAULT_2
100
AcDbLine
 62
8
  6
HIDDEN
 10
5.7218036311
 20
3.9313554737
 11
5.7218036311
 21
3.9813554737
  0
LINE
  5
6EE
100
AcDbEntity
  8
DEFAULT_2
100
AcDbLine
 62
8
  6
HIDDEN
 10
5.7221274863
 20
3.9313554737
 11
5.7221274863
 21
3.9813554737
  0
LINE
  5
6EF
100
AcDbEntity
  8
DEFAULT_2
100
AcDbLine
 62
8
  6
HIDDEN
 10
5.7227895108
 20
3.9813554737
 11
5.7227895108
 21
3.9313554737
  0
LINE
  5
6F0
100
AcDbEntity
  8
0
100
AcDbLine
 62
7
  6
CONTINUOUS
 10
5.7237119175
 20
3.9813554737
 11
5.7237119175
 21
3.9313554737
  0
LINE
  5
6F1
100
AcDbEntity
  8
0
100
AcDbLine
 62
7
  6
CONTINUOUS
 10
5.7237737659
 20
3.2563554737
 11
5.7237737659
 21
3.2963554737
  0
LINE
  5
6F2
100
AcDbEntity
  8
0
100
AcDbLine
 62
7
  6
CONTINUOUS
 10
5.7240512043
 20
3.2963554737
 11
5.7240512043
 21
3.2563554737
  0
LINE
  5
6F3
100
AcDbEntity
  8
0
100
AcDbLine
 62
7
  6
CONTINUOUS
 10
5.7246684389
 20
3.9813554737
 11
5.7246684389
 21
3.9313554737
  0
LINE
  5
6F4
100
AcDbEntity
  8
DEFAULT_2
100
AcDbLine
 62
8
  6
HIDDEN
 10
5.7254381293
 20
3.9813554737
 11
5.7254381293
 21
3.9313554737
  0
LINE
  5
6F5
100
AcDbEntity
  8
DEFAULT_2
100
AcDbLine
 62
8
  6
HIDDEN
 10
5.7262216798
 20
3.9813554737
 11
5.7262216798
 21
3.9313554737
  0
LINE
  5
6F6
100
AcDbEntity
  8
0
100
AcDbLine
 62
7
  6
CONTINUOUS
 10
5.7268380991
 20
3.9813554737
 11
5.7268380991
 21
3.9313554737
  0
LINE
  5
6F7
100
AcDbEntity
  8
DEFAULT_2
100
AcDbLine
 62
8
  6
HIDDEN
 10
5.7274046034
 20
3.2563554737
 11
5.7274046034
 21
3.2963554737
  0
LINE
  5
6F8
100
AcDbEntity
  8
0
100
AcDbLine
 62
7
  6
CONTINUOUS
 10
5.7274481139
 20
3.9813554737
 11
5.7274481139
 21
3.9313554737
  0
LINE
  5
6F9
100
AcDbEntity
  8
DEFAULT_2
100
AcDbLine
 62
8
  6
HIDDEN
 10
5.7279108176
 20
3.9813554737
 11
5.7279108176
 21
3.9313554737
  0
LINE
  5
6FA
100
AcDbEntity
  8
DEFAULT_2
100
AcDbLine
 62
8
  6
HIDDEN
 10
5.7283468568
 20
3.9813554737
 11
5.7283468568
 21
3.9313554737
  0
LINE
  5
6FB
100
AcDbEntity
  8
0
100
AcDbLine
 62
7
  6
CONTINUOUS
 10
5.7286555115
 20
3.9813554737
 11
5.7286555115
 21
3.9313554737
  0
LINE
  5
6FC
100
AcDbEntity
  8
0
100
AcDbLine
 62
7
  6
CONTINUOUS
 10
5.7289172608
 20
3.9813554737
 11
5.7289172608
 21
3.9313554737
  0
LINE
  5
6FD
100
AcDbEntity
  8
DEFAULT_2
100
AcDbLine
 62
8
  6
HIDDEN
 10
5.7290716438
 20
3.9813554737
 11
5.7290716438
 21
3.9313554737
  0
LINE
  5
6FE
100
AcDbEntity
  8
0
100
AcDbLine
 62
7
  6
CONTINUOUS
 10
5.7291589145
 20
3.9813554737
 11
5.7291589145
 21
3.9313554737
  0
LINE
  5
6FF
100
AcDbEntity
  8
DEFAULT_2
100
AcDbLine
 62
8
  6
HIDDEN
 10
5.7315634065
 20
3.2563554737
 11
5.7315634065
 21
3.2963554737
  0
LINE
  5
700
100
AcDbEntity
  8
DEFAULT_2
100
AcDbLine
 62
8
  6
HIDDEN
 10
5.7316029583
 20
3.2963554737
 11
5.7316029583
 21
3.2563554737
  0
LINE
  5
701
100
AcDbEntity
  8
0
100
AcDbLine
 62
7
  6
CONTINUOUS
 10
5.7351015329
 20
3.2563554737
 11
5.7351015329
 21
3.2963554737
  0
LINE
  5
702
100
AcDbEntity
  8
DEFAULT_2
100
AcDbLine
 62
8
  6
HIDDEN
 10
5.738953518
 20
3.2963554737
 11
5.738953518
 21
3.2563554737
  0
LINE
  5
703
100
AcDbEntity
  8
0
100
AcDbLine
 62
7
  6
CONTINUOUS
 10
5.73915187
 20
3.2563554737
 11
5.73915187
 21
3.2963554737
  0
LINE
  5
704
100
AcDbEntity
  8
DEFAULT_2
100
AcDbLine
 62
8
  6
HIDDEN
 10
5.7425957334
 20
3.2563554737
 11
5.7425957334
 21
3.2963554737
  0
LINE
  5
705
100
AcDbEntity
  8
DEFAULT_2
100
AcDbLine
 62
8
  6
HIDDEN
 10
5.7460996591
 20
3.2963554737
 11
5.7460996591
 21
3.2563554737
  0
LINE
  5
706
100
AcDbEntity
  8
DEFAULT_2
100
AcDbLine
 62
8
  6
HIDDEN
 10
5.746535828
 20
3.2563554737
 11
5.746535828
 21
3.2963554737
  0
LINE
  5
707
100
AcDbEntity
  8
0
100
AcDbLine
 62
7
  6
CONTINUOUS
 10
5.7498839178
 20
3.2563554737
 11
5.7498839178
 21
3.2963554737
  0
LINE
  5
708
100
AcDbEntity
  8
DEFAULT_2
100
AcDbLine
 62
8
  6
HIDDEN
 10
5.753038247
 20
3.2963554737
 11
5.753038247
 21
3.2563554737
  0
LINE
  5
709
100
AcDbEntity
  8
0
100
AcDbLine
 62
7
  6
CONTINUOUS
 10
5.7537120415
 20
3.2563554737
 11
5.7537120415
 21
3.2963554737
  0
LINE
  5
70A
100
AcDbEntity
  8
DEFAULT_2
100
AcDbLine
 62
8
  6
HIDDEN
 10
5.7569628891
 20
3.2563554737
 11
5.7569628891
 21
3.2963554737
  0
LINE
  5
70B
100
AcDbEntity
  8
DEFAULT_2
100
AcDbLine
 62
8
  6
HIDDEN
 10
5.7597662383
 20
3.2963554737
 11
5.7597662383
 21
3.2563554737
  0
LINE
  5
70C
100
AcDbEntity
  8
DEFAULT_2
100
AcDbLine
 62
8
  6
HIDDEN
 10
5.7606773629
 20
3.2563554737
 11
5.7606773629
 21
3.2963554737
  0
LINE
  5
70D
100
AcDbEntity
  8
0
100
AcDbLine
 62
7
  6
CONTINUOUS
 10
5.7638295423
 20
3.2563554737
 11
5.7638295423
 21
3.2963554737
  0
LINE
  5
70E
100
AcDbEntity
  8
DEFAULT_2
100
AcDbLine
 62
8
  6
HIDDEN
 10
5.7662806819
 20
3.2963554737
 11
5.7662806819
 21
3.2563554737
  0
LINE
  5
70F
100
AcDbEntity
  8
0
100
AcDbLine
 62
7
  6
CONTINUOUS
 10
5.7674287368
 20
3.2563554737
 11
5.7674287368
 21
3.2963554737
  0
LINE
  5
710
100
AcDbEntity
  8
DEFAULT_2
100
AcDbLine
 62
8
  6
HIDDEN
 10
5.7704808655
 20
3.2563554737
 11
5.7704808655
 21
3.2963554737
  0
LINE
  5
711
100
AcDbEntity
  8
DEFAULT_2
100
AcDbLine
 62
8
  6
HIDDEN
 10
5.7725787203
 20
3.2963554737
 11
5.7725787203
 21
3.2563554737
  0
LINE
  5
712
100
AcDbEntity
  8
DEFAULT_2
100
AcDbLine
 62
8
  6
HIDDEN
 10
5.773963202
 20
3.2563554737
 11
5.773963202
 21
3.2963554737
  0
LINE
  5
713
100
AcDbEntity
  8
0
100
AcDbLine
 62
7
  6
CONTINUOUS
 10
5.7769139412
 20
3.2563554737
 11
5.7769139412
 21
3.2963554737
  0
LINE
  5
714
100
AcDbEntity
  8
DEFAULT_2
100
AcDbLine
 62
8
  6
HIDDEN
 10
5.778657591
 20
3.2963554737
 11
5.778657591
 21
3.2563554737
  0
LINE
  5
715
100
AcDbEntity
  8
0
100
AcDbLine
 62
7
  6
CONTINUOUS
 10
5.7802778922
 20
3.2563554737
 11
5.7802778922
 21
3.2963554737
  0
LINE
  5
716
100
AcDbEntity
  8
DEFAULT_2
100
AcDbLine
 62
8
  6
HIDDEN
 10
5.7831259475
 20
3.2563554737
 11
5.7831259475
 21
3.2963554737
  0
LINE
  5
717
100
AcDbEntity
  8
DEFAULT_2
100
AcDbLine
 62
8
  6
HIDDEN
 10
5.7845146276
 20
3.2963554737
 11
5.7845146276
 21
3.2563554737
  0
LINE
  5
718
100
AcDbEntity
  8
DEFAULT_2
100
AcDbLine
 62
8
  6
HIDDEN
 10
5.7863700376
 20
3.2563554737
 11
5.7863700376
 21
3.2963554737
  0
LINE
  5
719
100
AcDbEntity
  8
0
100
AcDbLine
 62
7
  6
CONTINUOUS
 10
5.7891141598
 20
3.2563554737
 11
5.7891141598
 21
3.2963554737
  0
LINE
  5
71A
100
AcDbEntity
  8
DEFAULT_2
100
AcDbLine
 62
8
  6
HIDDEN
 10
5.7901472609
 20
3.2963554737
 11
5.7901472609
 21
3.2563554737
  0
LINE
  5
71B
100
AcDbEntity
  8
0
100
AcDbLine
 62
7
  6
CONTINUOUS
 10
5.7922369659
 20
3.2563554737
 11
5.7922369659
 21
3.2963554737
  0
LINE
  5
71C
100
AcDbEntity
  8
DEFAULT_2
100
AcDbLine
 62
8
  6
HIDDEN
 10
5.7948759514
 20
3.2563554737
 11
5.7948759514
 21
3.2963554737
  0
LINE
  5
71D
100
AcDbEntity
  8
DEFAULT_2
100
AcDbLine
 62
8
  6
HIDDEN
 10
5.7955530205
 20
3.2963554737
 11
5.7955530205
 21
3.2563554737
  0
LINE
  5
71E
100
AcDbEntity
  8
DEFAULT_2
100
AcDbLine
 62
8
  6
HIDDEN
 10
5.7978761038
 20
3.2563554737
 11
5.7978761038
 21
3.2963554737
  0
LINE
  5
71F
100
AcDbEntity
  8
0
100
AcDbLine
 62
7
  6
CONTINUOUS
 10
5.8004087949
 20
3.2563554737
 11
5.8004087949
 21
3.2963554737
  0
LINE
  5
720
100
AcDbEntity
  8
DEFAULT_2
100
AcDbLine
 62
8
  6
HIDDEN
 10
5.800729535
 20
3.2963554737
 11
5.800729535
 21
3.2563554737
  0
LINE
  5
721
100
AcDbEntity
  8
0
100
AcDbLine
 62
7
  6
CONTINUOUS
 10
5.8032849777
 20
3.2563554737
 11
5.8032849777
 21
3.2963554737
  0
LINE
  5
722
100
AcDbEntity
  8
DEFAULT_2
100
AcDbLine
 62
8
  6
HIDDEN
 10
5.8056745339
 20
3.2963554737
 11
5.8056745339
 21
3.2563554737
  0
LINE
  5
723
100
AcDbEntity
  8
DEFAULT_2
100
AcDbLine
 62
8
  6
HIDDEN
 10
5.8057102636
 20
3.2563554737
 11
5.8057102636
 21
3.2963554737
  0
LINE
  5
724
100
AcDbEntity
  8
DEFAULT_2
100
AcDbLine
 62
8
  6
HIDDEN
 10
5.808461215
 20
3.2563554737
 11
5.808461215
 21
3.2963554737
  0
LINE
  5
725
100
AcDbEntity
  8
DEFAULT_2
100
AcDbLine
 62
8
  6
HIDDEN
 10
5.8103858481
 20
3.2963554737
 11
5.8103858481
 21
3.2563554737
  0
LINE
  5
726
100
AcDbEntity
  8
0
100
AcDbLine
 62
7
  6
CONTINUOUS
 10
5.8107780319
 20
3.2563554737
 11
5.8107780319
 21
3.2963554737
  0
LINE
  5
727
100
AcDbEntity
  8
0
100
AcDbLine
 62
7
  6
CONTINUOUS
 10
5.8134025454
 20
3.2563554737
 11
5.8134025454
 21
3.2963554737
  0
LINE
  5
728
100
AcDbEntity
  8
DEFAULT_2
100
AcDbLine
 62
8
  6
HIDDEN
 10
5.8148614112
 20
3.2963554737
 11
5.8148614112
 21
3.2563554737
  0
LINE
  5
729
100
AcDbEntity
  8
DEFAULT_2
100
AcDbLine
 62
8
  6
HIDDEN
 10
5.8156098771
 20
3.2563554737
 11
5.8156098771
 21
3.2963554737
  0
LINE
  5
72A
100
AcDbEntity
  8
DEFAULT_2
100
AcDbLine
 62
8
  6
HIDDEN
 10
5.8181068014
 20
3.2563554737
 11
5.8181068014
 21
3.2963554737
  0
LINE
  5
72B
100
AcDbEntity
  8
DEFAULT_2
100
AcDbLine
 62
8
  6
HIDDEN
 10
5.81909926
 20
3.2963554737
 11
5.81909926
 21
3.2563554737
  0
LINE
  5
72C
100
AcDbEntity
  8
0
100
AcDbLine
 62
7
  6
CONTINUOUS
 10
5.8202036796
 20
3.2563554737
 11
5.8202036796
 21
3.2963554737
  0
LINE
  5
72D
100
AcDbEntity
  8
0
100
AcDbLine
 62
7
  6
CONTINUOUS
 10
5.8225719196
 20
3.2563554737
 11
5.8225719196
 21
3.2963554737
  0
LINE
  5
72E
100
AcDbEntity
  8
DEFAULT_2
100
AcDbLine
 62
8
  6
HIDDEN
 10
5.8230975357
 20
3.2963554737
 11
5.8230975357
 21
3.2563554737
  0
LINE
  5
72F
100
AcDbEntity
  8
DEFAULT_2
100
AcDbLine
 62
8
  6
HIDDEN
 10
5.8245574245
 20
3.2563554737
 11
5.8245574245
 21
3.2963554737
  0
LINE
  5
730
100
AcDbEntity
  8
DEFAULT_2
100
AcDbLine
 62
8
  6
HIDDEN
 10
5.8267959414
 20
3.2563554737
 11
5.8267959414
 21
3.2963554737
  0
LINE
  5
731
100
AcDbEntity
  8
DEFAULT_2
100
AcDbLine
 62
8
  6
HIDDEN
 10
5.8268544844
 20
3.2963554737
 11
5.8268544844
 21
3.2563554737
  0
LINE
  5
732
100
AcDbEntity
  8
0
100
AcDbLine
 62
7
  6
CONTINUOUS
 10
5.8286692022
 20
3.2563554737
 11
5.8286692022
 21
3.2963554737
  0
LINE
  5
733
100
AcDbEntity
  8
DEFAULT_2
100
AcDbLine
 62
8
  6
HIDDEN
 10
2.9204179737
 20
4.3593554737
 11
2.9029179737
 21
4.3593554737
  0
LINE
  5
734
100
AcDbEntity
  8
DEFAULT_2
100
AcDbLine
 62
8
  6
HIDDEN
 10
7.6254179737
 20
4.3593554737
 11
7.6429179737
 21
4.3593554737
  0
LINE
  5
735
100
AcDbEntity
  8
0
100
AcDbLine
 62
7
  6
CONTINUOUS
 10
3.0979179737
 20
4.3643554737
 11
2.9204179737
 21
4.3643554737
  0
LINE
  5
736
100
AcDbEntity
  8
DEFAULT_2
100
AcDbLine
 62
8
  6
HIDDEN
 10
2.9204179737
 20
4.3643554737
 11
2.9029179737
 21
4.3643554737
  0
LINE
  5
737
100
AcDbEntity
  8
0
100
AcDbLine
 62
7
  6
CONTINUOUS
 10
7.4479179737
 20
4.3643554737
 11
7.6254179737
 21
4.3643554737
  0
LINE
  5
738
100
AcDbEntity
  8
DEFAULT_2
100
AcDbLine
 62
8
  6
HIDDEN
 10
7.6254179737
 20
4.3643554737
 11
7.6429179737
 21
4.3643554737
  0
LINE
  5
739
100
AcDbEntity
  8
0
100
AcDbLine
 62
7
  6
CONTINUOUS
 10
5.5075429737
 20
4.4003554737
 11
5.0382929737
 21
4.4003554737
  0
LINE
  5
73A
100
AcDbEntity
  8
0
100
AcDbLine
 62
7
  6
CONTINUOUS
 10
5.5075429737
 20
4.4318554737
 11
5.0382929737
 21
4.4318554737
  0
LINE
  5
73B
100
AcDbEntity
  8
0
100
AcDbLine
 62
7
  6
CONTINUOUS
 10
5.5075429737
 20
4.4651054737
 11
5.0382929737
 21
4.4651054737
  0
LINE
  5
73C
100
AcDbEntity
  8
0
100
AcDbLine
 62
7
  6
CONTINUOUS
 10
3.0979179737
 20
4.5593554737
 11
2.9204179737
 21
4.5593554737
  0
LINE
  5
73D
100
AcDbEntity
  8
DEFAULT_2
100
AcDbLine
 62
8
  6
HIDDEN
 10
2.9204179737
 20
4.5593554737
 11
2.9029179737
 21
4.5593554737
  0
LINE
  5
73E
100
AcDbEntity
  8
0
100
AcDbLine
 62
7
  6
CONTINUOUS
 10
7.4479179737
 20
4.5593554737
 11
7.6254179737
 21
4.5593554737
  0
LINE
  5
73F
100
AcDbEntity
  8
DEFAULT_2
100
AcDbLine
 62
8
  6
HIDDEN
 10
7.6254179737
 20
4.5593554737
 11
7.6429179737
 21
4.5593554737
  0
LINE
  5
740
100
AcDbEntity
  8
DEFAULT_2
100
AcDbLine
 62
8
  6
HIDDEN
 10
2.9204179737
 20
4.5643554737
 11
2.9029179737
 21
4.5643554737
  0
LINE
  5
741
100
AcDbEntity
  8
DEFAULT_2
100
AcDbLine
 62
8
  6
HIDDEN
 10
7.6254179737
 20
4.5643554737
 11
7.6429179737
 21
4.5643554737
  0
LINE
  5
742
100
AcDbEntity
  8
DEFAULT_2
100
AcDbLine
 62
8
  6
HIDDEN
 10
5.8303684582
 20
3.2963554737
 11
5.8303684582
 21
3.2563554737
  0
LINE
  5
743
100
AcDbEntity
  8
0
100
AcDbLine
 62
7
  6
CONTINUOUS
 10
5.830777014
 20
3.2563554737
 11
5.830777014
 21
3.2963554737
  0
LINE
  5
744
100
AcDbEntity
  8
DEFAULT_2
100
AcDbLine
 62
8
  6
HIDDEN
 10
5.832537209
 20
3.2563554737
 11
5.832537209
 21
3.2963554737
  0
LINE
  5
745
100
AcDbEntity
  8
DEFAULT_2
100
AcDbLine
 62
8
  6
HIDDEN
 10
5.8336379158
 20
3.2963554737
 11
5.8336379158
 21
3.2563554737
  0
LINE
  5
746
100
AcDbEntity
  8
DEFAULT_2
100
AcDbLine
 62
8
  6
HIDDEN
 10
5.8345133912
 20
3.2563554737
 11
5.8345133912
 21
3.2963554737
  0
LINE
  5
747
100
AcDbEntity
  8
0
100
AcDbLine
 62
7
  6
CONTINUOUS
 10
5.8354179737
 20
3.2563554737
 11
5.8354179737
 21
3.1613554737
  0
LINE
  5
748
100
AcDbEntity
  8
0
100
AcDbLine
 62
7
  6
CONTINUOUS
 10
5.8361597483
 20
3.2563554737
 11
5.8361597483
 21
3.2963554737
  0
LINE
  5
749
100
AcDbEntity
  8
DEFAULT_2
100
AcDbLine
 62
8
  6
HIDDEN
 10
5.8366614231
 20
3.2963554737
 11
5.8366614231
 21
3.2563554737
  0
LINE
  5
74A
100
AcDbEntity
  8
0
100
AcDbLine
 62
7
  6
CONTINUOUS
 10
5.8380034341
 20
3.2563554737
 11
5.8380034341
 21
3.2963554737
  0
LINE
  5
74B
100
AcDbEntity
  8
DEFAULT_2
100
AcDbLine
 62
8
  6
HIDDEN
 10
5.839437654
 20
3.2963554737
 11
5.839437654
 21
3.2563554737
  0
LINE
  5
74C
100
AcDbEntity
  8
DEFAULT_2
100
AcDbLine
 62
8
  6
HIDDEN
 10
5.8395352311
 20
3.2563554737
 11
5.8395352311
 21
3.2963554737
  0
LINE
  5
74D
100
AcDbEntity
  8
DEFAULT_2
100
AcDbLine
 62
8
  6
HIDDEN
 10
5.8412456118
 20
3.2563554737
 11
5.8412456118
 21
3.2963554737
  0
LINE
  5
74E
100
AcDbEntity
  8
DEFAULT_2
100
AcDbLine
 62
8
  6
HIDDEN
 10
5.8419653905
 20
3.2963554737
 11
5.8419653905
 21
3.2563554737
  0
LINE
  5
74F
100
AcDbEntity
  8
0
100
AcDbLine
 62
7
  6
CONTINUOUS
 10
5.8426621769
 20
3.2563554737
 11
5.8426621769
 21
3.2963554737
  0
LINE
  5
750
100
AcDbEntity
  8
0
100
AcDbLine
 62
7
  6
CONTINUOUS
 10
5.8442385022
 20
3.2563554737
 11
5.8442385022
 21
3.2963554737
  0
LINE
  5
751
100
AcDbEntity
  8
DEFAULT_2
100
AcDbLine
 62
8
  6
HIDDEN
 10
5.845539214
 20
3.2563554737
 11
5.845539214
 21
3.2963554737
  0
LINE
  5
752
100
AcDbEntity
  8
DEFAULT_2
100
AcDbLine
 62
8
  6
HIDDEN
 10
5.8462710554
 20
3.2963554737
 11
5.8462710554
 21
3.2563554737
  0
LINE
  5
753
100
AcDbEntity
  8
DEFAULT_2
100
AcDbLine
 62
8
  6
HIDDEN
 10
5.8469807926
 20
3.2563554737
 11
5.8469807926
 21
3.2963554737
  0
LINE
  5
754
100
AcDbEntity
  8
DEFAULT_2
100
AcDbLine
 62
8
  6
HIDDEN
 10
5.848047095
 20
3.2963554737
 11
5.848047095
 21
3.2563554737
  0
LINE
  5
755
100
AcDbEntity
  8
0
100
AcDbLine
 62
7
  6
CONTINUOUS
 10
5.8481650806
 20
3.2563554737
 11
5.8481650806
 21
3.2963554737
  0
LINE
  5
756
100
AcDbEntity
  8
0
100
AcDbLine
 62
7
  6
CONTINUOUS
 10
5.84947128
 20
3.2563554737
 11
5.84947128
 21
3.2963554737
  0
LINE
  5
757
100
AcDbEntity
  8
DEFAULT_2
100
AcDbLine
 62
8
  6
HIDDEN
 10
5.8495708641
 20
3.2963554737
 11
5.8495708641
 21
3.2563554737
  0
LINE
  5
758
100
AcDbEntity
  8
DEFAULT_2
100
AcDbLine
 62
8
  6
HIDDEN
 10
5.8505386247
 20
3.2563554737
 11
5.8505386247
 21
3.2963554737
  0
LINE
  5
759
100
AcDbEntity
  8
DEFAULT_2
100
AcDbLine
 62
8
  6
HIDDEN
 10
5.8508416941
 20
3.2963554737
 11
5.8508416941
 21
3.2563554737
  0
LINE
  5
75A
100
AcDbEntity
  8
DEFAULT_2
100
AcDbLine
 62
8
  6
HIDDEN
 10
5.8517088721
 20
3.2563554737
 11
5.8517088721
 21
3.2963554737
  0
LINE
  5
75B
100
AcDbEntity
  8
DEFAULT_2
100
AcDbLine
 62
8
  6
HIDDEN
 10
5.8518590277
 20
3.2963554737
 11
5.8518590277
 21
3.2563554737
  0
LINE
  5
75C
100
AcDbEntity
  8
DEFAULT_2
100
AcDbLine
 62
8
  6
HIDDEN
 10
5.8526224186
 20
3.2963554737
 11
5.8526224186
 21
3.2563554737
  0
LINE
  5
75D
100
AcDbEntity
  8
0
100
AcDbLine
 62
7
  6
CONTINUOUS
 10
5.8526588053
 20
3.2563554737
 11
5.8526588053
 21
3.2963554737
  0
LINE
  5
75E
100
AcDbEntity
  8
DEFAULT_2
100
AcDbLine
 62
8
  6
HIDDEN
 10
5.8531315319
 20
3.2963554737
 11
5.8531315319
 21
3.2563554737
  0
LINE
  5
75F
100
AcDbEntity
  8
DEFAULT_2
100
AcDbLine
 62
8
  6
HIDDEN
 10
5.8533861445
 20
3.2963554737
 11
5.8533861445
 21
3.2563554737
  0
LINE
  5
760
100
AcDbEntity
  8
0
100
AcDbLine
 62
7
  6
CONTINUOUS
 10
5.8536925874
 20
3.2563554737
 11
5.8536925874
 21
3.2963554737
  0
LINE
  5
761
100
AcDbEntity
  8
DEFAULT_2
100
AcDbLine
 62
8
  6
HIDDEN
 10
5.8545246925
 20
3.2563554737
 11
5.8545246925
 21
3.2963554737
  0
LINE
  5
762
100
AcDbEntity
  8
DEFAULT_2
100
AcDbLine
 62
8
  6
HIDDEN
 10
5.8554215558
 20
3.2563554737
 11
5.8554215558
 21
3.2963554737
  0
LINE
  5
763
100
AcDbEntity
  8
0
100
AcDbLine
 62
7
  6
CONTINUOUS
 10
5.8561354677
 20
3.2563554737
 11
5.8561354677
 21
3.2963554737
  0
LINE
  5
764
100
AcDbEntity
  8
0
100
AcDbLine
 62
7
  6
CONTINUOUS
 10
5.8568950188
 20
3.2563554737
 11
5.8568950188
 21
3.2963554737
  0
LINE
  5
765
100
AcDbEntity
  8
DEFAULT_2
100
AcDbLine
 62
8
  6
HIDDEN
 10
5.8574904245
 20
3.2563554737
 11
5.8574904245
 21
3.2963554737
  0
LINE
  5
766
100
AcDbEntity
  8
DEFAULT_2
100
AcDbLine
 62
8
  6
HIDDEN
 10
5.8581123302
 20
3.2563554737
 11
5.8581123302
 21
3.2963554737
  0
LINE
  5
767
100
AcDbEntity
  8
0
100
AcDbLine
 62
7
  6
CONTINUOUS
 10
5.8585889684
 20
3.2563554737
 11
5.8585889684
 21
3.2963554737
  0
LINE
  5
768
100
AcDbEntity
  8
0
100
AcDbLine
 62
7
  6
CONTINUOUS
 10
5.859072956
 20
3.2563554737
 11
5.859072956
 21
3.2963554737
  0
LINE
  5
769
100
AcDbEntity
  8
DEFAULT_2
100
AcDbLine
 62
8
  6
HIDDEN
 10
5.8594306177
 20
3.2563554737
 11
5.8594306177
 21
3.2963554737
  0
LINE
  5
76A
100
AcDbEntity
  8
DEFAULT_2
100
AcDbLine
 62
8
  6
HIDDEN
 10
5.8597764748
 20
3.2563554737
 11
5.8597764748
 21
3.2963554737
  0
LINE
  5
76B
100
AcDbEntity
  8
0
100
AcDbLine
 62
7
  6
CONTINUOUS
 10
5.8600150032
 20
3.2563554737
 11
5.8600150032
 21
3.2963554737
  0
LINE
  5
76C
100
AcDbEntity
  8
0
100
AcDbLine
 62
7
  6
CONTINUOUS
 10
5.8602225782
 20
3.2563554737
 11
5.8602225782
 21
3.2963554737
  0
LINE
  5
76D
100
AcDbEntity
  8
DEFAULT_2
100
AcDbLine
 62
8
  6
HIDDEN
 10
5.8603418685
 20
3.2563554737
 11
5.8603418685
 21
3.2963554737
  0
LINE
  5
76E
100
AcDbEntity
  8
0
100
AcDbLine
 62
7
  6
CONTINUOUS
 10
5.8604110703
 20
3.2563554737
 11
5.8604110703
 21
3.2963554737
  0
LINE
  5
76F
100
AcDbEntity
  8
0
100
AcDbLine
 62
7
  6
CONTINUOUS
 10
5.8604179737
 20
3.1363554737
 11
5.8604179737
 21
3.0963554737
  0
LINE
  5
770
100
AcDbEntity
  8
0
100
AcDbLine
 62
7
  6
CONTINUOUS
 10
9.0154179737
 20
4.6118554737
 11
7.7254179737
 21
4.6118554737
  0
LINE
  5
771
100
AcDbEntity
  8
0
100
AcDbLine
 62
7
  6
CONTINUOUS
 10
1.5304179737
 20
4.6118554737
 11
2.8204179737
 21
4.6118554737
  0
LINE
  5
772
100
AcDbEntity
  8
0
100
AcDbLine
 62
7
  6
CONTINUOUS
 10
7.7229179737
 20
3.1613554737
 11
7.7479179737
 21
3.1363554737
  0
LINE
  5
773
100
AcDbEntity
  8
0
100
AcDbLine
 62
7
  6
CONTINUOUS
 10
6.7979179737
 20
3.1363554737
 11
6.7979179737
 21
3.0963554737
  0
LINE
  5
774
100
AcDbEntity
  8
0
100
AcDbLine
 62
7
  6
CONTINUOUS
 10
6.7980032445
 20
3.2113554737
 11
6.7980032445
 21
3.2513554737
  0
LINE
  5
775
100
AcDbEntity
  8
0
100
AcDbLine
 62
7
  6
CONTINUOUS
 10
6.798183075
 20
3.2113554737
 11
6.798183075
 21
3.2513554737
  0
LINE
  5
776
100
AcDbEntity
  8
0
100
AcDbLine
 62
7
  6
CONTINUOUS
 10
6.7991251222
 20
3.2113554737
 11
6.7991251222
 21
3.2513554737
  0
LINE
  5
777
100
AcDbEntity
  8
0
100
AcDbLine
 62
7
  6
CONTINUOUS
 10
6.7996641209
 20
3.2113554737
 11
6.7996641209
 21
3.2513554737
  0
LINE
  5
778
100
AcDbEntity
  8
0
100
AcDbLine
 62
7
  6
CONTINUOUS
 10
6.8015456332
 20
3.2113554737
 11
6.8015456332
 21
3.2513554737
  0
LINE
  5
779
100
AcDbEntity
  8
0
100
AcDbLine
 62
7
  6
CONTINUOUS
 10
6.8024423227
 20
3.2113554737
 11
6.8024423227
 21
3.2513554737
  0
LINE
  5
77A
100
AcDbEntity
  8
DEFAULT_2
100
AcDbLine
 62
8
  6
HIDDEN
 10
6.8049179737
 20
3.2513554737
 11
6.8049179737
 21
3.2113554737
  0
LINE
  5
77B
100
AcDbEntity
  8
0
100
AcDbLine
 62
7
  6
CONTINUOUS
 10
6.805258143
 20
3.2113554737
 11
6.805258143
 21
3.2513554737
  0
LINE
  5
77C
100
AcDbEntity
  8
DEFAULT_2
100
AcDbLine
 62
8
  6
HIDDEN
 10
6.8055593514
 20
3.2513554737
 11
6.8055593514
 21
3.2113554737
  0
LINE
  5
77D
100
AcDbEntity
  8
0
100
AcDbLine
 62
7
  6
CONTINUOUS
 10
6.8065100655
 20
3.2113554737
 11
6.8065100655
 21
3.2513554737
  0
LINE
  5
77E
100
AcDbEntity
  8
DEFAULT_2
100
AcDbLine
 62
8
  6
HIDDEN
 10
6.8074817266
 20
3.2513554737
 11
6.8074817266
 21
3.2113554737
  0
LINE
  5
77F
100
AcDbEntity
  8
0
100
AcDbLine
 62
7
  6
CONTINUOUS
 10
6.810252476
 20
3.2113554737
 11
6.810252476
 21
3.2513554737
  0
LINE
  5
780
100
AcDbEntity
  8
DEFAULT_2
100
AcDbLine
 62
8
  6
HIDDEN
 10
6.8106798303
 20
3.2513554737
 11
6.8106798303
 21
3.2113554737
  0
LINE
  5
781
100
AcDbEntity
  8
0
100
AcDbLine
 62
7
  6
CONTINUOUS
 10
6.8118562
 20
3.2113554737
 11
6.8118562
 21
3.2513554737
  0
LINE
  5
782
100
AcDbEntity
  8
DEFAULT_2
100
AcDbLine
 62
8
  6
HIDDEN
 10
6.8151448965
 20
3.2513554737
 11
6.8151448965
 21
3.2113554737
  0
LINE
  5
783
100
AcDbEntity
  8
0
100
AcDbLine
 62
7
  6
CONTINUOUS
 10
6.8165149428
 20
3.2113554737
 11
6.8165149428
 21
3.2513554737
  0
LINE
  5
784
100
AcDbEntity
  8
0
100
AcDbLine
 62
7
  6
CONTINUOUS
 10
6.8184660728
 20
3.2113554737
 11
6.8184660728
 21
3.2513554737
  0
LINE
  5
785
100
AcDbEntity
  8
DEFAULT_2
100
AcDbLine
 62
8
  6
HIDDEN
 10
6.8208646869
 20
3.2513554737
 11
6.8208646869
 21
3.2113554737
  0
LINE
  5
786
100
AcDbEntity
  8
0
100
AcDbLine
 62
7
  6
CONTINUOUS
 10
6.8229179737
 20
3.2113554737
 11
6.8229179737
 21
3.1613554737
  0
LINE
  5
787
100
AcDbEntity
  8
0
100
AcDbLine
 62
7
  6
CONTINUOUS
 10
6.8240283787
 20
3.2113554737
 11
6.8240283787
 21
3.2513554737
  0
LINE
  5
788
100
AcDbEntity
  8
0
100
AcDbLine
 62
7
  6
CONTINUOUS
 10
6.8263215667
 20
3.2113554737
 11
6.8263215667
 21
3.2513554737
  0
LINE
  5
789
100
AcDbEntity
  8
DEFAULT_2
100
AcDbLine
 62
8
  6
HIDDEN
 10
6.827823524
 20
3.2513554737
 11
6.827823524
 21
3.2113554737
  0
LINE
  5
78A
100
AcDbEntity
  8
0
100
AcDbLine
 62
7
  6
CONTINUOUS
 10
6.8327721898
 20
3.2113554737
 11
6.8327721898
 21
3.2513554737
  0
LINE
  5
78B
100
AcDbEntity
  8
0
100
AcDbLine
 62
7
  6
CONTINUOUS
 10
6.8354011502
 20
3.2113554737
 11
6.8354011502
 21
3.2513554737
  0
LINE
  5
78C
100
AcDbEntity
  8
DEFAULT_2
100
AcDbLine
 62
8
  6
HIDDEN
 10
6.8360023341
 20
3.2513554737
 11
6.8360023341
 21
3.2113554737
  0
LINE
  5
78D
100
AcDbEntity
  8
0
100
AcDbLine
 62
7
  6
CONTINUOUS
 10
6.8427224098
 20
3.2113554737
 11
6.8427224098
 21
3.2513554737
  0
LINE
  5
78E
100
AcDbEntity
  8
DEFAULT_2
100
AcDbLine
 62
8
  6
HIDDEN
 10
6.8453786995
 20
3.2513554737
 11
6.8453786995
 21
3.2113554737
  0
LINE
  5
78F
100
AcDbEntity
  8
0
100
AcDbLine
 62
7
  6
CONTINUOUS
 10
6.845679937
 20
3.2113554737
 11
6.845679937
 21
3.2513554737
  0
LINE
  5
790
100
AcDbEntity
  8
0
100
AcDbLine
 62
7
  6
CONTINUOUS
 10
6.853851766
 20
3.2113554737
 11
6.853851766
 21
3.2513554737
  0
LINE
  5
791
100
AcDbEntity
  8
DEFAULT_2
100
AcDbLine
 62
8
  6
HIDDEN
 10
6.8559269203
 20
3.2513554737
 11
6.8559269203
 21
3.2113554737
  0
LINE
  5
792
100
AcDbEntity
  8
0
100
AcDbLine
 62
7
  6
CONTINUOUS
 10
6.8571297535
 20
3.2113554737
 11
6.8571297535
 21
3.2513554737
  0
LINE
  5
793
100
AcDbEntity
  8
0
100
AcDbLine
 62
7
  6
CONTINUOUS
 10
6.8661297535
 20
3.2113554737
 11
6.8661297535
 21
3.2513554737
  0
LINE
  5
794
100
AcDbEntity
  8
DEFAULT_2
100
AcDbLine
 62
8
  6
HIDDEN
 10
6.8676180847
 20
3.2513554737
 11
6.8676180847
 21
3.2113554737
  0
LINE
  5
795
100
AcDbEntity
  8
0
100
AcDbLine
 62
7
  6
CONTINUOUS
 10
6.8697192167
 20
3.2113554737
 11
6.8697192167
 21
3.2513554737
  0
LINE
  5
796
100
AcDbEntity
  8
0
100
AcDbLine
 62
7
  6
CONTINUOUS
 10
6.8795227193
 20
3.2113554737
 11
6.8795227193
 21
3.2513554737
  0
LINE
  5
797
100
AcDbEntity
  8
DEFAULT_2
100
AcDbLine
 62
8
  6
HIDDEN
 10
6.8804201479
 20
3.2513554737
 11
6.8804201479
 21
3.2113554737
  0
LINE
  5
798
100
AcDbEntity
  8
0
100
AcDbLine
 62
7
  6
CONTINUOUS
 10
6.8834138196
 20
3.2113554737
 11
6.8834138196
 21
3.2513554737
  0
LINE
  5
799
100
AcDbEntity
  8
0
100
AcDbLine
 62
7
  6
CONTINUOUS
 10
6.8939939541
 20
3.2113554737
 11
6.8939939541
 21
3.2513554737
  0
LINE
  5
79A
100
AcDbEntity
  8
DEFAULT_2
100
AcDbLine
 62
8
  6
HIDDEN
 10
6.8942980203
 20
3.2513554737
 11
6.8942980203
 21
3.2113554737
  0
LINE
  5
79B
100
AcDbEntity
  8
0
100
AcDbLine
 62
7
  6
CONTINUOUS
 10
6.8981760263
 20
3.2113554737
 11
6.8981760263
 21
3.2513554737
  0
LINE
  5
79C
100
AcDbEntity
  8
0
100
AcDbLine
 62
7
  6
CONTINUOUS
 10
6.9092136637
 20
3.2513554737
 11
6.9092136637
 21
3.2113554737
  0
LINE
  5
79D
100
AcDbEntity
  8
0
100
AcDbLine
 62
7
  6
CONTINUOUS
 10
6.9095037933
 20
3.2113554737
 11
6.9095037933
 21
3.2513554737
  0
LINE
  5
79E
100
AcDbEntity
  8
0
100
AcDbLine
 62
7
  6
CONTINUOUS
 10
6.9139653747
 20
3.2113554737
 11
6.9139653747
 21
3.2513554737
  0
LINE
  5
79F
100
AcDbEntity
  8
0
100
AcDbLine
 62
7
  6
CONTINUOUS
 10
6.9154291746
 20
3.9013554737
 11
6.9154291746
 21
3.9513554737
  0
LINE
  5
7A0
100
AcDbEntity
  8
0
100
AcDbLine
 62
7
  6
CONTINUOUS
 10
6.9155445092
 20
3.9013554737
 11
6.9155445092
 21
3.9513554737
  0
LINE
  5
7A1
100
AcDbEntity
  8
DEFAULT_2
100
AcDbLine
 62
8
  6
HIDDEN
 10
6.9157398661
 20
3.9013554737
 11
6.9157398661
 21
3.9513554737
  0
LINE
  5
7A2
100
AcDbEntity
  8
DEFAULT_2
100
AcDbLine
 62
8
  6
HIDDEN
 10
6.9160857325
 20
3.9013554737
 11
6.9160857325
 21
3.9513554737
  0
LINE
  5
7A3
100
AcDbEntity
  8
0
100
AcDbLine
 62
7
  6
CONTINUOUS
 10
6.9164762136
 20
3.9013554737
 11
6.9164762136
 21
3.9513554737
  0
LINE
  5
7A4
100
AcDbEntity
  8
0
100
AcDbLine
 62
7
  6
CONTINUOUS
 10
6.9170521996
 20
3.9013554737
 11
6.9170521996
 21
3.9513554737
  0
LINE
  5
7A5
100
AcDbEntity
  8
DEFAULT_2
100
AcDbLine
 62
8
  6
HIDDEN
 10
6.9176373394
 20
3.9013554737
 11
6.9176373394
 21
3.9513554737
  0
LINE
  5
7A6
100
AcDbEntity
  8
DEFAULT_2
100
AcDbLine
 62
8
  6
HIDDEN
 10
6.9184427586
 20
3.9013554737
 11
6.9184427586
 21
3.9513554737
  0
LINE
  5
7A7
100
AcDbEntity
  8
0
100
AcDbLine
 62
7
  6
CONTINUOUS
 10
6.9192218598
 20
3.9013554737
 11
6.9192218598
 21
3.9513554737
  0
LINE
  5
7A8
100
AcDbEntity
  8
0
100
AcDbLine
 62
7
  6
CONTINUOUS
 10
6.9202557525
 20
3.9013554737
 11
6.9202557525
 21
3.9513554737
  0
LINE
  5
7A9
100
AcDbEntity
  8
DEFAULT_2
100
AcDbLine
 62
8
  6
HIDDEN
 10
6.9212278866
 20
3.9013554737
 11
6.9212278866
 21
3.9513554737
  0
LINE
  5
7AA
100
AcDbEntity
  8
DEFAULT_2
100
AcDbLine
 62
8
  6
HIDDEN
 10
6.9224701897
 20
3.9513554737
 11
6.9224701897
 21
3.9013554737
  0
LINE
  5
7AB
100
AcDbEntity
  8
DEFAULT_2
100
AcDbLine
 62
8
  6
HIDDEN
 10
6.922887825
 20
3.9513554737
 11
6.922887825
 21
3.9013554737
  0
LINE
  5
7AC
100
AcDbEntity
  8
0
100
AcDbLine
 62
7
  6
CONTINUOUS
 10
6.9236530292
 20
3.9013554737
 11
6.9236530292
 21
3.9513554737
  0
LINE
  5
7AD
100
AcDbEntity
  8
DEFAULT_2
100
AcDbLine
 62
8
  6
HIDDEN
 10
6.9237225978
 20
3.9513554737
 11
6.9237225978
 21
3.9013554737
  0
LINE
  5
7AE
100
AcDbEntity
  8
DEFAULT_2
100
AcDbLine
 62
8
  6
HIDDEN
 10
6.9249735133
 20
3.9513554737
 11
6.9249735133
 21
3.9013554737
  0
LINE
  5
7AF
100
AcDbEntity
  8
0
100
AcDbLine
 62
7
  6
CONTINUOUS
 10
6.9251261953
 20
3.2513554737
 11
6.9251261953
 21
3.2113554737
  0
LINE
  5
7B0
100
AcDbEntity
  8
0
100
AcDbLine
 62
7
  6
CONTINUOUS
 10
6.9251399014
 20
3.9013554737
 11
6.9251399014
 21
3.9513554737
  0
LINE
  5
7B1
100
AcDbEntity
  8
0
100
AcDbLine
 62
7
  6
CONTINUOUS
 10
6.9260097256
 20
3.2113554737
 11
6.9260097256
 21
3.2513554737
  0
LINE
  5
7B2
100
AcDbEntity
  8
DEFAULT_2
100
AcDbLine
 62
8
  6
HIDDEN
 10
6.9264943973
 20
3.9013554737
 11
6.9264943973
 21
3.9513554737
  0
LINE
  5
7B3
100
AcDbEntity
  8
DEFAULT_2
100
AcDbLine
 62
8
  6
HIDDEN
 10
6.9266390808
 20
3.9513554737
 11
6.9266390808
 21
3.9013554737
  0
LINE
  5
7B4
100
AcDbEntity
  8
DEFAULT_2
100
AcDbLine
 62
8
  6
HIDDEN
 10
6.928205236
 20
3.9013554737
 11
6.928205236
 21
3.9513554737
  0
LINE
  5
7B5
100
AcDbEntity
  8
DEFAULT_2
100
AcDbLine
 62
8
  6
HIDDEN
 10
6.9287173154
 20
3.9513554737
 11
6.9287173154
 21
3.9013554737
  0
LINE
  5
7B6
100
AcDbEntity
  8
0
100
AcDbLine
 62
7
  6
CONTINUOUS
 10
6.929748605
 20
3.9013554737
 11
6.929748605
 21
3.9513554737
  0
LINE
  5
7B7
100
AcDbEntity
  8
0
100
AcDbLine
 62
7
  6
CONTINUOUS
 10
6.9307385871
 20
3.2113554737
 11
6.9307385871
 21
3.2513554737
  0
LINE
  5
7B8
100
AcDbEntity
  8
DEFAULT_2
100
AcDbLine
 62
8
  6
HIDDEN
 10
6.9312057404
 20
3.9513554737
 11
6.9312057404
 21
3.9013554737
  0
LINE
  5
7B9
100
AcDbEntity
  8
0
100
AcDbLine
 62
7
  6
CONTINUOUS
 10
6.9316813712
 20
3.9013554737
 11
6.9316813712
 21
3.9513554737
  0
LINE
  5
7BA
100
AcDbEntity
  8
DEFAULT_2
100
AcDbLine
 62
8
  6
HIDDEN
 10
6.9334117741
 20
3.9013554737
 11
6.9334117741
 21
3.9513554737
  0
LINE
  5
7BB
100
AcDbEntity
  8
DEFAULT_2
100
AcDbLine
 62
8
  6
HIDDEN
 10
6.9341013904
 20
3.9513554737
 11
6.9341013904
 21
3.9013554737
  0
LINE
  5
7BC
100
AcDbEntity
  8
DEFAULT_2
100
AcDbLine
 62
8
  6
HIDDEN
 10
6.9355641646
 20
3.9013554737
 11
6.9355641646
 21
3.9513554737
  0
LINE
  5
7BD
100
AcDbEntity
  8
DEFAULT_2
100
AcDbLine
 62
8
  6
HIDDEN
 10
6.9374008145
 20
3.9513554737
 11
6.9374008145
 21
3.9013554737
  0
LINE
  5
7BE
100
AcDbEntity
  8
0
100
AcDbLine
 62
7
  6
CONTINUOUS
 10
6.9374795392
 20
3.9013554737
 11
6.9374795392
 21
3.9513554737
  0
LINE
  5
7BF
100
AcDbEntity
  8
0
100
AcDbLine
 62
7
  6
CONTINUOUS
 10
6.9398489889
 20
3.9013554737
 11
6.9398489889
 21
3.9513554737
  0
LINE
  5
7C0
100
AcDbEntity
  8
DEFAULT_2
100
AcDbLine
 62
8
  6
HIDDEN
 10
6.9411000807
 20
3.9513554737
 11
6.9411000807
 21
3.9013554737
  0
LINE
  5
7C1
100
AcDbEntity
  8
DEFAULT_2
100
AcDbLine
 62
8
  6
HIDDEN
 10
6.9419470526
 20
3.9013554737
 11
6.9419470526
 21
3.9513554737
  0
LINE
  5
7C2
100
AcDbEntity
  8
0
100
AcDbLine
 62
7
  6
CONTINUOUS
 10
6.9419920001
 20
3.2513554737
 11
6.9419920001
 21
3.2113554737
  0
LINE
  5
7C3
100
AcDbEntity
  8
0
100
AcDbLine
 62
7
  6
CONTINUOUS
 10
6.9434665092
 20
3.2113554737
 11
6.9434665092
 21
3.2513554737
  0
LINE
  5
7C4
100
AcDbEntity
  8
DEFAULT_2
100
AcDbLine
 62
8
  6
HIDDEN
 10
6.9445307378
 20
3.9013554737
 11
6.9445307378
 21
3.9513554737
  0
LINE
  5
7C5
100
AcDbEntity
  8
DEFAULT_2
100
AcDbLine
 62
8
  6
HIDDEN
 10
6.9451947806
 20
3.9513554737
 11
6.9451947806
 21
3.9013554737
  0
LINE
  5
7C6
100
AcDbEntity
  8
0
100
AcDbLine
 62
7
  6
CONTINUOUS
 10
6.9468089903
 20
3.9013554737
 11
6.9468089903
 21
3.9513554737
  0
LINE
  5
7C7
100
AcDbEntity
  8
0
100
AcDbLine
 62
7
  6
CONTINUOUS
 10
6.9484496895
 20
3.2113554737
 11
6.9484496895
 21
3.2513554737
  0
LINE
  5
7C8
100
AcDbEntity
  8
0
100
AcDbLine
 62
7
  6
CONTINUOUS
 10
6.9496038319
 20
3.9013554737
 11
6.9496038319
 21
3.9513554737
  0
LINE
  5
7C9
100
AcDbEntity
  8
DEFAULT_2
100
AcDbLine
 62
8
  6
HIDDEN
 10
6.9496800344
 20
3.9513554737
 11
6.9496800344
 21
3.9013554737
  0
LINE
  5
7CA
100
AcDbEntity
  8
DEFAULT_2
100
AcDbLine
 62
8
  6
HIDDEN
 10
6.9520595582
 20
3.9013554737
 11
6.9520595582
 21
3.9513554737
  0
LINE
  5
7CB
100
AcDbEntity
  8
DEFAULT_2
100
AcDbLine
 62
8
  6
HIDDEN
 10
6.954550497
 20
3.9513554737
 11
6.954550497
 21
3.9013554737
  0
LINE
  5
7CC
100
AcDbEntity
  8
DEFAULT_2
100
AcDbLine
 62
8
  6
HIDDEN
 10
6.9550622257
 20
3.9013554737
 11
6.9550622257
 21
3.9513554737
  0
LINE
  5
7CD
100
AcDbEntity
  8
0
100
AcDbLine
 62
7
  6
CONTINUOUS
 10
6.9576924992
 20
3.9013554737
 11
6.9576924992
 21
3.9513554737
  0
LINE
  5
7CE
100
AcDbEntity
  8
0
100
AcDbLine
 62
7
  6
CONTINUOUS
 10
6.9597648499
 20
3.2513554737
 11
6.9597648499
 21
3.2113554737
  0
LINE
  5
7CF
100
AcDbEntity
  8
DEFAULT_2
100
AcDbLine
 62
8
  6
HIDDEN
 10
6.9598003641
 20
3.9513554737
 11
6.9598003641
 21
3.9013554737
  0
LINE
  5
7D0
100
AcDbEntity
  8
0
100
AcDbLine
 62
7
  6
CONTINUOUS
 10
6.9604179737
 20
3.9013554737
 11
6.9604179737
 21
3.2913554737
  0
LINE
  5
7D1
100
AcDbEntity
  8
0
100
AcDbLine
 62
7
  6
CONTINUOUS
 10
6.9608994141
 20
3.9013554737
 11
6.9608994141
 21
3.9513554737
  0
LINE
  5
7D2
100
AcDbEntity
  8
0
100
AcDbLine
 62
7
  6
CONTINUOUS
 10
6.9618262964
 20
3.2113554737
 11
6.9618262964
 21
3.2513554737
  0
LINE
  5
7D3
100
AcDbEntity
  8
DEFAULT_2
100
AcDbLine
 62
8
  6
HIDDEN
 10
6.9637011003
 20
3.9013554737
 11
6.9637011003
 21
3.9513554737
  0
LINE
  5
7D4
100
AcDbEntity
  8
DEFAULT_2
100
AcDbLine
 62
8
  6
HIDDEN
 10
6.9654233793
 20
3.9513554737
 11
6.9654233793
 21
3.9013554737
  0
LINE
  5
7D5
100
AcDbEntity
  8
0
100
AcDbLine
 62
7
  6
CONTINUOUS
 10
6.9670501369
 20
3.2113554737
 11
6.9670501369
 21
3.2513554737
  0
LINE
  5
7D6
100
AcDbEntity
  8
DEFAULT_2
100
AcDbLine
 62
8
  6
HIDDEN
 10
6.9671084409
 20
3.9013554737
 11
6.9671084409
 21
3.9513554737
  0
LINE
  5
7D7
100
AcDbEntity
  8
0
100
AcDbLine
 62
7
  6
CONTINUOUS
 10
6.970078201
 20
3.9013554737
 11
6.970078201
 21
3.9513554737
  0
LINE
  5
7D8
100
AcDbEntity
  8
DEFAULT_2
100
AcDbLine
 62
8
  6
HIDDEN
 10
6.9714128417
 20
3.9513554737
 11
6.9714128417
 21
3.9013554737
  0
LINE
  5
7D9
100
AcDbEntity
  8
0
100
AcDbLine
 62
7
  6
CONTINUOUS
 10
6.9729179737
 20
3.2913554737
 11
6.9729179737
 21
3.2863554737
  0
LINE
  5
7DA
100
AcDbEntity
  8
0
100
AcDbLine
 62
7
  6
CONTINUOUS
 10
6.9736819068
 20
3.9013554737
 11
6.9736819068
 21
3.9513554737
  0
LINE
  5
7DB
100
AcDbEntity
  8
DEFAULT_2
100
AcDbLine
 62
8
  6
HIDDEN
 10
6.9768162016
 20
3.9013554737
 11
6.9768162016
 21
3.9513554737
  0
LINE
  5
7DC
100
AcDbEntity
  8
DEFAULT_2
100
AcDbLine
 62
8
  6
HIDDEN
 10
6.9777616135
 20
3.9513554737
 11
6.9777616135
 21
3.9013554737
  0
LINE
  5
7DD
100
AcDbEntity
  8
0
100
AcDbLine
 62
7
  6
CONTINUOUS
 10
6.9783960306
 20
3.2513554737
 11
6.9783960306
 21
3.2113554737
  0
LINE
  5
7DE
100
AcDbEntity
  8
DEFAULT_2
100
AcDbLine
 62
8
  6
HIDDEN
 10
6.9806119779
 20
3.9013554737
 11
6.9806119779
 21
3.9513554737
  0
LINE
  5
7DF
100
AcDbEntity
  8
0
100
AcDbLine
 62
7
  6
CONTINUOUS
 10
6.9810387642
 20
3.2113554737
 11
6.9810387642
 21
3.2513554737
  0
LINE
  5
7E0
100
AcDbEntity
  8
0
100
AcDbLine
 62
7
  6
CONTINUOUS
 10
6.9839070722
 20
3.9013554737
 11
6.9839070722
 21
3.9513554737
  0
LINE
  5
7E1
100
AcDbEntity
  8
DEFAULT_2
100
AcDbLine
 62
8
  6
HIDDEN
 10
6.9844621287
 20
3.9513554737
 11
6.9844621287
 21
3.9013554737
  0
LINE
  5
7E2
100
AcDbEntity
  8
0
100
AcDbLine
 62
7
  6
CONTINUOUS
 10
6.9864889468
 20
3.2113554737
 11
6.9864889468
 21
3.2513554737
  0
LINE
  5
7E3
100
AcDbEntity
  8
0
100
AcDbLine
 62
7
  6
CONTINUOUS
 10
6.9878903956
 20
3.9013554737
 11
6.9878903956
 21
3.9513554737
  0
LINE
  5
7E4
100
AcDbEntity
  8
DEFAULT_2
100
AcDbLine
 62
8
  6
HIDDEN
 10
6.9913423626
 20
3.9013554737
 11
6.9913423626
 21
3.9513554737
  0
LINE
  5
7E5
100
AcDbEntity
  8
DEFAULT_2
100
AcDbLine
 62
8
  6
HIDDEN
 10
6.9915064021
 20
3.9513554737
 11
6.9915064021
 21
3.9013554737
  0
LINE
  5
7E6
100
AcDbEntity
  8
DEFAULT_2
100
AcDbLine
 62
8
  6
HIDDEN
 10
6.9955084861
 20
3.9013554737
 11
6.9955084861
 21
3.9513554737
  0
LINE
  5
7E7
100
AcDbEntity
  8
0
100
AcDbLine
 62
7
  6
CONTINUOUS
 10
6.9978344756
 20
3.2513554737
 11
6.9978344756
 21
3.2113554737
  0
LINE
  5
7E8
100
AcDbEntity
  8
0
100
AcDbLine
 62
7
  6
CONTINUOUS
 10
6.998886039
 20
3.9513554737
 11
6.998886039
 21
3.9013554737
  0
LINE
  5
7E9
100
AcDbEntity
  8
0
100
AcDbLine
 62
7
  6
CONTINUOUS
 10
6.999113212
 20
3.9013554737
 11
6.999113212
 21
3.9513554737
  0
LINE
  5
7EA
100
AcDbEntity
  8
0
100
AcDbLine
 62
7
  6
CONTINUOUS
 10
7.0010512527
 20
3.2113554737
 11
7.0010512527
 21
3.2513554737
  0
LINE
  5
7EB
100
AcDbEntity
  8
0
100
AcDbLine
 62
7
  6
CONTINUOUS
 10
7.0034571706
 20
3.9013554737
 11
7.0034571706
 21
3.9513554737
  0
LINE
  5
7EC
100
AcDbEntity
  8
DEFAULT_2
100
AcDbLine
 62
8
  6
HIDDEN
 10
7.006592245
 20
3.9513554737
 11
7.006592245
 21
3.9013554737
  0
LINE
  5
7ED
100
AcDbEntity
  8
0
100
AcDbLine
 62
7
  6
CONTINUOUS
 10
7.0067128387
 20
3.2113554737
 11
7.0067128387
 21
3.2513554737
  0
LINE
  5
7EE
100
AcDbEntity
  8
DEFAULT_2
100
AcDbLine
 62
8
  6
HIDDEN
 10
7.0072103597
 20
3.9013554737
 11
7.0072103597
 21
3.9513554737
  0
LINE
  5
7EF
100
AcDbEntity
  8
DEFAULT_2
100
AcDbLine
 62
8
  6
HIDDEN
 10
7.0117269768
 20
3.9013554737
 11
7.0117269768
 21
3.9513554737
  0
LINE
  5
7F0
100
AcDbEntity
  8
0
100
AcDbLine
 62
7
  6
CONTINUOUS
 10
7.0146158364
 20
3.9513554737
 11
7.0146158364
 21
3.9013554737
  0
LINE
  5
7F1
100
AcDbEntity
  8
0
100
AcDbLine
 62
7
  6
CONTINUOUS
 10
7.0156241562
 20
3.9013554737
 11
7.0156241562
 21
3.9513554737
  0
LINE
  5
7F2
100
AcDbEntity
  8
0
100
AcDbLine
 62
7
  6
CONTINUOUS
 10
7.0180269053
 20
3.2513554737
 11
7.0180269053
 21
3.2113554737
  0
LINE
  5
7F3
100
AcDbEntity
  8
0
100
AcDbLine
 62
7
  6
CONTINUOUS
 10
7.0203080491
 20
3.9013554737
 11
7.0203080491
 21
3.9513554737
  0
LINE
  5
7F4
100
AcDbEntity
  8
0
100
AcDbLine
 62
7
  6
CONTINUOUS
 10
7.0218089089
 20
3.2113554737
 11
7.0218089089
 21
3.2513554737
  0
LINE
  5
7F5
100
AcDbEntity
  8
DEFAULT_2
100
AcDbLine
 62
8
  6
HIDDEN
 10
7.0229472513
 20
3.9513554737
 11
7.0229472513
 21
3.9013554737
  0
LINE
  5
7F6
100
AcDbEntity
  8
DEFAULT_2
100
AcDbLine
 62
8
  6
HIDDEN
 10
7.0243445746
 20
3.9013554737
 11
7.0243445746
 21
3.9513554737
  0
LINE
  5
7F7
100
AcDbEntity
  8
0
100
AcDbLine
 62
7
  6
CONTINUOUS
 10
7.0276663804
 20
3.2113554737
 11
7.0276663804
 21
3.2513554737
  0
LINE
  5
7F8
100
AcDbEntity
  8
DEFAULT_2
100
AcDbLine
 62
8
  6
HIDDEN
 10
7.0291901615
 20
3.9013554737
 11
7.0291901615
 21
3.9513554737
  0
LINE
  5
7F9
100
AcDbEntity
  8
0
100
AcDbLine
 62
7
  6
CONTINUOUS
 10
7.0315765611
 20
3.9513554737
 11
7.0315765611
 21
3.9013554737
  0
LINE
  5
7FA
100
AcDbEntity
  8
0
100
AcDbLine
 62
7
  6
CONTINUOUS
 10
7.0333612226
 20
3.9013554737
 11
7.0333612226
 21
3.9513554737
  0
LINE
  5
7FB
100
AcDbEntity
  8
0
100
AcDbLine
 62
7
  6
CONTINUOUS
 10
7.0383627289
 20
3.9013554737
 11
7.0383627289
 21
3.9513554737
  0
LINE
  5
7FC
100
AcDbEntity
  8
0
100
AcDbLine
 62
7
  6
CONTINUOUS
 10
7.0389179737
 20
3.2513554737
 11
7.0389179737
 21
3.2113554737
  0
LINE
  5
7FD
100
AcDbEntity
  8
DEFAULT_2
100
AcDbLine
 62
8
  6
HIDDEN
 10
7.0404934819
 20
3.9513554737
 11
7.0404934819
 21
3.9013554737
  0
LINE
  5
7FE
100
AcDbEntity
  8
DEFAULT_2
100
AcDbLine
 62
8
  6
HIDDEN
 10
7.042663355
 20
3.9013554737
 11
7.042663355
 21
3.9513554737
  0
LINE
  5
7FF
100
AcDbEntity
  8
0
100
AcDbLine
 62
7
  6
CONTINUOUS
 10
7.0432548377
 20
3.2113554737
 11
7.0432548377
 21
3.2513554737
  0
LINE
  5
800
100
AcDbEntity
  8
DEFAULT_2
100
AcDbLine
 62
8
  6
HIDDEN
 10
7.0478148202
 20
3.9013554737
 11
7.0478148202
 21
3.9513554737
  0
LINE
  5
801
100
AcDbEntity
  8
0
100
AcDbLine
 62
7
  6
CONTINUOUS
 10
7.0492921397
 20
3.2113554737
 11
7.0492921397
 21
3.2513554737
  0
LINE
  5
802
100
AcDbEntity
  8
0
100
AcDbLine
 62
7
  6
CONTINUOUS
 10
7.0496873875
 20
3.9513554737
 11
7.0496873875
 21
3.9013554737
  0
LINE
  5
803
100
AcDbEntity
  8
0
100
AcDbLine
 62
7
  6
CONTINUOUS
 10
7.0522398861
 20
3.9013554737
 11
7.0522398861
 21
3.9513554737
  0
LINE
  5
804
100
AcDbEntity
  8
0
100
AcDbLine
 62
7
  6
CONTINUOUS
 10
7.0575351713
 20
3.9013554737
 11
7.0575351713
 21
3.9513554737
  0
LINE
  5
805
100
AcDbEntity
  8
DEFAULT_2
100
AcDbLine
 62
8
  6
HIDDEN
 10
7.0591473211
 20
3.9513554737
 11
7.0591473211
 21
3.9013554737
  0
LINE
  5
806
100
AcDbEntity
  8
0
100
AcDbLine
 62
7
  6
CONTINUOUS
 10
7.0604504198
 20
3.2513554737
 11
7.0604504198
 21
3.2113554737
  0
LINE
  5
807
100
AcDbEntity
  8
DEFAULT_2
100
AcDbLine
 62
8
  6
HIDDEN
 10
7.0620794034
 20
3.9013554737
 11
7.0620794034
 21
3.9513554737
  0
LINE
  5
808
100
AcDbEntity
  8
0
100
AcDbLine
 62
7
  6
CONTINUOUS
 10
7.0653302571
 20
3.2113554737
 11
7.0653302571
 21
3.2513554737
  0
LINE
  5
809
100
AcDbEntity
  8
DEFAULT_2
100
AcDbLine
 62
8
  6
HIDDEN
 10
7.067512198
 20
3.9013554737
 11
7.067512198
 21
3.9513554737
  0
LINE
  5
80A
100
AcDbEntity
  8
0
100
AcDbLine
 62
7
  6
CONTINUOUS
 10
7.0688620093
 20
3.9513554737
 11
7.0688620093
 21
3.9013554737
  0
LINE
  5
80B
100
AcDbEntity
  8
0
100
AcDbLine
 62
7
  6
CONTINUOUS
 10
7.0715308418
 20
3.2113554737
 11
7.0715308418
 21
3.2513554737
  0
LINE
  5
80C
100
AcDbEntity
  8
0
100
AcDbLine
 62
7
  6
CONTINUOUS
 10
7.0721701811
 20
3.9013554737
 11
7.0721701811
 21
3.9513554737
  0
LINE
  5
80D
100
AcDbEntity
  8
0
100
AcDbLine
 62
7
  6
CONTINUOUS
 10
7.0729179737
 20
4.0738554737
 11
7.0729179737
 21
4.0288554737
  0
LINE
  5
80E
100
AcDbEntity
  8
0
100
AcDbLine
 62
7
  6
CONTINUOUS
 10
7.0777340108
 20
3.9013554737
 11
7.0777340108
 21
3.9513554737
  0
LINE
  5
80F
100
AcDbEntity
  8
DEFAULT_2
100
AcDbLine
 62
8
  6
HIDDEN
 10
7.0788198748
 20
3.9513554737
 11
7.0788198748
 21
3.9013554737
  0
LINE
  5
810
100
AcDbEntity
  8
DEFAULT_2
100
AcDbLine
 62
8
  6
HIDDEN
 10
7.0825001936
 20
3.9013554737
 11
7.0825001936
 21
3.9513554737
  0
LINE
  5
811
100
AcDbEntity
  8
0
100
AcDbLine
 62
7
  6
CONTINUOUS
 10
7.0825652247
 20
3.2513554737
 11
7.0825652247
 21
3.2113554737
  0
LINE
  5
812
100
AcDbEntity
  8
0
100
AcDbLine
 62
7
  6
CONTINUOUS
 10
7.0879746601
 20
3.2113554737
 11
7.0879746601
 21
3.2513554737
  0
LINE
  5
813
100
AcDbEntity
  8
DEFAULT_2
100
AcDbLine
 62
8
  6
HIDDEN
 10
7.0881884279
 20
3.9013554737
 11
7.0881884279
 21
3.9513554737
  0
LINE
  5
814
100
AcDbEntity
  8
0
100
AcDbLine
 62
7
  6
CONTINUOUS
 10
7.0890090507
 20
3.9513554737
 11
7.0890090507
 21
3.9013554737
  0
LINE
  5
815
100
AcDbEntity
  8
0
100
AcDbLine
 62
7
  6
CONTINUOUS
 10
7.0930571307
 20
3.9013554737
 11
7.0930571307
 21
3.9513554737
  0
LINE
  5
816
100
AcDbEntity
  8
0
100
AcDbLine
 62
7
  6
CONTINUOUS
 10
7.0943215321
 20
3.2113554737
 11
7.0943215321
 21
3.2513554737
  0
LINE
  5
817
100
AcDbEntity
  8
0
100
AcDbLine
 62
7
  6
CONTINUOUS
 10
7.0988629907
 20
3.9013554737
 11
7.0988629907
 21
3.9513554737
  0
LINE
  5
818
100
AcDbEntity
  8
DEFAULT_2
100
AcDbLine
 62
8
  6
HIDDEN
 10
7.0994173943
 20
3.9513554737
 11
7.0994173943
 21
3.9013554737
  0
LINE
  5
819
100
AcDbEntity
  8
DEFAULT_2
100
AcDbLine
 62
8
  6
HIDDEN
 10
7.1038284113
 20
3.9013554737
 11
7.1038284113
 21
3.9513554737
  0
LINE
  5
81A
100
AcDbEntity
  8
0
100
AcDbLine
 62
7
  6
CONTINUOUS
 10
7.1052017733
 20
3.2513554737
 11
7.1052017733
 21
3.2113554737
  0
LINE
  5
81B
100
AcDbEntity
  8
DEFAULT_2
100
AcDbLine
 62
8
  6
HIDDEN
 10
7.1097449782
 20
3.9013554737
 11
7.1097449782
 21
3.9513554737
  0
LINE
  5
81C
100
AcDbEntity
  8
0
100
AcDbLine
 62
7
  6
CONTINUOUS
 10
7.1100325018
 20
3.9513554737
 11
7.1100325018
 21
3.9013554737
  0
LINE
  5
81D
100
AcDbEntity
  8
0
100
AcDbLine
 62
7
  6
CONTINUOUS
 10
7.1111259798
 20
3.2113554737
 11
7.1111259798
 21
3.2513554737
  0
LINE
  5
81E
100
AcDbEntity
  8
0
100
AcDbLine
 62
7
  6
CONTINUOUS
 10
7.1148011992
 20
3.9013554737
 11
7.1148011992
 21
3.9513554737
  0
LINE
  5
81F
100
AcDbEntity
  8
0
100
AcDbLine
 62
7
  6
CONTINUOUS
 10
7.1176017428
 20
3.2113554737
 11
7.1176017428
 21
3.2513554737
  0
LINE
  5
820
100
AcDbEntity
  8
0
100
AcDbLine
 62
7
  6
CONTINUOUS
 10
7.1208214219
 20
3.9013554737
 11
7.1208214219
 21
3.9513554737
  0
LINE
  5
821
100
AcDbEntity
  8
0
100
AcDbLine
 62
7
  6
CONTINUOUS
 10
7.1241679737
 20
4.0888554737
 11
7.1241679737
 21
4.194669204
  0
LINE
  5
822
100
AcDbEntity
  8
DEFAULT_2
100
AcDbLine
 62
8
  6
HIDDEN
 10
7.1259624178
 20
3.9013554737
 11
7.1259624178
 21
3.9513554737
  0
LINE
  5
823
100
AcDbEntity
  8
0
100
AcDbLine
 62
7
  6
CONTINUOUS
 10
7.1282980203
 20
3.2513554737
 11
7.1282980203
 21
3.2113554737
  0
LINE
  5
824
100
AcDbEntity
  8
0
100
AcDbLine
 62
7
  6
CONTINUOUS
 10
7.1318321765
 20
3.9513554737
 11
7.1318321765
 21
3.9013554737
  0
LINE
  5
825
100
AcDbEntity
  8
DEFAULT_2
100
AcDbLine
 62
8
  6
HIDDEN
 10
7.1320791221
 20
3.9013554737
 11
7.1320791221
 21
3.9513554737
  0
LINE
  5
826
100
AcDbEntity
  8
0
100
AcDbLine
 62
7
  6
CONTINUOUS
 10
6.8229179737
 20
3.1613554737
 11
6.7979179737
 21
3.1363554737
  0
LINE
  5
827
100
AcDbEntity
  8
0
100
AcDbLine
 62
7
  6
CONTINUOUS
 10
7.1347207601
 20
3.2113554737
 11
7.1347207601
 21
3.2513554737
  0
LINE
  5
828
100
AcDbEntity
  8
0
100
AcDbLine
 62
7
  6
CONTINUOUS
 10
7.1372987661
 20
3.9013554737
 11
7.1372987661
 21
3.9513554737
  0
LINE
  5
829
100
AcDbEntity
  8
0
100
AcDbLine
 62
7
  6
CONTINUOUS
 10
7.1413076645
 20
3.2113554737
 11
7.1413076645
 21
3.2513554737
  0
LINE
  5
82A
100
AcDbEntity
  8
DEFAULT_2
100
AcDbLine
 62
8
  6
HIDDEN
 10
7.1429907645
 20
3.9513554737
 11
7.1429907645
 21
3.9013554737
  0
LINE
  5
82B
100
AcDbEntity
  8
0
100
AcDbLine
 62
7
  6
CONTINUOUS
 10
7.1435046625
 20
3.9013554737
 11
7.1435046625
 21
3.9513554737
  0
LINE
  5
82C
100
AcDbEntity
  8
DEFAULT_2
100
AcDbLine
 62
8
  6
HIDDEN
 10
7.1487967344
 20
3.9013554737
 11
7.1487967344
 21
3.9513554737
  0
LINE
  5
82D
100
AcDbEntity
  8
0
100
AcDbLine
 62
7
  6
CONTINUOUS
 10
7.1517906605
 20
3.2513554737
 11
7.1517906605
 21
3.2113554737
  0
LINE
  5
82E
100
AcDbEntity
  8
0
100
AcDbLine
 62
7
  6
CONTINUOUS
 10
7.1543041892
 20
3.9513554737
 11
7.1543041892
 21
3.9013554737
  0
LINE
  5
82F
100
AcDbEntity
  8
DEFAULT_2
100
AcDbLine
 62
8
  6
HIDDEN
 10
7.1550844272
 20
3.9013554737
 11
7.1550844272
 21
3.9513554737
  0
LINE
  5
830
100
AcDbEntity
  8
0
100
AcDbLine
 62
7
  6
CONTINUOUS
 10
7.1586943294
 20
3.2113554737
 11
7.1586943294
 21
3.2513554737
  0
LINE
  5
831
100
AcDbEntity
  8
0
100
AcDbLine
 62
7
  6
CONTINUOUS
 10
7.1604426203
 20
3.9013554737
 11
7.1604426203
 21
3.9513554737
  0
LINE
  5
832
100
AcDbEntity
  8
0
100
AcDbLine
 62
7
  6
CONTINUOUS
 10
7.1653743209
 20
3.2113554737
 11
7.1653743209
 21
3.2513554737
  0
LINE
  5
833
100
AcDbEntity
  8
DEFAULT_2
100
AcDbLine
 62
8
  6
HIDDEN
 10
7.1657589682
 20
3.9513554737
 11
7.1657589682
 21
3.9013554737
  0
LINE
  5
834
100
AcDbEntity
  8
0
100
AcDbLine
 62
7
  6
CONTINUOUS
 10
7.1668046164
 20
3.9013554737
 11
7.1668046164
 21
3.9513554737
  0
LINE
  5
835
100
AcDbEntity
  8
DEFAULT_2
100
AcDbLine
 62
8
  6
HIDDEN
 10
7.1722225452
 20
3.9013554737
 11
7.1722225452
 21
3.9513554737
  0
LINE
  5
836
100
AcDbEntity
  8
0
100
AcDbLine
 62
7
  6
CONTINUOUS
 10
7.1754179737
 20
4.2743554737
 11
7.1754179737
 21
4.2868554737
  0
LINE
  5
837
100
AcDbEntity
  8
0
100
AcDbLine
 62
7
  6
CONTINUOUS
 10
7.1756153023
 20
3.2513554737
 11
7.1756153023
 21
3.2113554737
  0
LINE
  5
838
100
AcDbEntity
  8
0
100
AcDbLine
 62
7
  6
CONTINUOUS
 10
7.1773414506
 20
3.9513554737
 11
7.1773414506
 21
3.9013554737
  0
LINE
  5
839
100
AcDbEntity
  8
DEFAULT_2
100
AcDbLine
 62
8
  6
HIDDEN
 10
7.1786512629
 20
3.9013554737
 11
7.1786512629
 21
3.9513554737
  0
LINE
  5
83A
100
AcDbEntity
  8
0
100
AcDbLine
 62
7
  6
CONTINUOUS
 10
7.1829809777
 20
3.2113554737
 11
7.1829809777
 21
3.2513554737
  0
LINE
  5
83B
100
AcDbEntity
  8
0
100
AcDbLine
 62
7
  6
CONTINUOUS
 10
7.1841224708
 20
3.9013554737
 11
7.1841224708
 21
3.9513554737
  0
LINE
  5
83C
100
AcDbEntity
  8
DEFAULT_2
100
AcDbLine
 62
8
  6
HIDDEN
 10
7.1890378333
 20
3.9513554737
 11
7.1890378333
 21
3.9013554737
  0
LINE
  5
83D
100
AcDbEntity
  8
0
100
AcDbLine
 62
7
  6
CONTINUOUS
 10
7.189735747
 20
3.2113554737
 11
7.189735747
 21
3.2513554737
  0
LINE
  5
83E
100
AcDbEntity
  8
0
100
AcDbLine
 62
7
  6
CONTINUOUS
 10
7.1906102488
 20
3.9013554737
 11
7.1906102488
 21
3.9513554737
  0
LINE
  5
83F
100
AcDbEntity
  8
DEFAULT_2
100
AcDbLine
 62
8
  6
HIDDEN
 10
7.1961282156
 20
3.9013554737
 11
7.1961282156
 21
3.9513554737
  0
LINE
  5
840
100
AcDbEntity
  8
0
100
AcDbLine
 62
7
  6
CONTINUOUS
 10
7.199706644
 20
3.2513554737
 11
7.199706644
 21
3.2113554737
  0
LINE
  5
841
100
AcDbEntity
  8
0
100
AcDbLine
 62
7
  6
CONTINUOUS
 10
7.2008341776
 20
3.9513554737
 11
7.2008341776
 21
3.9013554737
  0
LINE
  5
842
100
AcDbEntity
  8
DEFAULT_2
100
AcDbLine
 62
8
  6
HIDDEN
 10
7.2026673224
 20
3.9013554737
 11
7.2026673224
 21
3.9513554737
  0
LINE
  5
843
100
AcDbEntity
  8
0
100
AcDbLine
 62
7
  6
CONTINUOUS
 10
7.2075141371
 20
3.2113554737
 11
7.2075141371
 21
3.2513554737
  0
LINE
  5
844
100
AcDbEntity
  8
0
100
AcDbLine
 62
7
  6
CONTINUOUS
 10
7.2082254723
 20
3.9013554737
 11
7.2082254723
 21
3.9513554737
  0
LINE
  5
845
100
AcDbEntity
  8
DEFAULT_2
100
AcDbLine
 62
8
  6
HIDDEN
 10
7.2127164255
 20
3.9513554737
 11
7.2127164255
 21
3.9013554737
  0
LINE
  5
846
100
AcDbEntity
  8
0
100
AcDbLine
 62
7
  6
CONTINUOUS
 10
7.2143251698
 20
3.2113554737
 11
7.2143251698
 21
3.2513554737
  0
LINE
  5
847
100
AcDbEntity
  8
0
100
AcDbLine
 62
7
  6
CONTINUOUS
 10
7.214808115
 20
3.9013554737
 11
7.214808115
 21
3.9513554737
  0
LINE
  5
848
100
AcDbEntity
  8
DEFAULT_2
100
AcDbLine
 62
8
  6
HIDDEN
 10
7.2203998242
 20
3.9013554737
 11
7.2203998242
 21
3.9513554737
  0
LINE
  5
849
100
AcDbEntity
  8
0
100
AcDbLine
 62
7
  6
CONTINUOUS
 10
7.2239986528
 20
3.2513554737
 11
7.2239986528
 21
3.2113554737
  0
LINE
  5
84A
100
AcDbEntity
  8
0
100
AcDbLine
 62
7
  6
CONTINUOUS
 10
7.2246704168
 20
3.9513554737
 11
7.2246704168
 21
3.9013554737
  0
LINE
  5
84B
100
AcDbEntity
  8
DEFAULT_2
100
AcDbLine
 62
8
  6
HIDDEN
 10
7.2270181582
 20
3.9013554737
 11
7.2270181582
 21
3.9513554737
  0
LINE
  5
84C
100
AcDbEntity
  8
0
100
AcDbLine
 62
7
  6
CONTINUOUS
 10
7.2322265639
 20
3.2113554737
 11
7.2322265639
 21
3.2513554737
  0
LINE
  5
84D
100
AcDbEntity
  8
0
100
AcDbLine
 62
7
  6
CONTINUOUS
 10
7.232636763
 20
3.9013554737
 11
7.232636763
 21
3.9513554737
  0
LINE
  5
84E
100
AcDbEntity
  8
DEFAULT_2
100
AcDbLine
 62
8
  6
HIDDEN
 10
7.2366819056
 20
3.9513554737
 11
7.2366819056
 21
3.9013554737
  0
LINE
  5
84F
100
AcDbEntity
  8
0
100
AcDbLine
 62
7
  6
CONTINUOUS
 10
7.2390751914
 20
3.2113554737
 11
7.2390751914
 21
3.2513554737
  0
LINE
  5
850
100
AcDbEntity
  8
0
100
AcDbLine
 62
7
  6
CONTINUOUS
 10
7.2392829011
 20
3.9013554737
 11
7.2392829011
 21
3.9513554737
  0
LINE
  5
851
100
AcDbEntity
  8
DEFAULT_2
100
AcDbLine
 62
8
  6
HIDDEN
 10
7.2449217056
 20
3.9013554737
 11
7.2449217056
 21
3.9513554737
  0
LINE
  5
852
100
AcDbEntity
  8
0
100
AcDbLine
 62
7
  6
CONTINUOUS
 10
7.2484247461
 20
3.2513554737
 11
7.2484247461
 21
3.2113554737
  0
LINE
  5
853
100
AcDbEntity
  8
0
100
AcDbLine
 62
7
  6
CONTINUOUS
 10
7.2487365775
 20
3.9513554737
 11
7.2487365775
 21
3.9013554737
  0
LINE
  5
854
100
AcDbEntity
  8
DEFAULT_2
100
AcDbLine
 62
8
  6
HIDDEN
 10
7.2515877275
 20
3.9013554737
 11
7.2515877275
 21
3.9513554737
  0
LINE
  5
855
100
AcDbEntity
  8
0
100
AcDbLine
 62
7
  6
CONTINUOUS
 10
7.257050523
 20
3.2113554737
 11
7.257050523
 21
3.2513554737
  0
LINE
  5
856
100
AcDbEntity
  8
0
100
AcDbLine
 62
7
  6
CONTINUOUS
 10
7.257240012
 20
3.9013554737
 11
7.257240012
 21
3.9513554737
  0
LINE
  5
857
100
AcDbEntity
  8
DEFAULT_2
100
AcDbLine
 62
8
  6
HIDDEN
 10
7.2608200669
 20
3.9513554737
 11
7.2608200669
 21
3.9013554737
  0
LINE
  5
858
100
AcDbEntity
  8
0
100
AcDbLine
 62
7
  6
CONTINUOUS
 10
7.2639179737
 20
3.2113554737
 11
7.2639179737
 21
3.2513554737
  0
LINE
  5
859
100
AcDbEntity
  8
0
100
AcDbLine
 62
7
  6
CONTINUOUS
 10
7.2639179737
 20
3.9013554737
 11
7.2639179737
 21
3.9513554737
  0
LINE
  5
85A
100
AcDbEntity
  8
DEFAULT_2
100
AcDbLine
 62
8
  6
HIDDEN
 10
7.2695770021
 20
3.9013554737
 11
7.2695770021
 21
3.9513554737
  0
LINE
  5
85B
100
AcDbEntity
  8
0
100
AcDbLine
 62
7
  6
CONTINUOUS
 10
7.2729179737
 20
3.9513554737
 11
7.2729179737
 21
3.9013554737
  0
LINE
  5
85C
100
AcDbEntity
  8
0
100
AcDbLine
 62
7
  6
CONTINUOUS
 10
7.2729179737
 20
3.2513554737
 11
7.2729179737
 21
3.2113554737
  0
LINE
  5
85D
100
AcDbEntity
  8
DEFAULT_2
100
AcDbLine
 62
8
  6
HIDDEN
 10
7.2762589452
 20
3.9013554737
 11
7.2762589452
 21
3.9513554737
  0
LINE
  5
85E
100
AcDbEntity
  8
0
100
AcDbLine
 62
7
  6
CONTINUOUS
 10
7.2819179737
 20
3.2113554737
 11
7.2819179737
 21
3.2513554737
  0
LINE
  5
85F
100
AcDbEntity
  8
0
100
AcDbLine
 62
7
  6
CONTINUOUS
 10
7.2819179737
 20
3.9013554737
 11
7.2819179737
 21
3.9513554737
  0
LINE
  5
860
100
AcDbEntity
  8
DEFAULT_2
100
AcDbLine
 62
8
  6
HIDDEN
 10
7.2850158804
 20
3.9513554737
 11
7.2850158804
 21
3.9013554737
  0
LINE
  5
861
100
AcDbEntity
  8
0
100
AcDbLine
 62
7
  6
CONTINUOUS
 10
7.2885959353
 20
3.9013554737
 11
7.2885959353
 21
3.9513554737
  0
LINE
  5
862
100
AcDbEntity
  8
0
100
AcDbLine
 62
7
  6
CONTINUOUS
 10
7.2887854243
 20
3.2113554737
 11
7.2887854243
 21
3.2513554737
  0
LINE
  5
863
100
AcDbEntity
  8
DEFAULT_2
100
AcDbLine
 62
8
  6
HIDDEN
 10
7.2942482198
 20
3.9013554737
 11
7.2942482198
 21
3.9513554737
  0
LINE
  5
864
100
AcDbEntity
  8
0
100
AcDbLine
 62
7
  6
CONTINUOUS
 10
7.2970993698
 20
3.9513554737
 11
7.2970993698
 21
3.9013554737
  0
LINE
  5
865
100
AcDbEntity
  8
0
100
AcDbLine
 62
7
  6
CONTINUOUS
 10
7.2974112012
 20
3.2513554737
 11
7.2974112012
 21
3.2113554737
  0
LINE
  5
866
100
AcDbEntity
  8
DEFAULT_2
100
AcDbLine
 62
8
  6
HIDDEN
 10
7.3009142417
 20
3.9013554737
 11
7.3009142417
 21
3.9513554737
  0
LINE
  5
867
100
AcDbEntity
  8
0
100
AcDbLine
 62
7
  6
CONTINUOUS
 10
7.3065530462
 20
3.9013554737
 11
7.3065530462
 21
3.9513554737
  0
LINE
  5
868
100
AcDbEntity
  8
0
100
AcDbLine
 62
7
  6
CONTINUOUS
 10
7.3067607559
 20
3.2113554737
 11
7.3067607559
 21
3.2513554737
  0
LINE
  5
869
100
AcDbEntity
  8
DEFAULT_2
100
AcDbLine
 62
8
  6
HIDDEN
 10
7.3091540417
 20
3.9513554737
 11
7.3091540417
 21
3.9013554737
  0
LINE
  5
86A
100
AcDbEntity
  8
0
100
AcDbLine
 62
7
  6
CONTINUOUS
 10
7.3131991843
 20
3.9013554737
 11
7.3131991843
 21
3.9513554737
  0
LINE
  5
86B
100
AcDbEntity
  8
0
100
AcDbLine
 62
7
  6
CONTINUOUS
 10
7.3136093834
 20
3.2113554737
 11
7.3136093834
 21
3.2513554737
  0
LINE
  5
86C
100
AcDbEntity
  8
DEFAULT_2
100
AcDbLine
 62
8
  6
HIDDEN
 10
7.3188177891
 20
3.9013554737
 11
7.3188177891
 21
3.9513554737
  0
LINE
  5
86D
100
AcDbEntity
  8
0
100
AcDbLine
 62
7
  6
CONTINUOUS
 10
7.3211655305
 20
3.9513554737
 11
7.3211655305
 21
3.9013554737
  0
LINE
  5
86E
100
AcDbEntity
  8
0
100
AcDbLine
 62
7
  6
CONTINUOUS
 10
7.3218372945
 20
3.2513554737
 11
7.3218372945
 21
3.2113554737
  0
LINE
  5
86F
100
AcDbEntity
  8
DEFAULT_2
100
AcDbLine
 62
8
  6
HIDDEN
 10
7.3254361231
 20
3.9013554737
 11
7.3254361231
 21
3.9513554737
  0
LINE
  5
870
100
AcDbEntity
  8
0
100
AcDbLine
 62
7
  6
CONTINUOUS
 10
7.3310278323
 20
3.9013554737
 11
7.3310278323
 21
3.9513554737
  0
LINE
  5
871
100
AcDbEntity
  8
0
100
AcDbLine
 62
7
  6
CONTINUOUS
 10
7.3315107775
 20
3.2113554737
 11
7.3315107775
 21
3.2513554737
  0
LINE
  5
872
100
AcDbEntity
  8
DEFAULT_2
100
AcDbLine
 62
8
  6
HIDDEN
 10
7.3331195218
 20
3.9513554737
 11
7.3331195218
 21
3.9013554737
  0
LINE
  5
873
100
AcDbEntity
  8
0
100
AcDbLine
 62
7
  6
CONTINUOUS
 10
7.337610475
 20
3.9013554737
 11
7.337610475
 21
3.9513554737
  0
LINE
  5
874
100
AcDbEntity
  8
0
100
AcDbLine
 62
7
  6
CONTINUOUS
 10
7.3383218102
 20
3.2113554737
 11
7.3383218102
 21
3.2513554737
  0
LINE
  5
875
100
AcDbEntity
  8
DEFAULT_2
100
AcDbLine
 62
8
  6
HIDDEN
 10
7.3431686249
 20
3.9013554737
 11
7.3431686249
 21
3.9513554737
  0
LINE
  5
876
100
AcDbEntity
  8
0
100
AcDbLine
 62
7
  6
CONTINUOUS
 10
7.3450017697
 20
3.9513554737
 11
7.3450017697
 21
3.9013554737
  0
LINE
  5
877
100
AcDbEntity
  8
0
100
AcDbLine
 62
7
  6
CONTINUOUS
 10
7.3461293033
 20
3.2513554737
 11
7.3461293033
 21
3.2113554737
  0
LINE
  5
878
100
AcDbEntity
  8
DEFAULT_2
100
AcDbLine
 62
8
  6
HIDDEN
 10
7.3497077317
 20
3.9013554737
 11
7.3497077317
 21
3.9513554737
  0
LINE
  5
879
100
AcDbEntity
  8
0
100
AcDbLine
 62
7
  6
CONTINUOUS
 10
7.3552256985
 20
3.9013554737
 11
7.3552256985
 21
3.9513554737
  0
LINE
  5
87A
100
AcDbEntity
  8
0
100
AcDbLine
 62
7
  6
CONTINUOUS
 10
7.3561002003
 20
3.2113554737
 11
7.3561002003
 21
3.2513554737
  0
LINE
  5
87B
100
AcDbEntity
  8
DEFAULT_2
100
AcDbLine
 62
8
  6
HIDDEN
 10
7.356798114
 20
3.9513554737
 11
7.356798114
 21
3.9013554737
  0
LINE
  5
87C
100
AcDbEntity
  8
0
100
AcDbLine
 62
7
  6
CONTINUOUS
 10
7.3617134765
 20
3.9013554737
 11
7.3617134765
 21
3.9513554737
  0
LINE
  5
87D
100
AcDbEntity
  8
0
100
AcDbLine
 62
7
  6
CONTINUOUS
 10
7.3628549696
 20
3.2113554737
 11
7.3628549696
 21
3.2513554737
  0
LINE
  5
87E
100
AcDbEntity
  8
DEFAULT_2
100
AcDbLine
 62
8
  6
HIDDEN
 10
7.3671846844
 20
3.9013554737
 11
7.3671846844
 21
3.9513554737
  0
LINE
  5
87F
100
AcDbEntity
  8
0
100
AcDbLine
 62
7
  6
CONTINUOUS
 10
7.3684944967
 20
3.9513554737
 11
7.3684944967
 21
3.9013554737
  0
LINE
  5
880
100
AcDbEntity
  8
0
100
AcDbLine
 62
7
  6
CONTINUOUS
 10
7.370220645
 20
3.2513554737
 11
7.370220645
 21
3.2113554737
  0
LINE
  5
881
100
AcDbEntity
  8
0
100
AcDbLine
 62
7
  6
CONTINUOUS
 10
7.3704179737
 20
4.2743554737
 11
7.3704179737
 21
4.2868554737
  0
LINE
  5
882
100
AcDbEntity
  8
DEFAULT_2
100
AcDbLine
 62
8
  6
HIDDEN
 10
7.3736134021
 20
3.9013554737
 11
7.3736134021
 21
3.9513554737
  0
LINE
  5
883
100
AcDbEntity
  8
0
100
AcDbLine
 62
7
  6
CONTINUOUS
 10
7.3790313309
 20
3.9013554737
 11
7.3790313309
 21
3.9513554737
  0
LINE
  5
884
100
AcDbEntity
  8
DEFAULT_2
100
AcDbLine
 62
8
  6
HIDDEN
 10
7.3800769791
 20
3.9513554737
 11
7.3800769791
 21
3.9013554737
  0
LINE
  5
885
100
AcDbEntity
  8
0
100
AcDbLine
 62
7
  6
CONTINUOUS
 10
7.3804616264
 20
3.2113554737
 11
7.3804616264
 21
3.2513554737
  0
LINE
  5
886
100
AcDbEntity
  8
0
100
AcDbLine
 62
7
  6
CONTINUOUS
 10
7.385393327
 20
3.9013554737
 11
7.385393327
 21
3.9513554737
  0
LINE
  5
887
100
AcDbEntity
  8
0
100
AcDbLine
 62
7
  6
CONTINUOUS
 10
7.3871416179
 20
3.2113554737
 11
7.3871416179
 21
3.2513554737
  0
LINE
  5
888
100
AcDbEntity
  8
DEFAULT_2
100
AcDbLine
 62
8
  6
HIDDEN
 10
7.3907515201
 20
3.9013554737
 11
7.3907515201
 21
3.9513554737
  0
LINE
  5
889
100
AcDbEntity
  8
0
100
AcDbLine
 62
7
  6
CONTINUOUS
 10
7.3915317581
 20
3.9513554737
 11
7.3915317581
 21
3.9013554737
  0
LINE
  5
88A
100
AcDbEntity
  8
0
100
AcDbLine
 62
7
  6
CONTINUOUS
 10
7.3940452868
 20
3.2513554737
 11
7.3940452868
 21
3.2113554737
  0
LINE
  5
88B
100
AcDbEntity
  8
DEFAULT_2
100
AcDbLine
 62
8
  6
HIDDEN
 10
7.3970392129
 20
3.9013554737
 11
7.3970392129
 21
3.9513554737
  0
LINE
  5
88C
100
AcDbEntity
  8
0
100
AcDbLine
 62
7
  6
CONTINUOUS
 10
7.4023312848
 20
3.9013554737
 11
7.4023312848
 21
3.9513554737
  0
LINE
  5
88D
100
AcDbEntity
  8
DEFAULT_2
100
AcDbLine
 62
8
  6
HIDDEN
 10
7.4028451828
 20
3.9513554737
 11
7.4028451828
 21
3.9013554737
  0
LINE
  5
88E
100
AcDbEntity
  8
0
100
AcDbLine
 62
7
  6
CONTINUOUS
 10
7.4045282828
 20
3.2113554737
 11
7.4045282828
 21
3.2513554737
  0
LINE
  5
88F
100
AcDbEntity
  8
0
100
AcDbLine
 62
7
  6
CONTINUOUS
 10
7.4085371812
 20
3.9013554737
 11
7.4085371812
 21
3.9513554737
  0
LINE
  5
890
100
AcDbEntity
  8
0
100
AcDbLine
 62
7
  6
CONTINUOUS
 10
7.4111151872
 20
3.2113554737
 11
7.4111151872
 21
3.2513554737
  0
LINE
  5
891
100
AcDbEntity
  8
DEFAULT_2
100
AcDbLine
 62
8
  6
HIDDEN
 10
7.4137568252
 20
3.9013554737
 11
7.4137568252
 21
3.9513554737
  0
LINE
  5
892
100
AcDbEntity
  8
0
100
AcDbLine
 62
7
  6
CONTINUOUS
 10
7.4140037708
 20
3.9513554737
 11
7.4140037708
 21
3.9013554737
  0
LINE
  5
893
100
AcDbEntity
  8
0
100
AcDbLine
 62
7
  6
CONTINUOUS
 10
7.417537927
 20
3.2513554737
 11
7.417537927
 21
3.2113554737
  0
LINE
  5
894
100
AcDbEntity
  8
DEFAULT_2
100
AcDbLine
 62
8
  6
HIDDEN
 10
7.4198735295
 20
3.9013554737
 11
7.4198735295
 21
3.9513554737
  0
LINE
  5
895
100
AcDbEntity
  8
0
100
AcDbLine
 62
7
  6
CONTINUOUS
 10
7.4216679737
 20
4.0888554737
 11
7.4216679737
 21
4.194669204
  0
LINE
  5
896
100
AcDbEntity
  8
0
100
AcDbLine
 62
7
  6
CONTINUOUS
 10
7.4250145254
 20
3.9013554737
 11
7.4250145254
 21
3.9513554737
  0
LINE
  5
897
100
AcDbEntity
  8
0
100
AcDbLine
 62
7
  6
CONTINUOUS
 10
7.4282342045
 20
3.2113554737
 11
7.4282342045
 21
3.2513554737
  0
LINE
  5
898
100
AcDbEntity
  8
0
100
AcDbLine
 62
7
  6
CONTINUOUS
 10
7.4310347481
 20
3.9013554737
 11
7.4310347481
 21
3.9513554737
  0
LINE
  5
899
100
AcDbEntity
  8
0
100
AcDbLine
 62
7
  6
CONTINUOUS
 10
7.4347099675
 20
3.2113554737
 11
7.4347099675
 21
3.2513554737
  0
LINE
  5
89A
100
AcDbEntity
  8
0
100
AcDbLine
 62
7
  6
CONTINUOUS
 10
7.4358034455
 20
3.9513554737
 11
7.4358034455
 21
3.9013554737
  0
LINE
  5
89B
100
AcDbEntity
  8
DEFAULT_2
100
AcDbLine
 62
8
  6
HIDDEN
 10
7.4360909691
 20
3.9013554737
 11
7.4360909691
 21
3.9513554737
  0
LINE
  5
89C
100
AcDbEntity
  8
0
100
AcDbLine
 62
7
  6
CONTINUOUS
 10
7.440634174
 20
3.2513554737
 11
7.440634174
 21
3.2113554737
  0
LINE
  5
89D
100
AcDbEntity
  8
DEFAULT_2
100
AcDbLine
 62
8
  6
HIDDEN
 10
7.442007536
 20
3.9013554737
 11
7.442007536
 21
3.9513554737
  0
LINE
  5
89E
100
AcDbEntity
  8
DEFAULT_2
100
AcDbLine
 62
8
  6
HIDDEN
 10
7.446418553
 20
3.9513554737
 11
7.446418553
 21
3.9013554737
  0
LINE
  5
89F
100
AcDbEntity
  8
0
100
AcDbLine
 62
7
  6
CONTINUOUS
 10
7.4469729566
 20
3.9013554737
 11
7.4469729566
 21
3.9513554737
  0
LINE
  5
8A0
100
AcDbEntity
  8
0
100
AcDbLine
 62
7
  6
CONTINUOUS
 10
7.4479179737
 20
4.5593554737
 11
7.4479179737
 21
4.3643554737
  0
LINE
  5
8A1
100
AcDbEntity
  8
0
100
AcDbLine
 62
7
  6
CONTINUOUS
 10
7.4515144152
 20
3.2113554737
 11
7.4515144152
 21
3.2513554737
  0
LINE
  5
8A2
100
AcDbEntity
  8
0
100
AcDbLine
 62
7
  6
CONTINUOUS
 10
7.4527788166
 20
3.9013554737
 11
7.4527788166
 21
3.9513554737
  0
LINE
  5
8A3
100
AcDbEntity
  8
0
100
AcDbLine
 62
7
  6
CONTINUOUS
 10
7.4568268966
 20
3.9513554737
 11
7.4568268966
 21
3.9013554737
  0
LINE
  5
8A4
100
AcDbEntity
  8
DEFAULT_2
100
AcDbLine
 62
8
  6
HIDDEN
 10
7.4576475194
 20
3.9013554737
 11
7.4576475194
 21
3.9513554737
  0
LINE
  5
8A5
100
AcDbEntity
  8
0
100
AcDbLine
 62
7
  6
CONTINUOUS
 10
7.4578612872
 20
3.2113554737
 11
7.4578612872
 21
3.2513554737
  0
LINE
  5
8A6
100
AcDbEntity
  8
0
100
AcDbLine
 62
7
  6
CONTINUOUS
 10
7.4632707226
 20
3.2513554737
 11
7.4632707226
 21
3.2113554737
  0
LINE
  5
8A7
100
AcDbEntity
  8
DEFAULT_2
100
AcDbLine
 62
8
  6
HIDDEN
 10
7.4633357537
 20
3.9013554737
 11
7.4633357537
 21
3.9513554737
  0
LINE
  5
8A8
100
AcDbEntity
  8
DEFAULT_2
100
AcDbLine
 62
8
  6
HIDDEN
 10
7.4670160725
 20
3.9513554737
 11
7.4670160725
 21
3.9013554737
  0
LINE
  5
8A9
100
AcDbEntity
  8
0
100
AcDbLine
 62
7
  6
CONTINUOUS
 10
7.4681019365
 20
3.9013554737
 11
7.4681019365
 21
3.9513554737
  0
LINE
  5
8AA
100
AcDbEntity
  8
0
100
AcDbLine
 62
7
  6
CONTINUOUS
 10
7.4729179737
 20
4.0738554737
 11
7.4729179737
 21
4.0288554737
  0
LINE
  5
8AB
100
AcDbEntity
  8
0
100
AcDbLine
 62
7
  6
CONTINUOUS
 10
7.4736657662
 20
3.9013554737
 11
7.4736657662
 21
3.9513554737
  0
LINE
  5
8AC
100
AcDbEntity
  8
0
100
AcDbLine
 62
7
  6
CONTINUOUS
 10
7.4743051055
 20
3.2113554737
 11
7.4743051055
 21
3.2513554737
  0
LINE
  5
8AD
100
AcDbEntity
  8
0
100
AcDbLine
 62
7
  6
CONTINUOUS
 10
7.476973938
 20
3.9513554737
 11
7.476973938
 21
3.9013554737
  0
LINE
  5
8AE
100
AcDbEntity
  8
DEFAULT_2
100
AcDbLine
 62
8
  6
HIDDEN
 10
7.4783237493
 20
3.9013554737
 11
7.4783237493
 21
3.9513554737
  0
LINE
  5
8AF
100
AcDbEntity
  8
0
100
AcDbLine
 62
7
  6
CONTINUOUS
 10
7.4805056902
 20
3.2113554737
 11
7.4805056902
 21
3.2513554737
  0
LINE
  5
8B0
100
AcDbEntity
  8
DEFAULT_2
100
AcDbLine
 62
8
  6
HIDDEN
 10
7.4837565439
 20
3.9013554737
 11
7.4837565439
 21
3.9513554737
  0
LINE
  5
8B1
100
AcDbEntity
  8
0
100
AcDbLine
 62
7
  6
CONTINUOUS
 10
7.4853855275
 20
3.2513554737
 11
7.4853855275
 21
3.2113554737
  0
LINE
  5
8B2
100
AcDbEntity
  8
DEFAULT_2
100
AcDbLine
 62
8
  6
HIDDEN
 10
7.4866886262
 20
3.9513554737
 11
7.4866886262
 21
3.9013554737
  0
LINE
  5
8B3
100
AcDbEntity
  8
0
100
AcDbLine
 62
7
  6
CONTINUOUS
 10
7.488300776
 20
3.9013554737
 11
7.488300776
 21
3.9513554737
  0
LINE
  5
8B4
100
AcDbEntity
  8
0
100
AcDbLine
 62
7
  6
CONTINUOUS
 10
7.4935960612
 20
3.9013554737
 11
7.4935960612
 21
3.9513554737
  0
LINE
  5
8B5
100
AcDbEntity
  8
0
100
AcDbLine
 62
7
  6
CONTINUOUS
 10
7.4961485598
 20
3.9513554737
 11
7.4961485598
 21
3.9013554737
  0
LINE
  5
8B6
100
AcDbEntity
  8
0
100
AcDbLine
 62
7
  6
CONTINUOUS
 10
7.4965438076
 20
3.2113554737
 11
7.4965438076
 21
3.2513554737
  0
LINE
  5
8B7
100
AcDbEntity
  8
DEFAULT_2
100
AcDbLine
 62
8
  6
HIDDEN
 10
7.4980211271
 20
3.9013554737
 11
7.4980211271
 21
3.9513554737
  0
LINE
  5
8B8
100
AcDbEntity
  8
0
100
AcDbLine
 62
7
  6
CONTINUOUS
 10
7.5025811096
 20
3.2113554737
 11
7.5025811096
 21
3.2513554737
  0
LINE
  5
8B9
100
AcDbEntity
  8
DEFAULT_2
100
AcDbLine
 62
8
  6
HIDDEN
 10
7.5031725923
 20
3.9013554737
 11
7.5031725923
 21
3.9513554737
  0
LINE
  5
8BA
100
AcDbEntity
  8
DEFAULT_2
100
AcDbLine
 62
8
  6
HIDDEN
 10
7.5053424654
 20
3.9513554737
 11
7.5053424654
 21
3.9013554737
  0
LINE
  5
8BB
100
AcDbEntity
  8
0
100
AcDbLine
 62
7
  6
CONTINUOUS
 10
7.5069179737
 20
3.2513554737
 11
7.5069179737
 21
3.2113554737
  0
LINE
  5
8BC
100
AcDbEntity
  8
0
100
AcDbLine
 62
7
  6
CONTINUOUS
 10
7.5074732184
 20
3.9013554737
 11
7.5074732184
 21
3.9513554737
  0
LINE
  5
8BD
100
AcDbEntity
  8
0
100
AcDbLine
 62
7
  6
CONTINUOUS
 10
7.5124747247
 20
3.9013554737
 11
7.5124747247
 21
3.9513554737
  0
LINE
  5
8BE
100
AcDbEntity
  8
0
100
AcDbLine
 62
7
  6
CONTINUOUS
 10
7.5142593862
 20
3.9513554737
 11
7.5142593862
 21
3.9013554737
  0
LINE
  5
8BF
100
AcDbEntity
  8
DEFAULT_2
100
AcDbLine
 62
8
  6
HIDDEN
 10
7.5166457858
 20
3.9013554737
 11
7.5166457858
 21
3.9513554737
  0
LINE
  5
8C0
100
AcDbEntity
  8
0
100
AcDbLine
 62
7
  6
CONTINUOUS
 10
7.5181695669
 20
3.2113554737
 11
7.5181695669
 21
3.2513554737
  0
LINE
  5
8C1
100
AcDbEntity
  8
DEFAULT_2
100
AcDbLine
 62
8
  6
HIDDEN
 10
7.5214913727
 20
3.9013554737
 11
7.5214913727
 21
3.9513554737
  0
LINE
  5
8C2
100
AcDbEntity
  8
DEFAULT_2
100
AcDbLine
 62
8
  6
HIDDEN
 10
7.522888696
 20
3.9513554737
 11
7.522888696
 21
3.9013554737
  0
LINE
  5
8C3
100
AcDbEntity
  8
0
100
AcDbLine
 62
7
  6
CONTINUOUS
 10
7.5240270384
 20
3.2113554737
 11
7.5240270384
 21
3.2513554737
  0
LINE
  5
8C4
100
AcDbEntity
  8
0
100
AcDbLine
 62
7
  6
CONTINUOUS
 10
7.5255278982
 20
3.9013554737
 11
7.5255278982
 21
3.9513554737
  0
LINE
  5
8C5
100
AcDbEntity
  8
0
100
AcDbLine
 62
7
  6
CONTINUOUS
 10
7.527809042
 20
3.2513554737
 11
7.527809042
 21
3.2113554737
  0
LINE
  5
8C6
100
AcDbEntity
  8
0
100
AcDbLine
 62
7
  6
CONTINUOUS
 10
7.5302117911
 20
3.9013554737
 11
7.5302117911
 21
3.9513554737
  0
LINE
  5
8C7
100
AcDbEntity
  8
0
100
AcDbLine
 62
7
  6
CONTINUOUS
 10
7.5312201109
 20
3.9513554737
 11
7.5312201109
 21
3.9013554737
  0
LINE
  5
8C8
100
AcDbEntity
  8
DEFAULT_2
100
AcDbLine
 62
8
  6
HIDDEN
 10
7.5341089706
 20
3.9013554737
 11
7.5341089706
 21
3.9513554737
  0
LINE
  5
8C9
100
AcDbEntity
  8
DEFAULT_2
100
AcDbLine
 62
8
  6
HIDDEN
 10
7.5386255876
 20
3.9013554737
 11
7.5386255876
 21
3.9513554737
  0
LINE
  5
8CA
100
AcDbEntity
  8
0
100
AcDbLine
 62
7
  6
CONTINUOUS
 10
7.5391231086
 20
3.2113554737
 11
7.5391231086
 21
3.2513554737
  0
LINE
  5
8CB
100
AcDbEntity
  8
DEFAULT_2
100
AcDbLine
 62
8
  6
HIDDEN
 10
7.5392437023
 20
3.9513554737
 11
7.5392437023
 21
3.9013554737
  0
LINE
  5
8CC
100
AcDbEntity
  8
0
100
AcDbLine
 62
7
  6
CONTINUOUS
 10
7.5423787767
 20
3.9013554737
 11
7.5423787767
 21
3.9513554737
  0
LINE
  5
8CD
100
AcDbEntity
  8
0
100
AcDbLine
 62
7
  6
CONTINUOUS
 10
7.5447846946
 20
3.2113554737
 11
7.5447846946
 21
3.2513554737
  0
LINE
  5
8CE
100
AcDbEntity
  8
0
100
AcDbLine
 62
7
  6
CONTINUOUS
 10
7.5467227353
 20
3.9013554737
 11
7.5467227353
 21
3.9513554737
  0
LINE
  5
8CF
100
AcDbEntity
  8
0
100
AcDbLine
 62
7
  6
CONTINUOUS
 10
7.5469499083
 20
3.9513554737
 11
7.5469499083
 21
3.9013554737
  0
LINE
  5
8D0
100
AcDbEntity
  8
0
100
AcDbLine
 62
7
  6
CONTINUOUS
 10
7.5480014717
 20
3.2513554737
 11
7.5480014717
 21
3.2113554737
  0
LINE
  5
8D1
100
AcDbEntity
  8
DEFAULT_2
100
AcDbLine
 62
8
  6
HIDDEN
 10
7.5503274612
 20
3.9013554737
 11
7.5503274612
 21
3.9513554737
  0
LINE
  5
8D2
100
AcDbEntity
  8
DEFAULT_2
100
AcDbLine
 62
8
  6
HIDDEN
 10
7.5543295452
 20
3.9513554737
 11
7.5543295452
 21
3.9013554737
  0
LINE
  5
8D3
100
AcDbEntity
  8
DEFAULT_2
100
AcDbLine
 62
8
  6
HIDDEN
 10
7.5544935847
 20
3.9013554737
 11
7.5544935847
 21
3.9513554737
  0
LINE
  5
8D4
100
AcDbEntity
  8
0
100
AcDbLine
 62
7
  6
CONTINUOUS
 10
7.5579455517
 20
3.9013554737
 11
7.5579455517
 21
3.9513554737
  0
LINE
  5
8D5
100
AcDbEntity
  8
0
100
AcDbLine
 62
7
  6
CONTINUOUS
 10
7.5593470005
 20
3.2113554737
 11
7.5593470005
 21
3.2513554737
  0
LINE
  5
8D6
100
AcDbEntity
  8
DEFAULT_2
100
AcDbLine
 62
8
  6
HIDDEN
 10
7.5613738186
 20
3.9513554737
 11
7.5613738186
 21
3.9013554737
  0
LINE
  5
8D7
100
AcDbEntity
  8
0
100
AcDbLine
 62
7
  6
CONTINUOUS
 10
7.5619288751
 20
3.9013554737
 11
7.5619288751
 21
3.9513554737
  0
LINE
  5
8D8
100
AcDbEntity
  8
0
100
AcDbLine
 62
7
  6
CONTINUOUS
 10
7.5647971831
 20
3.2113554737
 11
7.5647971831
 21
3.2513554737
  0
LINE
  5
8D9
100
AcDbEntity
  8
DEFAULT_2
100
AcDbLine
 62
8
  6
HIDDEN
 10
7.5652239694
 20
3.9013554737
 11
7.5652239694
 21
3.9513554737
  0
LINE
  5
8DA
100
AcDbEntity
  8
0
100
AcDbLine
 62
7
  6
CONTINUOUS
 10
7.5674399167
 20
3.2513554737
 11
7.5674399167
 21
3.2113554737
  0
LINE
  5
8DB
100
AcDbEntity
  8
DEFAULT_2
100
AcDbLine
 62
8
  6
HIDDEN
 10
7.5680743338
 20
3.9513554737
 11
7.5680743338
 21
3.9013554737
  0
LINE
  5
8DC
100
AcDbEntity
  8
DEFAULT_2
100
AcDbLine
 62
8
  6
HIDDEN
 10
7.5690197457
 20
3.9013554737
 11
7.5690197457
 21
3.9513554737
  0
LINE
  5
8DD
100
AcDbEntity
  8
0
100
AcDbLine
 62
7
  6
CONTINUOUS
 10
7.5721540405
 20
3.9013554737
 11
7.5721540405
 21
3.9513554737
  0
LINE
  5
8DE
100
AcDbEntity
  8
0
100
AcDbLine
 62
7
  6
CONTINUOUS
 10
7.5729179737
 20
3.2913554737
 11
7.5729179737
 21
3.2863554737
  0
LINE
  5
8DF
100
AcDbEntity
  8
DEFAULT_2
100
AcDbLine
 62
8
  6
HIDDEN
 10
7.5744231056
 20
3.9513554737
 11
7.5744231056
 21
3.9013554737
  0
LINE
  5
8E0
100
AcDbEntity
  8
0
100
AcDbLine
 62
7
  6
CONTINUOUS
 10
7.5757577463
 20
3.9013554737
 11
7.5757577463
 21
3.9513554737
  0
LINE
  5
8E1
100
AcDbEntity
  8
DEFAULT_2
100
AcDbLine
 62
8
  6
HIDDEN
 10
7.5787275064
 20
3.9013554737
 11
7.5787275064
 21
3.9513554737
  0
LINE
  5
8E2
100
AcDbEntity
  8
0
100
AcDbLine
 62
7
  6
CONTINUOUS
 10
7.5787858104
 20
3.2113554737
 11
7.5787858104
 21
3.2513554737
  0
LINE
  5
8E3
100
AcDbEntity
  8
DEFAULT_2
100
AcDbLine
 62
8
  6
HIDDEN
 10
7.580412568
 20
3.9513554737
 11
7.580412568
 21
3.9013554737
  0
LINE
  5
8E4
100
AcDbEntity
  8
DEFAULT_2
100
AcDbLine
 62
8
  6
HIDDEN
 10
7.582134847
 20
3.9013554737
 11
7.582134847
 21
3.9513554737
  0
LINE
  5
8E5
100
AcDbEntity
  8
0
100
AcDbLine
 62
7
  6
CONTINUOUS
 10
7.5840096509
 20
3.2113554737
 11
7.5840096509
 21
3.2513554737
  0
LINE
  5
8E6
100
AcDbEntity
  8
0
100
AcDbLine
 62
7
  6
CONTINUOUS
 10
7.5849365332
 20
3.9013554737
 11
7.5849365332
 21
3.9513554737
  0
LINE
  5
8E7
100
AcDbEntity
  8
0
100
AcDbLine
 62
7
  6
CONTINUOUS
 10
7.5854179737
 20
3.9013554737
 11
7.5854179737
 21
3.2913554737
  0
LINE
  5
8E8
100
AcDbEntity
  8
DEFAULT_2
100
AcDbLine
 62
8
  6
HIDDEN
 10
7.5860355832
 20
3.9513554737
 11
7.5860355832
 21
3.9013554737
  0
LINE
  5
8E9
100
AcDbEntity
  8
0
100
AcDbLine
 62
7
  6
CONTINUOUS
 10
7.5860710974
 20
3.2513554737
 11
7.5860710974
 21
3.2113554737
  0
LINE
  5
8EA
100
AcDbEntity
  8
0
100
AcDbLine
 62
7
  6
CONTINUOUS
 10
7.5881434482
 20
3.9013554737
 11
7.5881434482
 21
3.9513554737
  0
LINE
  5
8EB
100
AcDbEntity
  8
DEFAULT_2
100
AcDbLine
 62
8
  6
HIDDEN
 10
7.5907737216
 20
3.9013554737
 11
7.5907737216
 21
3.9513554737
  0
LINE
  5
8EC
100
AcDbEntity
  8
DEFAULT_2
100
AcDbLine
 62
8
  6
HIDDEN
 10
7.5912854503
 20
3.9513554737
 11
7.5912854503
 21
3.9013554737
  0
LINE
  5
8ED
100
AcDbEntity
  8
DEFAULT_2
100
AcDbLine
 62
8
  6
HIDDEN
 10
7.5937763891
 20
3.9013554737
 11
7.5937763891
 21
3.9513554737
  0
LINE
  5
8EE
100
AcDbEntity
  8
DEFAULT_2
100
AcDbLine
 62
8
  6
HIDDEN
 10
7.5961559129
 20
3.9513554737
 11
7.5961559129
 21
3.9013554737
  0
LINE
  5
8EF
100
AcDbEntity
  8
0
100
AcDbLine
 62
7
  6
CONTINUOUS
 10
7.5962321154
 20
3.9013554737
 11
7.5962321154
 21
3.9513554737
  0
LINE
  5
8F0
100
AcDbEntity
  8
0
100
AcDbLine
 62
7
  6
CONTINUOUS
 10
7.5973862578
 20
3.2113554737
 11
7.5973862578
 21
3.2513554737
  0
LINE
  5
8F1
100
AcDbEntity
  8
0
100
AcDbLine
 62
7
  6
CONTINUOUS
 10
7.599026957
 20
3.9013554737
 11
7.599026957
 21
3.9513554737
  0
LINE
  5
8F2
100
AcDbEntity
  8
DEFAULT_2
100
AcDbLine
 62
8
  6
HIDDEN
 10
7.6006411667
 20
3.9513554737
 11
7.6006411667
 21
3.9013554737
  0
LINE
  5
8F3
100
AcDbEntity
  8
DEFAULT_2
100
AcDbLine
 62
8
  6
HIDDEN
 10
7.6013052095
 20
3.9013554737
 11
7.6013052095
 21
3.9513554737
  0
LINE
  5
8F4
100
AcDbEntity
  8
0
100
AcDbLine
 62
7
  6
CONTINUOUS
 10
7.6023694381
 20
3.2113554737
 11
7.6023694381
 21
3.2513554737
  0
LINE
  5
8F5
100
AcDbEntity
  8
0
100
AcDbLine
 62
7
  6
CONTINUOUS
 10
7.6038439472
 20
3.2513554737
 11
7.6038439472
 21
3.2113554737
  0
LINE
  5
8F6
100
AcDbEntity
  8
DEFAULT_2
100
AcDbLine
 62
8
  6
HIDDEN
 10
7.6038888947
 20
3.9013554737
 11
7.6038888947
 21
3.9513554737
  0
LINE
  5
8F7
100
AcDbEntity
  8
DEFAULT_2
100
AcDbLine
 62
8
  6
HIDDEN
 10
7.6047358666
 20
3.9513554737
 11
7.6047358666
 21
3.9013554737
  0
LINE
  5
8F8
100
AcDbEntity
  8
0
100
AcDbLine
 62
7
  6
CONTINUOUS
 10
7.6059869584
 20
3.9013554737
 11
7.6059869584
 21
3.9513554737
  0
LINE
  5
8F9
100
AcDbEntity
  8
0
100
AcDbLine
 62
7
  6
CONTINUOUS
 10
7.6083564081
 20
3.9013554737
 11
7.6083564081
 21
3.9513554737
  0
LINE
  5
8FA
100
AcDbEntity
  8
DEFAULT_2
100
AcDbLine
 62
8
  6
HIDDEN
 10
7.6084351328
 20
3.9513554737
 11
7.6084351328
 21
3.9013554737
  0
LINE
  5
8FB
100
AcDbEntity
  8
DEFAULT_2
100
AcDbLine
 62
8
  6
HIDDEN
 10
7.6102717827
 20
3.9013554737
 11
7.6102717827
 21
3.9513554737
  0
LINE
  5
8FC
100
AcDbEntity
  8
DEFAULT_2
100
AcDbLine
 62
8
  6
HIDDEN
 10
7.6117345569
 20
3.9513554737
 11
7.6117345569
 21
3.9013554737
  0
LINE
  5
8FD
100
AcDbEntity
  8
DEFAULT_2
100
AcDbLine
 62
8
  6
HIDDEN
 10
7.6124241732
 20
3.9013554737
 11
7.6124241732
 21
3.9513554737
  0
LINE
  5
8FE
100
AcDbEntity
  8
0
100
AcDbLine
 62
7
  6
CONTINUOUS
 10
7.6141545761
 20
3.9013554737
 11
7.6141545761
 21
3.9513554737
  0
LINE
  5
8FF
100
AcDbEntity
  8
DEFAULT_2
100
AcDbLine
 62
8
  6
HIDDEN
 10
7.6146302069
 20
3.9513554737
 11
7.6146302069
 21
3.9013554737
  0
LINE
  5
900
100
AcDbEntity
  8
0
100
AcDbLine
 62
7
  6
CONTINUOUS
 10
7.6150973602
 20
3.2113554737
 11
7.6150973602
 21
3.2513554737
  0
LINE
  5
901
100
AcDbEntity
  8
0
100
AcDbLine
 62
7
  6
CONTINUOUS
 10
7.6160873423
 20
3.9013554737
 11
7.6160873423
 21
3.9513554737
  0
LINE
  5
902
100
AcDbEntity
  8
DEFAULT_2
100
AcDbLine
 62
8
  6
HIDDEN
 10
7.6171186319
 20
3.9513554737
 11
7.6171186319
 21
3.9013554737
  0
LINE
  5
903
100
AcDbEntity
  8
DEFAULT_2
100
AcDbLine
 62
8
  6
HIDDEN
 10
7.6176307113
 20
3.9013554737
 11
7.6176307113
 21
3.9513554737
  0
LINE
  5
904
100
AcDbEntity
  8
DEFAULT_2
100
AcDbLine
 62
8
  6
HIDDEN
 10
7.6191968665
 20
3.9513554737
 11
7.6191968665
 21
3.9013554737
  0
LINE
  5
905
100
AcDbEntity
  8
DEFAULT_2
100
AcDbLine
 62
8
  6
HIDDEN
 10
7.61934155
 20
3.9013554737
 11
7.61934155
 21
3.9513554737
  0
LINE
  5
906
100
AcDbEntity
  8
0
100
AcDbLine
 62
7
  6
CONTINUOUS
 10
7.6198262217
 20
3.2113554737
 11
7.6198262217
 21
3.2513554737
  0
LINE
  5
907
100
AcDbEntity
  8
0
100
AcDbLine
 62
7
  6
CONTINUOUS
 10
7.6206960459
 20
3.9013554737
 11
7.6206960459
 21
3.9513554737
  0
LINE
  5
908
100
AcDbEntity
  8
0
100
AcDbLine
 62
7
  6
CONTINUOUS
 10
7.620709752
 20
3.2513554737
 11
7.620709752
 21
3.2113554737
  0
LINE
  5
909
100
AcDbEntity
  8
DEFAULT_2
100
AcDbLine
 62
8
  6
HIDDEN
 10
7.620862434
 20
3.9513554737
 11
7.620862434
 21
3.9013554737
  0
LINE
  5
90A
100
AcDbEntity
  8
DEFAULT_2
100
AcDbLine
 62
8
  6
HIDDEN
 10
7.6221133495
 20
3.9513554737
 11
7.6221133495
 21
3.9013554737
  0
LINE
  5
90B
100
AcDbEntity
  8
0
100
AcDbLine
 62
7
  6
CONTINUOUS
 10
7.6221829181
 20
3.9013554737
 11
7.6221829181
 21
3.9513554737
  0
LINE
  5
90C
100
AcDbEntity
  8
DEFAULT_2
100
AcDbLine
 62
8
  6
HIDDEN
 10
7.6229481223
 20
3.9513554737
 11
7.6229481223
 21
3.9013554737
  0
LINE
  5
90D
100
AcDbEntity
  8
DEFAULT_2
100
AcDbLine
 62
8
  6
HIDDEN
 10
7.6233469268
 20
3.9013554737
 11
7.6233469268
 21
3.9513554737
  0
LINE
  5
90E
100
AcDbEntity
  8
DEFAULT_2
100
AcDbLine
 62
8
  6
HIDDEN
 10
7.6246080607
 20
3.9013554737
 11
7.6246080607
 21
3.9513554737
  0
LINE
  5
90F
100
AcDbEntity
  8
0
100
AcDbLine
 62
7
  6
CONTINUOUS
 10
7.6254179737
 20
4.5788554737
 11
7.6254179737
 21
4.3448554737
  0
LINE
  5
910
100
AcDbEntity
  8
0
100
AcDbLine
 62
7
  6
CONTINUOUS
 10
7.6255801948
 20
3.9013554737
 11
7.6255801948
 21
3.9513554737
  0
LINE
  5
911
100
AcDbEntity
  8
0
100
AcDbLine
 62
7
  6
CONTINUOUS
 10
7.6266140875
 20
3.9013554737
 11
7.6266140875
 21
3.9513554737
  0
LINE
  5
912
100
AcDbEntity
  8
DEFAULT_2
100
AcDbLine
 62
8
  6
HIDDEN
 10
7.6273931887
 20
3.9013554737
 11
7.6273931887
 21
3.9513554737
  0
LINE
  5
913
100
AcDbEntity
  8
DEFAULT_2
100
AcDbLine
 62
8
  6
HIDDEN
 10
7.6281986079
 20
3.9013554737
 11
7.6281986079
 21
3.9513554737
  0
LINE
  5
914
100
AcDbEntity
  8
0
100
AcDbLine
 62
7
  6
CONTINUOUS
 10
7.6287837477
 20
3.9013554737
 11
7.6287837477
 21
3.9513554737
  0
LINE
  5
915
100
AcDbEntity
  8
0
100
AcDbLine
 62
7
  6
CONTINUOUS
 10
7.6293597338
 20
3.9013554737
 11
7.6293597338
 21
3.9513554737
  0
LINE
  5
916
100
AcDbEntity
  8
DEFAULT_2
100
AcDbLine
 62
8
  6
HIDDEN
 10
7.6297502148
 20
3.9013554737
 11
7.6297502148
 21
3.9513554737
  0
LINE
  5
917
100
AcDbEntity
  8
DEFAULT_2
100
AcDbLine
 62
8
  6
HIDDEN
 10
7.6300960812
 20
3.9013554737
 11
7.6300960812
 21
3.9513554737
  0
LINE
  5
918
100
AcDbEntity
  8
0
100
AcDbLine
 62
7
  6
CONTINUOUS
 10
7.6302914381
 20
3.9013554737
 11
7.6302914381
 21
3.9513554737
  0
LINE
  5
919
100
AcDbEntity
  8
0
100
AcDbLine
 62
7
  6
CONTINUOUS
 10
7.6304067727
 20
3.9013554737
 11
7.6304067727
 21
3.9513554737
  0
LINE
  5
91A
100
AcDbEntity
  8
0
100
AcDbLine
 62
7
  6
CONTINUOUS
 10
7.6318705726
 20
3.2113554737
 11
7.6318705726
 21
3.2513554737
  0
LINE
  5
91B
100
AcDbEntity
  8
0
100
AcDbLine
 62
7
  6
CONTINUOUS
 10
7.636332154
 20
3.2113554737
 11
7.636332154
 21
3.2513554737
  0
LINE
  5
91C
100
AcDbEntity
  8
0
100
AcDbLine
 62
7
  6
CONTINUOUS
 10
7.6366222836
 20
3.2513554737
 11
7.6366222836
 21
3.2113554737
  0
LINE
  5
91D
100
AcDbEntity
  8
DEFAULT_2
100
AcDbLine
 62
8
  6
HIDDEN
 10
7.6429179737
 20
4.5643554737
 11
7.6429179737
 21
4.3593554737
  0
LINE
  5
91E
100
AcDbEntity
  8
0
100
AcDbLine
 62
7
  6
CONTINUOUS
 10
7.647659921
 20
3.2113554737
 11
7.647659921
 21
3.2513554737
  0
LINE
  5
91F
100
AcDbEntity
  8
DEFAULT_2
100
AcDbLine
 62
8
  6
HIDDEN
 10
7.651537927
 20
3.2513554737
 11
7.651537927
 21
3.2113554737
  0
LINE
  5
920
100
AcDbEntity
  8
0
100
AcDbLine
 62
7
  6
CONTINUOUS
 10
7.6518419932
 20
3.2113554737
 11
7.6518419932
 21
3.2513554737
  0
LINE
  5
921
100
AcDbEntity
  8
0
100
AcDbLine
 62
7
  6
CONTINUOUS
 10
7.6624221277
 20
3.2113554737
 11
7.6624221277
 21
3.2513554737
  0
LINE
  5
922
100
AcDbEntity
  8
0
100
AcDbLine
 62
7
  6
CONTINUOUS
 10
7.6629179737
 20
4.6118554737
 11
7.6629179737
 21
4.3118554737
  0
LINE
  5
923
100
AcDbEntity
  8
DEFAULT_2
100
AcDbLine
 62
8
  6
HIDDEN
 10
7.6654157994
 20
3.2513554737
 11
7.6654157994
 21
3.2113554737
  0
LINE
  5
924
100
AcDbEntity
  8
0
100
AcDbLine
 62
7
  6
CONTINUOUS
 10
7.666313228
 20
3.2113554737
 11
7.666313228
 21
3.2513554737
  0
LINE
  5
925
100
AcDbEntity
  8
0
100
AcDbLine
 62
7
  6
CONTINUOUS
 10
7.6761167306
 20
3.2113554737
 11
7.6761167306
 21
3.2513554737
  0
LINE
  5
926
100
AcDbEntity
  8
DEFAULT_2
100
AcDbLine
 62
8
  6
HIDDEN
 10
7.6782178626
 20
3.2513554737
 11
7.6782178626
 21
3.2113554737
  0
LINE
  5
927
100
AcDbEntity
  8
0
100
AcDbLine
 62
7
  6
CONTINUOUS
 10
7.6797061938
 20
3.2113554737
 11
7.6797061938
 21
3.2513554737
  0
LINE
  5
928
100
AcDbEntity
  8
0
100
AcDbLine
 62
7
  6
CONTINUOUS
 10
7.6887061938
 20
3.2113554737
 11
7.6887061938
 21
3.2513554737
  0
LINE
  5
929
100
AcDbEntity
  8
DEFAULT_2
100
AcDbLine
 62
8
  6
HIDDEN
 10
7.689909027
 20
3.2513554737
 11
7.689909027
 21
3.2113554737
  0
LINE
  5
92A
100
AcDbEntity
  8
0
100
AcDbLine
 62
7
  6
CONTINUOUS
 10
7.6919841813
 20
3.2113554737
 11
7.6919841813
 21
3.2513554737
  0
LINE
  5
92B
100
AcDbEntity
  8
0
100
AcDbLine
 62
7
  6
CONTINUOUS
 10
7.7001560103
 20
3.2113554737
 11
7.7001560103
 21
3.2513554737
  0
LINE
  5
92C
100
AcDbEntity
  8
DEFAULT_2
100
AcDbLine
 62
8
  6
HIDDEN
 10
7.7004572478
 20
3.2513554737
 11
7.7004572478
 21
3.2113554737
  0
LINE
  5
92D
100
AcDbEntity
  8
0
100
AcDbLine
 62
7
  6
CONTINUOUS
 10
7.7031135375
 20
3.2113554737
 11
7.7031135375
 21
3.2513554737
  0
LINE
  5
92E
100
AcDbEntity
  8
DEFAULT_2
100
AcDbLine
 62
8
  6
HIDDEN
 10
7.7098336133
 20
3.2513554737
 11
7.7098336133
 21
3.2113554737
  0
LINE
  5
92F
100
AcDbEntity
  8
0
100
AcDbLine
 62
7
  6
CONTINUOUS
 10
7.7104347971
 20
3.2113554737
 11
7.7104347971
 21
3.2513554737
  0
LINE
  5
930
100
AcDbEntity
  8
0
100
AcDbLine
 62
7
  6
CONTINUOUS
 10
7.7130637575
 20
3.2113554737
 11
7.7130637575
 21
3.2513554737
  0
LINE
  5
931
100
AcDbEntity
  8
DEFAULT_2
100
AcDbLine
 62
8
  6
HIDDEN
 10
7.7180124233
 20
3.2513554737
 11
7.7180124233
 21
3.2113554737
  0
LINE
  5
932
100
AcDbEntity
  8
0
100
AcDbLine
 62
7
  6
CONTINUOUS
 10
7.7195143806
 20
3.2113554737
 11
7.7195143806
 21
3.2513554737
  0
LINE
  5
933
100
AcDbEntity
  8
0
100
AcDbLine
 62
7
  6
CONTINUOUS
 10
7.7218075686
 20
3.2113554737
 11
7.7218075686
 21
3.2513554737
  0
LINE
  5
934
100
AcDbEntity
  8
0
100
AcDbLine
 62
7
  6
CONTINUOUS
 10
7.7229179737
 20
3.2113554737
 11
7.7229179737
 21
3.1613554737
  0
LINE
  5
935
100
AcDbEntity
  8
DEFAULT_2
100
AcDbLine
 62
8
  6
HIDDEN
 10
7.7249712604
 20
3.2513554737
 11
7.7249712604
 21
3.2113554737
  0
LINE
  5
936
100
AcDbEntity
  8
0
100
AcDbLine
 62
7
  6
CONTINUOUS
 10
7.7254179737
 20
4.6118554737
 11
7.7254179737
 21
4.3118554737
  0
LINE
  5
937
100
AcDbEntity
  8
0
100
AcDbLine
 62
7
  6
CONTINUOUS
 10
7.7273698745
 20
3.2113554737
 11
7.7273698745
 21
3.2513554737
  0
LINE
  5
938
100
AcDbEntity
  8
0
100
AcDbLine
 62
7
  6
CONTINUOUS
 10
7.7293210045
 20
3.2113554737
 11
7.7293210045
 21
3.2513554737
  0
LINE
  5
939
100
AcDbEntity
  8
DEFAULT_2
100
AcDbLine
 62
8
  6
HIDDEN
 10
7.7306910508
 20
3.2513554737
 11
7.7306910508
 21
3.2113554737
  0
LINE
  5
93A
100
AcDbEntity
  8
0
100
AcDbLine
 62
7
  6
CONTINUOUS
 10
7.7339797473
 20
3.2113554737
 11
7.7339797473
 21
3.2513554737
  0
LINE
  5
93B
100
AcDbEntity
  8
DEFAULT_2
100
AcDbLine
 62
8
  6
HIDDEN
 10
7.735156117
 20
3.2513554737
 11
7.735156117
 21
3.2113554737
  0
LINE
  5
93C
100
AcDbEntity
  8
0
100
AcDbLine
 62
7
  6
CONTINUOUS
 10
7.7355834713
 20
3.2113554737
 11
7.7355834713
 21
3.2513554737
  0
LINE
  5
93D
100
AcDbEntity
  8
DEFAULT_2
100
AcDbLine
 62
8
  6
HIDDEN
 10
7.7383542207
 20
3.2513554737
 11
7.7383542207
 21
3.2113554737
  0
LINE
  5
93E
100
AcDbEntity
  8
0
100
AcDbLine
 62
7
  6
CONTINUOUS
 10
7.7393258818
 20
3.2113554737
 11
7.7393258818
 21
3.2513554737
  0
LINE
  5
93F
100
AcDbEntity
  8
DEFAULT_2
100
AcDbLine
 62
8
  6
HIDDEN
 10
7.7402765959
 20
3.2513554737
 11
7.7402765959
 21
3.2113554737
  0
LINE
  5
940
100
AcDbEntity
  8
0
100
AcDbLine
 62
7
  6
CONTINUOUS
 10
7.7405778043
 20
3.2113554737
 11
7.7405778043
 21
3.2513554737
  0
LINE
  5
941
100
AcDbEntity
  8
DEFAULT_2
100
AcDbLine
 62
8
  6
HIDDEN
 10
7.7409179737
 20
3.2513554737
 11
7.7409179737
 21
3.2113554737
  0
LINE
  5
942
100
AcDbEntity
  8
0
100
AcDbLine
 62
7
  6
CONTINUOUS
 10
7.7433936246
 20
3.2113554737
 11
7.7433936246
 21
3.2513554737
  0
LINE
  5
943
100
AcDbEntity
  8
0
100
AcDbLine
 62
7
  6
CONTINUOUS
 10
7.7442903141
 20
3.2113554737
 11
7.7442903141
 21
3.2513554737
  0
LINE
  5
944
100
AcDbEntity
  8
0
100
AcDbLine
 62
7
  6
CONTINUOUS
 10
7.7461718264
 20
3.2113554737
 11
7.7461718264
 21
3.2513554737
  0
LINE
  5
945
100
AcDbEntity
  8
0
100
AcDbLine
 62
7
  6
CONTINUOUS
 10
7.7467108251
 20
3.2113554737
 11
7.7467108251
 21
3.2513554737
  0
LINE
  5
946
100
AcDbEntity
  8
0
100
AcDbLine
 62
7
  6
CONTINUOUS
 10
7.7476528723
 20
3.2113554737
 11
7.7476528723
 21
3.2513554737
  0
LINE
  5
947
100
AcDbEntity
  8
0
100
AcDbLine
 62
7
  6
CONTINUOUS
 10
7.7478327028
 20
3.2113554737
 11
7.7478327028
 21
3.2513554737
  0
LINE
  5
948
100
AcDbEntity
  8
0
100
AcDbLine
 62
7
  6
CONTINUOUS
 10
7.7479179737
 20
3.1363554737
 11
7.7479179737
 21
3.0963554737
  0
LINE
  5
949
100
AcDbEntity
  8
0
100
AcDbLine
 62
7
  6
CONTINUOUS
 10
9.0154179737
 20
4.6231054737
 11
9.0154179737
 21
4.3006054737
  0
LINE
  5
94A
100
AcDbEntity
  8
0
100
AcDbLine
 62
7
  6
CONTINUOUS
 10
9.0754179737
 20
4.6231054737
 11
9.0754179737
 21
4.3006054737
  0
ARC
  5
94B
100
AcDbEntity
  8
0
100
AcDbCircle
 62
7
  6
CONTINUOUS
 10
4.7314710136
 20
3.3463554737
 40
0.05
100
AcDbArc
 50
270.0
 51
332.5135737496
  0
ARC
  5
94C
100
AcDbEntity
  8
DEFAULT_2
100
AcDbCircle
 62
8
  6
HIDDEN
 10
2.8566679737
 20
3.2863554737
 40
0.035
100
AcDbArc
 50
270.0
 51
272.6867554399
  0
ARC
  5
94D
100
AcDbEntity
  8
DEFAULT_2
100
AcDbCircle
 62
8
  6
HIDDEN
 10
3.6891679737
 20
3.2863554737
 40
0.035
100
AcDbArc
 50
267.3132445601
 51
270.0
  0
ARC
  5
94E
100
AcDbEntity
  8
0
100
AcDbCircle
 62
7
  6
CONTINUOUS
 10
2.8566679737
 20
3.2863554737
 40
0.035
100
AcDbArc
 50
272.6867554399
 51
342.5423968763
  0
ARC
  5
94F
100
AcDbEntity
  8
0
100
AcDbCircle
 62
7
  6
CONTINUOUS
 10
3.6891679737
 20
3.2863554737
 40
0.035
100
AcDbArc
 50
197.4576031237
 51
267.3132445601
  0
ARC
  5
950
100
AcDbEntity
  8
0
100
AcDbCircle
 62
7
  6
CONTINUOUS
 10
4.7891338266
 20
3.3163554737
 40
0.015
100
AcDbArc
 50
90.0
 51
152.5135737496
  0
ARC
  5
951
100
AcDbEntity
  8
0
100
AcDbCircle
 62
7
  6
CONTINUOUS
 10
2.9043649337
 20
3.2713554737
 40
0.015
100
AcDbArc
 50
90.0
 51
162.5423968763
  0
ARC
  5
952
100
AcDbEntity
  8
0
100
AcDbCircle
 62
7
  6
CONTINUOUS
 10
3.6414710136
 20
3.2713554737
 40
0.015
100
AcDbArc
 50
17.4576031237
 51
90.0
  0
ARC
  5
953
100
AcDbEntity
  8
0
100
AcDbCircle
 62
7
  6
CONTINUOUS
 10
3.0979179737
 20
4.2868554737
 40
0.2725
100
AcDbArc
 50
0.0
 51
90.0
  0
ARC
  5
954
100
AcDbEntity
  8
DEFAULT_2
100
AcDbCircle
 62
8
  6
HIDDEN
 10
2.9271647982
 20
4.0763554737
 40
0.125
100
AcDbArc
 50
270.0
 51
272.0884305704
  0
ARC
  5
955
100
AcDbEntity
  8
0
100
AcDbCircle
 62
7
  6
CONTINUOUS
 10
2.9271647982
 20
4.0763554737
 40
0.125
100
AcDbArc
 50
272.0884305704
 51
326.3876254015
  0
ARC
  5
956
100
AcDbEntity
  8
0
100
AcDbCircle
 62
7
  6
CONTINUOUS
 10
3.0979179737
 20
4.2868554737
 40
0.0775
100
AcDbArc
 50
0.0
 51
90.0
  0
ARC
  5
957
100
AcDbEntity
  8
0
100
AcDbCircle
 62
7
  6
CONTINUOUS
 10
2.9204179737
 20
4.3070486555
 40
0.0378068182
100
AcDbArc
 50
90.0
 51
172.6955544394
  0
ARC
  5
958
100
AcDbEntity
  8
0
100
AcDbCircle
 62
7
  6
CONTINUOUS
 10
3.1191679737
 20
4.2343554737
 40
0.03
100
AcDbArc
 50
90.0
 51
262.8192442185
  0
ARC
  5
959
100
AcDbEntity
  8
0
100
AcDbCircle
 62
7
  6
CONTINUOUS
 10
1.5004179737
 20
4.3006054737
 40
0.03
100
AcDbArc
 50
180.0
 51
360.0
  0
ARC
  5
95A
100
AcDbEntity
  8
0
100
AcDbCircle
 62
7
  6
CONTINUOUS
 10
3.0879179737
 20
4.0738554737
 40
0.015
100
AcDbArc
 50
90.0
 51
180.0
  0
ARC
  5
95B
100
AcDbEntity
  8
0
100
AcDbCircle
 62
7
  6
CONTINUOUS
 10
3.0579179737
 20
4.0288554737
 40
0.015
100
AcDbArc
 50
270.0
 51
360.0
  0
ARC
  5
95C
100
AcDbEntity
  8
0
100
AcDbCircle
 62
7
  6
CONTINUOUS
 10
3.0437570363
 20
3.9988554737
 40
0.015
100
AcDbArc
 50
90.0
 51
146.3876254015
  0
ARC
  5
95D
100
AcDbEntity
  8
0
100
AcDbCircle
 62
7
  6
CONTINUOUS
 10
3.1141679737
 20
4.194669204
 40
0.01
100
AcDbArc
 50
0.0
 51
82.8192442186
  0
ARC
  5
95E
100
AcDbEntity
  8
0
100
AcDbCircle
 62
7
  6
CONTINUOUS
 10
3.1654179737
 20
4.2743554737
 40
0.01
100
AcDbArc
 50
270.0
 51
360.0
  0
ARC
  5
95F
100
AcDbEntity
  8
0
100
AcDbCircle
 62
7
  6
CONTINUOUS
 10
2.9204179737
 20
4.6166622918
 40
0.0378068182
100
AcDbArc
 50
187.3044455606
 51
270.0
  0
ARC
  5
960
100
AcDbEntity
  8
0
100
AcDbCircle
 62
7
  6
CONTINUOUS
 10
2.8516679737
 20
4.6118554737
 40
0.03125
100
AcDbArc
 50
0.0
 51
180.0
  0
ARC
  5
961
100
AcDbEntity
  8
0
100
AcDbCircle
 62
7
  6
CONTINUOUS
 10
2.8516679737
 20
4.3118554737
 40
0.03125
100
AcDbArc
 50
180.0
 51
360.0
  0
ARC
  5
962
100
AcDbEntity
  8
0
100
AcDbCircle
 62
7
  6
CONTINUOUS
 10
1.5004179737
 20
4.6231054737
 40
0.03
100
AcDbArc
 50
0.0
 51
180.0
  0
ARC
  5
963
100
AcDbEntity
  8
DEFAULT_2
100
AcDbCircle
 62
8
  6
HIDDEN
 10
4.8335568291
 20
4.1413554737
 40
0.16
100
AcDbArc
 50
270.0
 51
271.6664933038
  0
ARC
  5
964
100
AcDbEntity
  8
0
100
AcDbCircle
 62
7
  6
CONTINUOUS
 10
4.8335568291
 20
4.1413554737
 40
0.16
100
AcDbArc
 50
271.6664933038
 51
319.9947991151
  0
ARC
  5
965
100
AcDbEntity
  8
DEFAULT_2
100
AcDbCircle
 62
8
  6
HIDDEN
 10
3.6186711491
 20
4.0763554737
 40
0.125
100
AcDbArc
 50
267.9115694296
 51
270.0
  0
ARC
  5
966
100
AcDbEntity
  8
0
100
AcDbCircle
 62
7
  6
CONTINUOUS
 10
3.6186711491
 20
4.0763554737
 40
0.125
100
AcDbArc
 50
213.6123745985
 51
267.9115694296
  0
ARC
  5
967
100
AcDbEntity
  8
0
100
AcDbCircle
 62
7
  6
CONTINUOUS
 10
3.4266679737
 20
4.2343554737
 40
0.03
100
AcDbArc
 50
277.1807557815
 51
90.0
  0
ARC
  5
968
100
AcDbEntity
  8
0
100
AcDbCircle
 62
7
  6
CONTINUOUS
 10
4.9676043953
 20
4.0288554737
 40
0.015
100
AcDbArc
 50
90.0
 51
139.9947991151
  0
ARC
  5
969
100
AcDbEntity
  8
0
100
AcDbCircle
 62
7
  6
CONTINUOUS
 10
4.9766679737
 20
4.0588554737
 40
0.015
100
AcDbArc
 50
270.0
 51
360.0
  0
ARC
  5
96A
100
AcDbEntity
  8
0
100
AcDbCircle
 62
7
  6
CONTINUOUS
 10
5.0066679737
 20
4.1038554737
 40
0.015
100
AcDbArc
 50
90.0
 51
180.0
  0
ARC
  5
96B
100
AcDbEntity
  8
0
100
AcDbCircle
 62
7
  6
CONTINUOUS
 10
3.4579179737
 20
4.0738554737
 40
0.015
100
AcDbArc
 50
0.0
 51
90.0
  0
ARC
  5
96C
100
AcDbEntity
  8
0
100
AcDbCircle
 62
7
  6
CONTINUOUS
 10
3.4879179737
 20
4.0288554737
 40
0.015
100
AcDbArc
 50
180.0
 51
270.0
  0
ARC
  5
96D
100
AcDbEntity
  8
0
100
AcDbCircle
 62
7
  6
CONTINUOUS
 10
3.502078911
 20
3.9988554737
 40
0.015
100
AcDbArc
 50
33.6123745985
 51
90.0
  0
ARC
  5
96E
100
AcDbEntity
  8
0
100
AcDbCircle
 62
7
  6
CONTINUOUS
 10
3.4316679737
 20
4.194669204
 40
0.01
100
AcDbArc
 50
97.1807557814
 51
180.0
  0
ARC
  5
96F
100
AcDbEntity
  8
0
100
AcDbCircle
 62
7
  6
CONTINUOUS
 10
3.3804179737
 20
4.2743554737
 40
0.01
100
AcDbArc
 50
180.0
 51
270.0
  0
ARC
  5
970
100
AcDbEntity
  8
DEFAULT_2
100
AcDbCircle
 62
8
  6
HIDDEN
 10
5.8143649337
 20
3.3463554737
 40
0.05
100
AcDbArc
 50
266.5270236806
 51
270.0
  0
ARC
  5
971
100
AcDbEntity
  8
0
100
AcDbCircle
 62
7
  6
CONTINUOUS
 10
5.8143649337
 20
3.3463554737
 40
0.05
100
AcDbArc
 50
207.4864262504
 51
266.5270236806
  0
ARC
  5
972
100
AcDbEntity
  8
DEFAULT_2
100
AcDbCircle
 62
8
  6
HIDDEN
 10
6.8566679737
 20
3.2863554737
 40
0.035
100
AcDbArc
 50
270.0
 51
272.4180798959
  0
ARC
  5
973
100
AcDbEntity
  8
DEFAULT_2
100
AcDbCircle
 62
8
  6
HIDDEN
 10
7.6891679737
 20
3.2863554737
 40
0.035
100
AcDbArc
 50
267.5819201041
 51
270.0
  0
ARC
  5
974
100
AcDbEntity
  8
0
100
AcDbCircle
 62
7
  6
CONTINUOUS
 10
6.8566679737
 20
3.2863554737
 40
0.035
100
AcDbArc
 50
272.4180798959
 51
342.5423968763
  0
ARC
  5
975
100
AcDbEntity
  8
0
100
AcDbCircle
 62
7
  6
CONTINUOUS
 10
7.6891679737
 20
3.2863554737
 40
0.035
100
AcDbArc
 50
197.4576031237
 51
267.5819201041
  0
ARC
  5
976
100
AcDbEntity
  8
0
100
AcDbCircle
 62
7
  6
CONTINUOUS
 10
5.7567021207
 20
3.3163554737
 40
0.015
100
AcDbArc
 50
27.4864262504
 51
90.0
  0
ARC
  5
977
100
AcDbEntity
  8
0
100
AcDbCircle
 62
7
  6
CONTINUOUS
 10
6.9043649337
 20
3.2713554737
 40
0.015
100
AcDbArc
 50
90.0
 51
162.5423968763
  0
ARC
  5
978
100
AcDbEntity
  8
0
100
AcDbCircle
 62
7
  6
CONTINUOUS
 10
7.6414710136
 20
3.2713554737
 40
0.015
100
AcDbArc
 50
17.4576031237
 51
90.0
  0
ARC
  5
979
100
AcDbEntity
  8
DEFAULT_2
100
AcDbCircle
 62
8
  6
HIDDEN
 10
5.7122791182
 20
4.1413554737
 40
0.16
100
AcDbArc
 50
268.3335066962
 51
270.0
  0
ARC
  5
97A
100
AcDbEntity
  8
0
100
AcDbCircle
 62
7
  6
CONTINUOUS
 10
5.7122791182
 20
4.1413554737
 40
0.16
100
AcDbArc
 50
220.0052008849
 51
268.3335066962
  0
ARC
  5
97B
100
AcDbEntity
  8
DEFAULT_2
100
AcDbCircle
 62
8
  6
HIDDEN
 10
6.9271647982
 20
4.0763554737
 40
0.125
100
AcDbArc
 50
270.0
 51
272.0688426862
  0
ARC
  5
97C
100
AcDbEntity
  8
0
100
AcDbCircle
 62
7
  6
CONTINUOUS
 10
6.9271647982
 20
4.0763554737
 40
0.125
100
AcDbArc
 50
272.0688426862
 51
326.3876254015
  0
ARC
  5
97D
100
AcDbEntity
  8
0
100
AcDbCircle
 62
7
  6
CONTINUOUS
 10
7.1191679737
 20
4.2343554737
 40
0.03
100
AcDbArc
 50
90.0
 51
262.8192442185
  0
ARC
  5
97E
100
AcDbEntity
  8
0
100
AcDbCircle
 62
7
  6
CONTINUOUS
 10
5.578231552
 20
4.0288554737
 40
0.015
100
AcDbArc
 50
40.0052008849
 51
90.0
  0
ARC
  5
97F
100
AcDbEntity
  8
0
100
AcDbCircle
 62
7
  6
CONTINUOUS
 10
5.5691679737
 20
4.0588554737
 40
0.015
100
AcDbArc
 50
180.0
 51
270.0
  0
ARC
  5
980
100
AcDbEntity
  8
0
100
AcDbCircle
 62
7
  6
CONTINUOUS
 10
5.5391679737
 20
4.1038554737
 40
0.015
100
AcDbArc
 50
0.0
 51
90.0
  0
ARC
  5
981
100
AcDbEntity
  8
0
100
AcDbCircle
 62
7
  6
CONTINUOUS
 10
7.0437570363
 20
3.9988554737
 40
0.015
100
AcDbArc
 50
90.0
 51
146.3876254015
  0
ARC
  5
982
100
AcDbEntity
  8
0
100
AcDbCircle
 62
7
  6
CONTINUOUS
 10
7.0579179737
 20
4.0288554737
 40
0.015
100
AcDbArc
 50
270.0
 51
360.0
  0
ARC
  5
983
100
AcDbEntity
  8
0
100
AcDbCircle
 62
7
  6
CONTINUOUS
 10
7.0879179737
 20
4.0738554737
 40
0.015
100
AcDbArc
 50
90.0
 51
180.0
  0
ARC
  5
984
100
AcDbEntity
  8
0
100
AcDbCircle
 62
7
  6
CONTINUOUS
 10
7.1141679737
 20
4.194669204
 40
0.01
100
AcDbArc
 50
0.0
 51
82.8192442186
  0
ARC
  5
985
100
AcDbEntity
  8
DEFAULT_2
100
AcDbCircle
 62
8
  6
HIDDEN
 10
5.2729179737
 20
4.7148554737
 40
0.234625
100
AcDbArc
 50
180.0
 51
360.0
  0
ARC
  5
986
100
AcDbEntity
  8
0
100
AcDbCircle
 62
7
  6
CONTINUOUS
 10
5.2729179737
 20
4.7148554737
 40
0.234625
100
AcDbArc
 50
0.0
 51
180.0
  0
ARC
  5
987
100
AcDbEntity
  8
0
100
AcDbCircle
 62
7
  6
CONTINUOUS
 10
7.4479179737
 20
4.2868554737
 40
0.2725
100
AcDbArc
 50
90.0
 51
180.0
  0
ARC
  5
988
100
AcDbEntity
  8
DEFAULT_2
100
AcDbCircle
 62
8
  6
HIDDEN
 10
7.6186711491
 20
4.0763554737
 40
0.125
100
AcDbArc
 50
267.9311573138
 51
270.0
  0
ARC
  5
989
100
AcDbEntity
  8
0
100
AcDbCircle
 62
7
  6
CONTINUOUS
 10
7.6186711491
 20
4.0763554737
 40
0.125
100
AcDbArc
 50
213.6123745985
 51
267.9311573138
  0
ARC
  5
98A
100
AcDbEntity
  8
0
100
AcDbCircle
 62
7
  6
CONTINUOUS
 10
7.4479179737
 20
4.2868554737
 40
0.0775
100
AcDbArc
 50
90.0
 51
180.0
  0
ARC
  5
98B
100
AcDbEntity
  8
0
100
AcDbCircle
 62
7
  6
CONTINUOUS
 10
7.6254179737
 20
4.3070486555
 40
0.0378068182
100
AcDbArc
 50
7.3044455606
 51
90.0
  0
ARC
  5
98C
100
AcDbEntity
  8
0
100
AcDbCircle
 62
7
  6
CONTINUOUS
 10
7.6941679737
 20
4.3118554737
 40
0.03125
100
AcDbArc
 50
180.0
 51
360.0
  0
ARC
  5
98D
100
AcDbEntity
  8
0
100
AcDbCircle
 62
7
  6
CONTINUOUS
 10
9.0454179737
 20
4.3006054737
 40
0.03
100
AcDbArc
 50
180.0
 51
360.0
  0
ARC
  5
98E
100
AcDbEntity
  8
0
100
AcDbCircle
 62
7
  6
CONTINUOUS
 10
7.4266679737
 20
4.2343554737
 40
0.03
100
AcDbArc
 50
277.1807557815
 51
90.0
  0
ARC
  5
98F
100
AcDbEntity
  8
0
100
AcDbCircle
 62
7
  6
CONTINUOUS
 10
7.502078911
 20
3.9988554737
 40
0.015
100
AcDbArc
 50
33.6123745985
 51
90.0
  0
ARC
  5
990
100
AcDbEntity
  8
0
100
AcDbCircle
 62
7
  6
CONTINUOUS
 10
7.4879179737
 20
4.0288554737
 40
0.015
100
AcDbArc
 50
180.0
 51
270.0
  0
ARC
  5
991
100
AcDbEntity
  8
0
100
AcDbCircle
 62
7
  6
CONTINUOUS
 10
7.4579179737
 20
4.0738554737
 40
0.015
100
AcDbArc
 50
0.0
 51
90.0
  0
ARC
  5
992
100
AcDbEntity
  8
0
100
AcDbCircle
 62
7
  6
CONTINUOUS
 10
7.1654179737
 20
4.2743554737
 40
0.01
100
AcDbArc
 50
270.0
 51
360.0
  0
ARC
  5
993
100
AcDbEntity
  8
0
100
AcDbCircle
 62
7
  6
CONTINUOUS
 10
7.3804179737
 20
4.2743554737
 40
0.01
100
AcDbArc
 50
180.0
 51
270.0
  0
ARC
  5
994
100
AcDbEntity
  8
0
100
AcDbCircle
 62
7
  6
CONTINUOUS
 10
7.4316679737
 20
4.194669204
 40
0.01
100
AcDbArc
 50
97.1807557814
 51
180.0
  0
ARC
  5
995
100
AcDbEntity
  8
0
100
AcDbCircle
 62
7
  6
CONTINUOUS
 10
7.6254179737
 20
4.6166622918
 40
0.0378068182
100
AcDbArc
 50
270.0
 51
352.6955544394
  0
ARC
  5
996
100
AcDbEntity
  8
0
100
AcDbCircle
 62
7
  6
CONTINUOUS
 10
7.6941679737
 20
4.6118554737
 40
0.03125
100
AcDbArc
 50
0.0
 51
180.0
  0
ARC
  5
997
100
AcDbEntity
  8
0
100
AcDbCircle
 62
7
  6
CONTINUOUS
 10
9.0454179737
 20
4.6231054737
 40
0.03
100
AcDbArc
 50
0.0
 51
180.0
  0
ENDSEC
  0
SECTION
  2
OBJECTS
  0
DICTIONARY
  5
C
100
AcDbDictionary
280
0
281
1
  3
ACAD_GROUP
350
D
  3
ACAD_MLINESTYLE
350
17
  3
ACAD_LAYOUT
350
1A
  3
ACAD_PLOTSETTINGS
350
19
  3
ACAD_PLOTSTYLENAME
350
E
  0
DICTIONARY
  5
D
102
{ACAD_REACTORS
330
C
102
}
100
AcDbDictionary
280
0
281
1
  0
ACDBDICTIONARYWDFLT
  5
E
102
{ACAD_REACTORS
330
C
102
}
100
AcDbDictionary
281
1
  3
Normal
350
F
100
AcDbDictionaryWithDefault
340
F
  0
DICTIONARY
  5
17
102
{ACAD_REACTORS
330
C
102
}
100
AcDbDictionary
280
0
281
1
  3
Standard
350
18
  0
DICTIONARY
  5
19
102
{ACAD_REACTORS
330
C
102
}
100
AcDbDictionary
281
1
  0
DICTIONARY
  5
1A
102
{ACAD_REACTORS
330
C
102
}
100
AcDbDictionary
281
1
  3
Model
350
998
  3
Layout1
350
999
  0
ACDBPLACEHOLDER
  5
F
102
{ACAD_REACTORS
330
E
102
}
  0
MLINESTYLE
  5
18
102
{ACAD_REACTORS
330
17
102
}
100
AcDbMlineStyle
  2
STANDARD
 70
0
  3

 62
256
 51
90.0
 52
90.0
 71
2
 49
0.5
 62
256
  6
BYLAYER
 49
-0.5
 62
256
  6
BYLAYER
  0
LAYOUT
  5
998
102
{ACAD_REACTORS
330
1A
102
}
100
AcDbPlotSettings
  1

  2
none_device
  4
ANSI_A_(11.00_x_8.50_Inches)
  6

 40
0.0
 41
0.0
 42
0.0
 43
0.0
 44
279.4
 45
215.9
 46
0.0
 47
0.0
 48
0.0
 49
0.0
140
0.0
141
0.0
142
1.0
143
1.0
 70
1024
 72
0
 73
0
 74
0
  7

 75
0
147
1.0
148
0.0
149
0.0
100
AcDbLayout
  1
Model
 70
0
 71
0
 10
0.0
 20
0.0
 11
11.0
 21
8.5
 12
0.0
 22
0.0
 32
0.0
 14
0.0
 24
0.0
 34
0.0
 15
0.0
 25
0.0
 35
0.0
146
0.0
 13
0.0
 23
0.0
 33
0.0
 16
1.0
 26
0.0
 36
0.0
 17
0.0
 27
1.0
 37
0.0
 76
0
330
202
345
0
346
0
  0
LAYOUT
  5
999
102
{ACAD_REACTORS
330
1A
102
}
100
AcDbPlotSettings
  1

  2
none_device
  4
ANSI_A_(11.00_x_8.50_Inches)
  6

 40
0.0
 41
0.0
 42
0.0
 43
0.0
 44
279.4
 45
215.9
 46
0.0
 47
0.0
 48
0.0
 49
0.0
140
0.0
141
0.0
142
1.0
143
1.0
 70
0
 72
0
 73
0
 74
0
  7

 75
0
147
1.0
148
0.0
149
0.0
100
AcDbLayout
  1
Layout1
 70
0
 71
1
 10
0.0
 20
0.0
 11
11.0
 21
8.5
 12
0.0
 22
0.0
 32
0.0
 14
0.0
 24
0.0
 34
0.0
 15
0.0
 25
0.0
 35
0.0
146
0.0
 13
0.0
 23
0.0
 33
0.0
 16
1.0
 26
0.0
 36
0.0
 17
0.0
 27
1.0
 37
0.0
 76
0
330
203
345
0
346
0
  0
ENDSEC
  0
EOF
