999
DXF file: 295-1_front.dxf
999
Pro/ENGINEER 2023134 by Parametric Technology Corporation
  0
SECTION
  2
HEADER
  9
$ACADVER
  1
AC1032
  9
$DWGCODEPAGE
  3
ANSI_1252
  9
$EXTMAX
 10
11.0
 20
8.5
 30
0.0
  9
$EXTMIN
 10
0.0
 20
0.0
 30
0.0
  9
$LIMMIN
 10
0.0
 20
0.0
  9
$LIMMAX
 10
11.0
 20
8.5
  9
$VIEWCTR
 10
5.5
 20
4.25
  9
$VIEWSIZE
 40
8.5
  9
$CLAYER
  8
0
  9
$LTSCALE
 40
0.605
  9
$CELTYPE
  6
BYLAYER
  9
$DIMSCALE
 40
1.0
  9
$DIMASZ
 40
0.1
  9
$DIMEXO
 40
0.03125
  9
$DIMDLI
 40
0.418
  9
$DIMEXE
 40
0.0625
  9
$DIMCEN
 40
0.099
  9
$DIMLFAC
 40
1.0
  9
$DIMBLK
  1
_FILLED
  9
$DIMALT
 70
1
  9
$DIMALTD
 70
2
  9
$DIMALTTD
 70
2
  9
$DIMALTF
 40
25.4
  9
$DIMTXT
 40
0.08
  9
$DIMTOL
 70
1
  9
$DIMLIM
 70
0
  9
$DIMTFAC
 40
1.0
  9
$DIMTP
 40
0.001
  9
$DIMTM
 40
0.001
  9
$DIMGAP
 40
0.09
  9
$DIMDSEP
 70
46
  9
$AUNITS
 70
0
  9
$PDMODE
 70
3
  9
$PDSIZE
 40
0.06
  9
$HANDSEED
  5
2D7
  9
$TILEMODE
 70
1
  9
$MEASUREMENT
 70
0
  9
$INSUNITS
 70
1
  0
ENDSEC
  0
SECTION
  2
CLASSES
  0
CLASS
  1
ACDBDICTIONARYWDFLT
  2
AcDbDictionaryWithDefault
  3
AutoCAD 2000
 90
0
 91
1
280
0
281
0
  0
CLASS
  1
ACDBPLACEHOLDER
  2
AcDbPlaceHolder
  3
AutoCAD 2000
 90
0
 91
1
280
0
281
0
  0
CLASS
  1
LAYOUT
  2
AcDbLayout
  3
AutoCAD 2000
 90
0
 91
0
280
0
281
0
  0
ENDSEC
  0
SECTION
  2
TABLES
  0
TABLE
  2
VPORT
  5
8
100
AcDbSymbolTable
 70
2
  0
VPORT
  5
1F4
100
AcDbSymbolTableRecord
100
AcDbViewportTableRecord
  2
*ACTIVE
 70
0
 10
0.0
 20
0.0
 11
1.0
 21
1.0
 12
5.5
 22
4.25
 13
0.0
 23
0.0
 14
1.0
 24
1.0
 15
0.0
 25
0.0
 16
0.0
 26
0.0
 36
1.0
 17
0.0
 27
0.0
 37
0.0
 40
8.5
 41
1.2941176471
 42
50.0
 43
0.0
 44
0.0
 50
0.0
 51
0.0
 71
0
 72
100
 73
1
 74
1
 75
0
 76
0
 77
0
 78
0
  0
ENDTAB
  0
TABLE
  2
LTYPE
  5
5
100
AcDbSymbolTable
 70
6
  0
LTYPE
  5
14
100
AcDbSymbolTableRecord
100
AcDbLinetypeTableRecord
  2
BYBLOCK
 70
0
  3

 72
65
 73
0
 40
0.0
  0
LTYPE
  5
15
100
AcDbSymbolTableRecord
100
AcDbLinetypeTableRecord
  2
BYLAYER
 70
0
  3

 72
65
 73
0
 40
0.0
  0
LTYPE
  5
16
100
AcDbSymbolTableRecord
100
AcDbLinetypeTableRecord
  2
CONTINUOUS
 70
64
  3
Solid line
 72
65
 73
0
 40
0.0
  0
LTYPE
  5
1F5
100
AcDbSymbolTableRecord
100
AcDbLinetypeTableRecord
  2
CENTER
 70
64
  3
____ _ ____ _ ____ _ ____ _ ____ _ ____ _ ____
 72
65
 73
4
 40
0.6
 49
0.375
 74
0
 49
-0.075
 74
0
 49
0.075
 74
0
 49
-0.075
 74
0
  0
LTYPE
  5
1F6
100
AcDbSymbolTableRecord
100
AcDbLinetypeTableRecord
  2
HIDDEN
 70
64
  3
- - - - - - - - - - - - - - - - - - - -
 72
65
 73
2
 40
0.2
 49
0.1
 74
0
 49
-0.1
 74
0
  0
LTYPE
  5
1F7
100
AcDbSymbolTableRecord
100
AcDbLinetypeTableRecord
  2
PHANTOM
 70
64
  3
_____ _ _ _____ _ _ _____ _ _ _____
 72
65
 73
6
 40
0.8
 49
0.45
 74
0
 49
-0.05
 74
0
 49
0.1
 74
0
 49
-0.05
 74
0
 49
0.1
 74
0
 49
-0.05
 74
0
  0
LTYPE
  5
1F8
100
AcDbSymbolTableRecord
100
AcDbLinetypeTableRecord
  2
DOT
 70
64
  3
. . . . . . . . . . . . . . . . . . . .
 72
65
 73
2
 40
0.2
 49
0.1
 74
0
 49
-0.1
 74
0
  0
LTYPE
  5
1F9
100
AcDbSymbolTableRecord
100
AcDbLinetypeTableRecord
  2
DASHED
 70
64
  3
- - - - - - - - - - - - - - - - - - - -
 72
65
 73
2
 40
0.2
 49
0.1
 74
0
 49
-0.1
 74
0
  0
ENDTAB
  0
TABLE
  2
LAYER
  5
2
100
AcDbSymbolTable
 70
36
  0
LAYER
  5
10
100
AcDbSymbolTableRecord
100
AcDbLayerTableRecord
  2
0
 70
0
 62
7
  6
CONTINUOUS
370
-3
390
F
  0
LAYER
  5
1FA
100
AcDbSymbolTableRecord
100
AcDbLayerTableRecord
  2
DEFAULT_1
 70
0
 62
7
  6
CENTER
370
-3
390
F
  0
LAYER
  5
1FB
100
AcDbSymbolTableRecord
100
AcDbLayerTableRecord
  2
DEFAULT_2
 70
0
 62
8
  6
HIDDEN
370
-3
390
F
  0
LAYER
  5
1FC
100
AcDbSymbolTableRecord
100
AcDbLayerTableRecord
  2
DEFAULT_3
 70
0
 62
7
  6
PHANTOM
370
-3
390
F
  0
LAYER
  5
1FD
100
AcDbSymbolTableRecord
100
AcDbLayerTableRecord
  2
DEFAULT_COORDINATE_SYSTEM
 70
0
 62
7
  6
CONTINUOUS
370
-3
390
F
  0
LAYER
  5
1FE
100
AcDbSymbolTableRecord
100
AcDbLayerTableRecord
  2
DEFAULT_DATUM_AXES
 70
0
 62
7
  6
CONTINUOUS
370
-3
390
F
  0
LAYER
  5
1FF
100
AcDbSymbolTableRecord
100
AcDbLayerTableRecord
  2
DEFAULT_DATUM_CURVES
 70
0
 62
7
  6
CONTINUOUS
370
-3
390
F
  0
LAYER
  5
200
100
AcDbSymbolTableRecord
100
AcDbLayerTableRecord
  2
DEFAULT_DATUM_PLANES
 70
0
 62
7
  6
CONTINUOUS
370
-3
390
F
  0
ENDTAB
  0
TABLE
  2
STYLE
  5
3
100
AcDbSymbolTable
 70
1
  0
STYLE
  5
11
100
AcDbSymbolTableRecord
100
AcDbTextStyleTableRecord
  2
STANDARD
 70
0
 40
0.0
 41
0.8
 50
0.0
 71
0
 42
0.2
  3
txt
  4

  0
STYLE
  5
201
100
AcDbSymbolTableRecord
100
AcDbTextStyleTableRecord
  2
TEXTSTYLE_1
 70
0
 40
0.0
 41
0.8
 50
0.0
 71
0
 42
0.2
  3
gdt
  4

  0
ENDTAB
  0
TABLE
  2
VIEW
  5
6
100
AcDbSymbolTable
 70
0
  0
ENDTAB
  0
TABLE
  2
UCS
  5
7
100
AcDbSymbolTable
 70
0
  0
ENDTAB
  0
TABLE
  2
APPID
  5
9
100
AcDbSymbolTable
 70
1
  0
APPID
  5
202
100
AcDbSymbolTableRecord
100
AcDbRegAppTableRecord
  2
ACAD
 70
0
  0
ENDTAB
  0
TABLE
  2
BLOCK_RECORD
  5
1
100
AcDbSymbolTable
 70
0
  0
BLOCK_RECORD
  5
203
100
AcDbSymbolTableRecord
100
AcDbBlockTableRecord
  2
*Model_Space
  0
BLOCK_RECORD
  5
204
100
AcDbSymbolTableRecord
100
AcDbBlockTableRecord
  2
*Paper_Space
  0
BLOCK_RECORD
  5
205
100
AcDbSymbolTableRecord
100
AcDbBlockTableRecord
  2
_FILLED
  0
ENDTAB
  0
TABLE
  2
DIMSTYLE
  5
A
100
AcDbSymbolTable
 70
1
100
AcDbDimStyleTable
 71
0
  0
DIMSTYLE
105
206
100
AcDbSymbolTableRecord
100
AcDbDimStyleTableRecord
  2
STANDARD
 70
0
  3

  4

 40
1.0
 41
0.1
 42
0.03125
 43
0.38
 44
0.0625
 45
0.0
 46
0.0
 47
0.001
 48
0.001
140
0.08
141
0.09
142
0.0
143
25.4
144
1.0
145
0.0
146
1.0
147
0.09
 71
1
 72
0
 73
1
 74
1
 75
0
 76
0
 77
0
 78
4
 79
1
170
1
171
2
172
0
173
0
174
0
175
0
176
0
177
0
178
0
270
2
179
3
271
3
272
3
273
2
274
2
275
0
280
0
281
0
282
0
283
1
284
4
285
0
286
0
287
3
288
0
340
11
278
46
341
205
342
205
343
205
344
205
  0
ENDTAB
  0
ENDSEC
  0
SECTION
  2
BLOCKS
  0
BLOCK
  5
20
100
AcDbEntity
  8
0
100
AcDbBlockBegin
  2
*Model_Space
 70
0
 10
0.0
 20
0.0
 30
0.0
  3
*Model_Space
  1

  0
ENDBLK
  5
21
100
AcDbEntity
  8
0
100
AcDbBlockEnd
  0
BLOCK
  5
1C
100
AcDbEntity
  8
0
100
AcDbBlockBegin
  2
*Paper_Space
 70
0
 10
0.0
 20
0.0
 30
0.0
  3
*Paper_Space
  1

  0
ENDBLK
  5
1D
100
AcDbEntity
  8
0
100
AcDbBlockEnd
  0
BLOCK
  5
207
100
AcDbEntity
  8
0
100
AcDbBlockBegin
  2
_FILLED
 70
64
 10
0.0
 20
0.0
  3
_FILLED
  1

  0
SOLID
  5
208
100
AcDbEntity
  8
0
  6
BYBLOCK
 62
0
100
AcDbTrace
 10
0.0
 20
0.0
 11
-1.0
 21
0.2
 12
-1.0
 22
-0.2
 13
-1.0
 23
-0.2
  0
ENDBLK
  5
209
100
AcDbEntity
  8
0
  6
BYBLOCK
 62
0
100
AcDbBlockEnd
  0
ENDSEC
  0
SECTION
  2
ENTITIES
  0
MTEXT
  5
20A
100
AcDbEntity
  8
0
100
AcDbMText
 62
2
  6
CONTINUOUS
  7
STANDARD
 71
3
 72
1
 10
5.5282020548
 20
0.3885397782
 30
0.0
 11
1.0
 21
0.0
 31
0.0
 73
2
 44
0.9
  1
SCALE .187
 40
0.08
 41
0.64
  0
LINE
  5
20B
100
AcDbEntity
  8
0
100
AcDbLine
 62
7
  6
CONTINUOUS
 10
0.0
 20
0.0
 11
0.0
 21
8.5
  0
LINE
  5
20C
100
AcDbEntity
  8
0
100
AcDbLine
 62
7
  6
CONTINUOUS
 10
0.0
 20
0.0
 11
11.0
 21
0.0
  0
LINE
  5
20D
100
AcDbEntity
  8
0
100
AcDbLine
 62
7
  6
CONTINUOUS
 10
0.0
 20
8.5
 11
11.0
 21
8.5
  0
LINE
  5
20E
100
AcDbEntity
  8
0
100
AcDbLine
 62
7
  6
CONTINUOUS
 10
11.0
 20
0.0
 11
11.0
 21
8.5
  0
LINE
  5
20F
100
AcDbEntity
  8
0
100
AcDbLine
 62
7
  6
CONTINUOUS
 10
4.9447240786
 20
1.0912128425
 11
5.3832390786
 21
1.0912128425
  0
LINE
  5
210
100
AcDbEntity
  8
0
100
AcDbLine
 62
7
  6
CONTINUOUS
 10
4.9372440786
 20
1.0986928425
 11
5.3907190786
 21
1.0986928425
  0
LINE
  5
211
100
AcDbEntity
  8
0
100
AcDbLine
 62
7
  6
CONTINUOUS
 10
5.0428990786
 20
1.1893878425
 11
5.2850640786
 21
1.1893878425
  0
LINE
  5
212
100
AcDbEntity
  8
0
100
AcDbLine
 62
7
  6
CONTINUOUS
 10
5.0354190786
 20
1.1968678425
 11
5.2925440786
 21
1.1968678425
  0
LINE
  5
213
100
AcDbEntity
  8
0
100
AcDbLine
 62
7
  6
CONTINUOUS
 10
5.0354190786
 20
1.4390328425
 11
5.2925440786
 21
1.4390328425
  0
LINE
  5
214
100
AcDbEntity
  8
0
100
AcDbLine
 62
7
  6
CONTINUOUS
 10
5.2850640786
 20
1.4465128425
 11
5.0428990786
 21
1.4465128425
  0
LINE
  5
215
100
AcDbEntity
  8
0
100
AcDbLine
 62
7
  6
CONTINUOUS
 10
5.0704815786
 20
1.5372078425
 11
4.9372440786
 21
1.5372078425
  0
LINE
  5
216
100
AcDbEntity
  8
0
100
AcDbLine
 62
7
  6
CONTINUOUS
 10
5.2574815786
 20
1.5372078425
 11
5.3907190786
 21
1.5372078425
  0
LINE
  5
217
100
AcDbEntity
  8
0
100
AcDbLine
 62
7
  6
CONTINUOUS
 10
5.3832390786
 20
1.5446878425
 11
5.2574815786
 21
1.5446878425
  0
LINE
  5
218
100
AcDbEntity
  8
0
100
AcDbLine
 62
7
  6
CONTINUOUS
 10
5.0704815786
 20
1.5446878425
 11
4.9447240786
 21
1.5446878425
  0
LINE
  5
219
100
AcDbEntity
  8
0
100
AcDbLine
 62
7
  6
CONTINUOUS
 10
4.7329465786
 20
4.3492203425
 11
4.7329465786
 21
4.9251803425
  0
LINE
  5
21A
100
AcDbEntity
  8
0
100
AcDbLine
 62
7
  6
CONTINUOUS
 10
4.7385565786
 20
4.3436103425
 11
4.7385565786
 21
4.9307903425
  0
LINE
  5
21B
100
AcDbEntity
  8
0
100
AcDbLine
 62
7
  6
CONTINUOUS
 10
4.8114865786
 20
4.9307903425
 11
4.8114865786
 21
4.3436103425
  0
LINE
  5
21C
100
AcDbEntity
  8
0
100
AcDbLine
 62
7
  6
CONTINUOUS
 10
4.8170965786
 20
4.9251803425
 11
4.8170965786
 21
4.3492203425
  0
LINE
  5
21D
100
AcDbEntity
  8
0
100
AcDbLine
 62
7
  6
CONTINUOUS
 10
4.8227065786
 20
4.5764253425
 11
4.8227065786
 21
4.6979753425
  0
LINE
  5
21E
100
AcDbEntity
  8
0
100
AcDbLine
 62
7
  6
CONTINUOUS
 10
4.9372440786
 20
8.1757078425
 11
4.9372440786
 21
7.7371928425
  0
LINE
  5
21F
100
AcDbEntity
  8
0
100
AcDbLine
 62
7
  6
CONTINUOUS
 10
4.9372440786
 20
1.5372078425
 11
4.9372440786
 21
1.0986928425
  0
LINE
  5
220
100
AcDbEntity
  8
0
100
AcDbLine
 62
7
  6
CONTINUOUS
 10
4.9447240786
 20
1.0912128425
 11
4.9447240786
 21
1.5446878425
  0
LINE
  5
221
100
AcDbEntity
  8
0
100
AcDbLine
 62
7
  6
CONTINUOUS
 10
4.9447240786
 20
7.7297128425
 11
4.9447240786
 21
8.1831878425
  0
LINE
  5
222
100
AcDbEntity
  8
0
100
AcDbLine
 62
7
  6
CONTINUOUS
 10
4.9573465786
 20
4.6979753425
 11
4.9573465786
 21
4.5764253425
  0
LINE
  5
223
100
AcDbEntity
  8
0
100
AcDbLine
 62
7
  6
CONTINUOUS
 10
4.9653875786
 20
4.6970403425
 11
4.9653875786
 21
4.5773603425
  0
LINE
  5
224
100
AcDbEntity
  8
0
100
AcDbLine
 62
7
  6
CONTINUOUS
 10
4.7385565786
 20
4.3436103425
 11
4.8114865786
 21
4.3436103425
  0
LINE
  5
225
100
AcDbEntity
  8
0
100
AcDbLine
 62
7
  6
CONTINUOUS
 10
4.8170965786
 20
4.3492203425
 11
4.7329465786
 21
4.3492203425
  0
LINE
  5
226
100
AcDbEntity
  8
0
100
AcDbLine
 62
7
  6
CONTINUOUS
 10
5.0351385786
 20
4.4973243425
 11
5.0351385786
 21
4.4487043425
  0
LINE
  5
227
100
AcDbEntity
  8
0
100
AcDbLine
 62
7
  6
CONTINUOUS
 10
5.0351385786
 20
4.7770763425
 11
5.0351385786
 21
4.8256963425
  0
LINE
  5
228
100
AcDbEntity
  8
0
100
AcDbLine
 62
7
  6
CONTINUOUS
 10
5.0354190786
 20
8.0775328425
 11
5.0354190786
 21
7.8353678425
  0
LINE
  5
229
100
AcDbEntity
  8
0
100
AcDbLine
 62
7
  6
CONTINUOUS
 10
5.0354190786
 20
1.4390328425
 11
5.0354190786
 21
1.1968678425
  0
LINE
  5
22A
100
AcDbEntity
  8
0
100
AcDbLine
 62
7
  6
CONTINUOUS
 10
5.0424315786
 20
4.7770763425
 11
5.0424315786
 21
4.7082603244
  0
LINE
  5
22B
100
AcDbEntity
  8
0
100
AcDbLine
 62
7
  6
CONTINUOUS
 10
5.0424315786
 20
4.5661403606
 11
5.0424315786
 21
4.4973243425
  0
LINE
  5
22C
100
AcDbEntity
  8
0
100
AcDbLine
 62
7
  6
CONTINUOUS
 10
5.0428990786
 20
1.1893878425
 11
5.0428990786
 21
1.4465128425
  0
LINE
  5
22D
100
AcDbEntity
  8
0
100
AcDbLine
 62
7
  6
CONTINUOUS
 10
5.0428990786
 20
7.8278878425
 11
5.0428990786
 21
8.0850128425
  0
LINE
  5
22E
100
AcDbEntity
  8
0
100
AcDbLine
 62
7
  6
CONTINUOUS
 10
5.0704815786
 20
7.8278878425
 11
5.0704815786
 21
4.8256963425
  0
LINE
  5
22F
100
AcDbEntity
  8
0
100
AcDbLine
 62
7
  6
CONTINUOUS
 10
5.0704815786
 20
4.4487043425
 11
5.0704815786
 21
1.4465128425
  0
LWPOLYLINE
  5
230
100
AcDbEntity
  8
0
100
AcDbPolyline
 62
7
  6
CONTINUOUS
 90
44
 70
0
 10
5.61527833
 20
4.5670736149
 10
5.6155392488
 20
4.5670777699
 10
5.6157992564
 20
4.5670877091
 10
5.6160583184
 20
4.5671033991
 10
5.6163162703
 20
4.5671247997
 10
5.6165728176
 20
4.5671518486
 10
5.6168278683
 20
4.5671844928
 10
5.6170813307
 20
4.5672226826
 10
5.6173329113
 20
4.5672663505
 10
5.6175825259
 20
4.5673154592
 10
5.6178300796
 20
4.5673699672
 10
5.6180752684
 20
4.5674297762
 10
5.6183180029
 20
4.5674948246
 10
5.6185582185
 20
4.5675650542
 10
5.6187956573
 20
4.5676403416
 10
5.6190302489
 20
4.5677206082
 10
5.6192619351
 20
4.5678057773
 10
5.6194904562
 20
4.567895704
 10
5.6197156736
 20
4.56799029
 10
5.6199375091
 20
4.5680894572
 10
5.6201557782
 20
4.5681930733
 10
5.620370346
 20
4.5683010166
 10
5.6205811765
 20
4.5684132088
 10
5.6207882449
 20
4.5685295777
 10
5.6209914763
 20
4.5686500218
 10
5.6211908118
 20
4.5687744435
 10
5.6213862535
 20
4.5689027826
 10
5.621577708
 20
4.5690349261
 10
5.6217650697
 20
4.5691707528
 10
5.6219483023
 20
4.5693101891
 10
5.6221273134
 20
4.5694531174
 10
5.6223020223
 20
4.5695994232
 10
5.6224724179
 20
4.5697490481
 10
5.6226384272
 20
4.5699018787
 10
5.6227999907
 20
4.5700578078
 10
5.6229571216
 20
4.5702167968
 10
5.6231097472
 20
4.5703787198
 10
5.623257822
 20
4.5705434551
 10
5.6234013822
 20
4.5707109574
 10
5.6235403324
 20
4.5708810372
 10
5.6236746035
 20
4.5710535318
 10
5.6238042615
 20
4.5712284618
 10
5.6239292752
 20
4.5714057386
 10
5.624047432
 20
4.5715819428
  0
LINE
  5
231
100
AcDbEntity
  8
0
100
AcDbLine
 62
7
  6
CONTINUOUS
 10
5.2928245786
 20
4.4487043425
 11
5.0351385786
 21
4.4487043425
  0
LINE
  5
232
100
AcDbEntity
  8
0
100
AcDbLine
 62
7
  6
CONTINUOUS
 10
5.2928245786
 20
4.4973243425
 11
5.0351385786
 21
4.4973243425
  0
LINE
  5
233
100
AcDbEntity
  8
0
100
AcDbLine
 62
7
  6
CONTINUOUS
 10
5.3283545786
 20
4.5156503425
 11
5.3635070844
 21
4.5156503425
  0
LINE
  5
234
100
AcDbEntity
  8
0
100
AcDbLine
 62
7
  6
CONTINUOUS
 10
5.3004915786
 20
4.5278053425
 11
5.3255495786
 21
4.5278053425
  0
LINE
  5
235
100
AcDbEntity
  8
0
100
AcDbLine
 62
7
  6
CONTINUOUS
 10
4.7329465786
 20
4.5371553425
 11
4.8170965786
 21
4.5371553425
  0
LINE
  5
236
100
AcDbEntity
  8
0
100
AcDbLine
 62
7
  6
CONTINUOUS
 10
5.4617191433
 20
4.5670728005
 11
5.61527833
 21
4.5670736149
  0
LINE
  5
237
100
AcDbEntity
  8
0
100
AcDbLine
 62
7
  6
CONTINUOUS
 10
5.4103104708
 20
4.5718557936
 11
5.6235096329
 21
4.5718538777
  0
LINE
  5
238
100
AcDbEntity
  8
0
100
AcDbLine
 62
7
  6
CONTINUOUS
 10
4.9573465786
 20
4.5764253425
 11
4.8227065786
 21
4.5764253425
  0
LINE
  5
239
100
AcDbEntity
  8
0
100
AcDbLine
 62
7
  6
CONTINUOUS
 10
4.9653875786
 20
4.5773603425
 11
5.0312115786
 21
4.5773603425
  0
LINE
  5
23A
100
AcDbEntity
  8
0
100
AcDbLine
 62
7
  6
CONTINUOUS
 10
4.7385565786
 20
4.5839053425
 11
4.8114865786
 21
4.5839053425
  0
LINE
  5
23B
100
AcDbEntity
  8
0
100
AcDbLine
 62
7
  6
CONTINUOUS
 10
4.8170965786
 20
4.5895153425
 11
4.7329465786
 21
4.5895153425
  0
LINE
  5
23C
100
AcDbEntity
  8
0
100
AcDbLine
 62
7
  6
CONTINUOUS
 10
5.4022195786
 20
4.5909178425
 11
5.4031545786
 21
4.5909178425
  0
LINE
  5
23D
100
AcDbEntity
  8
0
100
AcDbLine
 62
7
  6
CONTINUOUS
 10
5.4617946837
 20
4.5670727988
 11
5.4184895783
 21
4.5670752787
  0
LINE
  5
23E
100
AcDbEntity
  8
0
100
AcDbLine
 62
7
  6
CONTINUOUS
 10
5.2574815786
 20
7.8278878425
 11
5.2574815786
 21
4.8256963425
  0
LINE
  5
23F
100
AcDbEntity
  8
0
100
AcDbLine
 62
7
  6
CONTINUOUS
 10
5.2574815786
 20
4.4487043425
 11
5.2574815786
 21
1.4465128425
  0
LINE
  5
240
100
AcDbEntity
  8
0
100
AcDbLine
 62
7
  6
CONTINUOUS
 10
5.2850640786
 20
1.1893878425
 11
5.2850640786
 21
1.4465128425
  0
LINE
  5
241
100
AcDbEntity
  8
0
100
AcDbLine
 62
7
  6
CONTINUOUS
 10
5.2850640786
 20
7.8278878425
 11
5.2850640786
 21
8.0850128425
  0
LINE
  5
242
100
AcDbEntity
  8
0
100
AcDbLine
 62
7
  6
CONTINUOUS
 10
5.2855315786
 20
4.7770763425
 11
5.2855315786
 21
4.7615553015
  0
LINE
  5
243
100
AcDbEntity
  8
0
100
AcDbLine
 62
7
  6
CONTINUOUS
 10
5.2855315786
 20
4.5128453834
 11
5.2855315786
 21
4.4973243425
  0
LINE
  5
244
100
AcDbEntity
  8
0
100
AcDbLine
 62
7
  6
CONTINUOUS
 10
5.2925440786
 20
1.1968678425
 11
5.2925440786
 21
1.4390328425
  0
LINE
  5
245
100
AcDbEntity
  8
0
100
AcDbLine
 62
7
  6
CONTINUOUS
 10
5.2925440786
 20
7.8353678425
 11
5.2925440786
 21
8.0775328425
  0
LINE
  5
246
100
AcDbEntity
  8
0
100
AcDbLine
 62
7
  6
CONTINUOUS
 10
5.2928245786
 20
4.4973243425
 11
5.2928245786
 21
4.4487043425
  0
LINE
  5
247
100
AcDbEntity
  8
0
100
AcDbLine
 62
7
  6
CONTINUOUS
 10
5.2928245786
 20
4.7770763425
 11
5.2928245786
 21
4.8256963425
  0
LINE
  5
248
100
AcDbEntity
  8
0
100
AcDbLine
 62
7
  6
CONTINUOUS
 10
5.3255495786
 20
4.7559453425
 11
5.3255495786
 21
4.5184553425
  0
LINE
  5
249
100
AcDbEntity
  8
0
100
AcDbLine
 62
7
  6
CONTINUOUS
 10
5.3283545786
 20
4.7587503425
 11
5.3283545786
 21
4.5156503425
  0
LINE
  5
24A
100
AcDbEntity
  8
0
100
AcDbLine
 62
7
  6
CONTINUOUS
 10
5.3635070844
 20
4.7587503425
 11
5.3635070844
 21
4.5156503425
  0
LINE
  5
24B
100
AcDbEntity
  8
0
100
AcDbLine
 62
7
  6
CONTINUOUS
 10
5.3688427863
 20
4.7548730817
 11
5.3688427863
 21
4.5195276032
  0
LINE
  5
24C
100
AcDbEntity
  8
0
100
AcDbLine
 62
7
  6
CONTINUOUS
 10
5.3782835786
 20
4.7308742368
 11
5.3782835786
 21
4.5435264481
  0
LINE
  5
24D
100
AcDbEntity
  8
0
100
AcDbLine
 62
7
  6
CONTINUOUS
 10
5.3832390786
 20
1.0912128425
 11
5.3832390786
 21
1.5446878425
  0
LINE
  5
24E
100
AcDbEntity
  8
0
100
AcDbLine
 62
7
  6
CONTINUOUS
 10
5.3832390786
 20
7.7297128425
 11
5.3832390786
 21
8.1831878425
  0
LINE
  5
24F
100
AcDbEntity
  8
0
100
AcDbLine
 62
7
  6
CONTINUOUS
 10
5.3872595786
 20
4.715919455
 11
5.3872595786
 21
4.5584812299
  0
LINE
  5
250
100
AcDbEntity
  8
0
100
AcDbLine
 62
7
  6
CONTINUOUS
 10
5.3907190786
 20
1.0986928425
 11
5.3907190786
 21
1.5372078425
  0
LINE
  5
251
100
AcDbEntity
  8
0
100
AcDbLine
 62
7
  6
CONTINUOUS
 10
5.3907190786
 20
7.7371928425
 11
5.3907190786
 21
8.1757078425
  0
LINE
  5
252
100
AcDbEntity
  8
0
100
AcDbLine
 62
7
  6
CONTINUOUS
 10
5.3924955786
 20
4.7100262334
 11
5.3924955786
 21
4.5643744515
  0
LINE
  5
253
100
AcDbEntity
  8
0
100
AcDbLine
 62
7
  6
CONTINUOUS
 10
5.3992398435
 20
4.7051525148
 11
5.3992398435
 21
4.5692481701
  0
LINE
  5
254
100
AcDbEntity
  8
0
100
AcDbLine
 62
7
  6
CONTINUOUS
 10
5.4022195786
 20
4.7001973351
 11
5.4022195786
 21
4.5742033499
  0
LINE
  5
255
100
AcDbEntity
  8
0
100
AcDbLine
 62
7
  6
CONTINUOUS
 10
5.4031545786
 20
4.5867103425
 11
5.4031545786
 21
4.6876903425
  0
LINE
  5
256
100
AcDbEntity
  8
0
100
AcDbLine
 62
7
  6
CONTINUOUS
 10
5.4022195786
 20
4.6834828425
 11
5.4031545786
 21
4.6834828425
  0
LINE
  5
257
100
AcDbEntity
  8
0
100
AcDbLine
 62
7
  6
CONTINUOUS
 10
4.7329465786
 20
4.6848853425
 11
4.8170965786
 21
4.6848853425
  0
LINE
  5
258
100
AcDbEntity
  8
0
100
AcDbLine
 62
7
  6
CONTINUOUS
 10
4.7385565786
 20
4.6904953425
 11
4.8114865786
 21
4.6904953425
  0
LINE
  5
259
100
AcDbEntity
  8
0
100
AcDbLine
 62
7
  6
CONTINUOUS
 10
4.9653875786
 20
4.6970403425
 11
5.0312115786
 21
4.6970403425
  0
LINE
  5
25A
100
AcDbEntity
  8
0
100
AcDbLine
 62
7
  6
CONTINUOUS
 10
4.9573465786
 20
4.6979753425
 11
4.8227065786
 21
4.6979753425
  0
LINE
  5
25B
100
AcDbEntity
  8
0
100
AcDbLine
 62
7
  6
CONTINUOUS
 10
5.6202774465
 20
4.7025428367
 11
5.4103104708
 21
4.7025448913
  0
LINE
  5
25C
100
AcDbEntity
  8
0
100
AcDbLine
 62
7
  6
CONTINUOUS
 10
5.4187589225
 20
4.7073255754
 11
5.6027118251
 21
4.7073273257
  0
LINE
  5
25D
100
AcDbEntity
  8
0
100
AcDbLine
 62
7
  6
CONTINUOUS
 10
4.7329465786
 20
4.7372453425
 11
4.8170965786
 21
4.7372453425
  0
LINE
  5
25E
100
AcDbEntity
  8
0
100
AcDbLine
 62
7
  6
CONTINUOUS
 10
5.3004915786
 20
4.7465953425
 11
5.3255495786
 21
4.7465953425
  0
LINE
  5
25F
100
AcDbEntity
  8
0
100
AcDbLine
 62
7
  6
CONTINUOUS
 10
5.3283545786
 20
4.7587503425
 11
5.3635070844
 21
4.7587503425
  0
LINE
  5
260
100
AcDbEntity
  8
0
100
AcDbLine
 62
7
  6
CONTINUOUS
 10
5.2928245786
 20
4.7770763425
 11
5.0351385786
 21
4.7770763425
  0
LINE
  5
261
100
AcDbEntity
  8
0
100
AcDbLine
 62
7
  6
CONTINUOUS
 10
5.2928245786
 20
4.8256963425
 11
5.0351385786
 21
4.8256963425
  0
LINE
  5
262
100
AcDbEntity
  8
0
100
AcDbLine
 62
7
  6
CONTINUOUS
 10
5.6118859142
 20
4.7073230531
 11
5.41847022
 21
4.7073253211
  0
LINE
  5
263
100
AcDbEntity
  8
0
100
AcDbLine
 62
7
  6
CONTINUOUS
 10
5.6121659429
 20
4.7073178088
 11
5.6118686246
 21
4.7073271345
  0
LINE
  5
264
100
AcDbEntity
  8
0
100
AcDbLine
 62
7
  6
CONTINUOUS
 10
5.6124452209
 20
4.7073062135
 11
5.6121484963
 21
4.7073222888
  0
LINE
  5
265
100
AcDbEntity
  8
0
100
AcDbLine
 62
7
  6
CONTINUOUS
 10
5.6127237695
 20
4.7072882918
 11
5.6124276353
 21
4.7073110984
  0
LINE
  5
266
100
AcDbEntity
  8
0
100
AcDbLine
 62
7
  6
CONTINUOUS
 10
5.6130013696
 20
4.7072640811
 11
5.6127060634
 21
4.7072935873
  0
LINE
  5
267
100
AcDbEntity
  8
0
100
AcDbLine
 62
7
  6
CONTINUOUS
 10
5.6132775625
 20
4.7072336596
 11
5.6129835614
 21
4.707269792
  0
LINE
  5
268
100
AcDbEntity
  8
0
100
AcDbLine
 62
7
  6
CONTINUOUS
 10
5.6135522596
 20
4.7071970852
 11
5.61325967
 21
4.7072397893
  0
LINE
  5
269
100
AcDbEntity
  8
0
100
AcDbLine
 62
7
  6
CONTINUOUS
 10
5.6138253659
 20
4.7071543988
 11
5.6135343004
 21
4.7072036365
  0
LINE
  5
26A
100
AcDbEntity
  8
0
100
AcDbLine
 62
7
  6
CONTINUOUS
 10
5.6140964202
 20
4.7071056844
 11
5.6138073577
 21
4.707161376
  0
LINE
  5
26B
100
AcDbEntity
  8
0
100
AcDbLine
 62
7
  6
CONTINUOUS
 10
5.6143653462
 20
4.7070509778
 11
5.6140783806
 21
4.7071130914
  0
LINE
  5
26C
100
AcDbEntity
  8
0
100
AcDbLine
 62
7
  6
CONTINUOUS
 10
5.6146320581
 20
4.7069903188
 11
5.6143472926
 21
4.7070588177
  0
LINE
  5
26D
100
AcDbEntity
  8
0
100
AcDbLine
 62
7
  6
CONTINUOUS
 10
5.6148960907
 20
4.7069238501
 11
5.6146140076
 21
4.7069985938
  0
LINE
  5
26E
100
AcDbEntity
  8
0
100
AcDbLine
 62
7
  6
CONTINUOUS
 10
5.6151573614
 20
4.7068516445
 11
5.6148780595
 21
4.7069325611
  0
LINE
  5
26F
100
AcDbEntity
  8
0
100
AcDbLine
 62
7
  6
CONTINUOUS
 10
5.615415817
 20
4.7067737698
 11
5.6151393656
 21
4.7068607918
  0
LINE
  5
270
100
AcDbEntity
  8
0
100
AcDbLine
 62
7
  6
CONTINUOUS
 10
5.6156710501
 20
4.7066904154
 11
5.6153978723
 21
4.7067833528
  0
LINE
  5
271
100
AcDbEntity
  8
0
100
AcDbLine
 62
7
  6
CONTINUOUS
 10
5.6159229901
 20
4.7066016838
 11
5.6156531697
 21
4.7067004327
  0
LINE
  5
272
100
AcDbEntity
  8
0
100
AcDbLine
 62
7
  6
CONTINUOUS
 10
5.616171561
 20
4.7065076546
 11
5.6159051876
 21
4.706612134
  0
LINE
  5
273
100
AcDbEntity
  8
0
100
AcDbLine
 62
7
  6
CONTINUOUS
 10
5.6164163513
 20
4.7064085274
 11
5.6161538535
 21
4.7065185369
  0
LINE
  5
274
100
AcDbEntity
  8
0
100
AcDbLine
 62
7
  6
CONTINUOUS
 10
5.6166571945
 20
4.7063044308
 11
5.6163987541
 21
4.7064198407
  0
LINE
  5
275
100
AcDbEntity
  8
0
100
AcDbLine
 62
7
  6
CONTINUOUS
 10
5.616894066
 20
4.7061954402
 11
5.6166397222
 21
4.7063161733
  0
LINE
  5
276
100
AcDbEntity
  8
0
100
AcDbLine
 62
7
  6
CONTINUOUS
 10
5.6171267845
 20
4.706081709
 11
5.616876733
 21
4.7062076097
  0
LINE
  5
277
100
AcDbEntity
  8
0
100
AcDbLine
 62
7
  6
CONTINUOUS
 10
5.6173552383
 20
4.7059633718
 11
5.6171096039
 21
4.7060943027
  0
LINE
  5
278
100
AcDbEntity
  8
0
100
AcDbLine
 62
7
  6
CONTINUOUS
 10
5.6175793983
 20
4.7058405278
 11
5.6173382227
 21
4.7059763863
  0
LINE
  5
279
100
AcDbEntity
  8
0
100
AcDbLine
 62
7
  6
CONTINUOUS
 10
4.7329465786
 20
4.9251803425
 11
4.8170965786
 21
4.9251803425
  0
LINE
  5
27A
100
AcDbEntity
  8
0
100
AcDbLine
 62
7
  6
CONTINUOUS
 10
4.7385565786
 20
4.9307903425
 11
4.8114865786
 21
4.9307903425
  0
LINE
  5
27B
100
AcDbEntity
  8
0
100
AcDbLine
 62
7
  6
CONTINUOUS
 10
5.6177992204
 20
4.7057132877
 11
5.6175625598
 21
4.7058539593
  0
LINE
  5
27C
100
AcDbEntity
  8
0
100
AcDbLine
 62
7
  6
CONTINUOUS
 10
5.6180146477
 20
4.7055817735
 11
5.6177825697
 21
4.7057271323
  0
LINE
  5
27D
100
AcDbEntity
  8
0
100
AcDbLine
 62
7
  6
CONTINUOUS
 10
5.6182255996
 20
4.7054461059
 11
5.6179981958
 21
4.705596027
  0
LINE
  5
27E
100
AcDbEntity
  8
0
100
AcDbLine
 62
7
  6
CONTINUOUS
 10
5.6184319872
 20
4.7053063926
 11
5.6182093613
 21
4.7054607637
  0
LINE
  5
27F
100
AcDbEntity
  8
0
100
AcDbLine
 62
7
  6
CONTINUOUS
 10
5.6186337158
 20
4.7051627517
 11
5.6184159766
 21
4.7053214505
  0
LINE
  5
280
100
AcDbEntity
  8
0
100
AcDbLine
 62
7
  6
CONTINUOUS
 10
5.6188306873
 20
4.705015313
 11
5.6186179461
 21
4.7051782053
  0
LINE
  5
281
100
AcDbEntity
  8
0
100
AcDbLine
 62
7
  6
CONTINUOUS
 10
5.6190228219
 20
4.7048642033
 11
5.6188151711
 21
4.7050311576
  0
LINE
  5
282
100
AcDbEntity
  8
0
100
AcDbLine
 62
7
  6
CONTINUOUS
 10
5.6192100256
 20
4.7047095719
 11
5.6190075711
 21
4.7048804339
  0
LINE
  5
283
100
AcDbEntity
  8
0
100
AcDbLine
 62
7
  6
CONTINUOUS
 10
5.6193922632
 20
4.7045515303
 11
5.6191950515
 21
4.704726183
  0
LINE
  5
284
100
AcDbEntity
  8
0
100
AcDbLine
 62
7
  6
CONTINUOUS
 10
5.6195695554
 20
4.7043901444
 11
5.6193775762
 21
4.7045685164
  0
LINE
  5
285
100
AcDbEntity
  8
0
100
AcDbLine
 62
7
  6
CONTINUOUS
 10
5.6197418392
 20
4.7042255596
 11
5.619555164
 21
4.7044075009
  0
LINE
  5
286
100
AcDbEntity
  8
0
100
AcDbLine
 62
7
  6
CONTINUOUS
 10
5.6199090892
 20
4.7040578964
 11
5.6197277517
 21
4.7042432814
  0
LINE
  5
287
100
AcDbEntity
  8
0
100
AcDbLine
 62
7
  6
CONTINUOUS
 10
5.6200713359
 20
4.7038872186
 11
5.6198953152
 21
4.7040759764
  0
LINE
  5
288
100
AcDbEntity
  8
0
100
AcDbLine
 62
7
  6
CONTINUOUS
 10
5.6202284754
 20
4.7037137248
 11
5.6200578875
 21
4.7039056467
  0
LINE
  5
289
100
AcDbEntity
  8
0
100
AcDbLine
 62
7
  6
CONTINUOUS
 10
5.620380412
 20
4.7035376143
 11
5.6202153643
 21
4.7037324907
  0
LINE
  5
28A
100
AcDbEntity
  8
0
100
AcDbLine
 62
7
  6
CONTINUOUS
 10
5.6205271705
 20
4.7033589481
 11
5.6203676494
 21
4.7035567077
  0
LINE
  5
28B
100
AcDbEntity
  8
0
100
AcDbLine
 62
7
  6
CONTINUOUS
 10
5.6206687083
 20
4.7031778601
 11
5.6205147656
 21
4.7033783608
  0
LINE
  5
28C
100
AcDbEntity
  8
0
100
AcDbLine
 62
7
  6
CONTINUOUS
 10
5.6207972007
 20
4.703009178
 11
5.6206566698
 21
4.7031975849
  0
LINE
  5
28D
100
AcDbEntity
  8
0
100
AcDbLine
 62
7
  6
CONTINUOUS
 10
4.9447240786
 20
7.7297128425
 11
5.0704815786
 21
7.7297128425
  0
LINE
  5
28E
100
AcDbEntity
  8
0
100
AcDbLine
 62
7
  6
CONTINUOUS
 10
5.2574815786
 20
7.7297128425
 11
5.3832390786
 21
7.7297128425
  0
LINE
  5
28F
100
AcDbEntity
  8
0
100
AcDbLine
 62
7
  6
CONTINUOUS
 10
4.9372440786
 20
7.7371928425
 11
5.0704815786
 21
7.7371928425
  0
LINE
  5
290
100
AcDbEntity
  8
0
100
AcDbLine
 62
7
  6
CONTINUOUS
 10
5.2574815786
 20
7.7371928425
 11
5.3907190786
 21
7.7371928425
  0
LINE
  5
291
100
AcDbEntity
  8
0
100
AcDbLine
 62
7
  6
CONTINUOUS
 10
5.0428990786
 20
7.8278878425
 11
5.2850640786
 21
7.8278878425
  0
LINE
  5
292
100
AcDbEntity
  8
0
100
AcDbLine
 62
7
  6
CONTINUOUS
 10
5.0354190786
 20
7.8353678425
 11
5.2925440786
 21
7.8353678425
  0
LINE
  5
293
100
AcDbEntity
  8
0
100
AcDbLine
 62
7
  6
CONTINUOUS
 10
5.0354190786
 20
8.0775328425
 11
5.2925440786
 21
8.0775328425
  0
LINE
  5
294
100
AcDbEntity
  8
0
100
AcDbLine
 62
7
  6
CONTINUOUS
 10
5.2850640786
 20
8.0850128425
 11
5.0428990786
 21
8.0850128425
  0
LINE
  5
295
100
AcDbEntity
  8
0
100
AcDbLine
 62
7
  6
CONTINUOUS
 10
4.9372440786
 20
8.1757078425
 11
5.3907190786
 21
8.1757078425
  0
LINE
  5
296
100
AcDbEntity
  8
0
100
AcDbLine
 62
7
  6
CONTINUOUS
 10
5.3832390786
 20
8.1831878425
 11
4.9447240786
 21
8.1831878425
  0
ARC
  5
297
100
AcDbEntity
  8
0
100
AcDbCircle
 62
7
  6
CONTINUOUS
 10
5.0312115988
 20
4.566140368
 40
0.011219996
100
AcDbArc
 50
359.9998694984
 51
90.0001034306
  0
ARC
  5
298
100
AcDbEntity
  8
0
100
AcDbCircle
 62
7
  6
CONTINUOUS
 10
4.9447240786
 20
1.5372078425
 40
0.00748
100
AcDbArc
 50
90.0
 51
180.0
  0
ARC
  5
299
100
AcDbEntity
  8
0
100
AcDbCircle
 62
7
  6
CONTINUOUS
 10
4.9447240786
 20
1.0986928425
 40
0.00748
100
AcDbArc
 50
180.0
 51
270.0
  0
ARC
  5
29A
100
AcDbEntity
  8
0
100
AcDbCircle
 62
7
  6
CONTINUOUS
 10
5.0428990786
 20
1.1968678425
 40
0.00748
100
AcDbArc
 50
180.0
 51
270.0
  0
ARC
  5
29B
100
AcDbEntity
  8
0
100
AcDbCircle
 62
7
  6
CONTINUOUS
 10
5.0428990786
 20
1.4390328425
 40
0.00748
100
AcDbArc
 50
90.0
 51
180.0
  0
ARC
  5
29C
100
AcDbEntity
  8
0
100
AcDbCircle
 62
7
  6
CONTINUOUS
 10
4.8227065786
 20
4.5708153425
 40
0.00561
100
AcDbArc
 50
90.0
 51
179.9999999957
  0
ARC
  5
29D
100
AcDbEntity
  8
0
100
AcDbCircle
 62
7
  6
CONTINUOUS
 10
4.7385565786
 20
4.5895153425
 40
0.00561
100
AcDbArc
 50
180.0
 51
270.0
  0
ARC
  5
29E
100
AcDbEntity
  8
0
100
AcDbCircle
 62
7
  6
CONTINUOUS
 10
4.7385565786
 20
4.3492203425
 40
0.00561
100
AcDbArc
 50
180.0
 51
270.0
  0
ARC
  5
29F
100
AcDbEntity
  8
0
100
AcDbCircle
 62
7
  6
CONTINUOUS
 10
4.8114865786
 20
4.5895153425
 40
0.00561
100
AcDbArc
 50
270.0
 51
360.0
  0
ARC
  5
2A0
100
AcDbEntity
  8
0
100
AcDbCircle
 62
7
  6
CONTINUOUS
 10
4.8114865786
 20
4.3492203425
 40
0.00561
100
AcDbArc
 50
270.0
 51
360.0
  0
ARC
  5
2A1
100
AcDbEntity
  8
0
100
AcDbCircle
 62
7
  6
CONTINUOUS
 10
5.0312115989
 20
4.7082603168
 40
0.0112199959
100
AcDbArc
 50
269.9998961399
 51
0.0001310464
  0
ARC
  5
2A2
100
AcDbEntity
  8
0
100
AcDbCircle
 62
7
  6
CONTINUOUS
 10
4.9447240786
 20
8.1757078425
 40
0.00748
100
AcDbArc
 50
90.0
 51
180.0
  0
ARC
  5
2A3
100
AcDbEntity
  8
0
100
AcDbCircle
 62
7
  6
CONTINUOUS
 10
4.9447240786
 20
7.7371928425
 40
0.00748
100
AcDbArc
 50
180.0
 51
270.0
  0
ARC
  5
2A4
100
AcDbEntity
  8
0
100
AcDbCircle
 62
7
  6
CONTINUOUS
 10
5.0428990786
 20
7.8353678425
 40
0.00748
100
AcDbArc
 50
180.0
 51
270.0
  0
ARC
  5
2A5
100
AcDbEntity
  8
0
100
AcDbCircle
 62
7
  6
CONTINUOUS
 10
5.0428990786
 20
8.0775328425
 40
0.00748
100
AcDbArc
 50
90.0
 51
180.0
  0
ARC
  5
2A6
100
AcDbEntity
  8
0
100
AcDbCircle
 62
7
  6
CONTINUOUS
 10
4.8227065786
 20
4.7035853425
 40
0.00561
100
AcDbArc
 50
180.0000000043
 51
270.0
  0
ARC
  5
2A7
100
AcDbEntity
  8
0
100
AcDbCircle
 62
7
  6
CONTINUOUS
 10
4.7385565786
 20
4.6848853425
 40
0.00561
100
AcDbArc
 50
90.0
 51
180.0
  0
ARC
  5
2A8
100
AcDbEntity
  8
0
100
AcDbCircle
 62
7
  6
CONTINUOUS
 10
4.7385565786
 20
4.9251803425
 40
0.00561
100
AcDbArc
 50
90.0
 51
180.0
  0
ARC
  5
2A9
100
AcDbEntity
  8
0
100
AcDbCircle
 62
7
  6
CONTINUOUS
 10
4.8114865786
 20
4.9251803425
 40
0.00561
100
AcDbArc
 50
0.0
 51
90.0
  0
ARC
  5
2AA
100
AcDbEntity
  8
0
100
AcDbCircle
 62
7
  6
CONTINUOUS
 10
4.8114865786
 20
4.6848853425
 40
0.00561
100
AcDbArc
 50
0.0
 51
90.0
  0
ARC
  5
2AB
100
AcDbEntity
  8
0
100
AcDbCircle
 62
7
  6
CONTINUOUS
 10
5.5707101745
 20
4.4539723013
 40
0.212245
100
AcDbArc
 50
155.0430228836
 51
162.0090856119
  0
ARC
  5
2AC
100
AcDbEntity
  8
0
100
AcDbCircle
 62
7
  6
CONTINUOUS
 10
5.5270715553
 20
4.63493568
 40
0.1158381892
100
AcDbArc
 50
0.3012865456
 51
35.9911283477
  0
ARC
  5
2AD
100
AcDbEntity
  8
0
100
AcDbCircle
 62
7
  6
CONTINUOUS
 10
5.5270815893
 20
4.6349354474
 40
0.1158276885
100
AcDbArc
 50
326.8410467366
 51
35.9925233236
  0
ARC
  5
2AE
100
AcDbEntity
  8
0
100
AcDbCircle
 62
7
  6
CONTINUOUS
 10
5.527075254
 20
4.6348493394
 40
0.1151912341
100
AcDbArc
 50
1.1684764554
 51
35.9912038147
  0
ARC
  5
2AF
100
AcDbEntity
  8
0
100
AcDbCircle
 62
7
  6
CONTINUOUS
 10
5.527080329
 20
4.6348557616
 40
0.115186005
100
AcDbArc
 50
326.8414908832
 51
1.1653340578
  0
ARC
  5
2B0
100
AcDbEntity
  8
0
100
AcDbCircle
 62
7
  6
CONTINUOUS
 10
5.4537283673
 20
4.5084149104
 40
0.083215
100
AcDbArc
 50
143.0118254245
 51
155.0430228836
  0
ARC
  5
2B1
100
AcDbEntity
  8
0
100
AcDbCircle
 62
7
  6
CONTINUOUS
 10
5.4262446434
 20
4.5291164897
 40
0.048807
100
AcDbArc
 50
133.7473789406
 51
143.0118254245
  0
ARC
  5
2B2
100
AcDbEntity
  8
0
100
AcDbCircle
 62
7
  6
CONTINUOUS
 10
5.413443274
 20
4.5424901994
 40
0.030294
100
AcDbArc
 50
117.9598631388
 51
133.7473789406
  0
ARC
  5
2B3
100
AcDbEntity
  8
0
100
AcDbCircle
 62
7
  6
CONTINUOUS
 10
5.3004915395
 20
4.5128453834
 40
0.0149599951
100
AcDbArc
 50
89.9998505228
 51
180.0001568958
  0
ARC
  5
2B4
100
AcDbEntity
  8
0
100
AcDbCircle
 62
7
  6
CONTINUOUS
 10
5.4184677818
 20
4.5764253425
 40
0.00935
100
AcDbArc
 50
209.2566040567
 51
270.0
  0
ARC
  5
2B5
100
AcDbEntity
  8
0
100
AcDbCircle
 62
7
  6
CONTINUOUS
 10
5.3832390786
 20
1.5372078425
 40
0.00748
100
AcDbArc
 50
0.0
 51
90.0
  0
ARC
  5
2B6
100
AcDbEntity
  8
0
100
AcDbCircle
 62
7
  6
CONTINUOUS
 10
5.3832390786
 20
1.0986928425
 40
0.00748
100
AcDbArc
 50
270.0
 51
360.0
  0
ARC
  5
2B7
100
AcDbEntity
  8
0
100
AcDbCircle
 62
7
  6
CONTINUOUS
 10
5.2850640786
 20
1.4390328425
 40
0.00748
100
AcDbArc
 50
0.0
 51
90.0
  0
ARC
  5
2B8
100
AcDbEntity
  8
0
100
AcDbCircle
 62
7
  6
CONTINUOUS
 10
5.2850640786
 20
1.1968678425
 40
0.00748
100
AcDbArc
 50
270.0
 51
360.0
  0
ARC
  5
2B9
100
AcDbEntity
  8
0
100
AcDbCircle
 62
7
  6
CONTINUOUS
 10
5.3966095786
 20
4.5742033499
 40
0.00561
100
AcDbArc
 50
297.9598631388
 51
360.0
  0
ARC
  5
2BA
100
AcDbEntity
  8
0
100
AcDbCircle
 62
7
  6
CONTINUOUS
 10
5.3635070844
 20
4.5212603425
 40
0.00561
100
AcDbArc
 50
270.0
 51
342.009085612
  0
ARC
  5
2BB
100
AcDbEntity
  8
0
100
AcDbCircle
 62
7
  6
CONTINUOUS
 10
5.3283545786
 20
4.5184553425
 40
0.002805
100
AcDbArc
 50
180.0
 51
270.0
  0
ARC
  5
2BC
100
AcDbEntity
  8
0
100
AcDbCircle
 62
7
  6
CONTINUOUS
 10
5.5707101745
 20
4.8204283836
 40
0.212245
100
AcDbArc
 50
197.9909143881
 51
204.9569771164
  0
ARC
  5
2BD
100
AcDbEntity
  8
0
100
AcDbCircle
 62
7
  6
CONTINUOUS
 10
5.5269600184
 20
4.6372003425
 40
0.133705
100
AcDbArc
 50
202.1864848034
 51
209.256604081
  0
ARC
  5
2BE
100
AcDbEntity
  8
0
100
AcDbCircle
 62
7
  6
CONTINUOUS
 10
5.5269600184
 20
4.6372003425
 40
0.133705
100
AcDbArc
 50
150.743395919
 51
157.8135151966
  0
ARC
  5
2BF
100
AcDbEntity
  8
0
100
AcDbCircle
 62
7
  6
CONTINUOUS
 10
5.4537283673
 20
4.7659857745
 40
0.083215
100
AcDbArc
 50
204.9569771164
 51
216.9881745755
  0
ARC
  5
2C0
100
AcDbEntity
  8
0
100
AcDbCircle
 62
7
  6
CONTINUOUS
 10
5.4262446434
 20
4.7452841952
 40
0.048807
100
AcDbArc
 50
216.9881745755
 51
226.2526210594
  0
ARC
  5
2C1
100
AcDbEntity
  8
0
100
AcDbCircle
 62
7
  6
CONTINUOUS
 10
5.413443274
 20
4.7319104856
 40
0.030294
100
AcDbArc
 50
226.2526210594
 51
242.0401368612
  0
ARC
  5
2C2
100
AcDbEntity
  8
0
100
AcDbCircle
 62
7
  6
CONTINUOUS
 10
5.3004915395
 20
4.7615553015
 40
0.0149599951
100
AcDbArc
 50
179.9998430764
 51
270.0001495033
  0
ARC
  5
2C3
100
AcDbEntity
  8
0
100
AcDbCircle
 62
7
  6
CONTINUOUS
 10
5.4184677818
 20
4.6979753424
 40
0.00935
100
AcDbArc
 50
90.0
 51
150.7433959433
  0
ARC
  5
2C4
100
AcDbEntity
  8
0
100
AcDbCircle
 62
7
  6
CONTINUOUS
 10
5.3832390786
 20
8.1757078425
 40
0.00748
100
AcDbArc
 50
0.0
 51
90.0
  0
ARC
  5
2C5
100
AcDbEntity
  8
0
100
AcDbCircle
 62
7
  6
CONTINUOUS
 10
5.3832390786
 20
7.7371928425
 40
0.00748
100
AcDbArc
 50
270.0
 51
360.0
  0
ARC
  5
2C6
100
AcDbEntity
  8
0
100
AcDbCircle
 62
7
  6
CONTINUOUS
 10
5.2850640786
 20
8.0775328425
 40
0.00748
100
AcDbArc
 50
0.0
 51
90.0
  0
ARC
  5
2C7
100
AcDbEntity
  8
0
100
AcDbCircle
 62
7
  6
CONTINUOUS
 10
5.2850640786
 20
7.8353678425
 40
0.00748
100
AcDbArc
 50
270.0
 51
360.0
  0
ARC
  5
2C8
100
AcDbEntity
  8
0
100
AcDbCircle
 62
7
  6
CONTINUOUS
 10
5.3966095786
 20
4.7001973351
 40
0.00561
100
AcDbArc
 50
0.0
 51
62.0401368612
  0
ARC
  5
2C9
100
AcDbEntity
  8
0
100
AcDbCircle
 62
7
  6
CONTINUOUS
 10
5.3635070844
 20
4.7531403425
 40
0.00561
100
AcDbArc
 50
17.990914388
 51
90.0
  0
ARC
  5
2CA
100
AcDbEntity
  8
0
100
AcDbCircle
 62
7
  6
CONTINUOUS
 10
5.3283545786
 20
4.7559453425
 40
0.002805
100
AcDbArc
 50
90.0
 51
180.0
  0
ARC
  5
2CB
100
AcDbEntity
  8
0
100
AcDbCircle
 62
7
  6
CONTINUOUS
 10
5.6027119546
 20
4.7053812622
 40
0.0019460635
100
AcDbArc
 50
90.0038127226
 51
93.4525699074
  0
SPLINE
  5
2CC
100
AcDbEntity
  8
0
100
AcDbSpline
 62
7
  6
CONTINUOUS
 70
0
 71
3
 72
93
 73
89
 74
0
 42
0.0000001
 43
0.0000001
 44
0.0000000001
 40
0.0
 40
0.0
 40
0.0
 40
0.0
 40
0.0000028845
 40
0.0000114789
 40
0.0000257817
 40
0.0000457913
 40
0.0001029247
 40
0.0001828669
 40
0.0002856054
 40
0.0004111279
 40
0.0005594203
 40
0.0007304621
 40
0.0011407063
 40
0.0016416855
 40
0.0022331783
 40
0.0029147872
 40
0.0036860726
 40
0.0045465921
 40
0.0065335126
 40
0.0088715884
 40
0.0115555518
 40
0.0145797587
 40
0.0179383812
 40
0.0216247655
 40
0.0256318434
 40
0.0345785279
 40
0.0447166962
 40
0.0559817477
 40
0.0683080711
 40
0.0816304687
 40
0.0958849417
 40
0.1110099164
 40
0.1269465093
 40
0.1610327878
 40
0.1977337155
 40
0.2366847484
 40
0.2775556068
 40
0.3200409756
 40
0.3638394841
 40
0.4086481741
 40
0.4541437245
 40
0.4770470613
 40
0.4999942791
 40
0.5229415668
 40
0.5458445854
 40
0.5686597081
 40
0.5913447647
 40
0.6138575258
 40
0.636156393
 40
0.6582027434
 40
0.6799585598
 40
0.7224436734
 40
0.7633146011
 40
0.8022655109
 40
0.8389666384
 40
0.8563614468
 40
0.8730535225
 40
0.8889901236
 40
0.9041150029
 40
0.918369565
 40
0.9316919103
 40
0.94401827
 40
0.9552832866
 40
0.9654215031
 40
0.9743681281
 40
0.9783752755
 40
0.9820616134
 40
0.9854201672
 40
0.9884444546
 40
0.9911284441
 40
0.9934664602
 40
0.9954533743
 40
0.9963139115
 40
0.9970852209
 40
0.9977668475
 40
0.998358338
 40
0.998859287
 40
0.9992694917
 40
0.9994405184
 40
0.999588803
 40
0.9997143274
 40
0.9998170756
 40
0.9998970324
 40
0.9999541823
 40
0.9999741998
 40
0.9999885099
 40
0.9999971106
 40
1.0
 40
1.0
 40
1.0
 40
1.0
 10
5.0424315786
 20
4.5661403425
 30
0.0
 10
5.0424315959
 20
4.5661404841
 30
0.0
 10
5.0424319527
 20
4.5661409626
 30
0.0
 10
5.0424324086
 20
4.5661421386
 30
0.0
 10
5.0424333997
 20
4.5661440274
 30
0.0
 10
5.0424353517
 20
4.5661480998
 30
0.0
 10
5.0424387938
 20
4.5661550692
 30
0.0
 10
5.0424439962
 20
4.5661657241
 30
0.0
 10
5.0424507043
 20
4.566179411
 30
0.0
 10
5.0424588927
 20
4.5661961352
 30
0.0
 10
5.0424685695
 20
4.5662158921
 30
0.0
 10
5.0424844367
 20
4.5662482952
 30
0.0
 10
5.0425079671
 20
4.5662963661
 30
0.0
 10
5.0425406183
 20
4.566363122
 30
0.0
 10
5.0425791376
 20
4.5664419467
 30
0.0
 10
5.0426234933
 20
4.5665327974
 30
0.0
 10
5.0426736484
 20
4.5666356216
 30
0.0
 10
5.0427520435
 20
4.5667964919
 30
0.0
 10
5.0428642062
 20
4.567027099
 30
0.0
 10
5.0430154222
 20
4.5673389856
 30
0.0
 10
5.0431885444
 20
4.5676972585
 30
0.0
 10
5.0433830143
 20
4.5681012674
 30
0.0
 10
5.0435981858
 20
4.5685503271
 30
0.0
 10
5.0438333998
 20
4.5690436795
 30
0.0
 10
5.0441859578
 20
4.5697872291
 30
0.0
 10
5.0446714524
 20
4.5708208495
 30
0.0
 10
5.0453020888
 20
4.5721828225
 30
0.0
 10
5.0459934135
 20
4.5737008418
 30
0.0
 10
5.0467381562
 20
4.5753675174
 30
0.0
 10
5.0475288072
 20
4.5771755396
 30
0.0
 10
5.0483577795
 20
4.5791177759
 30
0.0
 10
5.0492173744
 20
4.5811874014
 30
0.0
 10
5.0504213124
 20
4.5841757811
 30
0.0
 10
5.0519529964
 20
4.5881821764
 30
0.0
 10
5.0537524901
 20
4.5933028004
 30
0.0
 10
5.0554908062
 20
4.5987978549
 30
0.0
 10
5.0571069098
 20
4.6046279068
 30
0.0
 10
5.0585388314
 20
4.6107528049
 30
0.0
 10
5.0597296111
 20
4.6171278698
 30
0.0
 10
5.0606235132
 20
4.6237019059
 30
0.0
 10
5.061086928
 20
4.6292840927
 30
0.0
 10
5.0612741759
 20
4.6337979996
 30
0.0
 10
5.0613213714
 20
4.6372003535
 30
0.0
 10
5.0612746305
 20
4.6406026837
 30
0.0
 10
5.0611331776
 20
4.6439958609
 30
0.0
 10
5.0608994791
 20
4.64737091
 30
0.0
 10
5.0605774199
 20
4.6507192683
 30
0.0
 10
5.0601705432
 20
4.6540326468
 30
0.0
 10
5.0596832733
 20
4.657303196
 30
0.0
 10
5.0591221621
 20
4.660523878
 30
0.0
 10
5.0582908124
 20
4.664709572
 30
0.0
 10
5.0571068264
 20
4.669772815
 30
0.0
 10
5.0554908376
 20
4.6756028256
 30
0.0
 10
5.0537524597
 20
4.6810978639
 30
0.0
 10
5.0522267073
 20
4.6854396998
 30
0.0
 10
5.0509975953
 20
4.6887175631
 30
0.0
 10
5.0500998668
 20
4.6910227856
 30
0.0
 10
5.0492173831
 20
4.6932132902
 30
0.0
 10
5.0483577663
 20
4.6952829038
 30
0.0
 10
5.0475288173
 20
4.6972251477
 30
0.0
 10
5.0467381494
 20
4.6990331662
 30
0.0
 10
5.0459934189
 20
4.7006998446
 30
0.0
 10
5.0453020828
 20
4.7022178614
 30
0.0
 10
5.0446714605
 20
4.7035798383
 30
0.0
 10
5.0441859492
 20
4.7046134541
 30
0.0
 10
5.0438334046
 20
4.7053570081
 30
0.0
 10
5.0435981875
 20
4.7058503565
 30
0.0
 10
5.0433830076
 20
4.7062994103
 30
0.0
 10
5.0431885463
 20
4.7067034254
 30
0.0
 10
5.0430154259
 20
4.7070617018
 30
0.0
 10
5.0428642042
 20
4.7073735834
 30
0.0
 10
5.0427520422
 20
4.7076041882
 30
0.0
 10
5.0426736481
 20
4.7077650609
 30
0.0
 10
5.0426234934
 20
4.7078678886
 30
0.0
 10
5.0425791383
 20
4.7079587417
 30
0.0
 10
5.0425406194
 20
4.7080375658
 30
0.0
 10
5.0425079677
 20
4.7081043175
 30
0.0
 10
5.0424844366
 20
4.7081523833
 30
0.0
 10
5.0424685693
 20
4.708184783
 30
0.0
 10
5.0424588924
 20
4.7082045387
 30
0.0
 10
5.042450704
 20
4.7082212632
 30
0.0
 10
5.0424439962
 20
4.7082349515
 30
0.0
 10
5.0424387935
 20
4.7082456087
 30
0.0
 10
5.0424353523
 20
4.7082525804
 30
0.0
 10
5.0424333993
 20
4.7082566544
 30
0.0
 10
5.0424324099
 20
4.7082585447
 30
0.0
 10
5.042431951
 20
4.7082597212
 30
0.0
 10
5.0424315971
 20
4.7082602008
 30
0.0
 10
5.0424315786
 20
4.7082603425
 30
0.0
  0
SPLINE
  5
2CD
100
AcDbEntity
  8
0
100
AcDbSpline
 62
7
  6
CONTINUOUS
 70
0
 71
3
 72
9
 73
5
 74
0
 42
0.0000001
 43
0.0000001
 44
0.0000000001
 40
0.0
 40
0.0
 40
0.0
 40
0.0
 40
0.2137297069
 40
1.0
 40
1.0
 40
1.0
 40
1.0
 10
5.6207972948
 20
4.7030092463
 30
0.0
 10
5.6207970819
 20
4.7030095393
 30
0.0
 10
5.6207958671
 20
4.7030107619
 30
0.0
 10
5.6207940578
 20
4.7030111398
 30
0.0
 10
5.6207927296
 20
4.7030112438
 30
0.0
  0
SPLINE
  5
2CE
100
AcDbEntity
  8
0
100
AcDbSpline
 62
7
  6
CONTINUOUS
 70
0
 71
3
 72
17
 73
13
 74
0
 42
0.0000001
 43
0.0000001
 44
0.0000000001
 40
0.0
 40
0.0
 40
0.0
 40
0.0
 40
0.1271981069
 40
0.2537470628
 40
0.3168031133
 40
0.3796928038
 40
0.4424052443
 40
0.5049432568
 40
0.6294838789
 40
0.7534239711
 40
0.8768965052
 40
1.0
 40
1.0
 40
1.0
 40
1.0
 10
5.6202774452
 20
4.7025428387
 30
0.0
 10
5.6200575281
 20
4.7029140119
 30
0.0
 10
5.6195673367
 20
4.7036251716
 30
0.0
 10
5.6188422241
 20
4.7044226267
 30
0.0
 10
5.6182055119
 20
4.7049961767
 30
0.0
 10
5.6177025002
 20
4.705392462
 30
0.0
 10
5.6171763505
 20
4.7057543538
 30
0.0
 10
5.6164484326
 20
4.7061888447
 30
0.0
 10
5.6154919882
 20
4.7066412112
 30
0.0
 10
5.6142894195
 20
4.7070334076
 30
0.0
 10
5.6130519582
 20
4.7072701561
 30
0.0
 10
5.6122146977
 20
4.7073232812
 30
0.0
 10
5.6117971544
 20
4.707323359
 30
0.0
  0
LINE
  5
2CF
100
AcDbEntity
  8
0
100
AcDbLine
 62
7
  6
CONTINUOUS
 10
5.6235096305
 20
4.5718538739
 11
5.6240475919
 21
4.5715818383
  0
LINE
  5
2D0
100
AcDbEntity
  8
0
100
AcDbLine
 62
7
  6
CONTINUOUS
 10
5.6202774452
 20
4.7025428387
 11
5.6207973302
 21
4.7030052359
  0
SPLINE
  5
2D1
100
AcDbEntity
  8
0
100
AcDbSpline
 62
7
  6
CONTINUOUS
 70
0
 71
3
 72
141
 73
137
 74
0
 42
0.0000001
 43
0.0000001
 44
0.0000000001
 40
0.0
 40
0.0
 40
0.0
 40
0.0
 40
0.0000035435
 40
0.0000079016
 40
0.000013983
 40
0.0000313133
 40
0.0000555288
 40
0.000086624
 40
0.0001245934
 40
0.0001694313
 40
0.0002211324
 40
0.000345101
 40
0.0004964489
 40
0.0006751233
 40
0.0008810711
 40
0.0011142393
 40
0.0013745698
 40
0.0019764686
 40
0.0026862592
 40
0.0035033201
 40
0.0044269381
 40
0.0054561417
 40
0.0065896733
 40
0.0078262499
 40
0.0106033143
 40
0.0137766583
 40
0.0173349974
 40
0.0212657679
 40
0.0255549835
 40
0.0301886702
 40
0.0351529915
 40
0.040434208
 40
0.0460183072
 40
0.051891075
 40
0.0644476806
 40
0.0779988575
 40
0.0924472082
 40
0.1077019036
 40
0.1236802707
 40
0.140309442
 40
0.1575229288
 40
0.1752600162
 40
0.1934686591
 40
0.2121019227
 40
0.2311164781
 40
0.2504753823
 40
0.2602736287
 40
0.2701454584
 40
0.2800872156
 40
0.2900955883
 40
0.3001675067
 40
0.3103000481
 40
0.3204898779
 40
0.3307339141
 40
0.3410299145
 40
0.3513756486
 40
0.3617685441
 40
0.3722058949
 40
0.3826852386
 40
0.3932049103
 40
0.4037626449
 40
0.41435571
 40
0.4249813365
 40
0.4356371071
 40
0.4463200506
 40
0.4570266574
 40
0.4677527935
 40
0.4784941191
 40
0.4838694749
 40
0.4892468294
 40
0.5000041126
 40
0.5107613952
 40
0.5161387525
 40
0.5215141114
 40
0.5322554374
 40
0.5429815676
 40
0.553688176
 40
0.5643711295
 40
0.5750269059
 40
0.5856525211
 40
0.5962455714
 40
0.606803317
 40
0.6173230107
 40
0.6278023487
 40
0.6692663194
 40
0.6795103311
 40
0.6897001403
 40
0.6998326872
 40
0.7099046378
 40
0.7298545459
 40
0.7397263441
 40
0.7495245971
 40
0.7688835584
 40
0.7878980623
 40
0.8065313184
 40
0.8247400308
 40
0.8424770493
 40
0.8596905115
 40
0.876319759
 40
0.8922981166
 40
0.9075527504
 40
0.9220011381
 40
0.9355523413
 40
0.9481088963
 40
0.9539816587
 40
0.9595657836
 40
0.9648470454
 40
0.9698113761
 40
0.9744450093
 40
0.9787341785
 40
0.9826649578
 40
0.9862233686
 40
0.9893967192
 40
0.9921737187
 40
0.9934102738
 40
0.9945438052
 40
0.9955730352
 40
0.9964967081
 40
0.99731383
 40
0.9980236438
 40
0.998625511
 40
0.9988858118
 40
0.9991189449
 40
0.9993248564
 40
0.9995034981
 40
0.9996548221
 40
0.9997787806
 40
0.9998304828
 40
0.9998753256
 40
0.999913303
 40
0.9999444091
 40
0.9999686378
 40
0.9999859831
 40
0.9999920727
 40
0.9999964392
 40
1.0
 40
1.0
 40
1.0
 40
1.0
 10
5.2855315786
 20
4.7615553425
 30
0.0
 10
5.2855314974
 20
4.761555008
 30
0.0
 10
5.2855308193
 20
4.7615545029
 30
0.0
 10
5.285530075
 20
4.7615533923
 30
0.0
 10
5.2855283317
 20
4.7615513142
 30
0.0
 10
5.2855254795
 20
4.7615476859
 30
0.0
 10
5.2855210379
 20
4.7615421974
 30
0.0
 10
5.2855153641
 20
4.7615351369
 30
0.0
 10
5.2855084181
 20
4.7615265256
 30
0.0
 10
5.2855002149
 20
4.7615163584
 30
0.0
 10
5.2854867571
 20
4.761499698
 30
0.0
 10
5.2854667826
 20
4.7614750037
 30
0.0
 10
5.2854390323
 20
4.7614407374
 30
0.0
 10
5.2854062555
 20
4.761400296
 30
0.0
 10
5.285368462
 20
4.7613536914
 30
0.0
 10
5.2853256622
 20
4.7613009359
 30
0.0
 10
5.285258623
 20
4.7612183246
 30
0.0
 10
5.2851624069
 20
4.7610997739
 30
0.0
 10
5.2850321351
 20
4.7609392228
 30
0.0
 10
5.2848822263
 20
4.7607543662
 30
0.0
 10
5.2847128681
 20
4.7605453403
 30
0.0
 10
5.2845242492
 20
4.7603123601
 30
0.0
 10
5.2843165514
 20
4.7600557173
 30
0.0
 10
5.2840021025
 20
4.7596670789
 30
0.0
 10
5.2835631315
 20
4.7591243484
 30
0.0
 10
5.2829826236
 20
4.7584060676
 30
0.0
 10
5.2823322168
 20
4.757600205
 30
0.0
 10
5.2816144254
 20
4.7567094545
 30
0.0
 10
5.2808316843
 20
4.7557369093
 30
0.0
 10
5.2799867101
 20
4.7546855946
 30
0.0
 10
5.2790822733
 20
4.753558462
 30
0.0
 10
5.2781212484
 20
4.7523583854
 30
0.0
 10
5.277106445
 20
4.7510883386
 30
0.0
 10
5.2756525445
 20
4.7492646576
 30
0.0
 10
5.2737205991
 20
4.74683248
 30
0.0
 10
5.2712789579
 20
4.7437414939
 30
0.0
 10
5.2686856805
 20
4.7404363675
 30
0.0
 10
5.2659597074
 20
4.7369357488
 30
0.0
 10
5.2631185893
 20
4.7332563805
 30
0.0
 10
5.2601800803
 20
4.7294119153
 30
0.0
 10
5.2571604615
 20
4.7254145418
 30
0.0
 10
5.2540740084
 20
4.7212755118
 30
0.0
 10
5.2509367988
 20
4.7170024756
 30
0.0
 10
5.2477644886
 20
4.712601519
 30
0.0
 10
5.2445710378
 20
4.7080783866
 30
0.0
 10
5.2419174884
 20
4.7042248228
 30
0.0
 10
5.2398005378
 20
4.7010803034
 30
0.0
 10
5.2382120997
 20
4.6986826683
 30
0.0
 10
5.2366321053
 20
4.6962550674
 30
0.0
 10
5.2350632587
 20
4.6937971515
 30
0.0
 10
5.2335090252
 20
4.6913080833
 30
0.0
 10
5.2319730307
 20
4.688787046
 30
0.0
 10
5.2304582034
 20
4.6862337671
 30
0.0
 10
5.2289677981
 20
4.6836477953
 30
0.0
 10
5.2275072883
 20
4.6810274438
 30
0.0
 10
5.2260819728
 20
4.678371334
 30
0.0
 10
5.2246973829
 20
4.67567829
 30
0.0
 10
5.2233587421
 20
4.6729476239
 30
0.0
 10
5.2220719618
 20
4.6701784962
 30
0.0
 10
5.2208470044
 20
4.6673686305
 30
0.0
 10
5.2196925463
 20
4.6645170831
 30
0.0
 10
5.2186167429
 20
4.6616238908
 30
0.0
 10
5.2176283376
 20
4.6586895299
 30
0.0
 10
5.216739904
 20
4.6557141246
 30
0.0
 10
5.2159629539
 20
4.6526994268
 30
0.0
 10
5.2153091136
 20
4.649648538
 30
0.0
 10
5.2147865997
 20
4.6465666334
 30
0.0
 10
5.2144679517
 20
4.6439780176
 30
0.0
 10
5.2142883418
 20
4.6418979675
 30
0.0
 10
5.2141603252
 20
4.6398125484
 30
0.0
 10
5.214097168
 20
4.6372003385
 30
0.0
 10
5.2141604019
 20
4.6345881324
 30
0.0
 10
5.2142883703
 20
4.6325027104
 30
0.0
 10
5.2144679003
 20
4.6304226526
 30
0.0
 10
5.214786559
 20
4.6278340361
 30
0.0
 10
5.2153091654
 20
4.624752148
 30
0.0
 10
5.2159629976
 20
4.6217012585
 30
0.0
 10
5.2167398799
 20
4.6186865417
 30
0.0
 10
5.2176282819
 20
4.6157111253
 30
0.0
 10
5.2186167357
 20
4.6127767824
 30
0.0
 10
5.2196926086
 20
4.6098836166
 30
0.0
 10
5.2208470235
 20
4.6070320571
 30
0.0
 10
5.2220719015
 20
4.6042221307
 30
0.0
 10
5.2246286968
 20
4.5987201363
 30
0.0
 10
5.2274561686
 20
4.5933753631
 30
0.0
 10
5.2304581949
 20
4.5881669522
 30
0.0
 10
5.2319730707
 20
4.5856136525
 30
0.0
 10
5.2335090446
 20
4.583092613
 30
0.0
 10
5.2355746625
 20
4.5797844972
 30
0.0
 10
5.2376752566
 20
4.5765283594
 30
0.0
 10
5.2398005676
 20
4.5733204094
 30
0.0
 10
5.2419175124
 20
4.5701758779
 30
0.0
 10
5.2445709789
 20
4.5663222576
 30
0.0
 10
5.2477645073
 20
4.5617991788
 30
0.0
 10
5.2509368293
 20
4.5573982305
 30
0.0
 10
5.2540739538
 20
4.5531251323
 30
0.0
 10
5.257160478
 20
4.5489861579
 30
0.0
 10
5.2601801102
 20
4.544988797
 30
0.0
 10
5.2631185657
 20
4.5411442858
 30
0.0
 10
5.2659596927
 20
4.5374649234
 30
0.0
 10
5.2686857019
 20
4.5339643371
 30
0.0
 10
5.2712789558
 20
4.5306591922
 30
0.0
 10
5.2737205846
 20
4.5275681946
 30
0.0
 10
5.2756525492
 20
4.525136036
 30
0.0
 10
5.2771064503
 20
4.5233123592
 30
0.0
 10
5.2781212511
 20
4.5220423023
 30
0.0
 10
5.2790822676
 20
4.5208422088
 30
0.0
 10
5.2799867
 20
4.5197150725
 30
0.0
 10
5.2808316848
 20
4.5186637777
 30
0.0
 10
5.2816144317
 20
4.5176912485
 30
0.0
 10
5.2823322258
 20
4.5168004959
 30
0.0
 10
5.2829826166
 20
4.5159946096
 30
0.0
 10
5.2835631225
 20
4.5152763254
 30
0.0
 10
5.2840021039
 20
4.5147336134
 30
0.0
 10
5.2843165538
 20
4.5143449865
 30
0.0
 10
5.2845242521
 20
4.5140883436
 30
0.0
 10
5.2847128715
 20
4.5138553536
 30
0.0
 10
5.2848822278
 20
4.5136463084
 30
0.0
 10
5.2850321319
 20
4.5134614306
 30
0.0
 10
5.2851624012
 20
4.5133008709
 30
0.0
 10
5.2852586201
 20
4.5131823273
 30
0.0
 10
5.2853256612
 20
4.5130997295
 30
0.0
 10
5.2853684615
 20
4.513046987
 30
0.0
 10
5.2854062555
 20
4.513000396
 30
0.0
 10
5.285439033
 20
4.5129599667
 30
0.0
 10
5.2854667838
 20
4.5129257091
 30
0.0
 10
5.285486758
 20
4.5129010187
 30
0.0
 10
5.2855002149
 20
4.5128843581
 30
0.0
 10
5.2855084179
 20
4.512874189
 30
0.0
 10
5.2855153637
 20
4.5128655745
 30
0.0
 10
5.2855210371
 20
4.5128585099
 30
0.0
 10
5.2855254794
 20
4.5128530166
 30
0.0
 10
5.2855283301
 20
4.5128493837
 30
0.0
 10
5.2855300753
 20
4.5128473017
 30
0.0
 10
5.2855308168
 20
4.5128461872
 30
0.0
 10
5.2855315029
 20
4.5128456799
 30
0.0
 10
5.2855315786
 20
4.5128453425
 30
0.0
  0
SPLINE
  5
2D2
100
AcDbEntity
  8
0
100
AcDbSpline
 62
7
  6
CONTINUOUS
 70
0
 71
3
 72
126
 73
122
 74
0
 42
0.0000001
 43
0.0000001
 44
0.0000000001
 40
0.0
 40
0.0
 40
0.0
 40
0.0
 40
0.0000034853
 40
0.0000137316
 40
0.000030735
 40
0.0000544918
 40
0.000084998
 40
0.0001222496
 40
0.0002169738
 40
0.0003386322
 40
0.000487181
 40
0.0006625677
 40
0.00086474
 40
0.0010936451
 40
0.001349228
 40
0.0019401847
 40
0.0026371202
 40
0.0034394581
 40
0.0043465111
 40
0.0053574508
 40
0.0064711216
 40
0.0076863141
 40
0.0104163087
 40
0.0135373088
 40
0.0170386524
 40
0.0209087163
 40
0.0251344005
 40
0.0297023496
 40
0.0345993519
 40
0.0398122472
 40
0.0511322747
 40
0.0635554413
 40
0.0769801866
 40
0.091311292
 40
0.1064602946
 40
0.122346582
 40
0.1388969704
 40
0.1737335143
 40
0.1919078381
 40
0.2105208532
 40
0.2295308916
 40
0.2489001609
 40
0.2685945834
 40
0.288584934
 40
0.3088443028
 40
0.3293489452
 40
0.3500786374
 40
0.3710144606
 40
0.3815554266
 40
0.3921422548
 40
0.4027729914
 40
0.4134457841
 40
0.4241587263
 40
0.4349095181
 40
0.4456954262
 40
0.4565130353
 40
0.4673580904
 40
0.4782251774
 40
0.483665722
 40
0.4891092826
 40
0.4999999005
 40
0.5108905191
 40
0.5163340808
 40
0.5217746244
 40
0.5326417131
 40
0.5434867703
 40
0.5543043806
 40
0.56509029
 40
0.5758410827
 40
0.5865540264
 40
0.5972268176
 40
0.6078575478
 40
0.6184443734
 40
0.6289853446
 40
0.6499211621
 40
0.6706508494
 40
0.6911555062
 40
0.7114148536
 40
0.7214454294
 40
0.7314054229
 40
0.7510998341
 40
0.7704690876
 40
0.7894791569
 40
0.8080921633
 40
0.826266464
 40
0.8611030361
 40
0.8776534168
 40
0.8935396985
 40
0.9086886983
 40
0.9230198087
 40
0.9364445679
 40
0.9488677029
 40
0.9601877523
 40
0.9654006884
 40
0.9702976785
 40
0.9748655776
 40
0.9790912311
 40
0.9829613197
 40
0.9864627298
 40
0.9895837105
 40
0.9923136462
 40
0.9935288246
 40
0.9946425025
 40
0.9956534743
 40
0.9965605833
 40
0.9973629731
 40
0.9980599185
 40
0.998650839
 40
0.9989063931
 40
0.9991352663
 40
0.9993374067
 40
0.9995127654
 40
0.9996612934
 40
0.9997829421
 40
0.9998776694
 40
0.9999149273
 40
0.9999454427
 40
0.9999692117
 40
0.9999862302
 40
0.9999964942
 40
1.0
 40
1.0
 40
1.0
 40
1.0
 10
5.3004915786
 20
4.7465953425
 30
0.0
 10
5.3004912833
 20
4.746595215
 30
0.0
 10
5.3004905026
 20
4.7465941282
 30
0.0
 10
5.300488315
 20
4.7465923788
 30
0.0
 10
5.3004849864
 20
4.7465890117
 30
0.0
 10
5.300480201
 20
4.7465845173
 30
0.0
 10
5.3004741159
 20
4.7465786556
 30
0.0
 10
5.3004632892
 20
4.7465682864
 30
0.0
 10
5.3004464166
 20
4.7465520643
 30
0.0
 10
5.3004221553
 20
4.7465287117
 30
0.0
 10
5.3003925548
 20
4.7465001718
 30
0.0
 10
5.3003576215
 20
4.7464664594
 30
0.0
 10
5.3003173676
 20
4.746427582
 30
0.0
 10
5.3002718035
 20
4.7463835505
 30
0.0
 10
5.3002004571
 20
4.7463145719
 30
0.0
 10
5.3000980838
 20
4.7462155505
 30
0.0
 10
5.2999594602
 20
4.7460814376
 30
0.0
 10
5.29979987
 20
4.7459270466
 30
0.0
 10
5.2996194293
 20
4.7457525353
 30
0.0
 10
5.2994183062
 20
4.7455580843
 30
0.0
 10
5.2991967601
 20
4.7453438494
 30
0.0
 10
5.298861259
 20
4.7450192627
 30
0.0
 10
5.2983928394
 20
4.7445656682
 30
0.0
 10
5.2977732295
 20
4.7439649495
 30
0.0
 10
5.2970784009
 20
4.7432906793
 30
0.0
 10
5.2963107124
 20
4.7425451157
 30
0.0
 10
5.2954730041
 20
4.7417303784
 30
0.0
 10
5.2945681182
 20
4.740848796
 30
0.0
 10
5.2935988188
 20
4.7399027864
 30
0.0
 10
5.2921848264
 20
4.738520364
 30
0.0
 10
5.2902768165
 20
4.7366498038
 30
0.0
 10
5.2878334193
 20
4.7342429389
 30
0.0
 10
5.2851990407
 20
4.731634034
 30
0.0
 10
5.2823944547
 20
4.7288395603
 30
0.0
 10
5.2794395345
 20
4.7258741882
 30
0.0
 10
5.2763527242
 20
4.7227511775
 30
0.0
 10
5.2720096517
 20
4.7183156029
 30
0.0
 10
5.2675564077
 20
4.7136924526
 30
0.0
 10
5.2630215774
 20
4.7088843216
 30
0.0
 10
5.2595206523
 20
4.705108799
 30
0.0
 10
5.2559821289
 20
4.7012180702
 30
0.0
 10
5.252421712
 20
4.6972127683
 30
0.0
 10
5.2488577761
 20
4.6930901796
 30
0.0
 10
5.245307397
 20
4.6888481247
 30
0.0
 10
5.2417934905
 20
4.6844792327
 30
0.0
 10
5.2383441935
 20
4.6799726605
 30
0.0
 10
5.234989111
 20
4.6753179909
 30
0.0
 10
5.2323175428
 20
4.6713073171
 30
0.0
 10
5.2302769381
 20
4.6680051031
 30
0.0
 10
5.2288005051
 20
4.6654731762
 30
0.0
 10
5.2273933803
 20
4.6628881073
 30
0.0
 10
5.2260674576
 20
4.6602472992
 30
0.0
 10
5.2248352287
 20
4.6575491424
 30
0.0
 10
5.2237120964
 20
4.6547922802
 30
0.0
 10
5.2227157313
 20
4.6519765975
 30
0.0
 10
5.221865274
 20
4.649104071
 30
0.0
 10
5.2211788618
 20
4.6461801091
 30
0.0
 10
5.2207563681
 20
4.6437085326
 30
0.0
 10
5.2205164416
 20
4.6417154487
 30
0.0
 10
5.2203442218
 20
4.6397131901
 30
0.0
 10
5.2202583302
 20
4.6372003416
 30
0.0
 10
5.2203442803
 20
4.6346874982
 30
0.0
 10
5.2205164379
 20
4.6326852347
 30
0.0
 10
5.220756324
 20
4.6306921451
 30
0.0
 10
5.2211788591
 20
4.6282205735
 30
0.0
 10
5.2218653247
 20
4.6252966257
 30
0.0
 10
5.2227157228
 20
4.6224240821
 30
0.0
 10
5.223712069
 20
4.6196083913
 30
0.0
 10
5.2248352165
 20
4.6168515344
 30
0.0
 10
5.226067489
 20
4.6141533975
 30
0.0
 10
5.2273934013
 20
4.6115125858
 30
0.0
 10
5.2288004711
 20
4.6089274883
 30
0.0
 10
5.2302768882
 20
4.6063955513
 30
0.0
 10
5.2323175937
 20
4.6030934001
 30
0.0
 10
5.2349890883
 20
4.5990826818
 30
0.0
 10
5.2383441551
 20
4.5944279938
 30
0.0
 10
5.2417935565
 20
4.5899215152
 30
0.0
 10
5.2447312542
 20
4.5862686838
 30
0.0
 10
5.2471014968
 20
4.583409123
 30
0.0
 10
5.2494630773
 20
4.5806102715
 30
0.0
 10
5.2524217334
 20
4.5771879304
 30
0.0
 10
5.2559820897
 20
4.5731825832
 30
0.0
 10
5.259520679
 20
4.5692919108
 30
0.0
 10
5.2630215822
 20
4.5655163692
 30
0.0
 10
5.2675563834
 20
4.5607082106
 30
0.0
 10
5.2720096633
 20
4.5560850953
 30
0.0
 10
5.2763527246
 20
4.5516495079
 30
0.0
 10
5.2794395325
 20
4.5485264969
 30
0.0
 10
5.2823944513
 20
4.5455611238
 30
0.0
 10
5.2851990382
 20
4.5427666489
 30
0.0
 10
5.2878334268
 20
4.5401577558
 30
0.0
 10
5.2902768079
 20
4.5377508741
 30
0.0
 10
5.292184821
 20
4.5358803129
 30
0.0
 10
5.2935988366
 20
4.5344979076
 30
0.0
 10
5.2945681308
 20
4.5335518954
 30
0.0
 10
5.2954729962
 20
4.5326703043
 30
0.0
 10
5.296310693
 20
4.5318555626
 30
0.0
 10
5.297078389
 20
4.5311099987
 30
0.0
 10
5.297773244
 20
4.5304357463
 30
0.0
 10
5.2983928472
 20
4.5298350222
 30
0.0
 10
5.2988612475
 20
4.52938142
 30
0.0
 10
5.2991967399
 20
4.529056833
 30
0.0
 10
5.2994182889
 20
4.5288425978
 30
0.0
 10
5.2996194239
 20
4.5286481465
 30
0.0
 10
5.2997998852
 20
4.5284736379
 30
0.0
 10
5.2999594947
 20
4.5283192513
 30
0.0
 10
5.3000981229
 20
4.5281851397
 30
0.0
 10
5.3002004867
 20
4.5280861158
 30
0.0
 10
5.3002718188
 20
4.5280171353
 30
0.0
 10
5.3003173703
 20
4.527973103
 30
0.0
 10
5.3003576117
 20
4.5279342249
 30
0.0
 10
5.300392534
 20
4.5279005117
 30
0.0
 10
5.3004221268
 20
4.5278719716
 30
0.0
 10
5.3004463851
 20
4.5278486197
 30
0.0
 10
5.3004632597
 20
4.5278323996
 30
0.0
 10
5.3004740901
 20
4.5278220319
 30
0.0
 10
5.3004801795
 20
4.5278161708
 30
0.0
 10
5.300484969
 20
4.5278116761
 30
0.0
 10
5.300488304
 20
4.5278083092
 30
0.0
 10
5.3004904951
 20
4.5278065571
 30
0.0
 10
5.3004912814
 20
4.5278054702
 30
0.0
 10
5.3004915786
 20
4.5278053425
 30
0.0
  0
SPLINE
  5
2D3
100
AcDbEntity
  8
0
100
AcDbSpline
 62
7
  6
CONTINUOUS
 70
0
 71
3
 72
103
 73
99
 74
0
 42
0.0000001
 43
0.0000001
 44
0.0000000001
 40
0.0
 40
0.0
 40
0.0
 40
0.0
 40
0.0000027799
 40
0.0000110642
 40
0.000024852
 40
0.0000441425
 40
0.0000689348
 40
0.0000992279
 40
0.0001763133
 40
0.0002753916
 40
0.0003964555
 40
0.0005394977
 40
0.0007045012
 40
0.0011002918
 40
0.0015836243
 40
0.002154291
 40
0.002811997
 40
0.0035563642
 40
0.0043870109
 40
0.0053035324
 40
0.0063054783
 40
0.0085637953
 40
0.0111576252
 40
0.0140819064
 40
0.0173313517
 40
0.0209003268
 40
0.0247825043
 40
0.0289713644
 40
0.0334602546
 40
0.0433098691
 40
0.0542737605
 40
0.066293184
 40
0.0793095433
 40
0.0932652116
 40
0.1081045952
 40
0.1237743837
 40
0.1402241305
 40
0.1574062994
 40
0.1937907847
 40
0.2326032837
 40
0.2735520126
 40
0.294743125
 40
0.3163654051
 40
0.3383833431
 40
0.3607593105
 40
0.3834526964
 40
0.4064194894
 40
0.4296117603
 40
0.4529774923
 40
0.4764611531
 40
0.500004536
 40
0.5235479051
 40
0.54703156
 40
0.5703973038
 40
0.5935895501
 40
0.6165563428
 40
0.639249764
 40
0.6836384507
 40
0.7264480213
 40
0.7673967032
 40
0.8062092403
 40
0.8425937035
 40
0.8597758839
 40
0.876225605
 40
0.8918954236
 40
0.9067347733
 40
0.920690469
 40
0.9337068052
 40
0.9457262433
 40
0.9566901285
 40
0.9665397318
 40
0.9710286107
 40
0.9752175089
 40
0.9790996805
 40
0.9826686142
 40
0.9859180731
 40
0.9888423879
 40
0.9914362156
 40
0.993694508
 40
0.9946964435
 40
0.9956129643
 40
0.996443625
 40
0.9971880135
 40
0.9978457345
 40
0.998416397
 40
0.9988997063
 40
0.9992954704
 40
0.9994604644
 40
0.9996035023
 40
0.9997245675
 40
0.9998236512
 40
0.9999007448
 40
0.9999310427
 40
0.9999558398
 40
0.9999751352
 40
0.9999889277
 40
0.9999972163
 40
1.0
 40
1.0
 40
1.0
 40
1.0
 10
5.0312115786
 20
4.5773603425
 30
0.0
 10
5.0312116855
 20
4.5773603944
 30
0.0
 10
5.031211839
 20
4.5773609085
 30
0.0
 10
5.0312125088
 20
4.5773616935
 30
0.0
 10
5.0312134039
 20
4.5773632488
 30
0.0
 10
5.0312147582
 20
4.577365309
 30
0.0
 10
5.0312164568
 20
4.5773680038
 30
0.0
 10
5.0312194961
 20
4.5773727689
 30
0.0
 10
5.0312242319
 20
4.5773802246
 30
0.0
 10
5.0312310532
 20
4.5773909533
 30
0.0
 10
5.031239384
 20
4.5774040666
 30
0.0
 10
5.0312492253
 20
4.5774195609
 30
0.0
 10
5.0312653632
 20
4.5774449777
 30
0.0
 10
5.0312892962
 20
4.5774826876
 30
0.0
 10
5.0313225156
 20
4.5775350561
 30
0.0
 10
5.0313617244
 20
4.5775968931
 30
0.0
 10
5.0314068914
 20
4.5776681734
 30
0.0
 10
5.0314579752
 20
4.5777488702
 30
0.0
 10
5.0315149327
 20
4.5778389515
 30
0.0
 10
5.0315777207
 20
4.5779383822
 30
0.0
 10
5.0316730273
 20
4.578089505
 30
0.0
 10
5.0318064224
 20
4.5783014319
 30
0.0
 10
5.0319832322
 20
4.5785831947
 30
0.0
 10
5.0321820067
 20
4.5789012262
 30
0.0
 10
5.0324022255
 20
4.5792550438
 30
0.0
 10
5.0326433214
 20
4.5796441296
 30
0.0
 10
5.0329045914
 20
4.5800679869
 30
0.0
 10
5.0331853366
 20
4.5805260629
 30
0.0
 10
5.0335976464
 20
4.581202892
 30
0.0
 10
5.0341564729
 20
4.5821298088
 30
0.0
 10
5.0348733924
 20
4.5833375192
 30
0.0
 10
5.0356491242
 20
4.5846677989
 30
0.0
 10
5.0364767183
 20
4.586115915
 30
0.0
 10
5.0373489295
 20
4.5876773784
 30
0.0
 10
5.0382585017
 20
4.5893478666
 30
0.0
 10
5.039197935
 20
4.5911234196
 30
0.0
 10
5.040159717
 20
4.5930003433
 30
0.0
 10
5.0414872035
 20
4.5956851881
 30
0.0
 10
5.0431536887
 20
4.5992691148
 30
0.0
 10
5.0450809036
 20
4.6038496889
 30
0.0
 10
5.0465823815
 20
4.607900454
 30
0.0
 10
5.0477018337
 20
4.6113044567
 30
0.0
 10
5.0484969515
 20
4.6139616328
 30
0.0
 10
5.0492286686
 20
4.6166895087
 30
0.0
 10
5.0498878553
 20
4.6194829753
 30
0.0
 10
5.0504646067
 20
4.6223361086
 30
0.0
 10
5.0509498599
 20
4.625241678
 30
0.0
 10
5.0513370257
 20
4.6281909851
 30
0.0
 10
5.0516191868
 20
4.6311744551
 30
0.0
 10
5.0517896737
 20
4.6341814604
 30
0.0
 10
5.0518468681
 20
4.6372003431
 30
0.0
 10
5.0517902204
 20
4.6402192536
 30
0.0
 10
5.0516187941
 20
4.6432262087
 30
0.0
 10
5.0513367755
 20
4.6462096748
 30
0.0
 10
5.0509503206
 20
4.6491590757
 30
0.0
 10
5.0504646497
 20
4.6520646073
 30
0.0
 10
5.0497008094
 20
4.6558406442
 30
0.0
 10
5.0485496134
 20
4.6604015436
 30
0.0
 10
5.0469037573
 20
4.6656329018
 30
0.0
 10
5.0450809835
 20
4.6705509847
 30
0.0
 10
5.0431536427
 20
4.6751315621
 30
0.0
 10
5.0414872168
 20
4.6787155039
 30
0.0
 10
5.0401597029
 20
4.6814003352
 30
0.0
 10
5.0391979512
 20
4.6832772749
 30
0.0
 10
5.0382584848
 20
4.6850528091
 30
0.0
 10
5.0373489448
 20
4.6867233158
 30
0.0
 10
5.0364767077
 20
4.6882847634
 30
0.0
 10
5.0356491329
 20
4.6897328914
 30
0.0
 10
5.0348733886
 20
4.6910631631
 30
0.0
 10
5.034156476
 20
4.6922708774
 30
0.0
 10
5.0335976462
 20
4.6931977908
 30
0.0
 10
5.0331853462
 20
4.6938746266
 30
0.0
 10
5.032904587
 20
4.6943326952
 30
0.0
 10
5.0326433179
 20
4.6947565525
 30
0.0
 10
5.0324022358
 20
4.6951456452
 30
0.0
 10
5.0321820129
 20
4.6954994605
 30
0.0
 10
5.0319832284
 20
4.695817488
 30
0.0
 10
5.0318064193
 20
4.6960992516
 30
0.0
 10
5.0316730296
 20
4.6963111801
 30
0.0
 10
5.0315777266
 20
4.6964623033
 30
0.0
 10
5.031514939
 20
4.6965617344
 30
0.0
 10
5.0314579781
 20
4.6966518154
 30
0.0
 10
5.0314068891
 20
4.6967325113
 30
0.0
 10
5.0313617181
 20
4.6968037908
 30
0.0
 10
5.0313225101
 20
4.6968656276
 30
0.0
 10
5.0312892963
 20
4.696917997
 30
0.0
 10
5.0312653691
 20
4.6969557075
 30
0.0
 10
5.0312492344
 20
4.6969811244
 30
0.0
 10
5.0312393941
 20
4.6969966186
 30
0.0
 10
5.0312310628
 20
4.6970097317
 30
0.0
 10
5.0312242399
 20
4.6970204602
 30
0.0
 10
5.0312195023
 20
4.6970279157
 30
0.0
 10
5.0312164615
 20
4.6970326807
 30
0.0
 10
5.0312147616
 20
4.6970353754
 30
0.0
 10
5.0312134066
 20
4.697037436
 30
0.0
 10
5.0312125099
 20
4.6970389906
 30
0.0
 10
5.0312118403
 20
4.6970397772
 30
0.0
 10
5.0312116854
 20
4.6970402899
 30
0.0
 10
5.0312115786
 20
4.6970403425
 30
0.0
  0
SPLINE
  5
2D4
100
AcDbEntity
  8
0
100
AcDbSpline
 62
7
  6
CONTINUOUS
 70
0
 71
3
 72
15
 73
11
 74
0
 42
0.0000001
 43
0.0000001
 44
0.0000000001
 40
0.0
 40
0.0
 40
0.0
 40
0.0
 40
0.1236754812
 40
0.2475206467
 40
0.3716475635
 40
0.4962015564
 40
0.6212568841
 40
0.7468945207
 40
0.8731331093
 40
1.0
 40
1.0
 40
1.0
 40
1.0
 10
5.615223835
 20
4.5670734924
 30
0.0
 10
5.6156369001
 20
4.5670735619
 30
0.0
 10
5.6164645516
 20
4.5671263938
 30
0.0
 10
5.617686341
 20
4.5673631525
 30
0.0
 10
5.6188705894
 20
4.5677560279
 30
0.0
 10
5.6199976546
 20
4.5683007831
 30
0.0
 10
5.6210474709
 20
4.5689920403
 30
0.0
 10
5.6220003831
 20
4.5698206583
 30
0.0
 10
5.6228357746
 20
4.5707755354
 30
0.0
 10
5.6233019435
 20
4.571484539
 30
0.0
 10
5.6235096305
 20
4.5718538739
 30
0.0
  0
ENDSEC
  0
SECTION
  2
OBJECTS
  0
DICTIONARY
  5
C
100
AcDbDictionary
280
0
281
1
  3
ACAD_GROUP
350
D
  3
ACAD_MLINESTYLE
350
17
  3
ACAD_LAYOUT
350
1A
  3
ACAD_PLOTSETTINGS
350
19
  3
ACAD_PLOTSTYLENAME
350
E
  0
DICTIONARY
  5
D
102
{ACAD_REACTORS
330
C
102
}
100
AcDbDictionary
280
0
281
1
  0
ACDBDICTIONARYWDFLT
  5
E
102
{ACAD_REACTORS
330
C
102
}
100
AcDbDictionary
281
1
  3
Normal
350
F
100
AcDbDictionaryWithDefault
340
F
  0
DICTIONARY
  5
17
102
{ACAD_REACTORS
330
C
102
}
100
AcDbDictionary
280
0
281
1
  3
Standard
350
18
  0
DICTIONARY
  5
19
102
{ACAD_REACTORS
330
C
102
}
100
AcDbDictionary
281
1
  0
DICTIONARY
  5
1A
102
{ACAD_REACTORS
330
C
102
}
100
AcDbDictionary
281
1
  3
Model
350
2D5
  3
Layout1
350
2D6
  0
ACDBPLACEHOLDER
  5
F
102
{ACAD_REACTORS
330
E
102
}
  0
MLINESTYLE
  5
18
102
{ACAD_REACTORS
330
17
102
}
100
AcDbMlineStyle
  2
STANDARD
 70
0
  3

 62
256
 51
90.0
 52
90.0
 71
2
 49
0.5
 62
256
  6
BYLAYER
 49
-0.5
 62
256
  6
BYLAYER
  0
LAYOUT
  5
2D5
102
{ACAD_REACTORS
330
1A
102
}
100
AcDbPlotSettings
  1

  2
none_device
  4
ANSI_A_(11.00_x_8.50_Inches)
  6

 40
0.0
 41
0.0
 42
0.0
 43
0.0
 44
279.4
 45
215.9
 46
0.0
 47
0.0
 48
0.0
 49
0.0
140
0.0
141
0.0
142
1.0
143
1.0
 70
1024
 72
0
 73
0
 74
0
  7

 75
0
147
1.0
148
0.0
149
0.0
100
AcDbLayout
  1
Model
 70
0
 71
0
 10
0.0
 20
0.0
 11
11.0
 21
8.5
 12
0.0
 22
0.0
 32
0.0
 14
0.0
 24
0.0
 34
0.0
 15
0.0
 25
0.0
 35
0.0
146
0.0
 13
0.0
 23
0.0
 33
0.0
 16
1.0
 26
0.0
 36
0.0
 17
0.0
 27
1.0
 37
0.0
 76
0
330
203
345
0
346
0
  0
LAYOUT
  5
2D6
102
{ACAD_REACTORS
330
1A
102
}
100
AcDbPlotSettings
  1

  2
none_device
  4
ANSI_A_(11.00_x_8.50_Inches)
  6

 40
0.0
 41
0.0
 42
0.0
 43
0.0
 44
279.4
 45
215.9
 46
0.0
 47
0.0
 48
0.0
 49
0.0
140
0.0
141
0.0
142
1.0
143
1.0
 70
0
 72
0
 73
0
 74
0
  7

 75
0
147
1.0
148
0.0
149
0.0
100
AcDbLayout
  1
Layout1
 70
0
 71
1
 10
0.0
 20
0.0
 11
11.0
 21
8.5
 12
0.0
 22
0.0
 32
0.0
 14
0.0
 24
0.0
 34
0.0
 15
0.0
 25
0.0
 35
0.0
146
0.0
 13
0.0
 23
0.0
 33
0.0
 16
1.0
 26
0.0
 36
0.0
 17
0.0
 27
1.0
 37
0.0
 76
0
330
204
345
0
346
0
  0
ENDSEC
  0
EOF
