999
DXF file: 295-1_right.dxf
999
Pro/ENGINEER 2023134 by Parametric Technology Corporation
  0
SECTION
  2
HEADER
  9
$ACADVER
  1
AC1032
  9
$DWGCODEPAGE
  3
ANSI_1252
  9
$EXTMAX
 10
11.0
 20
8.5
 30
0.0
  9
$EXTMIN
 10
0.0
 20
0.0
 30
0.0
  9
$LIMMIN
 10
0.0
 20
0.0
  9
$LIMMAX
 10
11.0
 20
8.5
  9
$VIEWCTR
 10
5.5
 20
4.25
  9
$VIEWSIZE
 40
8.5
  9
$CLAYER
  8
0
  9
$LTSCALE
 40
0.605
  9
$CELTYPE
  6
BYLAYER
  9
$DIMSCALE
 40
1.0
  9
$DIMASZ
 40
0.1
  9
$DIMEXO
 40
0.03125
  9
$DIMDLI
 40
0.418
  9
$DIMEXE
 40
0.0625
  9
$DIMCEN
 40
0.099
  9
$DIMLFAC
 40
1.0
  9
$DIMBLK
  1
_FILLED
  9
$DIMALT
 70
1
  9
$DIMALTD
 70
2
  9
$DIMALTTD
 70
2
  9
$DIMALTF
 40
25.4
  9
$DIMTXT
 40
0.08
  9
$DIMTOL
 70
1
  9
$DIMLIM
 70
0
  9
$DIMTFAC
 40
1.0
  9
$DIMTP
 40
0.001
  9
$DIMTM
 40
0.001
  9
$DIMGAP
 40
0.09
  9
$DIMDSEP
 70
46
  9
$AUNITS
 70
0
  9
$PDMODE
 70
3
  9
$PDSIZE
 40
0.06
  9
$HANDSEED
  5
2BD
  9
$TILEMODE
 70
1
  9
$MEASUREMENT
 70
0
  9
$INSUNITS
 70
1
  0
ENDSEC
  0
SECTION
  2
CLASSES
  0
CLASS
  1
ACDBDICTIONARYWDFLT
  2
AcDbDictionaryWithDefault
  3
AutoCAD 2000
 90
0
 91
1
280
0
281
0
  0
CLASS
  1
ACDBPLACEHOLDER
  2
AcDbPlaceHolder
  3
AutoCAD 2000
 90
0
 91
1
280
0
281
0
  0
CLASS
  1
LAYOUT
  2
AcDbLayout
  3
AutoCAD 2000
 90
0
 91
0
280
0
281
0
  0
ENDSEC
  0
SECTION
  2
TABLES
  0
TABLE
  2
VPORT
  5
8
100
AcDbSymbolTable
 70
2
  0
VPORT
  5
1F4
100
AcDbSymbolTableRecord
100
AcDbViewportTableRecord
  2
*ACTIVE
 70
0
 10
0.0
 20
0.0
 11
1.0
 21
1.0
 12
5.5
 22
4.25
 13
0.0
 23
0.0
 14
1.0
 24
1.0
 15
0.0
 25
0.0
 16
0.0
 26
0.0
 36
1.0
 17
0.0
 27
0.0
 37
0.0
 40
8.5
 41
1.2941176471
 42
50.0
 43
0.0
 44
0.0
 50
0.0
 51
0.0
 71
0
 72
100
 73
1
 74
1
 75
0
 76
0
 77
0
 78
0
  0
ENDTAB
  0
TABLE
  2
LTYPE
  5
5
100
AcDbSymbolTable
 70
6
  0
LTYPE
  5
14
100
AcDbSymbolTableRecord
100
AcDbLinetypeTableRecord
  2
BYBLOCK
 70
0
  3

 72
65
 73
0
 40
0.0
  0
LTYPE
  5
15
100
AcDbSymbolTableRecord
100
AcDbLinetypeTableRecord
  2
BYLAYER
 70
0
  3

 72
65
 73
0
 40
0.0
  0
LTYPE
  5
16
100
AcDbSymbolTableRecord
100
AcDbLinetypeTableRecord
  2
CONTINUOUS
 70
64
  3
Solid line
 72
65
 73
0
 40
0.0
  0
LTYPE
  5
1F5
100
AcDbSymbolTableRecord
100
AcDbLinetypeTableRecord
  2
CENTER
 70
64
  3
____ _ ____ _ ____ _ ____ _ ____ _ ____ _ ____
 72
65
 73
4
 40
0.6
 49
0.375
 74
0
 49
-0.075
 74
0
 49
0.075
 74
0
 49
-0.075
 74
0
  0
LTYPE
  5
1F6
100
AcDbSymbolTableRecord
100
AcDbLinetypeTableRecord
  2
HIDDEN
 70
64
  3
- - - - - - - - - - - - - - - - - - - -
 72
65
 73
2
 40
0.2
 49
0.1
 74
0
 49
-0.1
 74
0
  0
LTYPE
  5
1F7
100
AcDbSymbolTableRecord
100
AcDbLinetypeTableRecord
  2
PHANTOM
 70
64
  3
_____ _ _ _____ _ _ _____ _ _ _____
 72
65
 73
6
 40
0.8
 49
0.45
 74
0
 49
-0.05
 74
0
 49
0.1
 74
0
 49
-0.05
 74
0
 49
0.1
 74
0
 49
-0.05
 74
0
  0
LTYPE
  5
1F8
100
AcDbSymbolTableRecord
100
AcDbLinetypeTableRecord
  2
DOT
 70
64
  3
. . . . . . . . . . . . . . . . . . . .
 72
65
 73
2
 40
0.2
 49
0.1
 74
0
 49
-0.1
 74
0
  0
LTYPE
  5
1F9
100
AcDbSymbolTableRecord
100
AcDbLinetypeTableRecord
  2
DASHED
 70
64
  3
- - - - - - - - - - - - - - - - - - - -
 72
65
 73
2
 40
0.2
 49
0.1
 74
0
 49
-0.1
 74
0
  0
ENDTAB
  0
TABLE
  2
LAYER
  5
2
100
AcDbSymbolTable
 70
36
  0
LAYER
  5
10
100
AcDbSymbolTableRecord
100
AcDbLayerTableRecord
  2
0
 70
0
 62
7
  6
CONTINUOUS
370
-3
390
F
  0
LAYER
  5
1FA
100
AcDbSymbolTableRecord
100
AcDbLayerTableRecord
  2
DEFAULT_1
 70
0
 62
7
  6
CENTER
370
-3
390
F
  0
LAYER
  5
1FB
100
AcDbSymbolTableRecord
100
AcDbLayerTableRecord
  2
DEFAULT_2
 70
0
 62
8
  6
HIDDEN
370
-3
390
F
  0
LAYER
  5
1FC
100
AcDbSymbolTableRecord
100
AcDbLayerTableRecord
  2
DEFAULT_3
 70
0
 62
7
  6
PHANTOM
370
-3
390
F
  0
LAYER
  5
1FD
100
AcDbSymbolTableRecord
100
AcDbLayerTableRecord
  2
DEFAULT_COORDINATE_SYSTEM
 70
0
 62
7
  6
CONTINUOUS
370
-3
390
F
  0
LAYER
  5
1FE
100
AcDbSymbolTableRecord
100
AcDbLayerTableRecord
  2
DEFAULT_DATUM_AXES
 70
0
 62
7
  6
CONTINUOUS
370
-3
390
F
  0
LAYER
  5
1FF
100
AcDbSymbolTableRecord
100
AcDbLayerTableRecord
  2
DEFAULT_DATUM_CURVES
 70
0
 62
7
  6
CONTINUOUS
370
-3
390
F
  0
LAYER
  5
200
100
AcDbSymbolTableRecord
100
AcDbLayerTableRecord
  2
DEFAULT_DATUM_PLANES
 70
0
 62
7
  6
CONTINUOUS
370
-3
390
F
  0
ENDTAB
  0
TABLE
  2
STYLE
  5
3
100
AcDbSymbolTable
 70
1
  0
STYLE
  5
11
100
AcDbSymbolTableRecord
100
AcDbTextStyleTableRecord
  2
STANDARD
 70
0
 40
0.0
 41
0.8
 50
0.0
 71
0
 42
0.2
  3
txt
  4

  0
STYLE
  5
201
100
AcDbSymbolTableRecord
100
AcDbTextStyleTableRecord
  2
TEXTSTYLE_1
 70
0
 40
0.0
 41
0.8
 50
0.0
 71
0
 42
0.2
  3
gdt
  4

  0
ENDTAB
  0
TABLE
  2
VIEW
  5
6
100
AcDbSymbolTable
 70
0
  0
ENDTAB
  0
TABLE
  2
UCS
  5
7
100
AcDbSymbolTable
 70
0
  0
ENDTAB
  0
TABLE
  2
APPID
  5
9
100
AcDbSymbolTable
 70
1
  0
APPID
  5
202
100
AcDbSymbolTableRecord
100
AcDbRegAppTableRecord
  2
ACAD
 70
0
  0
ENDTAB
  0
TABLE
  2
BLOCK_RECORD
  5
1
100
AcDbSymbolTable
 70
0
  0
BLOCK_RECORD
  5
203
100
AcDbSymbolTableRecord
100
AcDbBlockTableRecord
  2
*Model_Space
  0
BLOCK_RECORD
  5
204
100
AcDbSymbolTableRecord
100
AcDbBlockTableRecord
  2
*Paper_Space
  0
BLOCK_RECORD
  5
205
100
AcDbSymbolTableRecord
100
AcDbBlockTableRecord
  2
_FILLED
  0
ENDTAB
  0
TABLE
  2
DIMSTYLE
  5
A
100
AcDbSymbolTable
 70
1
100
AcDbDimStyleTable
 71
0
  0
DIMSTYLE
105
206
100
AcDbSymbolTableRecord
100
AcDbDimStyleTableRecord
  2
STANDARD
 70
0
  3

  4

 40
1.0
 41
0.1
 42
0.03125
 43
0.38
 44
0.0625
 45
0.0
 46
0.0
 47
0.001
 48
0.001
140
0.08
141
0.09
142
0.0
143
25.4
144
1.0
145
0.0
146
1.0
147
0.09
 71
1
 72
0
 73
1
 74
1
 75
0
 76
0
 77
0
 78
4
 79
1
170
1
171
2
172
0
173
0
174
0
175
0
176
0
177
0
178
0
270
2
179
3
271
3
272
3
273
2
274
2
275
0
280
0
281
0
282
0
283
1
284
4
285
0
286
0
287
3
288
0
340
11
278
46
341
205
342
205
343
205
344
205
  0
ENDTAB
  0
ENDSEC
  0
SECTION
  2
BLOCKS
  0
BLOCK
  5
20
100
AcDbEntity
  8
0
100
AcDbBlockBegin
  2
*Model_Space
 70
0
 10
0.0
 20
0.0
 30
0.0
  3
*Model_Space
  1

  0
ENDBLK
  5
21
100
AcDbEntity
  8
0
100
AcDbBlockEnd
  0
BLOCK
  5
1C
100
AcDbEntity
  8
0
100
AcDbBlockBegin
  2
*Paper_Space
 70
0
 10
0.0
 20
0.0
 30
0.0
  3
*Paper_Space
  1

  0
ENDBLK
  5
1D
100
AcDbEntity
  8
0
100
AcDbBlockEnd
  0
BLOCK
  5
207
100
AcDbEntity
  8
0
100
AcDbBlockBegin
  2
_FILLED
 70
64
 10
0.0
 20
0.0
  3
_FILLED
  1

  0
SOLID
  5
208
100
AcDbEntity
  8
0
  6
BYBLOCK
 62
0
100
AcDbTrace
 10
0.0
 20
0.0
 11
-1.0
 21
0.2
 12
-1.0
 22
-0.2
 13
-1.0
 23
-0.2
  0
ENDBLK
  5
209
100
AcDbEntity
  8
0
  6
BYBLOCK
 62
0
100
AcDbBlockEnd
  0
ENDSEC
  0
SECTION
  2
ENTITIES
  0
MTEXT
  5
20A
100
AcDbEntity
  8
0
100
AcDbMText
 62
2
  6
CONTINUOUS
  7
STANDARD
 71
3
 72
1
 10
5.4281282697
 20
0.3885397782
 30
0.0
 11
1.0
 21
0.0
 31
0.0
 73
2
 44
0.9
  1
SCALE .187
 40
0.08
 41
0.64
  0
LINE
  5
20B
100
AcDbEntity
  8
0
100
AcDbLine
 62
7
  6
CONTINUOUS
 10
0.0
 20
0.0
 11
0.0
 21
8.5
  0
LINE
  5
20C
100
AcDbEntity
  8
0
100
AcDbLine
 62
7
  6
CONTINUOUS
 10
0.0
 20
0.0
 11
11.0
 21
0.0
  0
LINE
  5
20D
100
AcDbEntity
  8
0
100
AcDbLine
 62
7
  6
CONTINUOUS
 10
0.0
 20
8.5
 11
11.0
 21
8.5
  0
LINE
  5
20E
100
AcDbEntity
  8
0
100
AcDbLine
 62
7
  6
CONTINUOUS
 10
11.0
 20
0.0
 11
11.0
 21
8.5
  0
LINE
  5
20F
100
AcDbEntity
  8
0
100
AcDbLine
 62
7
  6
CONTINUOUS
 10
5.4347680822
 20
1.0912128425
 11
5.5091005822
 21
1.0912128425
  0
LINE
  5
210
100
AcDbEntity
  8
0
100
AcDbLine
 62
7
  6
CONTINUOUS
 10
5.4272880822
 20
1.0986928425
 11
5.5091005822
 21
1.0986928425
  0
LINE
  5
211
100
AcDbEntity
  8
0
100
AcDbLine
 62
7
  6
CONTINUOUS
 10
5.0275755822
 20
1.1893878425
 11
5.4272880822
 21
1.1893878425
  0
LINE
  5
212
100
AcDbEntity
  8
0
100
AcDbLine
 62
7
  6
CONTINUOUS
 10
5.0200955822
 20
1.1968678425
 11
5.4272880822
 21
1.1968678425
  0
LINE
  5
213
100
AcDbEntity
  8
0
100
AcDbLine
 62
7
  6
CONTINUOUS
 10
5.0200955822
 20
1.4390328425
 11
5.4272880822
 21
1.4390328425
  0
LINE
  5
214
100
AcDbEntity
  8
0
100
AcDbLine
 62
7
  6
CONTINUOUS
 10
5.0275755822
 20
1.4465128425
 11
5.4272880822
 21
1.4465128425
  0
LINE
  5
215
100
AcDbEntity
  8
0
100
AcDbLine
 62
7
  6
CONTINUOUS
 10
5.4272880822
 20
1.5372078425
 11
5.5091005822
 21
1.5372078425
  0
LINE
  5
216
100
AcDbEntity
  8
0
100
AcDbLine
 62
7
  6
CONTINUOUS
 10
5.4347680822
 20
1.5446878425
 11
5.5091005822
 21
1.5446878425
  0
LINE
  5
217
100
AcDbEntity
  8
0
100
AcDbLine
 62
7
  6
CONTINUOUS
 10
4.8667555822
 20
4.6848853425
 11
4.8667555822
 21
4.5895153425
  0
LINE
  5
218
100
AcDbEntity
  8
0
100
AcDbLine
 62
7
  6
CONTINUOUS
 10
4.8723655822
 20
4.5839053425
 11
4.872365582
 21
4.6904953425
  0
LINE
  5
219
100
AcDbEntity
  8
0
100
AcDbLine
 62
7
  6
CONTINUOUS
 10
5.0948853766
 20
4.5718538777
 11
5.090350989
 21
4.7025428367
  0
LINE
  5
21A
100
AcDbEntity
  8
0
100
AcDbLine
 62
7
  6
CONTINUOUS
 10
5.1019293153
 20
4.5719105987
 11
5.0973876098
 21
4.7028104656
  0
LINE
  5
21B
100
AcDbEntity
  8
0
100
AcDbLine
 62
7
  6
CONTINUOUS
 10
5.0200955822
 20
1.1968678425
 11
5.0200955822
 21
1.4390328425
  0
LINE
  5
21C
100
AcDbEntity
  8
0
100
AcDbLine
 62
7
  6
CONTINUOUS
 10
5.0200955822
 20
7.8353678425
 11
5.0200955822
 21
8.0775328425
  0
LINE
  5
21D
100
AcDbEntity
  8
0
100
AcDbLine
 62
7
  6
CONTINUOUS
 10
5.0275755822
 20
1.1893878425
 11
5.0275755822
 21
1.4465128425
  0
LINE
  5
21E
100
AcDbEntity
  8
0
100
AcDbLine
 62
7
  6
CONTINUOUS
 10
5.0275755822
 20
7.8278878425
 11
5.0275755822
 21
8.0850128425
  0
LINE
  5
21F
100
AcDbEntity
  8
0
100
AcDbLine
 62
7
  6
CONTINUOUS
 10
5.0315025822
 20
4.8256963425
 11
5.0315025822
 21
4.7770763425
  0
LINE
  5
220
100
AcDbEntity
  8
0
100
AcDbLine
 62
7
  6
CONTINUOUS
 10
5.0315025822
 20
4.4487043425
 11
5.0315025822
 21
4.4973243425
  0
LINE
  5
221
100
AcDbEntity
  8
0
100
AcDbLine
 62
7
  6
CONTINUOUS
 10
5.0387955822
 20
4.7770763425
 11
5.0387955822
 21
4.6929001274
  0
LINE
  5
222
100
AcDbEntity
  8
0
100
AcDbLine
 62
7
  6
CONTINUOUS
 10
5.0387955822
 20
4.5815004535
 11
5.0387955822
 21
4.4973243425
  0
LINE
  5
223
100
AcDbEntity
  8
0
100
AcDbLine
 62
7
  6
CONTINUOUS
 10
5.0668455822
 20
7.8278878425
 11
5.0668455822
 21
4.8256963425
  0
LINE
  5
224
100
AcDbEntity
  8
0
100
AcDbLine
 62
7
  6
CONTINUOUS
 10
5.0668455822
 20
4.4487043425
 11
5.0668455822
 21
1.4465128425
  0
LINE
  5
225
100
AcDbEntity
  8
0
100
AcDbLine
 62
7
  6
CONTINUOUS
 10
5.1564559822
 20
4.6181452719
 11
5.1564559822
 21
4.6257280072
  0
LINE
  5
226
100
AcDbEntity
  8
0
100
AcDbLine
 62
7
  6
CONTINUOUS
 10
5.1564559822
 20
4.6486726778
 11
5.1564559822
 21
4.6562554131
  0
LINE
  5
227
100
AcDbEntity
  8
0
100
AcDbLine
 62
7
  6
CONTINUOUS
 10
5.1642351822
 20
4.6562554131
 11
5.1642351822
 21
4.6486726778
  0
LINE
  5
228
100
AcDbEntity
  8
0
100
AcDbLine
 62
7
  6
CONTINUOUS
 10
5.1642351822
 20
4.6257280072
 11
5.1642351822
 21
4.6181452719
  0
LINE
  5
229
100
AcDbEntity
  8
0
100
AcDbLine
 62
7
  6
CONTINUOUS
 10
5.1488732469
 20
4.6333107425
 11
5.1490513805
 21
4.6342062805
  0
LINE
  5
22A
100
AcDbEntity
  8
0
100
AcDbLine
 62
7
  6
CONTINUOUS
 10
5.1718179175
 20
4.6410899425
 11
5.1716397839
 21
4.6401944044
  0
LINE
  5
22B
100
AcDbEntity
  8
0
100
AcDbLine
 62
7
  6
CONTINUOUS
 10
5.1542350504
 20
4.6433108742
 11
5.1564559822
 21
4.6486726778
  0
LINE
  5
22C
100
AcDbEntity
  8
0
100
AcDbLine
 62
7
  6
CONTINUOUS
 10
5.1664561139
 20
4.6310898107
 11
5.1642351822
 21
4.6257280072
  0
LINE
  5
22D
100
AcDbEntity
  8
0
100
AcDbLine
 62
7
  6
CONTINUOUS
 10
5.1664561139
 20
4.6433108742
 11
5.1654238693
 21
4.6422786296
  0
LINE
  5
22E
100
AcDbEntity
  8
0
100
AcDbLine
 62
7
  6
CONTINUOUS
 10
5.1542350504
 20
4.6310898107
 11
5.1552672951
 21
4.6321220553
  0
LINE
  5
22F
100
AcDbEntity
  8
0
100
AcDbLine
 62
7
  6
CONTINUOUS
 10
5.1488732469
 20
4.6410899425
 11
5.1542350504
 21
4.6433108742
  0
LINE
  5
230
100
AcDbEntity
  8
0
100
AcDbLine
 62
7
  6
CONTINUOUS
 10
5.1718179175
 20
4.6333107425
 11
5.1664561139
 21
4.6310898107
  0
LINE
  5
231
100
AcDbEntity
  8
0
100
AcDbLine
 62
7
  6
CONTINUOUS
 10
5.1564559822
 20
4.6257280072
 11
5.1573515202
 21
4.6259061408
  0
LINE
  5
232
100
AcDbEntity
  8
0
100
AcDbLine
 62
7
  6
CONTINUOUS
 10
5.1642351822
 20
4.6486726778
 11
5.1633396441
 21
4.6484945442
  0
LINE
  5
233
100
AcDbEntity
  8
0
100
AcDbLine
 62
7
  6
CONTINUOUS
 10
5.0315025822
 20
4.4487043425
 11
5.2891885822
 21
4.4487043425
  0
LINE
  5
234
100
AcDbEntity
  8
0
100
AcDbLine
 62
7
  6
CONTINUOUS
 10
5.0315025822
 20
4.4973243425
 11
5.2891885822
 21
4.4973243425
  0
LINE
  5
235
100
AcDbEntity
  8
0
100
AcDbLine
 62
7
  6
CONTINUOUS
 10
5.0518554196
 20
4.5670721608
 11
5.2688398713
 21
4.5670785241
  0
LINE
  5
236
100
AcDbEntity
  8
0
100
AcDbLine
 62
7
  6
CONTINUOUS
 10
5.2258096204
 20
4.5718577173
 11
5.2769970461
 21
4.5718592145
  0
LINE
  5
237
100
AcDbEntity
  8
0
100
AcDbLine
 62
7
  6
CONTINUOUS
 10
5.0436979509
 20
4.5718523727
 11
5.0948853766
 21
4.5718538777
  0
LINE
  5
238
100
AcDbEntity
  8
0
100
AcDbLine
 62
7
  6
CONTINUOUS
 10
5.1019293153
 20
4.5719105987
 11
5.2187656784
 21
4.571914025
  0
LINE
  5
239
100
AcDbEntity
  8
0
100
AcDbLine
 62
7
  6
CONTINUOUS
 10
4.8723655822
 20
4.5839053425
 11
5.0377243822
 21
4.5839053425
  0
LINE
  5
23A
100
AcDbEntity
  8
0
100
AcDbLine
 62
7
  6
CONTINUOUS
 10
5.2829667817
 20
4.5839053425
 11
5.4483255822
 21
4.5839053425
  0
LINE
  5
23B
100
AcDbEntity
  8
0
100
AcDbLine
 62
7
  6
CONTINUOUS
 10
5.2852572543
 20
4.5895153425
 11
5.4539355822
 21
4.5895153425
  0
LINE
  5
23C
100
AcDbEntity
  8
0
100
AcDbLine
 62
7
  6
CONTINUOUS
 10
5.0354339528
 20
4.5895153425
 11
4.8667555822
 21
4.5895153423
  0
LINE
  5
23D
100
AcDbEntity
  8
0
100
AcDbLine
 62
7
  6
CONTINUOUS
 10
5.1794006528
 20
4.6333107425
 11
5.1718179175
 21
4.6333107425
  0
LINE
  5
23E
100
AcDbEntity
  8
0
100
AcDbLine
 62
7
  6
CONTINUOUS
 10
5.1488732469
 20
4.6333107425
 11
5.1412905116
 21
4.6333107425
  0
LINE
  5
23F
100
AcDbEntity
  8
0
100
AcDbLine
 62
7
  6
CONTINUOUS
 10
5.1412905116
 20
4.6410899425
 11
5.1488732469
 21
4.6410899425
  0
LINE
  5
240
100
AcDbEntity
  8
0
100
AcDbLine
 62
7
  6
CONTINUOUS
 10
5.1718179175
 20
4.6410899425
 11
5.1794006528
 21
4.6410899425
  0
LINE
  5
241
100
AcDbEntity
  8
0
100
AcDbLine
 62
7
  6
CONTINUOUS
 10
5.1642351822
 20
4.6257280072
 11
5.1633396441
 21
4.6259061408
  0
LINE
  5
242
100
AcDbEntity
  8
0
100
AcDbLine
 62
7
  6
CONTINUOUS
 10
5.1564559822
 20
4.6486726778
 11
5.1573515202
 21
4.6484945442
  0
LINE
  5
243
100
AcDbEntity
  8
0
100
AcDbLine
 62
7
  6
CONTINUOUS
 10
5.1542350504
 20
4.6310898107
 11
5.1488732469
 21
4.6333107425
  0
LINE
  5
244
100
AcDbEntity
  8
0
100
AcDbLine
 62
7
  6
CONTINUOUS
 10
5.1664561139
 20
4.6433108742
 11
5.1718179175
 21
4.6410899425
  0
LINE
  5
245
100
AcDbEntity
  8
0
100
AcDbLine
 62
7
  6
CONTINUOUS
 10
5.1664561139
 20
4.6310898107
 11
5.1654238693
 21
4.6321220553
  0
LINE
  5
246
100
AcDbEntity
  8
0
100
AcDbLine
 62
7
  6
CONTINUOUS
 10
5.1542350504
 20
4.6433108742
 11
5.1552672951
 21
4.6422786296
  0
LINE
  5
247
100
AcDbEntity
  8
0
100
AcDbLine
 62
7
  6
CONTINUOUS
 10
5.1564559822
 20
4.6257280072
 11
5.1542350504
 21
4.6310898107
  0
LINE
  5
248
100
AcDbEntity
  8
0
100
AcDbLine
 62
7
  6
CONTINUOUS
 10
5.1642351822
 20
4.6486726778
 11
5.1664561139
 21
4.6433108742
  0
LINE
  5
249
100
AcDbEntity
  8
0
100
AcDbLine
 62
7
  6
CONTINUOUS
 10
5.1488732469
 20
4.6410899425
 11
5.1490513805
 21
4.6401944044
  0
LINE
  5
24A
100
AcDbEntity
  8
0
100
AcDbLine
 62
7
  6
CONTINUOUS
 10
5.1718179175
 20
4.6333107425
 11
5.1716397839
 21
4.6342062805
  0
LINE
  5
24B
100
AcDbEntity
  8
0
100
AcDbLine
 62
7
  6
CONTINUOUS
 10
5.2538455822
 20
7.8278878425
 11
5.2538455822
 21
4.8256963425
  0
LINE
  5
24C
100
AcDbEntity
  8
0
100
AcDbLine
 62
7
  6
CONTINUOUS
 10
5.2538455822
 20
4.4487043425
 11
5.2538455822
 21
1.4465128425
  0
LINE
  5
24D
100
AcDbEntity
  8
0
100
AcDbLine
 62
7
  6
CONTINUOUS
 10
5.2818955822
 20
4.7770763425
 11
5.2818955822
 21
4.6929002314
  0
LINE
  5
24E
100
AcDbEntity
  8
0
100
AcDbLine
 62
7
  6
CONTINUOUS
 10
5.2818955822
 20
4.5815005575
 11
5.2818955822
 21
4.4973243425
  0
LINE
  5
24F
100
AcDbEntity
  8
0
100
AcDbLine
 62
7
  6
CONTINUOUS
 10
5.2891885822
 20
4.8256963425
 11
5.2891885822
 21
4.7770763425
  0
LINE
  5
250
100
AcDbEntity
  8
0
100
AcDbLine
 62
7
  6
CONTINUOUS
 10
5.2891885822
 20
4.4487043425
 11
5.2891885822
 21
4.4973243425
  0
LINE
  5
251
100
AcDbEntity
  8
0
100
AcDbLine
 62
7
  6
CONTINUOUS
 10
5.4272880822
 20
1.0986928425
 11
5.4272880822
 21
1.5372078425
  0
LINE
  5
252
100
AcDbEntity
  8
0
100
AcDbLine
 62
7
  6
CONTINUOUS
 10
5.4272880822
 20
7.7371928425
 11
5.4272880822
 21
8.1757078425
  0
LINE
  5
253
100
AcDbEntity
  8
0
100
AcDbLine
 62
7
  6
CONTINUOUS
 10
5.4347680822
 20
1.0912128425
 11
5.4347680822
 21
1.5446878425
  0
LINE
  5
254
100
AcDbEntity
  8
0
100
AcDbLine
 62
7
  6
CONTINUOUS
 10
5.4347680822
 20
7.7297128425
 11
5.4347680822
 21
8.1831878425
  0
LINE
  5
255
100
AcDbEntity
  8
0
100
AcDbLine
 62
7
  6
CONTINUOUS
 10
5.4483255823
 20
4.5839053425
 11
5.4483255822
 21
4.6904953425
  0
LINE
  5
256
100
AcDbEntity
  8
0
100
AcDbLine
 62
7
  6
CONTINUOUS
 10
5.4539355822
 20
4.5895153425
 11
5.4539355822
 21
4.6848853425
  0
LINE
  5
257
100
AcDbEntity
  8
0
100
AcDbLine
 62
7
  6
CONTINUOUS
 10
5.2187656784
 20
4.571914025
 11
5.2232997063
 21
4.7028141581
  0
LINE
  5
258
100
AcDbEntity
  8
0
100
AcDbLine
 62
7
  6
CONTINUOUS
 10
5.2303363428
 20
4.702546942
 11
5.2258096204
 21
4.5718577173
  0
LINE
  5
259
100
AcDbEntity
  8
0
100
AcDbLine
 62
7
  6
CONTINUOUS
 10
5.4539355822
 20
4.6848853426
 11
5.2852572116
 21
4.6848853425
  0
LINE
  5
25A
100
AcDbEntity
  8
0
100
AcDbLine
 62
7
  6
CONTINUOUS
 10
5.0354339101
 20
4.6848853425
 11
4.8667555822
 21
4.6848853425
  0
LINE
  5
25B
100
AcDbEntity
  8
0
100
AcDbLine
 62
7
  6
CONTINUOUS
 10
5.4483255822
 20
4.6904953425
 11
5.2829667821
 21
4.6904953425
  0
LINE
  5
25C
100
AcDbEntity
  8
0
100
AcDbLine
 62
7
  6
CONTINUOUS
 10
5.0377243826
 20
4.6904953425
 11
4.8723655822
 21
4.6904953425
  0
LINE
  5
25D
100
AcDbEntity
  8
0
100
AcDbLine
 62
7
  6
CONTINUOUS
 10
5.090350989
 20
4.7025428367
 11
5.0436941183
 21
4.7025414704
  0
LINE
  5
25E
100
AcDbEntity
  8
0
100
AcDbLine
 62
7
  6
CONTINUOUS
 10
5.2769932135
 20
4.7025483122
 11
5.2303363428
 21
4.702546942
  0
LINE
  5
25F
100
AcDbEntity
  8
0
100
AcDbLine
 62
7
  6
CONTINUOUS
 10
5.2232997063
 20
4.7028141581
 11
5.0973876098
 21
4.7028104656
  0
LINE
  5
260
100
AcDbEntity
  8
0
100
AcDbLine
 62
7
  6
CONTINUOUS
 10
5.2688357567
 20
4.7073285241
 11
5.0518512947
 21
4.7073221608
  0
LINE
  5
261
100
AcDbEntity
  8
0
100
AcDbLine
 62
7
  6
CONTINUOUS
 10
5.0315025822
 20
4.7770763425
 11
5.2891885822
 21
4.7770763425
  0
LINE
  5
262
100
AcDbEntity
  8
0
100
AcDbLine
 62
7
  6
CONTINUOUS
 10
5.0315025822
 20
4.8256963425
 11
5.2891885822
 21
4.8256963425
  0
LINE
  5
263
100
AcDbEntity
  8
0
100
AcDbLine
 62
7
  6
CONTINUOUS
 10
5.5091005822
 20
1.0912128425
 11
5.5091005822
 21
1.5446878425
  0
LINE
  5
264
100
AcDbEntity
  8
0
100
AcDbLine
 62
7
  6
CONTINUOUS
 10
5.5091005822
 20
7.7297128425
 11
5.5091005822
 21
8.1831878425
  0
LINE
  5
265
100
AcDbEntity
  8
0
100
AcDbLine
 62
7
  6
CONTINUOUS
 10
5.4347680822
 20
7.7297128425
 11
5.5091005822
 21
7.7297128425
  0
LINE
  5
266
100
AcDbEntity
  8
0
100
AcDbLine
 62
7
  6
CONTINUOUS
 10
5.4272880822
 20
7.7371928425
 11
5.5091005822
 21
7.7371928425
  0
LINE
  5
267
100
AcDbEntity
  8
0
100
AcDbLine
 62
7
  6
CONTINUOUS
 10
5.0275755822
 20
7.8278878425
 11
5.4272880822
 21
7.8278878425
  0
LINE
  5
268
100
AcDbEntity
  8
0
100
AcDbLine
 62
7
  6
CONTINUOUS
 10
5.0200955822
 20
7.8353678425
 11
5.4272880822
 21
7.8353678425
  0
LINE
  5
269
100
AcDbEntity
  8
0
100
AcDbLine
 62
7
  6
CONTINUOUS
 10
5.0200955822
 20
8.0775328425
 11
5.4272880822
 21
8.0775328425
  0
LINE
  5
26A
100
AcDbEntity
  8
0
100
AcDbLine
 62
7
  6
CONTINUOUS
 10
5.0275755822
 20
8.0850128425
 11
5.4272880822
 21
8.0850128425
  0
LINE
  5
26B
100
AcDbEntity
  8
0
100
AcDbLine
 62
7
  6
CONTINUOUS
 10
5.4272880822
 20
8.1757078425
 11
5.5091005822
 21
8.1757078425
  0
LINE
  5
26C
100
AcDbEntity
  8
0
100
AcDbLine
 62
7
  6
CONTINUOUS
 10
5.4347680822
 20
8.1831878425
 11
5.5091005822
 21
8.1831878425
  0
ARC
  5
26D
100
AcDbEntity
  8
0
100
AcDbCircle
 62
7
  6
CONTINUOUS
 10
5.0518551279
 20
4.5764221608
 40
0.00935
100
AcDbArc
 50
209.2582843271
 51
270.0016802598
  0
ARC
  5
26E
100
AcDbEntity
  8
0
100
AcDbCircle
 62
7
  6
CONTINUOUS
 10
5.0275755822
 20
1.4390328425
 40
0.00748
100
AcDbArc
 50
90.0
 51
180.0
  0
ARC
  5
26F
100
AcDbEntity
  8
0
100
AcDbCircle
 62
7
  6
CONTINUOUS
 10
5.0275755822
 20
1.1968678425
 40
0.00748
100
AcDbArc
 50
180.0
 51
270.0
  0
ARC
  5
270
100
AcDbEntity
  8
0
100
AcDbCircle
 62
7
  6
CONTINUOUS
 10
4.8723655822
 20
4.5895153425
 40
0.00561
100
AcDbArc
 50
180.0
 51
270.0
  0
ARC
  5
271
100
AcDbEntity
  8
0
100
AcDbCircle
 62
7
  6
CONTINUOUS
 10
5.0972571252
 20
4.5717485348
 40
0.004675
100
AcDbArc
 50
270.0016983102
 51
1.9866178421
  0
ARC
  5
272
100
AcDbEntity
  8
0
100
AcDbCircle
 62
7
  6
CONTINUOUS
 10
5.0518515634
 20
4.6979721608
 40
0.00935
100
AcDbArc
 50
90.0016802598
 51
150.7450761926
  0
ARC
  5
273
100
AcDbEntity
  8
0
100
AcDbCircle
 62
7
  6
CONTINUOUS
 10
5.0275755822
 20
8.0775328425
 40
0.00748
100
AcDbArc
 50
90.0
 51
180.0
  0
ARC
  5
274
100
AcDbEntity
  8
0
100
AcDbCircle
 62
7
  6
CONTINUOUS
 10
5.0275755822
 20
7.8353678425
 40
0.00748
100
AcDbArc
 50
180.0
 51
270.0
  0
ARC
  5
275
100
AcDbEntity
  8
0
100
AcDbCircle
 62
7
  6
CONTINUOUS
 10
4.8723655822
 20
4.6848853425
 40
0.00561
100
AcDbArc
 50
90.0
 51
180.0
  0
ARC
  5
276
100
AcDbEntity
  8
0
100
AcDbCircle
 62
7
  6
CONTINUOUS
 10
5.0927154212
 20
4.7026483592
 40
0.004675
100
AcDbArc
 50
1.9871388444
 51
90.0016802598
  0
ARC
  5
277
100
AcDbEntity
  8
0
100
AcDbCircle
 62
7
  6
CONTINUOUS
 10
5.268839601
 20
4.5764285241
 40
0.00935
100
AcDbArc
 50
270.0016802598
 51
330.7450761926
  0
ARC
  5
278
100
AcDbEntity
  8
0
100
AcDbCircle
 62
7
  6
CONTINUOUS
 10
5.4347680822
 20
1.5372078425
 40
0.00748
100
AcDbArc
 50
90.0
 51
180.0
  0
ARC
  5
279
100
AcDbEntity
  8
0
100
AcDbCircle
 62
7
  6
CONTINUOUS
 10
5.4347680822
 20
1.0986928425
 40
0.00748
100
AcDbArc
 50
180.0
 51
270.0
  0
ARC
  5
27A
100
AcDbEntity
  8
0
100
AcDbCircle
 62
7
  6
CONTINUOUS
 10
5.4483255822
 20
4.5895153425
 40
0.00561
100
AcDbArc
 50
270.0
 51
360.0
  0
ARC
  5
27B
100
AcDbEntity
  8
0
100
AcDbCircle
 62
7
  6
CONTINUOUS
 10
5.2234378765
 20
4.5717521927
 40
0.004675
100
AcDbArc
 50
178.0162216753
 51
270.0016802598
  0
ARC
  5
27C
100
AcDbEntity
  8
0
100
AcDbCircle
 62
7
  6
CONTINUOUS
 10
5.1603455822
 20
4.6372003425
 40
0.133705
100
AcDbArc
 50
330.7450761926
 51
29.2582843271
  0
ARC
  5
27D
100
AcDbEntity
  8
0
100
AcDbCircle
 62
7
  6
CONTINUOUS
 10
5.1603455822
 20
4.6372003425
 40
0.133705
100
AcDbArc
 50
150.7450761926
 51
209.2582843271
  0
ARC
  5
27E
100
AcDbEntity
  8
0
100
AcDbCircle
 62
7
  6
CONTINUOUS
 10
5.1603455822
 20
4.6372003425
 40
0.12155
100
AcDbArc
 50
35.2363167121
 51
144.7670571388
  0
ARC
  5
27F
100
AcDbEntity
  8
0
100
AcDbCircle
 62
7
  6
CONTINUOUS
 10
5.1603455822
 20
4.6372003425
 40
0.12155
100
AcDbArc
 50
215.2363167121
 51
324.7670572159
  0
ARC
  5
280
100
AcDbEntity
  8
0
100
AcDbCircle
 62
7
  6
CONTINUOUS
 10
5.1603455822
 20
4.6372003425
 40
0.1176727393
100
AcDbArc
 50
36.5814437183
 51
143.4219078826
  0
ARC
  5
281
100
AcDbEntity
  8
0
100
AcDbCircle
 62
7
  6
CONTINUOUS
 10
5.1603455822
 20
4.6372003425
 40
0.1176727393
100
AcDbArc
 50
216.5814437183
 51
323.4219078826
  0
ARC
  5
282
100
AcDbEntity
  8
0
100
AcDbCircle
 62
7
  6
CONTINUOUS
 10
5.1603455822
 20
4.6372003425
 40
0.0936738943
100
AcDbArc
 50
48.4730718356
 51
131.5302940268
  0
ARC
  5
283
100
AcDbEntity
  8
0
100
AcDbCircle
 62
7
  6
CONTINUOUS
 10
5.1603455822
 20
4.6372003425
 40
0.0936738943
100
AcDbArc
 50
228.4730718356
 51
311.5302940268
  0
ARC
  5
284
100
AcDbEntity
  8
0
100
AcDbCircle
 62
7
  6
CONTINUOUS
 10
5.1603455822
 20
4.6372003425
 40
0.0787191125
100
AcDbArc
 50
62.9817517607
 51
117.0216014269
  0
ARC
  5
285
100
AcDbEntity
  8
0
100
AcDbCircle
 62
7
  6
CONTINUOUS
 10
5.1603455822
 20
4.6372003425
 40
0.0787191125
100
AcDbArc
 50
242.9817517607
 51
297.0216014269
  0
ARC
  5
286
100
AcDbEntity
  8
0
100
AcDbCircle
 62
7
  6
CONTINUOUS
 10
5.1603455822
 20
4.6372003425
 40
0.0728258909
100
AcDbArc
 50
74.354161387
 51
105.6492019468
  0
ARC
  5
287
100
AcDbEntity
  8
0
100
AcDbCircle
 62
7
  6
CONTINUOUS
 10
5.1603455822
 20
4.6372003425
 40
0.0728258909
100
AcDbArc
 50
254.354161387
 51
285.6492019468
  0
CIRCLE
  5
288
100
AcDbEntity
  8
0
100
AcDbCircle
 62
7
  6
CONTINUOUS
 10
5.1603455822
 20
4.6372003425
 40
0.02992
  0
CIRCLE
  5
289
100
AcDbEntity
  8
0
100
AcDbCircle
 62
7
  6
CONTINUOUS
 10
5.1603455822
 20
4.6372003425
 40
0.0291072169
  0
ARC
  5
28A
100
AcDbEntity
  8
0
100
AcDbCircle
 62
7
  6
CONTINUOUS
 10
5.1603455822
 20
4.6372003425
 40
0.019448
100
AcDbArc
 50
348.4630409672
 51
11.5369590328
  0
ARC
  5
28B
100
AcDbEntity
  8
0
100
AcDbCircle
 62
7
  6
CONTINUOUS
 10
5.1603455822
 20
4.6372003425
 40
0.019448
100
AcDbArc
 50
168.4630409672
 51
191.5369590328
  0
ARC
  5
28C
100
AcDbEntity
  8
0
100
AcDbCircle
 62
7
  6
CONTINUOUS
 10
5.1603455822
 20
4.6372003425
 40
0.019448
100
AcDbArc
 50
258.4630409672
 51
281.5369590328
  0
ARC
  5
28D
100
AcDbEntity
  8
0
100
AcDbCircle
 62
7
  6
CONTINUOUS
 10
5.1603455822
 20
4.6372003425
 40
0.019448
100
AcDbArc
 50
78.4630409672
 51
101.5369590328
  0
ARC
  5
28E
100
AcDbEntity
  8
0
100
AcDbCircle
 62
7
  6
CONTINUOUS
 10
5.1603455822
 20
4.6372003425
 40
0.018942532
100
AcDbArc
 50
258.6603845553
 51
281.3396154447
  0
ARC
  5
28F
100
AcDbEntity
  8
0
100
AcDbCircle
 62
7
  6
CONTINUOUS
 10
5.1603455822
 20
4.6372003425
 40
0.018942532
100
AcDbArc
 50
168.6603845553
 51
191.3396154447
  0
ARC
  5
290
100
AcDbEntity
  8
0
100
AcDbCircle
 62
7
  6
CONTINUOUS
 10
5.1603455822
 20
4.6372003425
 40
0.018942532
100
AcDbArc
 50
78.6603845553
 51
101.3396154447
  0
ARC
  5
291
100
AcDbEntity
  8
0
100
AcDbCircle
 62
7
  6
CONTINUOUS
 10
5.1603455822
 20
4.6372003425
 40
0.018942532
100
AcDbArc
 50
348.6603845553
 51
11.3396154447
  0
ARC
  5
292
100
AcDbEntity
  8
0
100
AcDbCircle
 62
7
  6
CONTINUOUS
 10
5.2688360364
 20
4.6979785241
 40
0.00935
100
AcDbArc
 50
29.2582843271
 51
90.0016802598
  0
ARC
  5
293
100
AcDbEntity
  8
0
100
AcDbCircle
 62
7
  6
CONTINUOUS
 10
5.2279719044
 20
4.7026523257
 40
0.004675
100
AcDbArc
 50
90.0016657531
 51
178.0162216753
  0
ARC
  5
294
100
AcDbEntity
  8
0
100
AcDbCircle
 62
7
  6
CONTINUOUS
 10
5.4483255822
 20
4.6848853425
 40
0.00561
100
AcDbArc
 50
0.0
 51
90.0
  0
ARC
  5
295
100
AcDbEntity
  8
0
100
AcDbCircle
 62
7
  6
CONTINUOUS
 10
5.4347680822
 20
8.1757078425
 40
0.00748
100
AcDbArc
 50
90.0
 51
180.0
  0
ARC
  5
296
100
AcDbEntity
  8
0
100
AcDbCircle
 62
7
  6
CONTINUOUS
 10
5.4347680822
 20
7.7371928425
 40
0.00748
100
AcDbArc
 50
180.0
 51
270.0
  0
SPLINE
  5
297
100
AcDbEntity
  8
0
100
AcDbSpline
 62
7
  6
CONTINUOUS
 70
0
 71
3
 72
22
 73
18
 74
0
 42
0.0000001
 43
0.0000001
 44
0.0000000001
 40
0.0
 40
0.0
 40
0.0
 40
0.0
 40
0.0979404328
 40
0.1916160458
 40
0.3650666068
 40
0.4443749251
 40
0.5184941605
 40
0.5873896523
 40
0.6510360315
 40
0.7094376003
 40
0.7627205384
 40
0.8111723861
 40
0.8551599644
 40
0.8951422945
 40
0.9318754831
 40
0.9664374747
 40
1.0
 40
1.0
 40
1.0
 40
1.0
 10
5.090350989
 20
4.7025428387
 30
0.0
 10
5.0903772273
 20
4.7027252707
 30
0.0
 10
5.0904330711
 20
4.7030815725
 30
0.0
 10
5.0905582205
 20
4.7037571227
 30
0.0
 10
5.0907060856
 20
4.7043927008
 30
0.0
 10
5.09087921
 20
4.7049831089
 30
0.0
 10
5.0910132879
 20
4.7053795708
 30
0.0
 10
5.091155751
 20
4.7057416338
 30
0.0
 10
5.091305933
 20
4.7060683063
 30
0.0
 10
5.0914628288
 20
4.7063588601
 30
0.0
 10
5.0916259026
 20
4.7066126937
 30
0.0
 10
5.091795179
 20
4.7068290442
 30
0.0
 10
5.0919701475
 20
4.7070073469
 30
0.0
 10
5.0921499562
 20
4.707147437
 30
0.0
 10
5.0923345342
 20
4.7072486167
 30
0.0
 10
5.0925234665
 20
4.707309726
 30
0.0
 10
5.0926520578
 20
4.7073233596
 30
0.0
 10
5.0927152175
 20
4.7073233592
 30
0.0
  0
SPLINE
  5
298
100
AcDbEntity
  8
0
100
AcDbSpline
 62
7
  6
CONTINUOUS
 70
0
 71
3
 72
22
 73
18
 74
0
 42
0.0000001
 43
0.0000001
 44
0.0000000001
 40
0.0
 40
0.0
 40
0.0
 40
0.0
 40
0.0335625168
 40
0.0681246041
 40
0.1048578338
 40
0.1448401258
 40
0.1888276364
 40
0.2372794081
 40
0.2905623076
 40
0.3489639105
 40
0.4126103832
 40
0.4815059951
 40
0.5556252936
 40
0.6349335341
 40
0.808383809
 40
0.9020594594
 40
1.0
 40
1.0
 40
1.0
 40
1.0
 10
5.2279718345
 20
4.7073273257
 30
0.0
 10
5.2280349941
 20
4.7073273299
 30
0.0
 10
5.2281635863
 20
4.7073137036
 30
0.0
 10
5.2283525225
 20
4.7072526054
 30
0.0
 10
5.2285371066
 20
4.7071514365
 30
0.0
 10
5.2287169232
 20
4.7070113568
 30
0.0
 10
5.2288919017
 20
4.7068330644
 30
0.0
 10
5.2290611901
 20
4.7066167238
 30
0.0
 10
5.2292242783
 20
4.7063628997
 30
0.0
 10
5.2293811915
 20
4.7060723551
 30
0.0
 10
5.2295313935
 20
4.7057456914
 30
0.0
 10
5.229673879
 20
4.7053836366
 30
0.0
 10
5.229807981
 20
4.7049871826
 30
0.0
 10
5.2299811385
 20
4.7043967849
 30
0.0
 10
5.2301290371
 20
4.7037612153
 30
0.0
 10
5.2302542272
 20
4.703085673
 30
0.0
 10
5.2303100934
 20
4.7027293745
 30
0.0
 10
5.2303363428
 20
4.7025469439
 30
0.0
  0
SPLINE
  5
299
100
AcDbEntity
  8
0
100
AcDbSpline
 62
7
  6
CONTINUOUS
 70
0
 71
3
 72
22
 73
18
 74
0
 42
0.0000001
 43
0.0000001
 44
0.0000000001
 40
0.0
 40
0.0
 40
0.0
 40
0.0
 40
0.1927411006
 40
0.2826168598
 40
0.3677254439
 40
0.4478164253
 40
0.5227070032
 40
0.5922894863
 40
0.656486498
 40
0.7152752048
 40
0.7687417292
 40
0.8171047451
 40
0.8606745706
 40
0.8998830083
 40
0.9354462922
 40
0.968410103
 40
1.0
 40
1.0
 40
1.0
 40
1.0
 10
5.22580962
 20
4.5718577134
 30
0.0
 10
5.2257494464
 20
4.5715019536
 30
0.0
 10
5.2256497121
 20
4.5709820423
 30
0.0
 10
5.2254900611
 20
4.5703123405
 30
0.0
 10
5.2253652175
 20
4.5698513591
 30
0.0
 10
5.2252330159
 20
4.5694216911
 30
0.0
 10
5.2250940304
 20
4.5690248182
 30
0.0
 10
5.2249484612
 20
4.5686621606
 30
0.0
 10
5.224797032
 20
4.5683348169
 30
0.0
 10
5.2246405574
 20
4.5680436476
 30
0.0
 10
5.2244795272
 20
4.5677893584
 30
0.0
 10
5.2243141112
 20
4.56757267
 30
0.0
 10
5.2241448326
 20
4.5673940972
 30
0.0
 10
5.2239723936
 20
4.5672538343
 30
0.0
 10
5.2237968256
 20
4.5671524595
 30
0.0
 10
5.2236184212
 20
4.5670910428
 30
0.0
 10
5.2234971806
 20
4.5670771933
 30
0.0
 10
5.223438044
 20
4.5670771927
 30
0.0
  0
SPLINE
  5
29A
100
AcDbEntity
  8
0
100
AcDbSpline
 62
7
  6
CONTINUOUS
 70
0
 71
3
 72
22
 73
18
 74
0
 42
0.0000001
 43
0.0000001
 44
0.0000000001
 40
0.0
 40
0.0
 40
0.0
 40
0.0
 40
0.0315898736
 40
0.0645538011
 40
0.1001171304
 40
0.139325524
 40
0.1828952823
 40
0.2312582349
 40
0.2847247366
 40
0.3435134761
 40
0.4077105603
 40
0.4772931311
 40
0.5521837511
 40
0.6322746772
 40
0.7173831538
 40
0.8072588083
 40
1.0
 40
1.0
 40
1.0
 40
1.0
 10
5.0972572327
 20
4.5670734923
 30
0.0
 10
5.0971980962
 20
4.5670734894
 30
0.0
 10
5.0970768547
 20
4.5670873321
 30
0.0
 10
5.0968984464
 20
4.5671487382
 30
0.0
 10
5.0967228722
 20
4.5672501028
 30
0.0
 10
5.0965504253
 20
4.5673903558
 30
0.0
 10
5.0963811368
 20
4.5675689187
 30
0.0
 10
5.0962157087
 20
4.5677855975
 30
0.0
 10
5.0960546638
 20
4.5680398772
 30
0.0
 10
5.0958981719
 20
4.5683310374
 30
0.0
 10
5.0957467229
 20
4.5686583722
 30
0.0
 10
5.0956011315
 20
4.5690210212
 30
0.0
 10
5.0954621222
 20
4.5694178859
 30
0.0
 10
5.0953298962
 20
4.5698475462
 30
0.0
 10
5.0952050268
 20
4.57030852
 30
0.0
 10
5.095045339
 20
4.5709782127
 30
0.0
 10
5.094945572
 20
4.5714981176
 30
0.0
 10
5.094885377
 20
4.5718538739
 30
0.0
  0
SPLINE
  5
29B
100
AcDbEntity
  8
0
100
AcDbSpline
 62
7
  6
CONTINUOUS
 70
0
 71
3
 72
23
 73
19
 74
0
 42
0.0000001
 43
0.0000001
 44
0.0000000001
 40
0.0
 40
0.0
 40
0.0
 40
0.0
 40
0.069362668
 40
0.1413320635
 40
0.2151051526
 40
0.2898140126
 40
0.3645601318
 40
0.4384438141
 40
0.5105939873
 40
0.5801994234
 40
0.6465419712
 40
0.7090348951
 40
0.7672672746
 40
0.8210594247
 40
0.8705287989
 40
0.9161636302
 40
0.9588780725
 40
1.0
 40
1.0
 40
1.0
 40
1.0
 10
5.094885377
 20
4.5718538739
 30
0.0
 10
5.0950677782
 20
4.5718022414
 30
0.0
 10
5.0954442729
 20
4.5717135644
 30
0.0
 10
5.0960259636
 20
4.5716247731
 30
0.0
 10
5.0966272528
 20
4.571578759
 30
0.0
 10
5.0972378509
 20
4.5715763199
 30
0.0
 10
5.0978473695
 20
4.5716174987
 30
0.0
 10
5.0984454188
 20
4.5717015894
 30
0.0
 10
5.0990218211
 20
4.5718271626
 30
0.0
 10
5.0995667906
 20
4.5719920818
 30
0.0
 10
5.1000711103
 20
4.5721935748
 30
0.0
 10
5.1005263004
 20
4.5724282932
 30
0.0
 10
5.1009247471
 20
4.5726924378
 30
0.0
 10
5.1012597873
 20
4.5729818891
 30
0.0
 10
5.101525656
 20
4.5732923277
 30
0.0
 10
5.101717286
 20
4.5736193512
 30
0.0
 10
5.1018300664
 20
4.5739576651
 30
0.0
 10
5.101850281
 20
4.5741885032
 30
0.0
 10
5.101846384
 20
4.5743008218
 30
0.0
  0
SPLINE
  5
29C
100
AcDbEntity
  8
0
100
AcDbSpline
 62
7
  6
CONTINUOUS
 70
0
 71
3
 72
20
 73
16
 74
0
 42
0.0000001
 43
0.0000001
 44
0.0000000001
 40
0.0
 40
0.0
 40
0.0
 40
0.0
 40
0.1395898327
 40
0.2857574223
 40
0.4320615569
 40
0.5032810456
 40
0.5721686313
 40
0.6380756796
 40
0.7004818408
 40
0.7590366164
 40
0.8136089103
 40
0.8643418672
 40
0.9117076944
 40
0.9565386396
 40
1.0
 40
1.0
 40
1.0
 40
1.0
 10
5.090350989
 20
4.7025428387
 30
0.0
 10
5.09071268
 20
4.702681754
 30
0.0
 10
5.0914811611
 20
4.7028961064
 30
0.0
 10
5.0926768451
 20
4.7030323685
 30
0.0
 10
5.0936901373
 20
4.7029940293
 30
0.0
 10
5.0944759228
 20
4.7028686322
 30
0.0
 10
5.0950316826
 20
4.7027308632
 30
0.0
 10
5.0955494938
 20
4.7025509156
 30
0.0
 10
5.0960206745
 20
4.7023317368
 30
0.0
 10
5.0964372998
 20
4.7020768538
 30
0.0
 10
5.0967923465
 20
4.7017902397
 30
0.0
 10
5.0970796422
 20
4.7014762339
 30
0.0
 10
5.0972937574
 20
4.7011394711
 30
0.0
 10
5.0974298881
 20
4.7007855777
 30
0.0
 10
5.0974663581
 20
4.7005408027
 30
0.0
 10
5.0974705411
 20
4.7004202424
 30
0.0
  0
SPLINE
  5
29D
100
AcDbEntity
  8
0
100
AcDbSpline
 62
7
  6
CONTINUOUS
 70
0
 71
3
 72
23
 73
19
 74
0
 42
0.0000001
 43
0.0000001
 44
0.0000000001
 40
0.0
 40
0.0
 40
0.0
 40
0.0
 40
0.0693627007
 40
0.1413323083
 40
0.2151057553
 40
0.2898150839
 40
0.3645617446
 40
0.4384460012
 40
0.5105967392
 40
0.580202686
 40
0.6465456435
 40
0.7090388269
 40
0.7672712648
 40
0.8210632218
 40
0.8705321084
 40
0.9161661307
 40
0.9588794497
 40
1.0
 40
1.0
 40
1.0
 40
1.0
 10
5.22580962
 20
4.5718577134
 30
0.0
 10
5.2256272217
 20
4.571806075
 30
0.0
 10
5.2252507321
 20
4.5717173851
 30
0.0
 10
5.2246690472
 20
4.5716285721
 30
0.0
 10
5.2240677612
 20
4.5715825336
 30
0.0
 10
5.2234571637
 20
4.5715800677
 30
0.0
 10
5.2228476431
 20
4.5716212181
 30
0.0
 10
5.2222495891
 20
4.571705279
 30
0.0
 10
5.2216731797
 20
4.5718308216
 30
0.0
 10
5.2211282008
 20
4.5719957098
 30
0.0
 10
5.2206238694
 20
4.5721971721
 30
0.0
 10
5.2201686656
 20
4.5724318605
 30
0.0
 10
5.2197702034
 20
4.5726959763
 30
0.0
 10
5.2194351461
 20
4.5729854005
 30
0.0
 10
5.2191692589
 20
4.573295814
 30
0.0
 10
5.218977609
 20
4.5736228152
 30
0.0
 10
5.2188648079
 20
4.5739611102
 30
0.0
 10
5.2188445792
 20
4.5741919387
 30
0.0
 10
5.2188484695
 20
4.574304253
 30
0.0
  0
SPLINE
  5
29E
100
AcDbEntity
  8
0
100
AcDbSpline
 62
7
  6
CONTINUOUS
 70
0
 71
3
 72
20
 73
16
 74
0
 42
0.0000001
 43
0.0000001
 44
0.0000000001
 40
0.0
 40
0.0
 40
0.0
 40
0.0
 40
0.1395896077
 40
0.2857563154
 40
0.4320592356
 40
0.5032781116
 40
0.572165144
 40
0.638071751
 40
0.700477637
 40
0.759032358
 40
0.81360487
 40
0.864338359
 40
0.9117050545
 40
0.9565371902
 40
1.0
 40
1.0
 40
1.0
 40
1.0
 10
5.2303363428
 20
4.7025469439
 30
0.0
 10
5.2299746452
 20
4.7026858483
 30
0.0
 10
5.2292061536
 20
4.7029001748
 30
0.0
 10
5.2280104611
 20
4.7030363886
 30
0.0
 10
5.2269971704
 20
4.7029980014
 30
0.0
 10
5.2262113921
 20
4.7028725629
 30
0.0
 10
5.2256556401
 20
4.7027347624
 30
0.0
 10
5.2251378393
 20
4.7025547833
 30
0.0
 10
5.2246666711
 20
4.7023355732
 30
0.0
 10
5.2242500604
 20
4.7020806599
 30
0.0
 10
5.2238950301
 20
4.7017940167
 30
0.0
 10
5.2236077526
 20
4.7014799839
 30
0.0
 10
5.223393657
 20
4.7011431966
 30
0.0
 10
5.223257547
 20
4.7007892819
 30
0.0
 10
5.2232210913
 20
4.7005444955
 30
0.0
 10
5.2232169152
 20
4.7004239301
 30
0.0
  0
SPLINE
  5
29F
100
AcDbEntity
  8
0
100
AcDbSpline
 62
7
  6
CONTINUOUS
 70
0
 71
3
 72
15
 73
11
 74
0
 42
0.0000001
 43
0.0000001
 44
0.0000000001
 40
0.0
 40
0.0
 40
0.0
 40
0.0
 40
0.2564449155
 40
0.3202288509
 40
0.3837726612
 40
0.5099749322
 40
0.6348262357
 40
0.7581614758
 40
0.8798929934
 40
1.0
 40
1.0
 40
1.0
 40
1.0
 10
5.1603455822
 20
4.5128453425
 30
0.0
 10
5.1649547852
 20
4.5128456854
 30
0.0
 10
5.1707225472
 20
4.5132510467
 30
0.0
 10
5.1775350028
 20
4.5143330975
 30
0.0
 10
5.182009072
 20
4.5152024826
 30
0.0
 10
5.1875018223
 20
4.5165643445
 30
0.0
 10
5.1939140741
 20
4.5186206236
 30
0.0
 10
5.2001035956
 20
4.5210614601
 30
0.0
 10
5.2060469213
 20
4.5238561009
 30
0.0
 10
5.209861145
 20
4.5259472371
 30
0.0
 10
5.2117218527
 20
4.5270417324
 30
0.0
  0
SPLINE
  5
2A0
100
AcDbEntity
  8
0
100
AcDbSpline
 62
7
  6
CONTINUOUS
 70
0
 71
3
 72
16
 73
12
 74
0
 42
0.0000001
 43
0.0000001
 44
0.0000000001
 40
0.0
 40
0.0
 40
0.0
 40
0.0
 40
0.1201047882
 40
0.2418341206
 40
0.3651671035
 40
0.4900161457
 40
0.5529696478
 40
0.6162342863
 40
0.6797769479
 40
0.7435597321
 40
1.0
 40
1.0
 40
1.0
 40
1.0
 10
5.2117219345
 20
4.747358916
 30
0.0
 10
5.209861221
 20
4.7484534071
 30
0.0
 10
5.2060469852
 20
4.7505445166
 30
0.0
 10
5.20010364
 20
4.7533392258
 30
0.0
 10
5.1939142425
 20
4.7557800261
 30
0.0
 10
5.18858478
 20
4.7574889718
 30
0.0
 10
5.1842231241
 20
4.7586493253
 30
0.0
 10
5.1808985588
 20
4.7594139858
 30
0.0
 10
5.1775350017
 20
4.7600675601
 30
0.0
 10
5.1707226003
 20
4.7611496537
 30
0.0
 10
5.1649547929
 20
4.7615549299
 30
0.0
 10
5.1603455822
 20
4.7615553425
 30
0.0
  0
SPLINE
  5
2A1
100
AcDbEntity
  8
0
100
AcDbSpline
 62
7
  6
CONTINUOUS
 70
0
 71
3
 72
15
 73
11
 74
0
 42
0.0000001
 43
0.0000001
 44
0.0000000001
 40
0.0
 40
0.0
 40
0.0
 40
0.0
 40
0.2564449154
 40
0.3202288508
 40
0.383772661
 40
0.509974932
 40
0.6348262354
 40
0.7581614757
 40
0.8798929932
 40
1.0
 40
1.0
 40
1.0
 40
1.0
 10
5.1603455822
 20
4.7615553425
 30
0.0
 10
5.1557363792
 20
4.7615549995
 30
0.0
 10
5.1499686173
 20
4.7611496382
 30
0.0
 10
5.1431561618
 20
4.7600675875
 30
0.0
 10
5.1386820927
 20
4.7591982022
 30
0.0
 10
5.1331893424
 20
4.7578363407
 30
0.0
 10
5.1267770907
 20
4.7557800615
 30
0.0
 10
5.1205875694
 20
4.7533392249
 30
0.0
 10
5.1146442436
 20
4.7505445845
 30
0.0
 10
5.1108300201
 20
4.7484534482
 30
0.0
 10
5.1089693124
 20
4.7473589529
 30
0.0
  0
SPLINE
  5
2A2
100
AcDbEntity
  8
0
100
AcDbSpline
 62
7
  6
CONTINUOUS
 70
0
 71
3
 72
16
 73
12
 74
0
 42
0.0000001
 43
0.0000001
 44
0.0000000001
 40
0.0
 40
0.0
 40
0.0
 40
0.0
 40
0.1201047885
 40
0.2418341208
 40
0.3651671038
 40
0.4900161459
 40
0.552969648
 40
0.6162342865
 40
0.679776948
 40
0.7435597321
 40
1.0
 40
1.0
 40
1.0
 40
1.0
 10
5.1089692307
 20
4.5270417685
 30
0.0
 10
5.1108299441
 20
4.5259472775
 30
0.0
 10
5.1146441798
 20
4.5238561679
 30
0.0
 10
5.120587525
 20
4.5210614589
 30
0.0
 10
5.1267769224
 20
4.5186206587
 30
0.0
 10
5.1321063848
 20
4.5169117128
 30
0.0
 10
5.1364680407
 20
4.5157513597
 30
0.0
 10
5.1397926059
 20
4.5149866992
 30
0.0
 10
5.1431561629
 20
4.5143331248
 30
0.0
 10
5.1499685642
 20
4.5132510311
 30
0.0
 10
5.1557363716
 20
4.5128457551
 30
0.0
 10
5.1603455822
 20
4.5128453425
 30
0.0
  0
LINE
  5
2A3
100
AcDbEntity
  8
0
100
AcDbLine
 62
7
  6
CONTINUOUS
 10
5.178918336
 20
4.6334757839
 11
5.1794006528
 21
4.6333107425
  0
LINE
  5
2A4
100
AcDbEntity
  8
0
100
AcDbLine
 62
7
  6
CONTINUOUS
 10
5.1794006528
 20
4.6410899425
 11
5.178918336
 21
4.640924901
  0
LINE
  5
2A5
100
AcDbEntity
  8
0
100
AcDbLine
 62
7
  6
CONTINUOUS
 10
5.1716397839
 20
4.6342062805
 11
5.178918336
 21
4.6334757839
  0
LINE
  5
2A6
100
AcDbEntity
  8
0
100
AcDbLine
 62
7
  6
CONTINUOUS
 10
5.1654238693
 20
4.6321220553
 11
5.1716397839
 21
4.6342062805
  0
LINE
  5
2A7
100
AcDbEntity
  8
0
100
AcDbLine
 62
7
  6
CONTINUOUS
 10
5.1633396441
 20
4.6259061408
 11
5.1654238693
 21
4.6321220553
  0
LINE
  5
2A8
100
AcDbEntity
  8
0
100
AcDbLine
 62
7
  6
CONTINUOUS
 10
5.1640701408
 20
4.6186275887
 11
5.1633396441
 21
4.6259061408
  0
LINE
  5
2A9
100
AcDbEntity
  8
0
100
AcDbLine
 62
7
  6
CONTINUOUS
 10
5.1573515202
 20
4.6259061408
 11
5.1566210236
 21
4.6186275887
  0
LINE
  5
2AA
100
AcDbEntity
  8
0
100
AcDbLine
 62
7
  6
CONTINUOUS
 10
5.1552672951
 20
4.6321220553
 11
5.1573515202
 21
4.6259061408
  0
LINE
  5
2AB
100
AcDbEntity
  8
0
100
AcDbLine
 62
7
  6
CONTINUOUS
 10
5.1490513805
 20
4.6342062805
 11
5.1552672951
 21
4.6321220553
  0
LINE
  5
2AC
100
AcDbEntity
  8
0
100
AcDbLine
 62
7
  6
CONTINUOUS
 10
5.1417728284
 20
4.6334757839
 11
5.1490513805
 21
4.6342062805
  0
LINE
  5
2AD
100
AcDbEntity
  8
0
100
AcDbLine
 62
7
  6
CONTINUOUS
 10
5.1490513805
 20
4.6401944044
 11
5.1417728284
 21
4.640924901
  0
LINE
  5
2AE
100
AcDbEntity
  8
0
100
AcDbLine
 62
7
  6
CONTINUOUS
 10
5.1552672951
 20
4.6422786296
 11
5.1490513805
 21
4.6401944044
  0
LINE
  5
2AF
100
AcDbEntity
  8
0
100
AcDbLine
 62
7
  6
CONTINUOUS
 10
5.1573515202
 20
4.6484945442
 11
5.1552672951
 21
4.6422786296
  0
LINE
  5
2B0
100
AcDbEntity
  8
0
100
AcDbLine
 62
7
  6
CONTINUOUS
 10
5.1566210236
 20
4.6557730963
 11
5.1573515202
 21
4.6484945442
  0
LINE
  5
2B1
100
AcDbEntity
  8
0
100
AcDbLine
 62
7
  6
CONTINUOUS
 10
5.1633396441
 20
4.6484945442
 11
5.1640701408
 21
4.6557730963
  0
LINE
  5
2B2
100
AcDbEntity
  8
0
100
AcDbLine
 62
7
  6
CONTINUOUS
 10
5.1654238693
 20
4.6422786296
 11
5.1633396441
 21
4.6484945442
  0
LINE
  5
2B3
100
AcDbEntity
  8
0
100
AcDbLine
 62
7
  6
CONTINUOUS
 10
5.1716397839
 20
4.6401944044
 11
5.1654238693
 21
4.6422786296
  0
LINE
  5
2B4
100
AcDbEntity
  8
0
100
AcDbLine
 62
7
  6
CONTINUOUS
 10
5.178918336
 20
4.640924901
 11
5.1716397839
 21
4.6401944044
  0
LINE
  5
2B5
100
AcDbEntity
  8
0
100
AcDbLine
 62
7
  6
CONTINUOUS
 10
5.1412905116
 20
4.6333107425
 11
5.1417728284
 21
4.6334757839
  0
LINE
  5
2B6
100
AcDbEntity
  8
0
100
AcDbLine
 62
7
  6
CONTINUOUS
 10
5.1417728284
 20
4.640924901
 11
5.1412905116
 21
4.6410899425
  0
LINE
  5
2B7
100
AcDbEntity
  8
0
100
AcDbLine
 62
7
  6
CONTINUOUS
 10
5.1642351822
 20
4.6181452719
 11
5.1640701408
 21
4.6186275887
  0
LINE
  5
2B8
100
AcDbEntity
  8
0
100
AcDbLine
 62
7
  6
CONTINUOUS
 10
5.1566210236
 20
4.6186275887
 11
5.1564559822
 21
4.6181452719
  0
LINE
  5
2B9
100
AcDbEntity
  8
0
100
AcDbLine
 62
7
  6
CONTINUOUS
 10
5.1564559822
 20
4.6562554131
 11
5.1566210236
 21
4.6557730963
  0
LINE
  5
2BA
100
AcDbEntity
  8
0
100
AcDbLine
 62
7
  6
CONTINUOUS
 10
5.1640701408
 20
4.6557730963
 11
5.1642351822
 21
4.6562554131
  0
ENDSEC
  0
SECTION
  2
OBJECTS
  0
DICTIONARY
  5
C
100
AcDbDictionary
280
0
281
1
  3
ACAD_GROUP
350
D
  3
ACAD_MLINESTYLE
350
17
  3
ACAD_LAYOUT
350
1A
  3
ACAD_PLOTSETTINGS
350
19
  3
ACAD_PLOTSTYLENAME
350
E
  0
DICTIONARY
  5
D
102
{ACAD_REACTORS
330
C
102
}
100
AcDbDictionary
280
0
281
1
  0
ACDBDICTIONARYWDFLT
  5
E
102
{ACAD_REACTORS
330
C
102
}
100
AcDbDictionary
281
1
  3
Normal
350
F
100
AcDbDictionaryWithDefault
340
F
  0
DICTIONARY
  5
17
102
{ACAD_REACTORS
330
C
102
}
100
AcDbDictionary
280
0
281
1
  3
Standard
350
18
  0
DICTIONARY
  5
19
102
{ACAD_REACTORS
330
C
102
}
100
AcDbDictionary
281
1
  0
DICTIONARY
  5
1A
102
{ACAD_REACTORS
330
C
102
}
100
AcDbDictionary
281
1
  3
Model
350
2BB
  3
Layout1
350
2BC
  0
ACDBPLACEHOLDER
  5
F
102
{ACAD_REACTORS
330
E
102
}
  0
MLINESTYLE
  5
18
102
{ACAD_REACTORS
330
17
102
}
100
AcDbMlineStyle
  2
STANDARD
 70
0
  3

 62
256
 51
90.0
 52
90.0
 71
2
 49
0.5
 62
256
  6
BYLAYER
 49
-0.5
 62
256
  6
BYLAYER
  0
LAYOUT
  5
2BB
102
{ACAD_REACTORS
330
1A
102
}
100
AcDbPlotSettings
  1

  2
none_device
  4
ANSI_A_(11.00_x_8.50_Inches)
  6

 40
0.0
 41
0.0
 42
0.0
 43
0.0
 44
279.4
 45
215.9
 46
0.0
 47
0.0
 48
0.0
 49
0.0
140
0.0
141
0.0
142
1.0
143
1.0
 70
1024
 72
0
 73
0
 74
0
  7

 75
0
147
1.0
148
0.0
149
0.0
100
AcDbLayout
  1
Model
 70
0
 71
0
 10
0.0
 20
0.0
 11
11.0
 21
8.5
 12
0.0
 22
0.0
 32
0.0
 14
0.0
 24
0.0
 34
0.0
 15
0.0
 25
0.0
 35
0.0
146
0.0
 13
0.0
 23
0.0
 33
0.0
 16
1.0
 26
0.0
 36
0.0
 17
0.0
 27
1.0
 37
0.0
 76
0
330
203
345
0
346
0
  0
LAYOUT
  5
2BC
102
{ACAD_REACTORS
330
1A
102
}
100
AcDbPlotSettings
  1

  2
none_device
  4
ANSI_A_(11.00_x_8.50_Inches)
  6

 40
0.0
 41
0.0
 42
0.0
 43
0.0
 44
279.4
 45
215.9
 46
0.0
 47
0.0
 48
0.0
 49
0.0
140
0.0
141
0.0
142
1.0
143
1.0
 70
0
 72
0
 73
0
 74
0
  7

 75
0
147
1.0
148
0.0
149
0.0
100
AcDbLayout
  1
Layout1
 70
0
 71
1
 10
0.0
 20
0.0
 11
11.0
 21
8.5
 12
0.0
 22
0.0
 32
0.0
 14
0.0
 24
0.0
 34
0.0
 15
0.0
 25
0.0
 35
0.0
146
0.0
 13
0.0
 23
0.0
 33
0.0
 16
1.0
 26
0.0
 36
0.0
 17
0.0
 27
1.0
 37
0.0
 76
0
330
204
345
0
346
0
  0
ENDSEC
  0
EOF
