999
DXF file: 295-1_top.dxf
999
Pro/ENGINEER 2023134 by Parametric Technology Corporation
  0
SECTION
  2
HEADER
  9
$ACADVER
  1
AC1032
  9
$DWGCODEPAGE
  3
ANSI_1252
  9
$EXTMAX
 10
11.0
 20
8.5
 30
0.0
  9
$EXTMIN
 10
0.0
 20
0.0
 30
0.0
  9
$LIMMIN
 10
0.0
 20
0.0
  9
$LIMMAX
 10
11.0
 20
8.5
  9
$VIEWCTR
 10
5.5
 20
4.25
  9
$VIEWSIZE
 40
8.5
  9
$CLAYER
  8
0
  9
$LTSCALE
 40
0.605
  9
$CELTYPE
  6
BYLAYER
  9
$DIMSCALE
 40
1.0
  9
$DIMASZ
 40
0.1
  9
$DIMEXO
 40
0.03125
  9
$DIMDLI
 40
0.418
  9
$DIMEXE
 40
0.0625
  9
$DIMCEN
 40
0.099
  9
$DIMLFAC
 40
1.0
  9
$DIMBLK
  1
_FILLED
  9
$DIMALT
 70
1
  9
$DIMALTD
 70
2
  9
$DIMALTTD
 70
2
  9
$DIMALTF
 40
25.4
  9
$DIMTXT
 40
0.08
  9
$DIMTOL
 70
1
  9
$DIMLIM
 70
0
  9
$DIMTFAC
 40
1.0
  9
$DIMTP
 40
0.001
  9
$DIMTM
 40
0.001
  9
$DIMGAP
 40
0.09
  9
$DIMDSEP
 70
46
  9
$AUNITS
 70
0
  9
$PDMODE
 70
3
  9
$PDSIZE
 40
0.06
  9
$HANDSEED
  5
2AF
  9
$TILEMODE
 70
1
  9
$MEASUREMENT
 70
0
  9
$INSUNITS
 70
1
  0
ENDSEC
  0
SECTION
  2
CLASSES
  0
CLASS
  1
ACDBDICTIONARYWDFLT
  2
AcDbDictionaryWithDefault
  3
AutoCAD 2000
 90
0
 91
1
280
0
281
0
  0
CLASS
  1
ACDBPLACEHOLDER
  2
AcDbPlaceHolder
  3
AutoCAD 2000
 90
0
 91
1
280
0
281
0
  0
CLASS
  1
LAYOUT
  2
AcDbLayout
  3
AutoCAD 2000
 90
0
 91
0
280
0
281
0
  0
ENDSEC
  0
SECTION
  2
TABLES
  0
TABLE
  2
VPORT
  5
8
100
AcDbSymbolTable
 70
2
  0
VPORT
  5
1F4
100
AcDbSymbolTableRecord
100
AcDbViewportTableRecord
  2
*ACTIVE
 70
0
 10
0.0
 20
0.0
 11
1.0
 21
1.0
 12
5.5
 22
4.25
 13
0.0
 23
0.0
 14
1.0
 24
1.0
 15
0.0
 25
0.0
 16
0.0
 26
0.0
 36
1.0
 17
0.0
 27
0.0
 37
0.0
 40
8.5
 41
1.2941176471
 42
50.0
 43
0.0
 44
0.0
 50
0.0
 51
0.0
 71
0
 72
100
 73
1
 74
1
 75
0
 76
0
 77
0
 78
0
  0
ENDTAB
  0
TABLE
  2
LTYPE
  5
5
100
AcDbSymbolTable
 70
6
  0
LTYPE
  5
14
100
AcDbSymbolTableRecord
100
AcDbLinetypeTableRecord
  2
BYBLOCK
 70
0
  3

 72
65
 73
0
 40
0.0
  0
LTYPE
  5
15
100
AcDbSymbolTableRecord
100
AcDbLinetypeTableRecord
  2
BYLAYER
 70
0
  3

 72
65
 73
0
 40
0.0
  0
LTYPE
  5
16
100
AcDbSymbolTableRecord
100
AcDbLinetypeTableRecord
  2
CONTINUOUS
 70
64
  3
Solid line
 72
65
 73
0
 40
0.0
  0
LTYPE
  5
1F5
100
AcDbSymbolTableRecord
100
AcDbLinetypeTableRecord
  2
CENTER
 70
64
  3
____ _ ____ _ ____ _ ____ _ ____ _ ____ _ ____
 72
65
 73
4
 40
0.6
 49
0.375
 74
0
 49
-0.075
 74
0
 49
0.075
 74
0
 49
-0.075
 74
0
  0
LTYPE
  5
1F6
100
AcDbSymbolTableRecord
100
AcDbLinetypeTableRecord
  2
HIDDEN
 70
64
  3
- - - - - - - - - - - - - - - - - - - -
 72
65
 73
2
 40
0.2
 49
0.1
 74
0
 49
-0.1
 74
0
  0
LTYPE
  5
1F7
100
AcDbSymbolTableRecord
100
AcDbLinetypeTableRecord
  2
PHANTOM
 70
64
  3
_____ _ _ _____ _ _ _____ _ _ _____
 72
65
 73
6
 40
0.8
 49
0.45
 74
0
 49
-0.05
 74
0
 49
0.1
 74
0
 49
-0.05
 74
0
 49
0.1
 74
0
 49
-0.05
 74
0
  0
LTYPE
  5
1F8
100
AcDbSymbolTableRecord
100
AcDbLinetypeTableRecord
  2
DOT
 70
64
  3
. . . . . . . . . . . . . . . . . . . .
 72
65
 73
2
 40
0.2
 49
0.1
 74
0
 49
-0.1
 74
0
  0
LTYPE
  5
1F9
100
AcDbSymbolTableRecord
100
AcDbLinetypeTableRecord
  2
DASHED
 70
64
  3
- - - - - - - - - - - - - - - - - - - -
 72
65
 73
2
 40
0.2
 49
0.1
 74
0
 49
-0.1
 74
0
  0
ENDTAB
  0
TABLE
  2
LAYER
  5
2
100
AcDbSymbolTable
 70
36
  0
LAYER
  5
10
100
AcDbSymbolTableRecord
100
AcDbLayerTableRecord
  2
0
 70
0
 62
7
  6
CONTINUOUS
370
-3
390
F
  0
LAYER
  5
1FA
100
AcDbSymbolTableRecord
100
AcDbLayerTableRecord
  2
DEFAULT_1
 70
0
 62
7
  6
CENTER
370
-3
390
F
  0
LAYER
  5
1FB
100
AcDbSymbolTableRecord
100
AcDbLayerTableRecord
  2
DEFAULT_2
 70
0
 62
8
  6
HIDDEN
370
-3
390
F
  0
LAYER
  5
1FC
100
AcDbSymbolTableRecord
100
AcDbLayerTableRecord
  2
DEFAULT_3
 70
0
 62
7
  6
PHANTOM
370
-3
390
F
  0
LAYER
  5
1FD
100
AcDbSymbolTableRecord
100
AcDbLayerTableRecord
  2
DEFAULT_COORDINATE_SYSTEM
 70
0
 62
7
  6
CONTINUOUS
370
-3
390
F
  0
LAYER
  5
1FE
100
AcDbSymbolTableRecord
100
AcDbLayerTableRecord
  2
DEFAULT_DATUM_AXES
 70
0
 62
7
  6
CONTINUOUS
370
-3
390
F
  0
LAYER
  5
1FF
100
AcDbSymbolTableRecord
100
AcDbLayerTableRecord
  2
DEFAULT_DATUM_CURVES
 70
0
 62
7
  6
CONTINUOUS
370
-3
390
F
  0
LAYER
  5
200
100
AcDbSymbolTableRecord
100
AcDbLayerTableRecord
  2
DEFAULT_DATUM_PLANES
 70
0
 62
7
  6
CONTINUOUS
370
-3
390
F
  0
ENDTAB
  0
TABLE
  2
STYLE
  5
3
100
AcDbSymbolTable
 70
1
  0
STYLE
  5
11
100
AcDbSymbolTableRecord
100
AcDbTextStyleTableRecord
  2
STANDARD
 70
0
 40
0.0
 41
0.8
 50
0.0
 71
0
 42
0.2
  3
txt
  4

  0
STYLE
  5
201
100
AcDbSymbolTableRecord
100
AcDbTextStyleTableRecord
  2
TEXTSTYLE_1
 70
0
 40
0.0
 41
0.8
 50
0.0
 71
0
 42
0.2
  3
gdt
  4

  0
ENDTAB
  0
TABLE
  2
VIEW
  5
6
100
AcDbSymbolTable
 70
0
  0
ENDTAB
  0
TABLE
  2
UCS
  5
7
100
AcDbSymbolTable
 70
0
  0
ENDTAB
  0
TABLE
  2
APPID
  5
9
100
AcDbSymbolTable
 70
1
  0
APPID
  5
202
100
AcDbSymbolTableRecord
100
AcDbRegAppTableRecord
  2
ACAD
 70
0
  0
ENDTAB
  0
TABLE
  2
BLOCK_RECORD
  5
1
100
AcDbSymbolTable
 70
0
  0
BLOCK_RECORD
  5
203
100
AcDbSymbolTableRecord
100
AcDbBlockTableRecord
  2
*Model_Space
  0
BLOCK_RECORD
  5
204
100
AcDbSymbolTableRecord
100
AcDbBlockTableRecord
  2
*Paper_Space
  0
BLOCK_RECORD
  5
205
100
AcDbSymbolTableRecord
100
AcDbBlockTableRecord
  2
_FILLED
  0
ENDTAB
  0
TABLE
  2
DIMSTYLE
  5
A
100
AcDbSymbolTable
 70
1
100
AcDbDimStyleTable
 71
0
  0
DIMSTYLE
105
206
100
AcDbSymbolTableRecord
100
AcDbDimStyleTableRecord
  2
STANDARD
 70
0
  3

  4

 40
1.0
 41
0.1
 42
0.03125
 43
0.38
 44
0.0625
 45
0.0
 46
0.0
 47
0.001
 48
0.001
140
0.08
141
0.09
142
0.0
143
25.4
144
1.0
145
0.0
146
1.0
147
0.09
 71
1
 72
0
 73
1
 74
1
 75
0
 76
0
 77
0
 78
4
 79
1
170
1
171
2
172
0
173
0
174
0
175
0
176
0
177
0
178
0
270
2
179
3
271
3
272
3
273
2
274
2
275
0
280
0
281
0
282
0
283
1
284
4
285
0
286
0
287
3
288
0
340
11
278
46
341
205
342
205
343
205
344
205
  0
ENDTAB
  0
ENDSEC
  0
SECTION
  2
BLOCKS
  0
BLOCK
  5
20
100
AcDbEntity
  8
0
100
AcDbBlockBegin
  2
*Model_Space
 70
0
 10
0.0
 20
0.0
 30
0.0
  3
*Model_Space
  1

  0
ENDBLK
  5
21
100
AcDbEntity
  8
0
100
AcDbBlockEnd
  0
BLOCK
  5
1C
100
AcDbEntity
  8
0
100
AcDbBlockBegin
  2
*Paper_Space
 70
0
 10
0.0
 20
0.0
 30
0.0
  3
*Paper_Space
  1

  0
ENDBLK
  5
1D
100
AcDbEntity
  8
0
100
AcDbBlockEnd
  0
BLOCK
  5
207
100
AcDbEntity
  8
0
100
AcDbBlockBegin
  2
_FILLED
 70
64
 10
0.0
 20
0.0
  3
_FILLED
  1

  0
SOLID
  5
208
100
AcDbEntity
  8
0
  6
BYBLOCK
 62
0
100
AcDbTrace
 10
0.0
 20
0.0
 11
-1.0
 21
0.2
 12
-1.0
 22
-0.2
 13
-1.0
 23
-0.2
  0
ENDBLK
  5
209
100
AcDbEntity
  8
0
  6
BYBLOCK
 62
0
100
AcDbBlockEnd
  0
ENDSEC
  0
SECTION
  2
ENTITIES
  0
MTEXT
  5
20A
100
AcDbEntity
  8
0
100
AcDbMText
 62
2
  6
CONTINUOUS
  7
STANDARD
 71
3
 72
1
 10
5.5282020548
 20
3.6133547782
 30
0.0
 11
1.0
 21
0.0
 31
0.0
 73
2
 44
0.9
  1
SCALE .187
 40
0.08
 41
0.64
  0
LINE
  5
20B
100
AcDbEntity
  8
0
100
AcDbLine
 62
7
  6
CONTINUOUS
 10
0.0
 20
0.0
 11
0.0
 21
8.5
  0
LINE
  5
20C
100
AcDbEntity
  8
0
100
AcDbLine
 62
7
  6
CONTINUOUS
 10
0.0
 20
0.0
 11
11.0
 21
0.0
  0
LINE
  5
20D
100
AcDbEntity
  8
0
100
AcDbLine
 62
7
  6
CONTINUOUS
 10
0.0
 20
8.5
 11
11.0
 21
8.5
  0
LINE
  5
20E
100
AcDbEntity
  8
0
100
AcDbLine
 62
7
  6
CONTINUOUS
 10
11.0
 20
0.0
 11
11.0
 21
8.5
  0
LINE
  5
20F
100
AcDbEntity
  8
0
100
AcDbLine
 62
7
  6
CONTINUOUS
 10
4.7329465786
 20
4.3216378425
 11
4.7329465786
 21
4.8975978425
  0
LINE
  5
210
100
AcDbEntity
  8
0
100
AcDbLine
 62
7
  6
CONTINUOUS
 10
4.7385565786
 20
4.3160278425
 11
4.7385565786
 21
4.9032078425
  0
LINE
  5
211
100
AcDbEntity
  8
0
100
AcDbLine
 62
7
  6
CONTINUOUS
 10
4.8114865786
 20
4.9032078425
 11
4.8114865786
 21
4.3160278425
  0
LINE
  5
212
100
AcDbEntity
  8
0
100
AcDbLine
 62
7
  6
CONTINUOUS
 10
4.8170965786
 20
4.8975978425
 11
4.8170965786
 21
4.3216378425
  0
LINE
  5
213
100
AcDbEntity
  8
0
100
AcDbLine
 62
7
  6
CONTINUOUS
 10
4.8227065786
 20
4.5488428425
 11
4.8227065786
 21
4.6703928425
  0
LINE
  5
214
100
AcDbEntity
  8
0
100
AcDbLine
 62
7
  6
CONTINUOUS
 10
4.7385565786
 20
4.3160278425
 11
4.8114865786
 21
4.3160278425
  0
LINE
  5
215
100
AcDbEntity
  8
0
100
AcDbLine
 62
7
  6
CONTINUOUS
 10
4.7329465786
 20
4.3216378425
 11
4.8170965786
 21
4.3216378425
  0
LINE
  5
216
100
AcDbEntity
  8
0
100
AcDbLine
 62
7
  6
CONTINUOUS
 10
4.9372440786
 20
4.8840403425
 11
4.9372440786
 21
4.9583728425
  0
LINE
  5
217
100
AcDbEntity
  8
0
100
AcDbLine
 62
7
  6
CONTINUOUS
 10
4.9447240786
 20
4.8765603425
 11
4.9447240786
 21
4.9583728425
  0
LINE
  5
218
100
AcDbEntity
  8
0
100
AcDbLine
 62
7
  6
CONTINUOUS
 10
4.9573465786
 20
4.6703928425
 11
4.9573465786
 21
4.5488428425
  0
LINE
  5
219
100
AcDbEntity
  8
0
100
AcDbLine
 62
7
  6
CONTINUOUS
 10
4.9653875786
 20
4.5497778425
 11
4.9653875786
 21
4.6694578425
  0
LINE
  5
21A
100
AcDbEntity
  8
0
100
AcDbLine
 62
7
  6
CONTINUOUS
 10
5.0354190786
 20
4.4768478425
 11
5.0354190786
 21
4.8765603425
  0
LINE
  5
21B
100
AcDbEntity
  8
0
100
AcDbLine
 62
7
  6
CONTINUOUS
 10
5.0428990786
 20
4.4693678425
 11
5.0428990786
 21
4.8765603425
  0
LINE
  5
21C
100
AcDbEntity
  8
0
100
AcDbLine
 62
7
  6
CONTINUOUS
 10
5.2850640786
 20
4.4693678425
 11
5.0428990786
 21
4.4693678425
  0
LINE
  5
21D
100
AcDbEntity
  8
0
100
AcDbLine
 62
7
  6
CONTINUOUS
 10
5.2925440786
 20
4.4768478425
 11
5.0354190786
 21
4.4768478425
  0
LINE
  5
21E
100
AcDbEntity
  8
0
100
AcDbLine
 62
7
  6
CONTINUOUS
 10
5.3635070844
 20
4.4880678425
 11
5.3283545786
 21
4.4880678425
  0
LINE
  5
21F
100
AcDbEntity
  8
0
100
AcDbLine
 62
7
  6
CONTINUOUS
 10
5.2925440786
 20
4.5002228425
 11
5.3255495786
 21
4.5002228425
  0
LINE
  5
220
100
AcDbEntity
  8
0
100
AcDbLine
 62
7
  6
CONTINUOUS
 10
4.7329465786
 20
4.5095728425
 11
4.8170965786
 21
4.5095728425
  0
LINE
  5
221
100
AcDbEntity
  8
0
100
AcDbLine
 62
7
  6
CONTINUOUS
 10
5.6117953419
 20
4.5419875444
 11
5.6027118251
 21
4.5419875444
  0
LINE
  5
222
100
AcDbEntity
  8
0
100
AcDbLine
 62
7
  6
CONTINUOUS
 10
5.6117950721
 20
4.5466598701
 11
5.6027118251
 21
4.5466598701
  0
LINE
  5
223
100
AcDbEntity
  8
0
100
AcDbLine
 62
7
  6
CONTINUOUS
 10
4.9573465786
 20
4.5488428425
 11
4.8227065786
 21
4.5488428425
  0
LINE
  5
224
100
AcDbEntity
  8
0
100
AcDbLine
 62
7
  6
CONTINUOUS
 10
4.9653875786
 20
4.5497778425
 11
5.0354190786
 21
4.5497778425
  0
LINE
  5
225
100
AcDbEntity
  8
0
100
AcDbLine
 62
7
  6
CONTINUOUS
 10
4.7385565786
 20
4.5563228425
 11
4.8114865786
 21
4.5563228425
  0
LINE
  5
226
100
AcDbEntity
  8
0
100
AcDbLine
 62
7
  6
CONTINUOUS
 10
4.8170965786
 20
4.5619328425
 11
4.7329465786
 21
4.5619328425
  0
LINE
  5
227
100
AcDbEntity
  8
0
100
AcDbLine
 62
7
  6
CONTINUOUS
 10
5.4031545786
 20
4.5633353425
 11
5.4022195786
 21
4.5633353425
  0
LINE
  5
228
100
AcDbEntity
  8
0
100
AcDbLine
 62
7
  6
CONTINUOUS
 10
5.6161891275
 20
4.5512021106
 11
5.6010285571
 21
4.5512015755
  0
LINE
  5
229
100
AcDbEntity
  8
0
100
AcDbLine
 62
7
  6
CONTINUOUS
 10
5.6170599782
 20
4.5511959632
 11
5.6161891275
 21
4.5512021106
  0
LINE
  5
22A
100
AcDbEntity
  8
0
100
AcDbLine
 62
7
  6
CONTINUOUS
 10
5.6178717025
 20
4.5511862441
 11
5.6170599782
 21
4.5511959632
  0
LINE
  5
22B
100
AcDbEntity
  8
0
100
AcDbLine
 62
7
  6
CONTINUOUS
 10
5.6184670263
 20
4.5511761799
 11
5.6178717025
 21
4.5511862441
  0
LINE
  5
22C
100
AcDbEntity
  8
0
100
AcDbLine
 62
7
  6
CONTINUOUS
 10
5.6190159661
 20
4.5511641298
 11
5.6184670263
 21
4.5511761799
  0
LINE
  5
22D
100
AcDbEntity
  8
0
100
AcDbLine
 62
7
  6
CONTINUOUS
 10
5.6194019893
 20
4.5511536223
 11
5.6190159661
 21
4.5511641298
  0
LWPOLYLINE
  5
22E
100
AcDbEntity
  8
0
100
AcDbPolyline
 62
7
  6
CONTINUOUS
 90
3
 70
0
 10
5.6198873135
 20
4.5511371767
 10
5.6197689457
 20
4.5511415905
 10
5.6194019893
 20
4.5511536223
  0
LINE
  5
22F
100
AcDbEntity
  8
0
100
AcDbLine
 62
7
  6
CONTINUOUS
 10
5.6201182117
 20
4.5511276366
 11
5.6198873135
 21
4.5511371767
  0
LINE
  5
230
100
AcDbEntity
  8
0
100
AcDbLine
 62
7
  6
CONTINUOUS
 10
5.6203819877
 20
4.551114855
 11
5.6201182117
 21
4.5511276366
  0
LINE
  5
231
100
AcDbEntity
  8
0
100
AcDbLine
 62
7
  6
CONTINUOUS
 10
5.6203485429
 20
4.6681227769
 11
5.6203816069
 21
4.6681245083
  0
LINE
  5
232
100
AcDbEntity
  8
0
100
AcDbLine
 62
7
  6
CONTINUOUS
 10
5.6198932594
 20
4.6681024686
 11
5.6203485429
 21
4.6681227769
  0
LINE
  5
233
100
AcDbEntity
  8
0
100
AcDbLine
 62
7
  6
CONTINUOUS
 10
5.6196546962
 20
4.6680938426
 11
5.6198932594
 21
4.6681024686
  0
LINE
  5
234
100
AcDbEntity
  8
0
100
AcDbLine
 62
7
  6
CONTINUOUS
 10
5.6192820284
 20
4.6680823499
 11
5.6196546962
 21
4.6680938426
  0
LINE
  5
235
100
AcDbEntity
  8
0
100
AcDbLine
 62
7
  6
CONTINUOUS
 10
5.6188896898
 20
4.668072288
 11
5.6192820284
 21
4.6680823499
  0
LINE
  5
236
100
AcDbEntity
  8
0
100
AcDbLine
 62
7
  6
CONTINUOUS
 10
5.618330997
 20
4.6680607525
 11
5.6188896898
 21
4.668072288
  0
LINE
  5
237
100
AcDbEntity
  8
0
100
AcDbLine
 62
7
  6
CONTINUOUS
 10
5.6177238232
 20
4.6680511629
 11
5.618330997
 21
4.6680607525
  0
LINE
  5
238
100
AcDbEntity
  8
0
100
AcDbLine
 62
7
  6
CONTINUOUS
 10
5.6168994077
 20
4.6680421029
 11
5.6177238232
 21
4.6680511629
  0
LINE
  5
239
100
AcDbEntity
  8
0
100
AcDbLine
 62
7
  6
CONTINUOUS
 10
5.6160198235
 20
4.6680366789
 11
5.6168994077
 21
4.6680421029
  0
LINE
  5
23A
100
AcDbEntity
  8
0
100
AcDbLine
 62
7
  6
CONTINUOUS
 10
5.4031545786
 20
4.6559003425
 11
5.4022195786
 21
4.6559003425
  0
LINE
  5
23B
100
AcDbEntity
  8
0
100
AcDbLine
 62
7
  6
CONTINUOUS
 10
4.7329465786
 20
4.6573028425
 11
4.8170965786
 21
4.6573028425
  0
LINE
  5
23C
100
AcDbEntity
  8
0
100
AcDbLine
 62
7
  6
CONTINUOUS
 10
4.7385565786
 20
4.6629128425
 11
4.8114865786
 21
4.6629128425
  0
LINE
  5
23D
100
AcDbEntity
  8
0
100
AcDbLine
 62
7
  6
CONTINUOUS
 10
5.6160198235
 20
4.6680366789
 11
5.6010285571
 21
4.6680351368
  0
LINE
  5
23E
100
AcDbEntity
  8
0
100
AcDbLine
 62
7
  6
CONTINUOUS
 10
4.9653875786
 20
4.6694578425
 11
5.0354190786
 21
4.6694578425
  0
LINE
  5
23F
100
AcDbEntity
  8
0
100
AcDbLine
 62
7
  6
CONTINUOUS
 10
4.9573465786
 20
4.6703928425
 11
4.8227065786
 21
4.6703928425
  0
LINE
  5
240
100
AcDbEntity
  8
0
100
AcDbLine
 62
7
  6
CONTINUOUS
 10
5.6027118251
 20
4.6725719666
 11
5.6117950721
 21
4.6725719666
  0
LINE
  5
241
100
AcDbEntity
  8
0
100
AcDbLine
 62
7
  6
CONTINUOUS
 10
5.6027118251
 20
4.6772440276
 11
5.611795344
 21
4.6772440276
  0
LINE
  5
242
100
AcDbEntity
  8
0
100
AcDbLine
 62
7
  6
CONTINUOUS
 10
4.7329465786
 20
4.7096628425
 11
4.8170965786
 21
4.7096628425
  0
LINE
  5
243
100
AcDbEntity
  8
0
100
AcDbLine
 62
7
  6
CONTINUOUS
 10
5.2850640786
 20
4.4693678425
 11
5.2850640786
 21
4.8765603425
  0
LINE
  5
244
100
AcDbEntity
  8
0
100
AcDbLine
 62
7
  6
CONTINUOUS
 10
5.2925440786
 20
4.4768478425
 11
5.2925440786
 21
4.8765603425
  0
LINE
  5
245
100
AcDbEntity
  8
0
100
AcDbLine
 62
7
  6
CONTINUOUS
 10
5.2925440786
 20
4.7190128425
 11
5.3255495786
 21
4.7190128425
  0
LINE
  5
246
100
AcDbEntity
  8
0
100
AcDbLine
 62
7
  6
CONTINUOUS
 10
5.3635070844
 20
4.7311678425
 11
5.3283545786
 21
4.7311678425
  0
LINE
  5
247
100
AcDbEntity
  8
0
100
AcDbLine
 62
7
  6
CONTINUOUS
 10
5.3255495786
 20
4.7283628425
 11
5.3255495786
 21
4.4908728425
  0
LINE
  5
248
100
AcDbEntity
  8
0
100
AcDbLine
 62
7
  6
CONTINUOUS
 10
5.3283545786
 20
4.7311678425
 11
5.3283545786
 21
4.4880678425
  0
LINE
  5
249
100
AcDbEntity
  8
0
100
AcDbLine
 62
7
  6
CONTINUOUS
 10
5.3635070844
 20
4.7311678425
 11
5.3635070844
 21
4.4880678425
  0
LINE
  5
24A
100
AcDbEntity
  8
0
100
AcDbLine
 62
7
  6
CONTINUOUS
 10
5.3688427863
 20
4.7272905817
 11
5.3688427863
 21
4.4919451032
  0
LINE
  5
24B
100
AcDbEntity
  8
0
100
AcDbLine
 62
7
  6
CONTINUOUS
 10
5.3782835786
 20
4.5159439481
 11
5.3782835786
 21
4.7032917368
  0
LINE
  5
24C
100
AcDbEntity
  8
0
100
AcDbLine
 62
7
  6
CONTINUOUS
 10
5.3832390786
 20
4.8765603425
 11
5.3832390786
 21
4.9583728425
  0
LINE
  5
24D
100
AcDbEntity
  8
0
100
AcDbLine
 62
7
  6
CONTINUOUS
 10
5.3872595786
 20
4.5308987299
 11
5.3872595786
 21
4.688336955
  0
LINE
  5
24E
100
AcDbEntity
  8
0
100
AcDbLine
 62
7
  6
CONTINUOUS
 10
5.3907190786
 20
4.8840403425
 11
5.3907190786
 21
4.9583728425
  0
LINE
  5
24F
100
AcDbEntity
  8
0
100
AcDbLine
 62
7
  6
CONTINUOUS
 10
5.3924955786
 20
4.5367919515
 11
5.3924955786
 21
4.6824437334
  0
LINE
  5
250
100
AcDbEntity
  8
0
100
AcDbLine
 62
7
  6
CONTINUOUS
 10
5.3992398435
 20
4.6775700148
 11
5.3992398435
 21
4.5416656701
  0
LINE
  5
251
100
AcDbEntity
  8
0
100
AcDbLine
 62
7
  6
CONTINUOUS
 10
5.4022195786
 20
4.6726148351
 11
5.4022195786
 21
4.5466208499
  0
LINE
  5
252
100
AcDbEntity
  8
0
100
AcDbLine
 62
7
  6
CONTINUOUS
 10
5.4031545786
 20
4.5591278425
 11
5.4031545786
 21
4.6601078424
  0
LINE
  5
253
100
AcDbEntity
  8
0
100
AcDbLine
 62
7
  6
CONTINUOUS
 10
5.3832390786
 20
4.8765603425
 11
4.9447240786
 21
4.8765603425
  0
LINE
  5
254
100
AcDbEntity
  8
0
100
AcDbLine
 62
7
  6
CONTINUOUS
 10
5.3907190786
 20
4.8840403425
 11
4.9372440786
 21
4.8840403425
  0
LINE
  5
255
100
AcDbEntity
  8
0
100
AcDbLine
 62
7
  6
CONTINUOUS
 10
4.7329465786
 20
4.8975978425
 11
4.8170965786
 21
4.8975978425
  0
LINE
  5
256
100
AcDbEntity
  8
0
100
AcDbLine
 62
7
  6
CONTINUOUS
 10
5.597946715
 20
4.5500410257
 11
5.5979448637
 21
4.5500431399
  0
LINE
  5
257
100
AcDbEntity
  8
0
100
AcDbLine
 62
7
  6
CONTINUOUS
 10
5.6027118251
 20
4.5419875444
 11
5.5996991584
 21
4.5455588405
  0
LINE
  5
258
100
AcDbEntity
  8
0
100
AcDbLine
 62
7
  6
CONTINUOUS
 10
5.5996991571
 20
4.6736729945
 11
5.6027118251
 21
4.6772440276
  0
LINE
  5
259
100
AcDbEntity
  8
0
100
AcDbLine
 62
7
  6
CONTINUOUS
 10
5.5979448637
 20
4.6691963838
 11
5.597946715
 21
4.6691984885
  0
LINE
  5
25A
100
AcDbEntity
  8
0
100
AcDbLine
 62
7
  6
CONTINUOUS
 10
4.7385565786
 20
4.9032078425
 11
4.8114865786
 21
4.9032078425
  0
LINE
  5
25B
100
AcDbEntity
  8
0
100
AcDbLine
 62
7
  6
CONTINUOUS
 10
4.9372440786
 20
4.9583728425
 11
5.3907190786
 21
4.9583728425
  0
LINE
  5
25C
100
AcDbEntity
  8
0
100
AcDbLine
 62
7
  6
CONTINUOUS
 10
5.6010285571
 20
4.5512043869
 11
5.6010285571
 21
4.5512015755
  0
LINE
  5
25D
100
AcDbEntity
  8
0
100
AcDbLine
 62
7
  6
CONTINUOUS
 10
5.6010285571
 20
4.6680351368
 11
5.6010285571
 21
4.6680379387
  0
LINE
  5
25E
100
AcDbEntity
  8
0
100
AcDbLine
 62
7
  6
CONTINUOUS
 10
5.6027118251
 20
4.6772440276
 11
5.6027118251
 21
4.6725719666
  0
LINE
  5
25F
100
AcDbEntity
  8
0
100
AcDbLine
 62
7
  6
CONTINUOUS
 10
5.6027118251
 20
4.5419875444
 11
5.6027118251
 21
4.5466598701
  0
LINE
  5
260
100
AcDbEntity
  8
0
100
AcDbLine
 62
7
  6
CONTINUOUS
 10
5.6117950721
 20
4.6772440276
 11
5.6117950721
 21
4.6725719666
  0
LINE
  5
261
100
AcDbEntity
  8
0
100
AcDbLine
 62
7
  6
CONTINUOUS
 10
5.6117950721
 20
4.5419875444
 11
5.6117950721
 21
4.5466598701
  0
LINE
  5
262
100
AcDbEntity
  8
0
100
AcDbLine
 62
7
  6
CONTINUOUS
 10
5.615221958
 20
4.6680351368
 11
5.615221958
 21
4.6680379387
  0
LINE
  5
263
100
AcDbEntity
  8
0
100
AcDbLine
 62
7
  6
CONTINUOUS
 10
5.6152219583
 20
4.5512043869
 11
5.615221958
 21
4.5512015755
  0
ARC
  5
264
100
AcDbEntity
  8
0
100
AcDbCircle
 62
7
  6
CONTINUOUS
 10
5.1333707171
 20
4.3752932612
 40
0.499647466
100
AcDbArc
 50
20.0582335011
 51
20.6136631878
  0
ARC
  5
265
100
AcDbEntity
  8
0
100
AcDbCircle
 62
7
  6
CONTINUOUS
 10
5.0428990786
 20
4.4768478425
 40
0.00748
100
AcDbArc
 50
180.0
 51
270.0
  0
ARC
  5
266
100
AcDbEntity
  8
0
100
AcDbCircle
 62
7
  6
CONTINUOUS
 10
4.8227065786
 20
4.5432328425
 40
0.00561
100
AcDbArc
 50
90.0
 51
180.0
  0
ARC
  5
267
100
AcDbEntity
  8
0
100
AcDbCircle
 62
7
  6
CONTINUOUS
 10
4.7385565786
 20
4.3216378425
 40
0.00561
100
AcDbArc
 50
180.0
 51
270.0
  0
ARC
  5
268
100
AcDbEntity
  8
0
100
AcDbCircle
 62
7
  6
CONTINUOUS
 10
4.7385565786
 20
4.5619328425
 40
0.00561
100
AcDbArc
 50
180.0
 51
270.0
  0
ARC
  5
269
100
AcDbEntity
  8
0
100
AcDbCircle
 62
7
  6
CONTINUOUS
 10
4.8114865786
 20
4.5619328425
 40
0.00561
100
AcDbArc
 50
270.0
 51
360.0
  0
ARC
  5
26A
100
AcDbEntity
  8
0
100
AcDbCircle
 62
7
  6
CONTINUOUS
 10
4.8114865786
 20
4.3216378425
 40
0.00561
100
AcDbArc
 50
270.0
 51
360.0
  0
ARC
  5
26B
100
AcDbEntity
  8
0
100
AcDbCircle
 62
7
  6
CONTINUOUS
 10
5.1408695497
 20
4.8414524797
 40
0.4917508668
100
AcDbArc
 50
339.3506877217
 51
339.9141979308
  0
ARC
  5
26C
100
AcDbEntity
  8
0
100
AcDbCircle
 62
7
  6
CONTINUOUS
 10
5.1639815786
 20
4.6096178425
 40
0.128843
100
AcDbArc
 50
356.2279181425
 51
3.7720818575
  0
ARC
  5
26D
100
AcDbEntity
  8
0
100
AcDbCircle
 62
7
  6
CONTINUOUS
 10
5.1639815786
 20
4.6096178425
 40
0.128843
100
AcDbArc
 50
176.2279181425
 51
183.7720818575
  0
ARC
  5
26E
100
AcDbEntity
  8
0
100
AcDbCircle
 62
7
  6
CONTINUOUS
 10
4.9447240786
 20
4.8840403425
 40
0.00748
100
AcDbArc
 50
180.0
 51
270.0
  0
ARC
  5
26F
100
AcDbEntity
  8
0
100
AcDbCircle
 62
7
  6
CONTINUOUS
 10
4.8227065786
 20
4.6760028425
 40
0.00561
100
AcDbArc
 50
180.0
 51
270.0
  0
ARC
  5
270
100
AcDbEntity
  8
0
100
AcDbCircle
 62
7
  6
CONTINUOUS
 10
4.7385565786
 20
4.6573028425
 40
0.00561
100
AcDbArc
 50
90.0
 51
180.0
  0
ARC
  5
271
100
AcDbEntity
  8
0
100
AcDbCircle
 62
7
  6
CONTINUOUS
 10
4.7385565786
 20
4.8975978425
 40
0.00561
100
AcDbArc
 50
90.0
 51
180.0
  0
ARC
  5
272
100
AcDbEntity
  8
0
100
AcDbCircle
 62
7
  6
CONTINUOUS
 10
4.8114865786
 20
4.8975978425
 40
0.00561
100
AcDbArc
 50
0.0
 51
90.0
  0
ARC
  5
273
100
AcDbEntity
  8
0
100
AcDbCircle
 62
7
  6
CONTINUOUS
 10
4.8114865786
 20
4.6573028425
 40
0.00561
100
AcDbArc
 50
0.0
 51
90.0
  0
ARC
  5
274
100
AcDbEntity
  8
0
100
AcDbCircle
 62
7
  6
CONTINUOUS
 10
5.1925062575
 20
4.3889384208
 40
0.4362751584
100
AcDbArc
 50
21.0384628542
 51
21.6705011862
  0
ARC
  5
275
100
AcDbEntity
  8
0
100
AcDbCircle
 62
7
  6
CONTINUOUS
 10
5.5707101745
 20
4.4263898013
 40
0.212245
100
AcDbArc
 50
155.0430228836
 51
162.0090856119
  0
ARC
  5
276
100
AcDbEntity
  8
0
100
AcDbCircle
 62
7
  6
CONTINUOUS
 10
5.5269600184
 20
4.6096159262
 40
0.1166495476
100
AcDbArc
 50
36.8717074974
 51
323.1282925117
  0
ARC
  5
277
100
AcDbEntity
  8
0
100
AcDbCircle
 62
7
  6
CONTINUOUS
 10
5.5269600184
 20
4.609615786
 40
0.1084922366
100
AcDbArc
 50
38.5608283896
 51
321.4391709126
  0
ARC
  5
278
100
AcDbEntity
  8
0
100
AcDbCircle
 62
7
  6
CONTINUOUS
 10
5.5456600184
 20
4.609615786
 40
0.0884787416
100
AcDbArc
 50
49.8487131361
 51
310.1512868639
  0
ARC
  5
279
100
AcDbEntity
  8
0
100
AcDbCircle
 62
7
  6
CONTINUOUS
 10
5.5456600184
 20
4.6096159183
 40
0.0838065483
100
AcDbArc
 50
49.8487131361
 51
310.151286363
  0
ARC
  5
27A
100
AcDbEntity
  8
0
100
AcDbCircle
 62
7
  6
CONTINUOUS
 10
5.4537283673
 20
4.4808324104
 40
0.083215
100
AcDbArc
 50
143.0118254245
 51
155.0430228836
  0
ARC
  5
27B
100
AcDbEntity
  8
0
100
AcDbCircle
 62
7
  6
CONTINUOUS
 10
5.4262446434
 20
4.5015339897
 40
0.048807
100
AcDbArc
 50
133.7473789406
 51
143.0118254245
  0
ARC
  5
27C
100
AcDbEntity
  8
0
100
AcDbCircle
 62
7
  6
CONTINUOUS
 10
5.413443274
 20
4.5149076994
 40
0.030294
100
AcDbArc
 50
117.9598631388
 51
133.7473789406
  0
ARC
  5
27D
100
AcDbEntity
  8
0
100
AcDbCircle
 62
7
  6
CONTINUOUS
 10
5.2850640786
 20
4.4768478425
 40
0.00748
100
AcDbArc
 50
270.0
 51
360.0
  0
ARC
  5
27E
100
AcDbEntity
  8
0
100
AcDbCircle
 62
7
  6
CONTINUOUS
 10
5.3635070844
 20
4.4936778425
 40
0.00561
100
AcDbArc
 50
270.0
 51
342.0090856119
  0
ARC
  5
27F
100
AcDbEntity
  8
0
100
AcDbCircle
 62
7
  6
CONTINUOUS
 10
5.3966095786
 20
4.5466208499
 40
0.00561
100
AcDbArc
 50
297.9598631388
 51
360.0
  0
ARC
  5
280
100
AcDbEntity
  8
0
100
AcDbCircle
 62
7
  6
CONTINUOUS
 10
5.6027140228
 20
4.541981663
 40
0.0046782178
100
AcDbArc
 50
90.0269157931
 51
130.124346351
  0
ARC
  5
281
100
AcDbEntity
  8
0
100
AcDbCircle
 62
7
  6
CONTINUOUS
 10
5.6010306456
 20
4.546523828
 40
0.0046777354
100
AcDbArc
 50
90.0255815125
 51
131.2447356288
  0
ARC
  5
282
100
AcDbEntity
  8
0
100
AcDbCircle
 62
7
  6
CONTINUOUS
 10
5.6010285571
 20
4.5465293869
 40
0.004675
100
AcDbArc
 50
90.0
 51
131.2704067094
  0
ARC
  5
283
100
AcDbEntity
  8
0
100
AcDbCircle
 62
7
  6
CONTINUOUS
 10
5.6202079435
 20
4.5478411859
 40
0.0032782976
100
AcDbArc
 50
86.9616625943
 51
91.2964633551
  0
ARC
  5
284
100
AcDbEntity
  8
0
100
AcDbCircle
 62
7
  6
CONTINUOUS
 10
5.3283545786
 20
4.4908728425
 40
0.002805
100
AcDbArc
 50
180.0
 51
270.0
  0
ARC
  5
285
100
AcDbEntity
  8
0
100
AcDbCircle
 62
7
  6
CONTINUOUS
 10
5.1994407564
 20
4.8278539381
 40
0.4289272092
100
AcDbArc
 50
338.2912292035
 51
338.9331397374
  0
ARC
  5
286
100
AcDbEntity
  8
0
100
AcDbCircle
 62
7
  6
CONTINUOUS
 10
5.5707101745
 20
4.7928458836
 40
0.212245
100
AcDbArc
 50
197.9909143881
 51
204.9569771164
  0
ARC
  5
287
100
AcDbEntity
  8
0
100
AcDbCircle
 62
7
  6
CONTINUOUS
 10
5.5269600184
 20
4.6096178425
 40
0.133705
100
AcDbArc
 50
202.1864847948
 51
329.5661327139
  0
ARC
  5
288
100
AcDbEntity
  8
0
100
AcDbCircle
 62
7
  6
CONTINUOUS
 10
5.5269600184
 20
4.6096178425
 40
0.133705
100
AcDbArc
 50
30.4338672861
 51
157.8135152052
  0
ARC
  5
289
100
AcDbEntity
  8
0
100
AcDbCircle
 62
7
  6
CONTINUOUS
 10
5.4537283673
 20
4.7384032745
 40
0.083215
100
AcDbArc
 50
204.9569771164
 51
216.9881745755
  0
ARC
  5
28A
100
AcDbEntity
  8
0
100
AcDbCircle
 62
7
  6
CONTINUOUS
 10
5.5456600184
 20
4.6096197619
 40
0.079265875
100
AcDbArc
 50
48.7295932661
 51
311.2704067338
  0
ARC
  5
28B
100
AcDbEntity
  8
0
100
AcDbCircle
 62
7
  6
CONTINUOUS
 10
5.4262446434
 20
4.7177016952
 40
0.048807
100
AcDbArc
 50
216.9881745755
 51
226.2526210594
  0
ARC
  5
28C
100
AcDbEntity
  8
0
100
AcDbCircle
 62
7
  6
CONTINUOUS
 10
5.413443274
 20
4.7043279856
 40
0.030294
100
AcDbArc
 50
226.2526210594
 51
242.0401368612
  0
ARC
  5
28D
100
AcDbEntity
  8
0
100
AcDbCircle
 62
7
  6
CONTINUOUS
 10
5.3832390786
 20
4.8840403425
 40
0.00748
100
AcDbArc
 50
270.0
 51
360.0
  0
ARC
  5
28E
100
AcDbEntity
  8
0
100
AcDbCircle
 62
7
  6
CONTINUOUS
 10
5.3635070844
 20
4.7255578425
 40
0.00561
100
AcDbArc
 50
17.9909143881
 51
90.0
  0
ARC
  5
28F
100
AcDbEntity
  8
0
100
AcDbCircle
 62
7
  6
CONTINUOUS
 10
5.3966095786
 20
4.6726148351
 40
0.00561
100
AcDbArc
 50
0.0
 51
62.0401368612
  0
ARC
  5
290
100
AcDbEntity
  8
0
100
AcDbCircle
 62
7
  6
CONTINUOUS
 10
5.6027140193
 20
4.6772501639
 40
0.004678208
100
AcDbArc
 50
229.8756100301
 51
269.9731278229
  0
ARC
  5
291
100
AcDbEntity
  8
0
100
AcDbCircle
 62
7
  6
CONTINUOUS
 10
5.6010306422
 20
4.6727156771
 40
0.0046777263
100
AcDbArc
 50
228.7552222241
 51
269.9744604527
  0
ARC
  5
292
100
AcDbEntity
  8
0
100
AcDbCircle
 62
7
  6
CONTINUOUS
 10
5.6010285571
 20
4.6727101368
 40
0.004675
100
AcDbArc
 50
228.7295932906
 51
270.0
  0
ARC
  5
293
100
AcDbEntity
  8
0
100
AcDbCircle
 62
7
  6
CONTINUOUS
 10
5.6202078162
 20
4.6713983074
 40
0.003278414
100
AcDbArc
 50
268.7058071176
 51
273.0332193994
  0
ARC
  5
294
100
AcDbEntity
  8
0
100
AcDbCircle
 62
7
  6
CONTINUOUS
 10
5.3283545786
 20
4.7283628425
 40
0.002805
100
AcDbArc
 50
90.0
 51
180.0
  0
SPLINE
  5
295
100
AcDbEntity
  8
0
100
AcDbSpline
 62
7
  6
CONTINUOUS
 70
0
 71
3
 72
33
 73
29
 74
0
 42
0.0000001
 43
0.0000001
 44
0.0000000001
 40
0.0
 40
0.0
 40
0.0
 40
0.0
 40
0.027919744
 40
0.0574528194
 40
0.0878132262
 40
0.118261511
 40
0.1480639104
 40
0.1764457214
 40
0.2026219778
 40
0.2259535788
 40
0.2461610972
 40
0.2633984964
 40
0.290830099
 40
0.312247525
 40
0.3305677634
 40
0.347517107
 40
0.3640958173
 40
0.3982989673
 40
0.4357677213
 40
0.4776259046
 40
0.5003819951
 40
0.5244118451
 40
0.5763915514
 40
0.6336907018
 40
0.6963526392
 40
0.7643696395
 40
0.837698719
 40
1.0
 40
1.0
 40
1.0
 40
1.0
 10
5.6422424357
 20
4.6773451728
 30
0.0
 10
5.6423744902
 20
4.6771203956
 30
0.0
 10
5.6426095085
 20
4.6766351362
 30
0.0
 10
5.642840662
 20
4.6758443928
 30
0.0
 10
5.6429337761
 20
4.6750014935
 30
0.0
 10
5.6428764832
 20
4.6741528948
 30
0.0
 10
5.6426763547
 20
4.6733455611
 30
0.0
 10
5.6423595534
 20
4.672620486
 30
0.0
 10
5.6419661976
 20
4.6720055027
 30
0.0
 10
5.6415407673
 20
4.6715103299
 30
0.0
 10
5.6411207397
 20
4.6711269628
 30
0.0
 10
5.6406338297
 20
4.6707653049
 30
0.0
 10
5.6400974656
 20
4.6704559921
 30
0.0
 10
5.6395219523
 20
4.670204829
 30
0.0
 10
5.6390220285
 20
4.6700298903
 30
0.0
 10
5.6385571001
 20
4.6698943435
 30
0.0
 10
5.6379433874
 20
4.6697411308
 30
0.0
 10
5.637135404
 20
4.6695774893
 30
0.0
 10
5.6360891509
 20
4.6694060583
 30
0.0
 10
5.6351447199
 20
4.6692764866
 30
0.0
 10
5.6343231926
 20
4.6691755098
 30
0.0
 10
5.6334069286
 20
4.6690708319
 30
0.0
 10
5.6321686431
 20
4.6689436876
 30
0.0
 10
5.6305697178
 20
4.668798477
 30
0.0
 10
5.6288202194
 20
4.6686565359
 30
0.0
 10
5.6269203662
 20
4.6685177006
 30
0.0
 10
5.6240912747
 20
4.6683303368
 30
0.0
 10
5.6218946378
 20
4.6682047221
 30
0.0
 10
5.6203812934
 20
4.6681244852
 30
0.0
  0
SPLINE
  5
296
100
AcDbEntity
  8
0
100
AcDbSpline
 62
7
  6
CONTINUOUS
 70
0
 71
3
 72
33
 73
29
 74
0
 42
0.0000001
 43
0.0000001
 44
0.0000000001
 40
0.0
 40
0.0
 40
0.0
 40
0.0
 40
0.1623036128
 40
0.2356341718
 40
0.3036529685
 40
0.3663171074
 40
0.4236190175
 40
0.4756022305
 40
0.4996342174
 40
0.5223927843
 40
0.564257229
 40
0.6017349575
 40
0.6359512106
 40
0.6525390458
 40
0.669500129
 40
0.6878349754
 40
0.7092700403
 40
0.736719918
 40
0.7539638297
 40
0.7741739264
 40
0.797501295
 40
0.8236672005
 40
0.8520342941
 40
0.8818192444
 40
0.9122489799
 40
0.9425897173
 40
0.9721020266
 40
1.0
 40
1.0
 40
1.0
 40
1.0
 10
5.6203817069
 20
4.5511148764
 30
0.0
 10
5.6218951006
 20
4.551034501
 30
0.0
 10
5.6240918116
 20
4.5509086692
 30
0.0
 10
5.6269209995
 20
4.5507209811
 30
0.0
 10
5.6288209303
 20
4.5505819043
 30
0.0
 10
5.6305705124
 20
4.550439715
 30
0.0
 10
5.6321695309
 20
4.5502942488
 30
0.0
 10
5.6334079011
 20
4.5501668789
 30
0.0
 10
5.6343242413
 20
4.5500620136
 30
0.0
 10
5.6351458674
 20
4.549960852
 30
0.0
 10
5.6360904544
 20
4.5498310375
 30
0.0
 10
5.6371369459
 20
4.5496592713
 30
0.0
 10
5.6379451794
 20
4.5494952955
 30
0.0
 10
5.6385591524
 20
4.5493417538
 30
0.0
 10
5.6390243445
 20
4.5492058869
 30
0.0
 10
5.6395245753
 20
4.5490305418
 30
0.0
 10
5.6401003723
 20
4.5487788078
 30
0.0
 10
5.6406368688
 20
4.548468894
 30
0.0
 10
5.6411236973
 20
4.5481066738
 30
0.0
 10
5.6415434605
 20
4.5477229298
 30
0.0
 10
5.641968409
 20
4.5472274725
 30
0.0
 10
5.6423611584
 20
4.5466124111
 30
0.0
 10
5.6426772934
 20
4.5458874646
 30
0.0
 10
5.642876846
 20
4.5450804653
 30
0.0
 10
5.6429337029
 20
4.5442323467
 30
0.0
 10
5.6428403546
 20
4.5433900175
 30
0.0
 10
5.64260919
 20
4.5425998723
 30
0.0
 10
5.6423743096
 20
4.5421149813
 30
0.0
 10
5.6422423548
 20
4.5418903744
 30
0.0
  0
SPLINE
  5
297
100
AcDbEntity
  8
0
100
AcDbSpline
 62
7
  6
CONTINUOUS
 70
0
 71
3
 72
32
 73
28
 74
0
 42
0.0000001
 43
0.0000001
 44
0.0000000001
 40
0.0
 40
0.0
 40
0.0
 40
0.0
 40
0.0010529045
 40
0.0017520321
 40
0.0025843924
 40
0.0046748116
 40
0.007356237
 40
0.0106400076
 40
0.014529386
 40
0.0241198449
 40
0.0361002332
 40
0.0504224314
 40
0.0670269925
 40
0.0858470192
 40
0.1068106685
 40
0.129842953
 40
0.1548670878
 40
0.1818055161
 40
0.2411133957
 40
0.3071522411
 40
0.3793126531
 40
0.456982958
 40
0.5395329736
 40
0.6262949546
 40
0.7165463112
 40
0.8094988479
 40
1.0
 40
1.0
 40
1.0
 40
1.0
 10
5.4698163266
 20
4.5796978425
 30
0.0
 10
5.4698054477
 20
4.5796978426
 30
0.0
 10
5.4697876538
 20
4.5797046117
 30
0.0
 10
5.4697653133
 20
4.5797189974
 30
0.0
 10
5.4697361671
 20
4.579742673
 30
0.0
 10
5.4696959821
 20
4.5797845323
 30
0.0
 10
5.4696436317
 20
4.5798493132
 30
0.0
 10
5.469584296
 20
4.5799321086
 30
0.0
 10
5.4694891982
 20
4.5800769119
 30
0.0
 10
5.4693552884
 20
4.5803034832
 30
0.0
 10
5.4691784419
 20
4.5806295074
 30
0.0
 10
5.4689779265
 20
4.5810249544
 30
0.0
 10
5.4687556601
 20
4.5814884466
 30
0.0
 10
5.4685137987
 20
4.582018527
 30
0.0
 10
5.4682545989
 20
4.5826135869
 30
0.0
 10
5.4679804343
 20
4.583271946
 30
0.0
 10
5.4676937512
 20
4.5839918639
 30
0.0
 10
5.4672848774
 20
4.5850664184
 30
0.0
 10
5.4667601048
 20
4.5865500706
 30
0.0
 10
5.4661394204
 20
4.5884944314
 30
0.0
 10
5.4655295474
 20
4.5906402735
 30
0.0
 10
5.4649504538
 20
4.592970891
 30
0.0
 10
5.4644212782
 20
4.5954678593
 30
0.0
 10
5.4639598781
 20
4.5981103426
 30
0.0
 10
5.4635822848
 20
4.6008747571
 30
0.0
 10
5.4632056004
 20
4.6047181931
 30
0.0
 10
5.4630907902
 20
4.6076486549
 30
0.0
 10
5.4630907902
 20
4.609616965
 30
0.0
  0
SPLINE
  5
298
100
AcDbEntity
  8
0
100
AcDbSpline
 62
7
  6
CONTINUOUS
 70
0
 71
3
 72
32
 73
28
 74
0
 42
0.0000001
 43
0.0000001
 44
0.0000000001
 40
0.0
 40
0.0
 40
0.0
 40
0.0
 40
0.1904991394
 40
0.2834513515
 40
0.3737027465
 40
0.460465059
 40
0.5430156316
 40
0.6206866496
 40
0.6928478618
 40
0.7588875207
 40
0.8181961509
 40
0.8451349051
 40
0.8701593197
 40
0.8931918276
 40
0.9141556338
 40
0.9329757412
 40
0.9495802974
 40
0.9639023957
 40
0.975882579
 40
0.9854727145
 40
0.9893618803
 40
0.9926453984
 40
0.9953265248
 40
0.9974165856
 40
0.9982487378
 40
0.9989476342
 40
1.0
 40
1.0
 40
1.0
 40
1.0
 10
5.4630907901
 20
4.609616965
 30
0.0
 10
5.4630907902
 20
4.6115853583
 30
0.0
 10
5.4632056104
 20
4.6145159508
 30
0.0
 10
5.4635823209
 20
4.6183595652
 30
0.0
 10
5.4639599401
 20
4.6211241254
 30
0.0
 10
5.4644213701
 20
4.623766757
 30
0.0
 10
5.4649505774
 20
4.6262638733
 30
0.0
 10
5.4655297023
 20
4.6285946357
 30
0.0
 10
5.4661396039
 20
4.6307406171
 30
0.0
 10
5.4667603117
 20
4.6326851091
 30
0.0
 10
5.4672850983
 20
4.6341688652
 30
0.0
 10
5.4676939782
 20
4.6352434973
 30
0.0
 10
5.467980663
 20
4.6359634677
 30
0.0
 10
5.4682548265
 20
4.6366218754
 30
0.0
 10
5.468514022
 20
4.6372169798
 30
0.0
 10
5.4687558759
 20
4.6377471001
 30
0.0
 10
5.4689781314
 20
4.6382106274
 30
0.0
 10
5.4691786323
 20
4.6386061043
 30
0.0
 10
5.469355461
 20
4.638932153
 30
0.0
 10
5.4694893526
 20
4.6391587421
 30
0.0
 10
5.4695844339
 20
4.6393035574
 30
0.0
 10
5.4696437567
 20
4.6393863589
 30
0.0
 10
5.4696960933
 20
4.6394511445
 30
0.0
 10
5.469736266
 20
4.6394930073
 30
0.0
 10
5.4697654022
 20
4.6395166854
 30
0.0
 10
5.4697877319
 20
4.6395310713
 30
0.0
 10
5.4698055181
 20
4.6395378423
 30
0.0
 10
5.469816392
 20
4.6395378425
 30
0.0
  0
SPLINE
  5
299
100
AcDbEntity
  8
0
100
AcDbSpline
 62
7
  6
CONTINUOUS
 70
0
 71
3
 72
26
 73
22
 74
0
 42
0.0000001
 43
0.0000001
 44
0.0000000001
 40
0.0
 40
0.0
 40
0.0
 40
0.0
 40
0.2198889472
 40
0.4143261058
 40
0.5016518236
 40
0.5822162523
 40
0.6559084352
 40
0.7226288229
 40
0.7822902577
 40
0.8348193038
 40
0.8801587428
 40
0.9182721227
 40
0.9346167066
 40
0.949156472
 40
0.9618997229
 40
0.9728620688
 40
0.9820714977
 40
0.9895790251
 40
0.9927248603
 40
0.9954897274
 40
1.0
 40
1.0
 40
1.0
 40
1.0
 10
5.6202774464
 20
4.6796086031
 30
0.0
 10
5.6219008894
 20
4.6795311746
 30
0.0
 10
5.6249593636
 20
4.679374425
 30
0.0
 10
5.62866057
 20
4.6791501846
 30
0.0
 10
5.6313321351
 20
4.6789628243
 30
0.0
 10
5.6331124624
 20
4.6788250386
 30
0.0
 10
5.6347398142
 20
4.6786851434
 30
0.0
 10
5.6362118633
 20
4.6785433737
 30
0.0
 10
5.6375265111
 20
4.6783999887
 30
0.0
 10
5.6386819252
 20
4.6782553139
 30
0.0
 10
5.6396764857
 20
4.6781096277
 30
0.0
 10
5.6404032173
 20
4.6779821908
 30
0.0
 10
5.640902427
 20
4.6778776632
 30
0.0
 10
5.6412162352
 20
4.6778032186
 30
0.0
 10
5.6414889969
 20
4.6777287227
 30
0.0
 10
5.6417207284
 20
4.6776542522
 30
0.0
 10
5.6419114619
 20
4.6775798395
 30
0.0
 10
5.642043389
 20
4.6775146853
 30
0.0
 10
5.6421271497
 20
4.6774612487
 30
0.0
 10
5.6421879868
 20
4.6774141411
 30
0.0
 10
5.6422254979
 20
4.6773739792
 30
0.0
 10
5.6422423953
 20
4.6773452416
 30
0.0
  0
SPLINE
  5
29A
100
AcDbEntity
  8
0
100
AcDbSpline
 62
7
  6
CONTINUOUS
 70
0
 71
3
 72
11
 73
7
 74
0
 42
0.0000001
 43
0.0000001
 44
0.0000000001
 40
0.0
 40
0.0
 40
0.0
 40
0.0
 40
0.2377848474
 40
0.4857332453
 40
0.7409557843
 40
1.0
 40
1.0
 40
1.0
 40
1.0
 10
5.0354184517
 20
4.5816960747
 30
0.0
 10
5.0347607802
 20
4.5838434828
 30
0.0
 10
5.0335681381
 20
4.588277922
 30
0.0
 10
5.0322369477
 20
4.595154677
 30
0.0
 10
5.03140121
 20
4.6023118555
 30
0.0
 10
5.0312116323
 20
4.6071711879
 30
0.0
 10
5.0312115786
 20
4.6096178425
 30
0.0
  0
LINE
  5
29B
100
AcDbEntity
  8
0
100
AcDbLine
 62
7
  6
CONTINUOUS
 10
5.6202774452
 20
4.5396232493
 11
5.6117952887
 21
4.5419874777
  0
LINE
  5
29C
100
AcDbEntity
  8
0
100
AcDbLine
 62
7
  6
CONTINUOUS
 10
5.6117952904
 20
4.6772440947
 11
5.6202774452
 21
4.679608603
  0
LINE
  5
29D
100
AcDbEntity
  8
0
100
AcDbLine
 62
7
  6
CONTINUOUS
 10
5.615221958
 20
4.5512015755
 11
5.62013377
 21
4.5511186443
  0
LINE
  5
29E
100
AcDbEntity
  8
0
100
AcDbLine
 62
7
  6
CONTINUOUS
 10
5.6170145981
 20
4.5467428013
 11
5.6117950721
 21
4.5466598701
  0
LINE
  5
29F
100
AcDbEntity
  8
0
100
AcDbLine
 62
7
  6
CONTINUOUS
 10
5.6117950721
 20
4.6725719666
 11
5.6170145981
 21
4.6724891755
  0
LINE
  5
2A0
100
AcDbEntity
  8
0
100
AcDbLine
 62
7
  6
CONTINUOUS
 10
5.62013377
 20
4.6681207297
 11
5.615221958
 21
4.6680379387
  0
SPLINE
  5
2A1
100
AcDbEntity
  8
0
100
AcDbSpline
 62
7
  6
CONTINUOUS
 70
0
 71
3
 72
53
 73
49
 74
0
 42
0.0000001
 43
0.0000001
 44
0.0000000001
 40
0.0
 40
0.0
 40
0.0
 40
0.0
 40
0.1176602821
 40
0.171481253
 40
0.2218616336
 40
0.2687319318
 40
0.3120280852
 40
0.3516916042
 40
0.3876699279
 40
0.4199168618
 40
0.4483932779
 40
0.4730682895
 40
0.4839737011
 40
0.493922184
 40
0.5029136569
 40
0.5109494758
 40
0.5180333033
 40
0.5241720141
 40
0.5293780798
 40
0.5336736804
 40
0.5371006814
 40
0.5385143565
 40
0.539749783
 40
0.5408345013
 40
0.541808959
 40
0.5427283214
 40
0.5436576503
 40
0.544660055
 40
0.5457864058
 40
0.547072933
 40
0.5485440249
 40
0.5520974041
 40
0.556527629
 40
0.5618725231
 40
0.5681524511
 40
0.5753787754
 40
0.5835578457
 40
0.6027840676
 40
0.6258366793
 40
0.652700848
 40
0.6833497641
 40
0.7177476142
 40
0.7558511009
 40
0.7976102993
 40
0.8429691979
 40
0.8918660732
 40
0.9442336293
 40
1.0
 40
1.0
 40
1.0
 40
1.0
 10
5.6170145981
 20
4.5467428013
 30
0.0
 10
5.6185656426
 20
4.5468169021
 30
0.0
 10
5.6208258217
 20
4.5469327986
 30
0.0
 10
5.6237488404
 20
4.5471037594
 30
0.0
 10
5.62573856
 20
4.5472307663
 30
0.0
 10
5.6275889088
 20
4.5473602022
 30
0.0
 10
5.6292972811
 20
4.5474918715
 30
0.0
 10
5.6308612758
 20
4.5476255602
 30
0.0
 10
5.6322786979
 20
4.5477610466
 30
0.0
 10
5.6335475763
 20
4.5478980739
 30
0.0
 10
5.6346661437
 20
4.5480364029
 30
0.0
 10
5.6355029927
 20
4.5481568864
 30
0.0
 10
5.6360957797
 20
4.5482552138
 30
0.0
 10
5.6364832522
 20
4.5483261022
 30
0.0
 10
5.6368321299
 20
4.5483971576
 30
0.0
 10
5.6371423103
 20
4.5484683417
 30
0.0
 10
5.6374137293
 20
4.5485395972
 30
0.0
 10
5.6376463445
 20
4.5486108634
 30
0.0
 10
5.6378402657
 20
4.5486820653
 30
0.0
 10
5.6379955517
 20
4.5487531624
 30
0.0
 10
5.6380992236
 20
4.5488158278
 30
0.0
 10
5.6381609173
 20
4.5488673099
 30
0.0
 10
5.6381945119
 20
4.5489035976
 30
0.0
 10
5.638218448
 20
4.5489402106
 30
0.0
 10
5.6382324878
 20
4.5489773369
 30
0.0
 10
5.6382361848
 20
4.5490148864
 30
0.0
 10
5.638229338
 20
4.5490523476
 30
0.0
 10
5.638212288
 20
4.5490893097
 30
0.0
 10
5.6381854397
 20
4.5491258022
 30
0.0
 10
5.6381489556
 20
4.5491620252
 30
0.0
 10
5.6380832174
 20
4.5492134028
 30
0.0
 10
5.6379746841
 20
4.5492759817
 30
0.0
 10
5.6378136321
 20
4.5493470979
 30
0.0
 10
5.6376139106
 20
4.5494183133
 30
0.0
 10
5.6373754739
 20
4.5494895805
 30
0.0
 10
5.6370982368
 20
4.5495608374
 30
0.0
 10
5.6366522955
 20
4.54966122
 30
0.0
 10
5.6359974884
 20
4.5497834325
 30
0.0
 10
5.6350956362
 20
4.5499230247
 30
0.0
 10
5.634041391
 20
4.5500617627
 30
0.0
 10
5.632836191
 20
4.5501993798
 30
0.0
 10
5.6314816665
 20
4.5503355523
 30
0.0
 10
5.6299797053
 20
4.5504700335
 30
0.0
 10
5.6283324078
 20
4.5506025874
 30
0.0
 10
5.6265420883
 20
4.550732998
 30
0.0
 10
5.6246112672
 20
4.5508610593
 30
0.0
 10
5.6225426591
 20
4.5509865757
 30
0.0
 10
5.6211177733
 20
4.5510659724
 30
0.0
 10
5.6203828549
 20
4.551105356
 30
0.0
  0
LINE
  5
2A2
100
AcDbEntity
  8
0
100
AcDbLine
 62
7
  6
CONTINUOUS
 10
5.6203828549
 20
4.551105356
 11
5.62013377
 21
4.5511186443
  0
SPLINE
  5
2A3
100
AcDbEntity
  8
0
100
AcDbSpline
 62
7
  6
CONTINUOUS
 70
0
 71
3
 72
18
 73
14
 74
0
 42
0.0000001
 43
0.0000001
 44
0.0000000001
 40
0.0
 40
0.0
 40
0.0
 40
0.0
 40
0.1295552684
 40
0.2628532923
 40
0.3969278806
 40
0.5286527963
 40
0.6553935245
 40
0.7164888288
 40
0.7759017623
 40
0.8337073894
 40
0.8901020236
 40
0.9453965788
 40
1.0
 40
1.0
 40
1.0
 40
1.0
 10
5.6202774452
 20
4.5396232493
 30
0.0
 10
5.6204483279
 20
4.5399784145
 30
0.0
 10
5.6207084938
 20
4.5407432739
 30
0.0
 10
5.6208411089
 20
4.5419521946
 30
0.0
 10
5.6207174739
 20
4.5431693273
 30
0.0
 10
5.6203453666
 20
4.5443137055
 30
0.0
 10
5.6198396747
 20
4.5451559172
 30
0.0
 10
5.6193368379
 20
4.5457177877
 30
0.0
 10
5.6189236893
 20
4.5460719774
 30
0.0
 10
5.618477157
 20
4.5463574271
 30
0.0
 10
5.6180047503
 20
4.5465690443
 30
0.0
 10
5.6175148073
 20
4.5467028616
 30
0.0
 10
5.6171806613
 20
4.5467386222
 30
0.0
 10
5.6170145981
 20
4.5467428013
 30
0.0
  0
LINE
  5
2A4
100
AcDbEntity
  8
0
100
AcDbLine
 62
7
  6
CONTINUOUS
 10
5.62013377
 20
4.6681207297
 11
5.6203824425
 21
4.6681339735
  0
SPLINE
  5
2A5
100
AcDbEntity
  8
0
100
AcDbSpline
 62
7
  6
CONTINUOUS
 70
0
 71
3
 72
53
 73
49
 74
0
 42
0.0000001
 43
0.0000001
 44
0.0000000001
 40
0.0
 40
0.0
 40
0.0
 40
0.0
 40
0.0557685774
 40
0.1081381857
 40
0.1570369491
 40
0.2023975628
 40
0.244158292
 40
0.282263113
 40
0.3166620854
 40
0.3473118922
 40
0.3741766936
 40
0.3972296422
 40
0.4164558464
 40
0.424634744
 40
0.4318607633
 40
0.4381402267
 40
0.4434844561
 40
0.4479137532
 40
0.4514658413
 40
0.4529361017
 40
0.4542216433
 40
0.4553468334
 40
0.4563478993
 40
0.4572757526
 40
0.4581935971
 40
0.4591666034
 40
0.4602500053
 40
0.4614842693
 40
0.4628969259
 40
0.4663222519
 40
0.4706165384
 40
0.4758215541
 40
0.4819594165
 40
0.489042557
 40
0.4970778227
 40
0.5060688569
 40
0.5160170016
 40
0.5269221651
 40
0.5515969216
 40
0.5800733654
 40
0.6123205795
 40
0.648299414
 40
0.6879636582
 40
0.7312607384
 40
0.7781321543
 40
0.8285138345
 40
0.8823362787
 40
1.0
 40
1.0
 40
1.0
 40
1.0
 10
5.6203824425
 20
4.6681339735
 30
0.0
 10
5.6211173727
 20
4.6681732905
 30
0.0
 10
5.6225422817
 20
4.6682525531
 30
0.0
 10
5.624610925
 20
4.6683778576
 30
0.0
 10
5.6265417801
 20
4.6685057027
 30
0.0
 10
5.6283321324
 20
4.6686358932
 30
0.0
 10
5.6299794614
 20
4.6687682234
 30
0.0
 10
5.6314814527
 20
4.6689024777
 30
0.0
 10
5.6328360057
 20
4.6690384204
 30
0.0
 10
5.6340412325
 20
4.6691758054
 30
0.0
 10
5.6350955026
 20
4.6693143092
 30
0.0
 10
5.6359973774
 20
4.6694536656
 30
0.0
 10
5.6366522051
 20
4.669575672
 30
0.0
 10
5.6370981642
 20
4.6696758858
 30
0.0
 10
5.6373754108
 20
4.6697470222
 30
0.0
 10
5.6376138561
 20
4.6698181687
 30
0.0
 10
5.6378135852
 20
4.669889263
 30
0.0
 10
5.6379746433
 20
4.6699602573
 30
0.0
 10
5.6380831862
 20
4.6700227297
 30
0.0
 10
5.6381489348
 20
4.6700740231
 30
0.0
 10
5.6381854229
 20
4.6701101839
 30
0.0
 10
5.6382122761
 20
4.670146614
 30
0.0
 10
5.6382293321
 20
4.6701835146
 30
0.0
 10
5.6382361845
 20
4.6702209163
 30
0.0
 10
5.6382324905
 20
4.670258407
 30
0.0
 10
5.6382184522
 20
4.6702954728
 30
0.0
 10
5.6381945183
 20
4.6703320238
 30
0.0
 10
5.6381609268
 20
4.6703682493
 30
0.0
 10
5.6380992327
 20
4.6704196477
 30
0.0
 10
5.6379955633
 20
4.6704822065
 30
0.0
 10
5.6378402861
 20
4.6705531815
 30
0.0
 10
5.6376463722
 20
4.670624262
 30
0.0
 10
5.6374137632
 20
4.6706954075
 30
0.0
 10
5.6371423495
 20
4.6707665425
 30
0.0
 10
5.6368321736
 20
4.6708376065
 30
0.0
 10
5.6364832999
 20
4.670908542
 30
0.0
 10
5.6360958307
 20
4.6709793109
 30
0.0
 10
5.6355030449
 20
4.671077473
 30
0.0
 10
5.6346661977
 20
4.6711977535
 30
0.0
 10
5.6335476331
 20
4.6713358494
 30
0.0
 10
5.6322787555
 20
4.6714726458
 30
0.0
 10
5.6308613321
 20
4.6716079039
 30
0.0
 10
5.6292973344
 20
4.6717413673
 30
0.0
 10
5.6275889572
 20
4.6718728148
 30
0.0
 10
5.6257386017
 20
4.6720020327
 30
0.0
 10
5.6237488738
 20
4.6721288256
 30
0.0
 10
5.6208258395
 20
4.6722994985
 30
0.0
 10
5.6185656499
 20
4.6724151997
 30
0.0
 10
5.6170145981
 20
4.6724891755
 30
0.0
  0
SPLINE
  5
2A6
100
AcDbEntity
  8
0
100
AcDbSpline
 62
7
  6
CONTINUOUS
 70
0
 71
3
 72
18
 73
14
 74
0
 42
0.0000001
 43
0.0000001
 44
0.0000000001
 40
0.0
 40
0.0
 40
0.0
 40
0.0
 40
0.1295579067
 40
0.2628581328
 40
0.3969340624
 40
0.5286592163
 40
0.6553990627
 40
0.7164935778
 40
0.7759055584
 40
0.8337101443
 40
0.890103737
 40
0.9453973438
 40
1.0
 40
1.0
 40
1.0
 40
1.0
 10
5.6202774452
 20
4.679608603
 30
0.0
 10
5.6204483202
 20
4.6792534304
 30
0.0
 10
5.6207084716
 20
4.6784885612
 30
0.0
 10
5.6208410715
 20
4.6772796348
 30
0.0
 10
5.6207174277
 20
4.6760625063
 30
0.0
 10
5.6203453181
 20
4.6749181417
 30
0.0
 10
5.6198396285
 20
4.6740759469
 30
0.0
 10
5.6193367962
 20
4.673514095
 30
0.0
 10
5.6189236531
 20
4.6731599215
 30
0.0
 10
5.6184771277
 20
4.6728744897
 30
0.0
 10
5.6180047292
 20
4.6726628916
 30
0.0
 10
5.6175147955
 20
4.6725290943
 30
0.0
 10
5.6171806572
 20
4.6724933477
 30
0.0
 10
5.6170145981
 20
4.6724891755
 30
0.0
  0
SPLINE
  5
2A7
100
AcDbEntity
  8
0
100
AcDbSpline
 62
7
  6
CONTINUOUS
 70
0
 71
3
 72
37
 73
33
 74
0
 42
0.0000001
 43
0.0000001
 44
0.0000000001
 40
0.0
 40
0.0
 40
0.0
 40
0.0
 40
0.0970391412
 40
0.1931357143
 40
0.2873713236
 40
0.3788701173
 40
0.4668086155
 40
0.5504151152
 40
0.6289608283
 40
0.7017460837
 40
0.7680862856
 40
0.8273024498
 40
0.8540281402
 40
0.8787211865
 40
0.901300503
 40
0.9216879653
 40
0.9398098286
 40
0.9555984599
 40
0.9625989594
 40
0.9689946983
 40
0.9747801608
 40
0.9799507018
 40
0.9845030521
 40
0.9884356001
 40
0.9917492554
 40
0.9944491528
 40
0.9965485014
 40
0.9980801115
 40
0.9986594657
 40
0.999142538
 40
0.9995703404
 40
1.0
 40
1.0
 40
1.0
 40
1.0
 10
5.465165245
 20
4.6096187199
 30
0.0
 10
5.465165245
 20
4.6086348123
 30
0.0
 10
5.4651978143
 20
4.6066763974
 30
0.0
 10
5.4653425405
 20
4.6037657556
 30
0.0
 10
5.4655769708
 20
4.6009173261
 30
0.0
 10
5.4658913687
 20
4.5981599071
 30
0.0
 10
5.4662728754
 20
4.5955198754
 30
0.0
 10
5.4667061025
 20
4.593021101
 30
0.0
 10
5.4671737083
 20
4.5906851036
 30
0.0
 10
5.4676569413
 20
4.5885314495
 30
0.0
 10
5.4681360993
 20
4.5865782131
 30
0.0
 10
5.4685276538
 20
4.5850846065
 30
0.0
 10
5.4688209973
 20
4.58400188
 30
0.0
 10
5.469019784
 20
4.5832784045
 30
0.0
 10
5.469202626
 20
4.5826171972
 30
0.0
 10
5.4693672555
 20
4.5820200805
 30
0.0
 10
5.4695115398
 20
4.5814887794
 30
0.0
 10
5.4696170906
 20
4.5810876145
 30
0.0
 10
5.4696892432
 20
4.5808006287
 30
0.0
 10
5.469734903
 20
4.5806115719
 30
0.0
 10
5.469774155
 20
4.5804400669
 30
0.0
 10
5.4698068389
 20
4.5802862485
 30
0.0
 10
5.4698328257
 20
4.5801502416
 30
0.0
 10
5.4698520185
 20
4.5800321359
 30
0.0
 10
5.4698643409
 20
4.5799320266
 30
0.0
 10
5.4698698262
 20
4.5798498448
 30
0.0
 10
5.4698684414
 20
4.5797856519
 30
0.0
 10
5.4698613172
 20
4.5797430871
 30
0.0
 10
5.4698506136
 20
4.5797188884
 30
0.0
 10
5.4698412453
 20
4.5797067572
 30
0.0
 10
5.4698295065
 20
4.5796992794
 30
0.0
 10
5.469820683
 20
4.5796978424
 30
0.0
 10
5.4698163266
 20
4.5796978425
 30
0.0
  0
SPLINE
  5
2A8
100
AcDbEntity
  8
0
100
AcDbSpline
 62
7
  6
CONTINUOUS
 70
0
 71
3
 72
37
 73
33
 74
0
 42
0.0000001
 43
0.0000001
 44
0.0000000001
 40
0.0
 40
0.0
 40
0.0
 40
0.0
 40
0.0004293923
 40
0.0008569628
 40
0.0013398604
 40
0.0019190932
 40
0.0034505708
 40
0.005549866
 40
0.0082497496
 40
0.0115634103
 40
0.0154959726
 40
0.0200483385
 40
0.0252188927
 40
0.0310043625
 40
0.0374001013
 40
0.0444005915
 40
0.0601891737
 40
0.0783109443
 40
0.0986982707
 40
0.1212774109
 40
0.145970246
 40
0.1726956963
 40
0.2319113234
 40
0.2982509694
 40
0.371035718
 40
0.4495810431
 40
0.5331873394
 40
0.6211258854
 40
0.7126250426
 40
0.8068613968
 40
0.9029591606
 40
1.0
 40
1.0
 40
1.0
 40
1.0
 10
5.469816392
 20
4.6395378425
 30
0.0
 10
5.4698207454
 20
4.6395378425
 30
0.0
 10
5.4698295634
 20
4.6395364055
 30
0.0
 10
5.4698412932
 20
4.6395289274
 30
0.0
 10
5.4698506522
 20
4.639516797
 30
0.0
 10
5.4698613431
 20
4.6394925992
 30
0.0
 10
5.4698684522
 20
4.639450038
 30
0.0
 10
5.4698698214
 20
4.6393858506
 30
0.0
 10
5.4698643209
 20
4.6393036753
 30
0.0
 10
5.469851984
 20
4.6392035736
 30
0.0
 10
5.4698327773
 20
4.6390854767
 30
0.0
 10
5.4698067774
 20
4.63894948
 30
0.0
 10
5.469774081
 20
4.6387956731
 30
0.0
 10
5.4697348174
 20
4.6386241809
 30
0.0
 10
5.4696891467
 20
4.6384351383
 30
0.0
 10
5.4696169804
 20
4.6381481741
 30
0.0
 10
5.4695114148
 20
4.6377470393
 30
0.0
 10
5.4693671166
 20
4.6372157777
 30
0.0
 10
5.4692024765
 20
4.636618705
 30
0.0
 10
5.4690196271
 20
4.6359575461
 30
0.0
 10
5.4688208361
 20
4.6352341231
 30
0.0
 10
5.4685274907
 20
4.6341514742
 30
0.0
 10
5.4681359408
 20
4.6326579718
 30
0.0
 10
5.4676567965
 20
4.6307048676
 30
0.0
 10
5.4671735834
 20
4.6285513539
 30
0.0
 10
5.4667060013
 20
4.6262155026
 30
0.0
 10
5.4662727993
 20
4.6237168771
 30
0.0
 10
5.4658913169
 20
4.6210769944
 30
0.0
 10
5.4655769404
 20
4.6183197215
 30
0.0
 10
5.465342527
 20
4.6154714318
 30
0.0
 10
5.4651978116
 20
4.61256092
 30
0.0
 10
5.465165245
 20
4.6106025882
 30
0.0
 10
5.465165245
 20
4.6096187199
 30
0.0
  0
SPLINE
  5
2A9
100
AcDbEntity
  8
0
100
AcDbSpline
 62
7
  6
CONTINUOUS
 70
0
 71
3
 72
14
 73
10
 74
0
 42
0.0000001
 43
0.0000001
 44
0.0000000001
 40
0.0
 40
0.0
 40
0.0
 40
0.0
 40
0.2430206708
 40
0.3667534528
 40
0.4917505857
 40
0.6178184772
 40
0.744727019
 40
0.8722153187
 40
1.0
 40
1.0
 40
1.0
 40
1.0
 10
5.2925444324
 20
4.6499938168
 30
0.0
 10
5.2938055543
 20
4.646886224
 30
0.0
 10
5.2954966634
 20
4.6421059055
 30
0.0
 10
5.2973095243
 20
4.6355644421
 30
0.0
 10
5.2984509536
 20
4.6305174437
 30
0.0
 10
5.2993542513
 20
4.625378086
 30
0.0
 10
5.3000077867
 20
4.6201662008
 30
0.0
 10
5.3004025123
 20
4.6149047322
 30
0.0
 10
5.30049142
 20
4.611381299
 30
0.0
 10
5.3004915786
 20
4.6096178425
 30
0.0
  0
SPLINE
  5
2AA
100
AcDbEntity
  8
0
100
AcDbSpline
 62
7
  6
CONTINUOUS
 70
0
 71
3
 72
14
 73
10
 74
0
 42
0.0000001
 43
0.0000001
 44
0.0000000001
 40
0.0
 40
0.0
 40
0.0
 40
0.0
 40
0.1277846503
 40
0.2552729476
 40
0.382181466
 40
0.5082493476
 40
0.6332464846
 40
0.7569792598
 40
1.0
 40
1.0
 40
1.0
 40
1.0
 10
5.3004915786
 20
4.6096178425
 30
0.0
 10
5.3004914477
 20
4.6078543906
 30
0.0
 10
5.3004025397
 20
4.6043309636
 30
0.0
 10
5.3000077137
 20
4.5990695188
 30
0.0
 10
5.2993543142
 20
4.5938576297
 30
0.0
 10
5.2984509342
 20
4.5887182979
 30
0.0
 10
5.2973095482
 20
4.5836713048
 30
0.0
 10
5.295496716
 20
4.5771298471
 30
0.0
 10
5.2938055665
 20
4.5723495565
 30
0.0
 10
5.2925444699
 20
4.569241961
 30
0.0
  0
SPLINE
  5
2AB
100
AcDbEntity
  8
0
100
AcDbSpline
 62
7
  6
CONTINUOUS
 70
0
 71
3
 72
26
 73
22
 74
0
 42
0.0000001
 43
0.0000001
 44
0.0000000001
 40
0.0
 40
0.0
 40
0.0
 40
0.0
 40
0.0045155011
 40
0.0072826472
 40
0.0104305568
 40
0.0179416981
 40
0.0271541703
 40
0.0381191017
 40
0.0508645513
 40
0.0654061803
 40
0.0817523307
 40
0.1198680497
 40
0.1652088706
 40
0.2177384397
 40
0.2773995799
 40
0.3441189067
 40
0.4178092784
 40
0.4983711815
 40
0.5856936582
 40
0.7801222828
 40
1.0
 40
1.0
 40
1.0
 40
1.0
 10
5.6422423549
 20
4.5418903745
 30
0.0
 10
5.6422254481
 20
4.5418615965
 30
0.0
 10
5.642187925
 20
4.5418213691
 30
0.0
 10
5.6421270603
 20
4.5417741772
 30
0.0
 10
5.6420432818
 20
4.5417206541
 30
0.0
 10
5.6419113313
 20
4.541655391
 30
0.0
 10
5.6417205673
 20
4.5415808527
 30
0.0
 10
5.6414888081
 20
4.5415062571
 30
0.0
 10
5.6412160215
 20
4.5414316366
 30
0.0
 10
5.6409021911
 20
4.5413570677
 30
0.0
 10
5.64040296
 20
4.5412523671
 30
0.0
 10
5.6396762054
 20
4.5411247182
 30
0.0
 10
5.6386816214
 20
4.540978789
 30
0.0
 10
5.6375261939
 20
4.5408338733
 30
0.0
 10
5.6362115426
 20
4.5406902496
 30
0.0
 10
5.6347394998
 20
4.5405482442
 30
0.0
 10
5.6331121641
 20
4.5404081163
 30
0.0
 10
5.6313318627
 20
4.5402701016
 30
0.0
 10
5.6286603536
 20
4.5400824303
 30
0.0
 10
5.6249592404
 20
4.5398578175
 30
0.0
 10
5.6219008437
 20
4.5397008066
 30
0.0
 10
5.6202774465
 20
4.5396232492
 30
0.0
  0
SPLINE
  5
2AC
100
AcDbEntity
  8
0
100
AcDbSpline
 62
7
  6
CONTINUOUS
 70
0
 71
3
 72
11
 73
7
 74
0
 42
0.0000001
 43
0.0000001
 44
0.0000000001
 40
0.0
 40
0.0
 40
0.0
 40
0.0
 40
0.259044227
 40
0.514266776
 40
0.7622151711
 40
1.0
 40
1.0
 40
1.0
 40
1.0
 10
5.0312115786
 20
4.6096178425
 30
0.0
 10
5.0312116268
 20
4.6120644981
 30
0.0
 10
5.0314012078
 20
4.6169238326
 30
0.0
 10
5.0322369339
 20
4.6240810154
 30
0.0
 10
5.0335681423
 20
4.6309577707
 30
0.0
 10
5.0347607957
 20
4.6353922074
 30
0.0
 10
5.0354184543
 20
4.6375396201
 30
0.0
  0
ENDSEC
  0
SECTION
  2
OBJECTS
  0
DICTIONARY
  5
C
100
AcDbDictionary
280
0
281
1
  3
ACAD_GROUP
350
D
  3
ACAD_MLINESTYLE
350
17
  3
ACAD_LAYOUT
350
1A
  3
ACAD_PLOTSETTINGS
350
19
  3
ACAD_PLOTSTYLENAME
350
E
  0
DICTIONARY
  5
D
102
{ACAD_REACTORS
330
C
102
}
100
AcDbDictionary
280
0
281
1
  0
ACDBDICTIONARYWDFLT
  5
E
102
{ACAD_REACTORS
330
C
102
}
100
AcDbDictionary
281
1
  3
Normal
350
F
100
AcDbDictionaryWithDefault
340
F
  0
DICTIONARY
  5
17
102
{ACAD_REACTORS
330
C
102
}
100
AcDbDictionary
280
0
281
1
  3
Standard
350
18
  0
DICTIONARY
  5
19
102
{ACAD_REACTORS
330
C
102
}
100
AcDbDictionary
281
1
  0
DICTIONARY
  5
1A
102
{ACAD_REACTORS
330
C
102
}
100
AcDbDictionary
281
1
  3
Model
350
2AD
  3
Layout1
350
2AE
  0
ACDBPLACEHOLDER
  5
F
102
{ACAD_REACTORS
330
E
102
}
  0
MLINESTYLE
  5
18
102
{ACAD_REACTORS
330
17
102
}
100
AcDbMlineStyle
  2
STANDARD
 70
0
  3

 62
256
 51
90.0
 52
90.0
 71
2
 49
0.5
 62
256
  6
BYLAYER
 49
-0.5
 62
256
  6
BYLAYER
  0
LAYOUT
  5
2AD
102
{ACAD_REACTORS
330
1A
102
}
100
AcDbPlotSettings
  1

  2
none_device
  4
ANSI_A_(11.00_x_8.50_Inches)
  6

 40
0.0
 41
0.0
 42
0.0
 43
0.0
 44
279.4
 45
215.9
 46
0.0
 47
0.0
 48
0.0
 49
0.0
140
0.0
141
0.0
142
1.0
143
1.0
 70
1024
 72
0
 73
0
 74
0
  7

 75
0
147
1.0
148
0.0
149
0.0
100
AcDbLayout
  1
Model
 70
0
 71
0
 10
0.0
 20
0.0
 11
11.0
 21
8.5
 12
0.0
 22
0.0
 32
0.0
 14
0.0
 24
0.0
 34
0.0
 15
0.0
 25
0.0
 35
0.0
146
0.0
 13
0.0
 23
0.0
 33
0.0
 16
1.0
 26
0.0
 36
0.0
 17
0.0
 27
1.0
 37
0.0
 76
0
330
203
345
0
346
0
  0
LAYOUT
  5
2AE
102
{ACAD_REACTORS
330
1A
102
}
100
AcDbPlotSettings
  1

  2
none_device
  4
ANSI_A_(11.00_x_8.50_Inches)
  6

 40
0.0
 41
0.0
 42
0.0
 43
0.0
 44
279.4
 45
215.9
 46
0.0
 47
0.0
 48
0.0
 49
0.0
140
0.0
141
0.0
142
1.0
143
1.0
 70
0
 72
0
 73
0
 74
0
  7

 75
0
147
1.0
148
0.0
149
0.0
100
AcDbLayout
  1
Layout1
 70
0
 71
1
 10
0.0
 20
0.0
 11
11.0
 21
8.5
 12
0.0
 22
0.0
 32
0.0
 14
0.0
 24
0.0
 34
0.0
 15
0.0
 25
0.0
 35
0.0
146
0.0
 13
0.0
 23
0.0
 33
0.0
 16
1.0
 26
0.0
 36
0.0
 17
0.0
 27
1.0
 37
0.0
 76
0
330
204
345
0
346
0
  0
ENDSEC
  0
EOF
