999
DXF file: 3-2413tr_RIGHT.dxf
999
Pro/ENGINEER 2013150 by Parametric Technology Corporation
  0
SECTION
  2
HEADER
  9
$ACADVER
  1
AC1021
  9
$DWGCODEPAGE
  3
ANSI_1252
  9
$EXTMAX
 10
11.0
 20
8.5
 30
0.0
  9
$EXTMIN
 10
0.0
 20
0.0
 30
0.0
  9
$LIMMIN
 10
0.0
 20
0.0
  9
$LIMMAX
 10
11.0
 20
8.5
  9
$VIEWCTR
 10
5.5
 20
4.25
  9
$VIEWSIZE
 40
8.5
  9
$CLAYER
  8
0
  9
$LTSCALE
 40
0.605
  9
$CELTYPE
  6
BYLAYER
  9
$DIMSCALE
 40
1.0
  9
$DIMASZ
 40
0.1
  9
$DIMEXO
 40
0.0625
  9
$DIMDLI
 40
0.418
  9
$DIMEXE
 40
0.125
  9
$DIMCEN
 40
0.099
  9
$DIMLFAC
 40
1.0
  9
$DIMBLK
  1
_FILLED
  9
$DIMTXT
 40
0.08
  9
$DIMTOL
 70
1
  9
$DIMLIM
 70
0
  9
$DIMTFAC
 40
1.0
  9
$DIMTP
 40
0.001
  9
$DIMTM
 40
0.001
  9
$DIMGAP
 40
0.09
  9
$DIMDSEP
 70
46
  9
$PDMODE
 70
3
  9
$PDSIZE
 40
0.06
  9
$HANDSEED
  5
2F5
  9
$TILEMODE
 70
1
  9
$MEASUREMENT
 70
0
  9
$INSUNITS
 70
1
  0
ENDSEC
  0
SECTION
  2
CLASSES
  0
CLASS
  1
ACDBDICTIONARYWDFLT
  2
AcDbDictionaryWithDefault
  3
AutoCAD 2000
 90
0
 91
1
280
0
281
0
  0
CLASS
  1
ACDBPLACEHOLDER
  2
AcDbPlaceHolder
  3
AutoCAD 2000
 90
0
 91
1
280
0
281
0
  0
CLASS
  1
LAYOUT
  2
AcDbLayout
  3
AutoCAD 2000
 90
0
 91
0
280
0
281
0
  0
ENDSEC
  0
SECTION
  2
TABLES
  0
TABLE
  2
VPORT
  5
8
100
AcDbSymbolTable
 70
2
  0
VPORT
  5
1F4
100
AcDbSymbolTableRecord
100
AcDbViewportTableRecord
  2
*ACTIVE
 70
0
 10
0.0
 20
0.0
 11
1.0
 21
1.0
 12
5.5
 22
4.25
 13
0.0
 23
0.0
 14
1.0
 24
1.0
 15
0.0
 25
0.0
 16
0.0
 26
0.0
 36
1.0
 17
0.0
 27
0.0
 37
0.0
 40
8.5
 41
1.2941176471
 42
50.0
 43
0.0
 44
0.0
 50
0.0
 51
0.0
 71
0
 72
100
 73
1
 74
1
 75
0
 76
0
 77
0
 78
0
  0
ENDTAB
  0
TABLE
  2
LTYPE
  5
5
100
AcDbSymbolTable
 70
6
  0
LTYPE
  5
14
100
AcDbSymbolTableRecord
100
AcDbLinetypeTableRecord
  2
BYBLOCK
 70
0
  3

 72
65
 73
0
 40
0.0
  0
LTYPE
  5
15
100
AcDbSymbolTableRecord
100
AcDbLinetypeTableRecord
  2
BYLAYER
 70
0
  3

 72
65
 73
0
 40
0.0
  0
LTYPE
  5
16
100
AcDbSymbolTableRecord
100
AcDbLinetypeTableRecord
  2
CONTINUOUS
 70
64
  3
Solid line
 72
65
 73
0
 40
0.0
  0
LTYPE
  5
1F5
100
AcDbSymbolTableRecord
100
AcDbLinetypeTableRecord
  2
CENTER
 70
64
  3
____ _ ____ _ ____ _ ____ _ ____ _ ____ _ ____
 72
65
 73
4
 40
0.6
 49
0.375
 74
0
 49
-0.075
 74
0
 49
0.075
 74
0
 49
-0.075
 74
0
  0
LTYPE
  5
1F6
100
AcDbSymbolTableRecord
100
AcDbLinetypeTableRecord
  2
HIDDEN
 70
64
  3
- - - - - - - - - - - - - - - - - - - -
 72
65
 73
2
 40
0.2
 49
0.1
 74
0
 49
-0.1
 74
0
  0
LTYPE
  5
1F7
100
AcDbSymbolTableRecord
100
AcDbLinetypeTableRecord
  2
PHANTOM
 70
64
  3
_____ _ _ _____ _ _ _____ _ _ _____
 72
65
 73
6
 40
0.8
 49
0.45
 74
0
 49
-0.05
 74
0
 49
0.1
 74
0
 49
-0.05
 74
0
 49
0.1
 74
0
 49
-0.05
 74
0
  0
LTYPE
  5
1F8
100
AcDbSymbolTableRecord
100
AcDbLinetypeTableRecord
  2
DOT
 70
64
  3
. . . . . . . . . . . . . . . . . . . .
 72
65
 73
2
 40
0.2
 49
0.1
 74
0
 49
-0.1
 74
0
  0
LTYPE
  5
1F9
100
AcDbSymbolTableRecord
100
AcDbLinetypeTableRecord
  2
DASHED
 70
64
  3
- - - - - - - - - - - - - - - - - - - -
 72
65
 73
2
 40
0.2
 49
0.1
 74
0
 49
-0.1
 74
0
  0
ENDTAB
  0
TABLE
  2
LAYER
  5
2
100
AcDbSymbolTable
 70
36
  0
LAYER
  5
10
100
AcDbSymbolTableRecord
100
AcDbLayerTableRecord
  2
0
 70
0
 62
7
  6
CONTINUOUS
370
-3
390
F
  0
LAYER
  5
1FA
100
AcDbSymbolTableRecord
100
AcDbLayerTableRecord
  2
DEFAULT_1
 70
0
 62
7
  6
CENTER
370
-3
390
F
  0
LAYER
  5
1FB
100
AcDbSymbolTableRecord
100
AcDbLayerTableRecord
  2
DEFAULT_2
 70
0
 62
8
  6
HIDDEN
370
-3
390
F
  0
LAYER
  5
1FC
100
AcDbSymbolTableRecord
100
AcDbLayerTableRecord
  2
DEFAULT_3
 70
0
 62
7
  6
PHANTOM
370
-3
390
F
  0
LAYER
  5
1FD
100
AcDbSymbolTableRecord
100
AcDbLayerTableRecord
  2
ALL_FEATURES
 70
0
 62
7
  6
CONTINUOUS
370
-3
390
F
  0
LAYER
  5
1FE
100
AcDbSymbolTableRecord
100
AcDbLayerTableRecord
  2
AXES_FEATURES
 70
0
 62
7
  6
CONTINUOUS
370
-3
390
F
  0
LAYER
  5
1FF
100
AcDbSymbolTableRecord
100
AcDbLayerTableRecord
  2
CHAMFER_FEATURES
 70
0
 62
7
  6
CONTINUOUS
370
-3
390
F
  0
LAYER
  5
200
100
AcDbSymbolTableRecord
100
AcDbLayerTableRecord
  2
COORDINATE_SYSTEMS
 70
0
 62
7
  6
CONTINUOUS
370
-3
390
F
  0
LAYER
  5
201
100
AcDbSymbolTableRecord
100
AcDbLayerTableRecord
  2
CUT_FEATURES
 70
0
 62
7
  6
CONTINUOUS
370
-3
390
F
  0
LAYER
  5
202
100
AcDbSymbolTableRecord
100
AcDbLayerTableRecord
  2
DATUM_CURVES
 70
0
 62
7
  6
CONTINUOUS
370
-3
390
F
  0
LAYER
  5
203
100
AcDbSymbolTableRecord
100
AcDbLayerTableRecord
  2
DATUM_PLANES
 70
0
 62
7
  6
CONTINUOUS
370
-3
390
F
  0
LAYER
  5
204
100
AcDbSymbolTableRecord
100
AcDbLayerTableRecord
  2
DATUM_POINTS
 70
0
 62
7
  6
CONTINUOUS
370
-3
390
F
  0
LAYER
  5
205
100
AcDbSymbolTableRecord
100
AcDbLayerTableRecord
  2
DEFAULT_COORDINATE_SYSTEM
 70
0
 62
7
  6
CONTINUOUS
370
-3
390
F
  0
LAYER
  5
206
100
AcDbSymbolTableRecord
100
AcDbLayerTableRecord
  2
DEFAULT_DATUM_AXES
 70
0
 62
7
  6
CONTINUOUS
370
-3
390
F
  0
LAYER
  5
207
100
AcDbSymbolTableRecord
100
AcDbLayerTableRecord
  2
DEFAULT_DATUM_CURVES
 70
0
 62
7
  6
CONTINUOUS
370
-3
390
F
  0
LAYER
  5
208
100
AcDbSymbolTableRecord
100
AcDbLayerTableRecord
  2
DEFAULT_DATUM_PLANES
 70
0
 62
7
  6
CONTINUOUS
370
-3
390
F
  0
LAYER
  5
209
100
AcDbSymbolTableRecord
100
AcDbLayerTableRecord
  2
DEFAULT_SURFACES
 70
0
 62
7
  6
CONTINUOUS
370
-3
390
F
  0
LAYER
  5
20A
100
AcDbSymbolTableRecord
100
AcDbLayerTableRecord
  2
DIMENSIONS
 70
0
 62
7
  6
CONTINUOUS
370
-3
390
F
  0
LAYER
  5
20B
100
AcDbSymbolTableRecord
100
AcDbLayerTableRecord
  2
HOLE_FEATURES
 70
0
 62
7
  6
CONTINUOUS
370
-3
390
F
  0
LAYER
  5
20C
100
AcDbSymbolTableRecord
100
AcDbLayerTableRecord
  2
IMPORT_FEATURE
 70
0
 62
7
  6
CONTINUOUS
370
-3
390
F
  0
LAYER
  5
20D
100
AcDbSymbolTableRecord
100
AcDbLayerTableRecord
  2
INTFCLR_1
 70
0
 62
7
  6
CONTINUOUS
370
-3
390
F
  0
LAYER
  5
20E
100
AcDbSymbolTableRecord
100
AcDbLayerTableRecord
  2
NOTES
 70
0
 62
7
  6
CONTINUOUS
370
-3
390
F
  0
LAYER
  5
20F
100
AcDbSymbolTableRecord
100
AcDbLayerTableRecord
  2
PART_REFERENCE_DIMENSIONS
 70
0
 62
7
  6
CONTINUOUS
370
-3
390
F
  0
LAYER
  5
210
100
AcDbSymbolTableRecord
100
AcDbLayerTableRecord
  2
PLATED_SURFACE_AREA
 70
0
 62
7
  6
CONTINUOUS
370
-3
390
F
  0
LAYER
  5
211
100
AcDbSymbolTableRecord
100
AcDbLayerTableRecord
  2
POINTS
 70
0
 62
7
  6
CONTINUOUS
370
-3
390
F
  0
LAYER
  5
212
100
AcDbSymbolTableRecord
100
AcDbLayerTableRecord
  2
PROTRUSION
 70
0
 62
7
  6
CONTINUOUS
370
-3
390
F
  0
LAYER
  5
213
100
AcDbSymbolTableRecord
100
AcDbLayerTableRecord
  2
PROTRUSION_FEATURES
 70
0
 62
7
  6
CONTINUOUS
370
-3
390
F
  0
LAYER
  5
214
100
AcDbSymbolTableRecord
100
AcDbLayerTableRecord
  2
QUILTS
 70
0
 62
7
  6
CONTINUOUS
370
-3
390
F
  0
LAYER
  5
215
100
AcDbSymbolTableRecord
100
AcDbLayerTableRecord
  2
REFERENCE_DIMENSIONS
 70
0
 62
7
  6
CONTINUOUS
370
-3
390
F
  0
LAYER
  5
216
100
AcDbSymbolTableRecord
100
AcDbLayerTableRecord
  2
ROUND_FEATURES
 70
0
 62
7
  6
CONTINUOUS
370
-3
390
F
  0
LAYER
  5
217
100
AcDbSymbolTableRecord
100
AcDbLayerTableRecord
  2
SHELL_FEATURES
 70
0
 62
7
  6
CONTINUOUS
370
-3
390
F
  0
LAYER
  5
218
100
AcDbSymbolTableRecord
100
AcDbLayerTableRecord
  2
SIZE_REF
 70
0
 62
7
  6
CONTINUOUS
370
-3
390
F
  0
LAYER
  5
219
100
AcDbSymbolTableRecord
100
AcDbLayerTableRecord
  2
SURFACE_FEATURES
 70
0
 62
7
  6
CONTINUOUS
370
-3
390
F
  0
ENDTAB
  0
TABLE
  2
STYLE
  5
3
100
AcDbSymbolTable
 70
1
  0
STYLE
  5
11
100
AcDbSymbolTableRecord
100
AcDbTextStyleTableRecord
  2
STANDARD
 70
0
 40
0.0
 41
0.8
 50
0.0
 71
0
 42
0.2
  3
txt
  4

  0
STYLE
  5
21A
100
AcDbSymbolTableRecord
100
AcDbTextStyleTableRecord
  2
TEXTSTYLE_1
 70
0
 40
0.0
 41
0.8
 50
0.0
 71
0
 42
0.2
  3
gdt
  4

  0
ENDTAB
  0
TABLE
  2
VIEW
  5
6
100
AcDbSymbolTable
 70
0
  0
ENDTAB
  0
TABLE
  2
UCS
  5
7
100
AcDbSymbolTable
 70
0
  0
ENDTAB
  0
TABLE
  2
APPID
  5
9
100
AcDbSymbolTable
 70
1
  0
APPID
  5
21B
100
AcDbSymbolTableRecord
100
AcDbRegAppTableRecord
  2
ACAD
 70
0
  0
ENDTAB
  0
TABLE
  2
BLOCK_RECORD
  5
1
100
AcDbSymbolTable
 70
0
  0
BLOCK_RECORD
  5
21C
100
AcDbSymbolTableRecord
100
AcDbBlockTableRecord
  2
*Model_Space
  0
BLOCK_RECORD
  5
21D
100
AcDbSymbolTableRecord
100
AcDbBlockTableRecord
  2
*Paper_Space
  0
ENDTAB
  0
TABLE
  2
DIMSTYLE
  5
A
100
AcDbSymbolTable
 70
1
100
AcDbDimStyleTable
 71
0
  0
DIMSTYLE
105
21E
100
AcDbSymbolTableRecord
100
AcDbDimStyleTableRecord
  2
STANDARD
 70
0
  3

  4

 40
1.0
 41
0.1
 42
0.0625
 43
0.38
 44
0.125
 45
0.0
 46
0.0
 47
0.001
 48
0.001
140
0.08
141
0.09
142
0.0
143
25.4
144
1.0
145
0.0
146
1.0
147
0.09
 71
1.0
 72
0.0
 73
1
 74
1
 75
0
 76
0
 77
0
 78
4
170
0
171
2
172
0
173
0
174
0
175
0
176
0
177
0
178
0
270
2
271
3
272
3
273
2
274
2
275
0
280
0
281
0
282
0
283
1
284
4
285
0
286
0
287
3
288
0
340
11
278
46
  0
ENDTAB
  0
ENDSEC
  0
SECTION
  2
BLOCKS
  0
BLOCK
  5
20
100
AcDbEntity
  8
0
100
AcDbBlockBegin
  2
*Model_Space
 70
0
 10
0.0
 20
0.0
 30
0.0
  3
*Model_Space
  1

  0
ENDBLK
  5
21
100
AcDbEntity
  8
0
100
AcDbBlockEnd
  0
BLOCK
  5
1C
100
AcDbEntity
  8
0
100
AcDbBlockBegin
  2
*Paper_Space
 70
0
 10
0.0
 20
0.0
 30
0.0
  3
*Paper_Space
  1

  0
ENDBLK
  5
1D
100
AcDbEntity
  8
0
100
AcDbBlockEnd
  0
ENDSEC
  0
SECTION
  2
ENTITIES
  0
LINE
  5
21F
100
AcDbEntity
  8
0
100
AcDbLine
 62
7
  6
CONTINUOUS
 10
0.0
 20
0.0
 11
0.0
 21
8.5
  0
LINE
  5
220
100
AcDbEntity
  8
0
100
AcDbLine
 62
7
  6
CONTINUOUS
 10
0.0
 20
0.0
 11
11.0
 21
0.0
  0
LINE
  5
221
100
AcDbEntity
  8
0
100
AcDbLine
 62
7
  6
CONTINUOUS
 10
0.0
 20
8.5
 11
11.0
 21
8.5
  0
LINE
  5
222
100
AcDbEntity
  8
0
100
AcDbLine
 62
7
  6
CONTINUOUS
 10
11.0
 20
0.0
 11
11.0
 21
8.5
  0
LINE
  5
223
100
AcDbEntity
  8
ALL_FEATURES
100
AcDbLine
 62
7
  6
CONTINUOUS
 10
6.1319302854
 20
1.7422225806
 11
6.1881802854
 21
1.7422225806
  0
LINE
  5
224
100
AcDbEntity
  8
0
100
AcDbLine
 62
7
  6
CONTINUOUS
 10
6.1881802854
 20
1.746045922
 11
6.2631802854
 21
1.746045922
  0
LINE
  5
225
100
AcDbEntity
  8
0
100
AcDbLine
 62
9
  6
CONTINUOUS
 10
3.5220550546
 20
2.3262930722
 11
3.852426115
 21
2.3262930722
  0
LINE
  5
226
100
AcDbEntity
  8
0
100
AcDbLine
 62
7
  6
CONTINUOUS
 10
5.9492876312
 20
2.2067326235
 11
5.9875729396
 21
2.2057300875
  0
LINE
  5
227
100
AcDbEntity
  8
0
100
AcDbLine
 62
9
  6
CONTINUOUS
 10
3.9218343313
 20
2.3438659173
 11
3.4526468384
 21
2.3438659173
  0
LINE
  5
228
100
AcDbEntity
  8
0
100
AcDbLine
 62
9
  6
CONTINUOUS
 10
3.9572405848
 20
2.3813074213
 11
3.4172405848
 21
2.3813074213
  0
LINE
  5
229
100
AcDbEntity
  8
0
100
AcDbLine
 62
9
  6
CONTINUOUS
 10
3.9572405848
 20
2.3925341536
 11
3.4172405848
 21
2.3925341536
  0
LINE
  5
22A
100
AcDbEntity
  8
0
100
AcDbLine
 62
9
  6
CONTINUOUS
 10
3.9348057749
 20
2.4268749464
 11
3.4396753948
 21
2.4268749464
  0
LINE
  5
22B
100
AcDbEntity
  8
0
100
AcDbLine
 62
9
  6
CONTINUOUS
 10
3.457455936
 20
2.4511836568
 11
3.9170252336
 21
2.4511836568
  0
LINE
  5
22C
100
AcDbEntity
  8
0
100
AcDbLine
 62
9
  6
CONTINUOUS
 10
3.3556807832
 20
3.3872024193
 11
3.3556807832
 21
3.048492742
  0
LINE
  5
22D
100
AcDbEntity
  8
0
100
AcDbLine
 62
7
  6
CONTINUOUS
 10
5.7621153248
 20
2.5975975806
 11
4.7172859806
 21
2.5975975806
  0
LINE
  5
22E
100
AcDbEntity
  8
ALL_FEATURES
100
AcDbLine
 62
7
  6
CONTINUOUS
 10
4.7172859806
 20
2.5975975806
 11
5.7621153248
 21
2.5975975806
  0
LINE
  5
22F
100
AcDbEntity
  8
0
100
AcDbLine
 62
7
  6
CONTINUOUS
 10
5.7909342224
 20
2.5977688405
 11
5.9346802854
 21
2.5977688405
  0
LINE
  5
230
100
AcDbEntity
  8
0
100
AcDbLine
 62
7
  6
CONTINUOUS
 10
4.6265073836
 20
2.6497889377
 11
4.6160597778
 21
2.6520277104
  0
LINE
  5
231
100
AcDbEntity
  8
0
100
AcDbLine
 62
9
  6
CONTINUOUS
 10
3.4124733022
 20
3.4278475806
 11
3.4124733022
 21
3.0078475806
  0
LINE
  5
232
100
AcDbEntity
  8
0
100
AcDbLine
 62
7
  6
CONTINUOUS
 10
3.4172405848
 20
2.3813074213
 11
3.4172405848
 21
2.3925341536
  0
LINE
  5
233
100
AcDbEntity
  8
0
100
AcDbLine
 62
9
  6
CONTINUOUS
 10
3.4176153248
 20
3.4278475806
 11
3.4176153248
 21
3.0078475806
  0
LINE
  5
234
100
AcDbEntity
  8
0
100
AcDbLine
 62
7
  6
CONTINUOUS
 10
3.4326153248
 20
2.9980188556
 11
3.4326153248
 21
3.4376763057
  0
LINE
  5
235
100
AcDbEntity
  8
0
100
AcDbLine
 62
9
  6
CONTINUOUS
 10
3.4345115774
 20
2.9930340773
 11
3.4345115774
 21
3.442661084
  0
LINE
  5
236
100
AcDbEntity
  8
0
100
AcDbLine
 62
7
  6
CONTINUOUS
 10
3.5522405848
 20
2.8518475807
 11
3.5522405848
 21
2.9193475806
  0
LINE
  5
237
100
AcDbEntity
  8
0
100
AcDbLine
 62
9
  6
CONTINUOUS
 10
3.8504852868
 20
2.8290767232
 11
3.5239958829
 21
2.8290767232
  0
LINE
  5
238
100
AcDbEntity
  8
0
100
AcDbLine
 62
7
  6
CONTINUOUS
 10
3.8222405848
 20
2.8518475807
 11
3.5522405848
 21
2.8518475807
  0
LINE
  5
239
100
AcDbEntity
  8
0
100
AcDbLine
 62
9
  6
CONTINUOUS
 10
3.8222405848
 20
2.9193475806
 11
3.5522405848
 21
2.9193475806
  0
LINE
  5
23A
100
AcDbEntity
  8
0
100
AcDbLine
 62
7
  6
CONTINUOUS
 10
3.5148107078
 20
2.9268475806
 11
3.8596704619
 21
2.9268475806
  0
LINE
  5
23B
100
AcDbEntity
  8
0
100
AcDbLine
 62
9
  6
CONTINUOUS
 10
3.6309307832
 20
5.7497024193
 11
3.6309307832
 21
5.410992742
  0
LINE
  5
23C
100
AcDbEntity
  8
0
100
AcDbLine
 62
9
  6
CONTINUOUS
 10
3.6877233022
 20
5.7903475806
 11
3.6877233022
 21
5.3703475806
  0
LINE
  5
23D
100
AcDbEntity
  8
0
100
AcDbLine
 62
7
  6
CONTINUOUS
 10
3.6924905848
 20
4.7438074213
 11
3.6924905848
 21
4.7550341536
  0
LINE
  5
23E
100
AcDbEntity
  8
0
100
AcDbLine
 62
9
  6
CONTINUOUS
 10
3.6928653248
 20
5.7903475806
 11
3.6928653248
 21
5.3703475806
  0
LINE
  5
23F
100
AcDbEntity
  8
0
100
AcDbLine
 62
7
  6
CONTINUOUS
 10
3.7078653248
 20
5.3605188556
 11
3.7078653248
 21
5.8001763057
  0
LINE
  5
240
100
AcDbEntity
  8
0
100
AcDbLine
 62
9
  6
CONTINUOUS
 10
3.7097615774
 20
5.3555340773
 11
3.7097615774
 21
5.805161084
  0
LINE
  5
241
100
AcDbEntity
  8
0
100
AcDbLine
 62
7
  6
CONTINUOUS
 10
3.4124733022
 20
3.0078475806
 11
3.4176153248
 21
3.0078475806
  0
LINE
  5
242
100
AcDbEntity
  8
ALL_FEATURES
100
AcDbLine
 62
7
  6
CONTINUOUS
 10
4.2576153248
 20
3.0239725806
 11
3.9576153248
 21
3.0239725806
  0
LINE
  5
243
100
AcDbEntity
  8
0
100
AcDbLine
 62
7
  6
CONTINUOUS
 10
4.2951153248
 20
3.0790975806
 11
4.2576153248
 21
3.0790975806
  0
LINE
  5
244
100
AcDbEntity
  8
0
100
AcDbLine
 62
7
  6
CONTINUOUS
 10
4.6586509164
 20
2.6258329653
 11
4.6522596127
 21
2.6338465991
  0
LINE
  5
245
100
AcDbEntity
  8
0
100
AcDbLine
 62
7
  6
CONTINUOUS
 10
3.8222405848
 20
2.8518475807
 11
3.8222405848
 21
2.9193475806
  0
LINE
  5
246
100
AcDbEntity
  8
0
100
AcDbLine
 62
7
  6
CONTINUOUS
 10
3.8274905848
 20
5.2143475807
 11
3.8274905848
 21
5.2818475806
  0
LINE
  5
247
100
AcDbEntity
  8
0
100
AcDbLine
 62
7
  6
CONTINUOUS
 10
3.9572405848
 20
2.3813074213
 11
3.9572405848
 21
2.3925341536
  0
LINE
  5
248
100
AcDbEntity
  8
ALL_FEATURES
100
AcDbLine
 62
7
  6
CONTINUOUS
 10
3.9576153248
 20
3.4210975806
 11
3.9576153248
 21
3.0145975806
  0
LINE
  5
249
100
AcDbEntity
  8
0
100
AcDbLine
 62
7
  6
CONTINUOUS
 10
4.2951153248
 20
3.3565975806
 11
4.2576153248
 21
3.3565975806
  0
LINE
  5
24A
100
AcDbEntity
  8
0
100
AcDbLine
 62
7
  6
CONTINUOUS
 10
4.0974905848
 20
5.2143475807
 11
4.0974905848
 21
5.2818475806
  0
LINE
  5
24B
100
AcDbEntity
  8
ALL_FEATURES
100
AcDbLine
 62
7
  6
CONTINUOUS
 10
4.2576153248
 20
3.4117225806
 11
3.9576153248
 21
3.4117225806
  0
LINE
  5
24C
100
AcDbEntity
  8
0
100
AcDbLine
 62
7
  6
CONTINUOUS
 10
3.4124733022
 20
3.4278475806
 11
3.4176153248
 21
3.4278475806
  0
LINE
  5
24D
100
AcDbEntity
  8
0
100
AcDbLine
 62
7
  6
CONTINUOUS
 10
4.2324905848
 20
4.7438074213
 11
4.2324905848
 21
4.7550341536
  0
LINE
  5
24E
100
AcDbEntity
  8
ALL_FEATURES
100
AcDbLine
 62
7
  6
CONTINUOUS
 10
4.2328653248
 20
5.7835975806
 11
4.2328653248
 21
5.3770975806
  0
LINE
  5
24F
100
AcDbEntity
  8
ALL_FEATURES
100
AcDbLine
 62
7
  6
CONTINUOUS
 10
4.2576153248
 20
3.4117225806
 11
4.2576153248
 21
3.0239725806
  0
LINE
  5
250
100
AcDbEntity
  8
ALL_FEATURES
100
AcDbLine
 62
7
  6
CONTINUOUS
 10
4.2951153248
 20
3.4803475806
 11
4.2951153248
 21
2.9553475806
  0
LINE
  5
251
100
AcDbEntity
  8
0
100
AcDbLine
 62
9
  6
CONTINUOUS
 10
4.3046592444
 20
2.9240050081
 11
4.3046592444
 21
3.5116901531
  0
LINE
  5
252
100
AcDbEntity
  8
0
100
AcDbLine
 62
9
  6
CONTINUOUS
 10
4.320471914
 20
2.910678455
 11
4.320471914
 21
3.5250167063
  0
LINE
  5
253
100
AcDbEntity
  8
ALL_FEATURES
100
AcDbLine
 62
7
  6
CONTINUOUS
 10
4.5328653248
 20
5.7742225806
 11
4.5328653248
 21
5.3864725806
  0
LINE
  5
254
100
AcDbEntity
  8
0
100
AcDbLine
 62
7
  6
CONTINUOUS
 10
4.5703653248
 20
5.3379894274
 11
4.5703653248
 21
5.8227057338
  0
LINE
  5
255
100
AcDbEntity
  8
0
100
AcDbLine
 62
9
  6
CONTINUOUS
 10
4.5768081959
 20
3.7552374065
 11
4.5768081959
 21
2.6804577548
  0
LINE
  5
256
100
AcDbEntity
  8
0
100
AcDbLine
 62
9
  6
CONTINUOUS
 10
4.5885322021
 20
5.3104217433
 11
4.5885322021
 21
5.850273418
  0
LINE
  5
257
100
AcDbEntity
  8
0
100
AcDbLine
 62
9
  6
CONTINUOUS
 10
4.6160597778
 20
3.7836674509
 11
4.6160597778
 21
2.6520277104
  0
LINE
  5
258
100
AcDbEntity
  8
0
100
AcDbLine
 62
9
  6
CONTINUOUS
 10
4.6265073836
 20
2.6497889378
 11
4.6265073836
 21
3.7859062235
  0
LINE
  5
259
100
AcDbEntity
  8
0
100
AcDbLine
 62
7
  6
CONTINUOUS
 10
4.6265073836
 20
3.7859062236
 11
4.6160597778
 21
3.7836674509
  0
LINE
  5
25A
100
AcDbEntity
  8
0
100
AcDbLine
 62
7
  6
CONTINUOUS
 10
5.9346802854
 20
3.8375307362
 11
5.8370446272
 21
3.8375307362
  0
LINE
  5
25B
100
AcDbEntity
  8
0
100
AcDbLine
 62
7
  6
CONTINUOUS
 10
5.7909342224
 20
3.8379263208
 11
5.814548949
 21
3.8379263208
  0
LINE
  5
25C
100
AcDbEntity
  8
0
100
AcDbLine
 62
7
  6
CONTINUOUS
 10
4.8298653248
 20
3.8380975806
 11
4.7172859806
 21
3.8380975806
  0
LINE
  5
25D
100
AcDbEntity
  8
ALL_FEATURES
100
AcDbLine
 62
7
  6
CONTINUOUS
 10
4.7172859806
 20
3.8380975806
 11
4.8298653248
 21
3.8380975806
  0
LINE
  5
25E
100
AcDbEntity
  8
0
100
AcDbLine
 62
7
  6
CONTINUOUS
 10
5.1343653248
 20
3.8380975806
 11
5.7621153248
 21
3.8380975806
  0
LINE
  5
25F
100
AcDbEntity
  8
ALL_FEATURES
100
AcDbLine
 62
7
  6
CONTINUOUS
 10
5.1343653248
 20
3.8380975806
 11
5.7621153248
 21
3.8380975806
  0
LINE
  5
260
100
AcDbEntity
  8
0
100
AcDbLine
 62
9
  6
CONTINUOUS
 10
4.8377403248
 20
3.9355975806
 11
5.1264903248
 21
3.9355975806
  0
LINE
  5
261
100
AcDbEntity
  8
0
100
AcDbLine
 62
7
  6
CONTINUOUS
 10
4.845241929
 20
3.9430975806
 11
5.1189887206
 21
3.9430975806
  0
LINE
  5
262
100
AcDbEntity
  8
0
100
AcDbLine
 62
9
  6
CONTINUOUS
 10
4.6522596127
 20
2.6338465991
 11
4.6522596127
 21
3.8018485622
  0
LINE
  5
263
100
AcDbEntity
  8
0
100
AcDbLine
 62
9
  6
CONTINUOUS
 10
4.6586509164
 20
2.6258329653
 11
4.6586509164
 21
3.809862196
  0
LINE
  5
264
100
AcDbEntity
  8
0
100
AcDbLine
 62
9
  6
CONTINUOUS
 10
4.7172859806
 20
3.8380975806
 11
4.7172859806
 21
2.5975975806
  0
LINE
  5
265
100
AcDbEntity
  8
0
100
AcDbLine
 62
9
  6
CONTINUOUS
 10
4.8209309005
 20
6.0352597848
 11
4.8209309005
 21
5.1254353765
  0
LINE
  5
266
100
AcDbEntity
  8
0
100
AcDbLine
 62
7
  6
CONTINUOUS
 10
4.8377403248
 20
3.8362156163
 11
4.8377403248
 21
3.9355975806
  0
LINE
  5
267
100
AcDbEntity
  8
0
100
AcDbLine
 62
7
  6
CONTINUOUS
 10
5.9492876312
 20
4.2289625378
 11
5.9875729396
 21
4.2299650738
  0
LINE
  5
268
100
AcDbEntity
  8
0
100
AcDbLine
 62
9
  6
CONTINUOUS
 10
4.8814589399
 20
6.0659725806
 11
4.8814589399
 21
5.0947225806
  0
LINE
  5
269
100
AcDbEntity
  8
0
100
AcDbLine
 62
7
  6
CONTINUOUS
 10
5.0181802854
 20
5.0727700806
 11
5.0181802854
 21
6.0879191236
  0
LINE
  5
26A
100
AcDbEntity
  8
0
100
AcDbLine
 62
7
  6
CONTINUOUS
 10
5.1264903248
 20
3.8362156142
 11
5.1264903248
 21
3.9355975806
  0
LINE
  5
26B
100
AcDbEntity
  8
0
100
AcDbLine
 62
9
  6
CONTINUOUS
 10
5.1306802854
 20
4.9602700806
 11
5.1306802854
 21
6.2004250806
  0
LINE
  5
26C
100
AcDbEntity
  8
0
100
AcDbLine
 62
7
  6
CONTINUOUS
 10
4.6586509164
 20
3.809862196
 11
4.6522596127
 21
3.8018485622
  0
LINE
  5
26D
100
AcDbEntity
  8
0
100
AcDbLine
 62
9
  6
CONTINUOUS
 10
3.7973050546
 20
4.6887930722
 11
4.127676115
 21
4.6887930722
  0
LINE
  5
26E
100
AcDbEntity
  8
0
100
AcDbLine
 62
9
  6
CONTINUOUS
 10
4.1970843313
 20
4.7063659173
 11
3.7278968384
 21
4.7063659173
  0
LINE
  5
26F
100
AcDbEntity
  8
0
100
AcDbLine
 62
9
  6
CONTINUOUS
 10
4.2324905848
 20
4.7438074213
 11
3.6924905848
 21
4.7438074213
  0
LINE
  5
270
100
AcDbEntity
  8
0
100
AcDbLine
 62
9
  6
CONTINUOUS
 10
4.2324905848
 20
4.7550341536
 11
3.6924905848
 21
4.7550341536
  0
LINE
  5
271
100
AcDbEntity
  8
0
100
AcDbLine
 62
9
  6
CONTINUOUS
 10
4.2100557749
 20
4.7893749464
 11
3.7149253948
 21
4.7893749464
  0
LINE
  5
272
100
AcDbEntity
  8
0
100
AcDbLine
 62
9
  6
CONTINUOUS
 10
3.732705936
 20
4.8136836568
 11
4.1922752336
 21
4.8136836568
  0
LINE
  5
273
100
AcDbEntity
  8
0
100
AcDbLine
 62
7
  6
CONTINUOUS
 10
6.0021802854
 20
4.9602700806
 11
5.1306802854
 21
4.9602700806
  0
LINE
  5
274
100
AcDbEntity
  8
0
100
AcDbLine
 62
7
  6
CONTINUOUS
 10
5.7621153248
 20
3.8380975806
 11
5.7621153248
 21
2.5975975806
  0
LINE
  5
275
100
AcDbEntity
  8
0
100
AcDbLine
 62
7
  6
CONTINUOUS
 10
5.7761704429
 20
3.8231625413
 11
5.7761704429
 21
2.61253262
  0
LINE
  5
276
100
AcDbEntity
  8
0
100
AcDbLine
 62
9
  6
CONTINUOUS
 10
5.7909342224
 20
2.5977688559
 11
5.7909342224
 21
3.8379263208
  0
LINE
  5
277
100
AcDbEntity
  8
ALL_FEATURES
100
AcDbLine
 62
7
  6
CONTINUOUS
 10
4.8814589399
 20
5.0947225806
 11
5.0181802854
 21
5.0947225806
  0
LINE
  5
278
100
AcDbEntity
  8
0
100
AcDbLine
 62
9
  6
CONTINUOUS
 10
4.1257352868
 20
5.1915767232
 11
3.7992458829
 21
5.1915767232
  0
LINE
  5
279
100
AcDbEntity
  8
0
100
AcDbLine
 62
7
  6
CONTINUOUS
 10
4.0974905848
 20
5.2143475807
 11
3.8274905848
 21
5.2143475807
  0
LINE
  5
27A
100
AcDbEntity
  8
ALL_FEATURES
100
AcDbLine
 62
7
  6
CONTINUOUS
 10
5.9346802854
 20
2.2217274834
 11
5.9346802854
 21
4.2139676779
  0
LINE
  5
27B
100
AcDbEntity
  8
ALL_FEATURES
100
AcDbLine
 62
9
  6
CONTINUOUS
 10
5.9492876312
 20
2.2067326235
 11
5.9492876312
 21
4.2289625378
  0
LINE
  5
27C
100
AcDbEntity
  8
ALL_FEATURES
100
AcDbLine
 62
9
  6
CONTINUOUS
 10
5.9875729396
 20
2.2057300875
 11
5.9875729396
 21
4.2299650738
  0
LINE
  5
27D
100
AcDbEntity
  8
ALL_FEATURES
100
AcDbLine
 62
7
  6
CONTINUOUS
 10
6.0021802854
 20
6.824447549
 11
6.0021802854
 21
1.9749475806
  0
LINE
  5
27E
100
AcDbEntity
  8
ALL_FEATURES
100
AcDbLine
 62
9
  6
CONTINUOUS
 10
6.0136904273
 20
1.9396101549
 11
6.0136904273
 21
6.8597850064
  0
LINE
  5
27F
100
AcDbEntity
  8
ALL_FEATURES
100
AcDbLine
 62
9
  6
CONTINUOUS
 10
6.0724992508
 20
1.7939792725
 11
6.0724992508
 21
7.0054158888
  0
LINE
  5
280
100
AcDbEntity
  8
0
100
AcDbLine
 62
9
  6
CONTINUOUS
 10
4.0974905848
 20
5.2818475806
 11
3.8274905848
 21
5.2818475806
  0
LINE
  5
281
100
AcDbEntity
  8
0
100
AcDbLine
 62
7
  6
CONTINUOUS
 10
3.7900607078
 20
5.2893475806
 11
4.1349204619
 21
5.2893475806
  0
LINE
  5
282
100
AcDbEntity
  8
0
100
AcDbLine
 62
7
  6
CONTINUOUS
 10
3.6877233022
 20
5.3703475806
 11
3.6928653248
 21
5.3703475806
  0
LINE
  5
283
100
AcDbEntity
  8
ALL_FEATURES
100
AcDbLine
 62
7
  6
CONTINUOUS
 10
4.5328653248
 20
5.3864725806
 11
4.2328653248
 21
5.3864725806
  0
LINE
  5
284
100
AcDbEntity
  8
0
100
AcDbLine
 62
7
  6
CONTINUOUS
 10
4.5703653248
 20
5.4415975806
 11
4.5328653248
 21
5.4415975806
  0
LINE
  5
285
100
AcDbEntity
  8
ALL_FEATURES
100
AcDbLine
 62
9
  6
CONTINUOUS
 10
6.1319302854
 20
1.7422225806
 11
6.1319302854
 21
7.0571725806
  0
LINE
  5
286
100
AcDbEntity
  8
0
100
AcDbLine
 62
7
  6
CONTINUOUS
 10
6.1881802854
 20
1.746045922
 11
6.1881802854
 21
1.7422227149
  0
LINE
  5
287
100
AcDbEntity
  8
ALL_FEATURES
100
AcDbLine
 62
7
  6
CONTINUOUS
 10
6.2631802854
 20
7.0571725806
 11
6.2631802854
 21
4.3996975806
  0
LINE
  5
288
100
AcDbEntity
  8
0
100
AcDbLine
 62
7
  6
CONTINUOUS
 10
6.2631802854
 20
1.746045922
 11
6.2631802854
 21
4.3996975806
  0
LINE
  5
289
100
AcDbEntity
  8
0
100
AcDbLine
 62
7
  6
CONTINUOUS
 10
4.5703653248
 20
5.7190975806
 11
4.5328653248
 21
5.7190975806
  0
LINE
  5
28A
100
AcDbEntity
  8
ALL_FEATURES
100
AcDbLine
 62
7
  6
CONTINUOUS
 10
4.5328653248
 20
5.7742225806
 11
4.2328653248
 21
5.7742225806
  0
LINE
  5
28B
100
AcDbEntity
  8
0
100
AcDbLine
 62
7
  6
CONTINUOUS
 10
3.6877233022
 20
5.7903475806
 11
3.6928653248
 21
5.7903475806
  0
LINE
  5
28C
100
AcDbEntity
  8
ALL_FEATURES
100
AcDbLine
 62
7
  6
CONTINUOUS
 10
4.8814589399
 20
6.0659725806
 11
5.0181802854
 21
6.0659725806
  0
LINE
  5
28D
100
AcDbEntity
  8
0
100
AcDbLine
 62
7
  6
CONTINUOUS
 10
6.0021802854
 20
6.2004250806
 11
5.1306802854
 21
6.2004250806
  0
LINE
  5
28E
100
AcDbEntity
  8
ALL_FEATURES
100
AcDbLine
 62
7
  6
CONTINUOUS
 10
6.1319302854
 20
7.0571725806
 11
6.2631802854
 21
7.0571725806
  0
ARC
  5
28F
100
AcDbEntity
  8
0
100
AcDbCircle
 62
7
  6
CONTINUOUS
 10
1.1351265892
 20
2.1561477569
 40
2.7975
100
AcDbArc
 50
6.053907649
 51
13.918800267
  0
ARC
  5
290
100
AcDbEntity
  8
0
100
AcDbCircle
 62
7
  6
CONTINUOUS
 10
3.6872405848
 20
2.6770975806
 40
0.38775
100
AcDbArc
 50
244.7853651837
 51
295.2146348163
  0
ARC
  5
291
100
AcDbEntity
  8
0
100
AcDbCircle
 62
7
  6
CONTINUOUS
 10
3.4421781058
 20
2.156658397
 40
0.1875
100
AcDbArc
 50
64.7853651758
 51
86.7993265496
  0
ARC
  5
292
100
AcDbEntity
  8
0
100
AcDbCircle
 62
7
  6
CONTINUOUS
 10
3.4547405848
 20
2.3925341536
 40
0.0375
100
AcDbArc
 50
113.6868993614
 51
180.0
  0
ARC
  5
293
100
AcDbEntity
  8
0
100
AcDbCircle
 62
7
  6
CONTINUOUS
 10
3.4547405848
 20
2.3813074213
 40
0.0375
100
AcDbArc
 50
180.0
 51
266.7993266805
  0
ARC
  5
294
100
AcDbEntity
  8
0
100
AcDbCircle
 62
7
  6
CONTINUOUS
 10
3.4276232428
 20
2.4543475806
 40
0.03
100
AcDbArc
 50
293.6868993648
 51
353.9460923861
  0
ARC
  5
295
100
AcDbEntity
  8
0
100
AcDbCircle
 62
7
  6
CONTINUOUS
 10
3.4124733022
 20
3.0678475806
 40
0.06
100
AcDbArc
 50
198.8190633315
 51
270.0
  0
ARC
  5
296
100
AcDbEntity
  8
0
100
AcDbCircle
 62
7
  6
CONTINUOUS
 10
3.5531150111
 20
2.8218603271
 40
0.03
100
AcDbArc
 50
91.6702677144
 51
166.0812002786
  0
ARC
  5
297
100
AcDbEntity
  8
0
100
AcDbCircle
 62
7
  6
CONTINUOUS
 10
3.4176153248
 20
3.0228475806
 40
0.015
100
AcDbArc
 50
270.0
 51
0.0000001323
  0
ARC
  5
298
100
AcDbEntity
  8
0
100
AcDbCircle
 62
7
  6
CONTINUOUS
 10
3.5597405848
 20
2.9193475806
 40
0.0075
100
AcDbArc
 50
89.9999996328
 51
180.0
  0
ARC
  5
299
100
AcDbEntity
  8
0
100
AcDbCircle
 62
7
  6
CONTINUOUS
 10
3.4401153248
 20
2.9980188556
 40
0.0075
100
AcDbArc
 50
180.0
 51
221.6544916868
  0
ARC
  5
29A
100
AcDbEntity
  8
0
100
AcDbCircle
 62
7
  6
CONTINUOUS
 10
3.4124733022
 20
3.3678475806
 40
0.06
100
AcDbArc
 50
90.0
 51
161.1809366685
  0
ARC
  5
29B
100
AcDbEntity
  8
0
100
AcDbCircle
 62
7
  6
CONTINUOUS
 10
3.4176153248
 20
3.4128475806
 40
0.015
100
AcDbArc
 50
359.9999998677
 51
90.0
  0
ARC
  5
29C
100
AcDbEntity
  8
0
100
AcDbCircle
 62
7
  6
CONTINUOUS
 10
3.4401153248
 20
3.4376763057
 40
0.0075
100
AcDbArc
 50
138.3455083132
 51
180.0
  0
ARC
  5
29D
100
AcDbEntity
  8
0
100
AcDbCircle
 62
7
  6
CONTINUOUS
 10
3.8213661586
 20
2.8218603271
 40
0.03
100
AcDbArc
 50
13.9187997207
 51
88.3297322854
  0
ARC
  5
29E
100
AcDbEntity
  8
0
100
AcDbCircle
 62
7
  6
CONTINUOUS
 10
3.8147405848
 20
2.9193475806
 40
0.0075
100
AcDbArc
 50
0.0
 51
90.0000003672
  0
ARC
  5
29F
100
AcDbEntity
  8
0
100
AcDbCircle
 62
7
  6
CONTINUOUS
 10
3.6872405848
 20
3.2178475806
 40
0.33825
100
AcDbArc
 50
36.933444909
 51
138.3455083111
  0
ARC
  5
2A0
100
AcDbEntity
  8
0
100
AcDbCircle
 62
7
  6
CONTINUOUS
 10
3.6872405848
 20
3.2178475806
 40
0.33825
100
AcDbArc
 50
221.6544916889
 51
239.3514548587
  0
ARC
  5
2A1
100
AcDbEntity
  8
0
100
AcDbCircle
 62
7
  6
CONTINUOUS
 10
3.6872405848
 20
3.2178475806
 40
0.33825
100
AcDbArc
 50
300.6485451413
 51
323.066555091
  0
ARC
  5
2A2
100
AcDbEntity
  8
ALL_FEATURES
100
AcDbCircle
 62
7
  6
CONTINUOUS
 10
3.6872405848
 20
3.2178475806
 40
0.33825
100
AcDbArc
 50
36.933444909
 51
138.3455083111
  0
ARC
  5
2A3
100
AcDbEntity
  8
ALL_FEATURES
100
AcDbCircle
 62
7
  6
CONTINUOUS
 10
3.6872405848
 20
3.2178475806
 40
0.33825
100
AcDbArc
 50
221.6544916889
 51
239.3514548587
  0
ARC
  5
2A4
100
AcDbEntity
  8
ALL_FEATURES
100
AcDbCircle
 62
7
  6
CONTINUOUS
 10
3.6872405848
 20
3.2178475806
 40
0.33825
100
AcDbArc
 50
300.6485451413
 51
323.066555091
  0
ARC
  5
2A5
100
AcDbEntity
  8
0
100
AcDbCircle
 62
7
  6
CONTINUOUS
 10
1.4103765892
 20
4.5186477569
 40
2.7975
100
AcDbArc
 50
6.053907649
 51
13.918800267
  0
ARC
  5
2A6
100
AcDbEntity
  8
0
100
AcDbCircle
 62
7
  6
CONTINUOUS
 10
3.7174281058
 20
4.519158397
 40
0.1875
100
AcDbArc
 50
64.7853651758
 51
86.7993265496
  0
ARC
  5
2A7
100
AcDbEntity
  8
0
100
AcDbCircle
 62
7
  6
CONTINUOUS
 10
3.6877233022
 20
5.4303475806
 40
0.06
100
AcDbArc
 50
198.8190633315
 51
270.0
  0
ARC
  5
2A8
100
AcDbEntity
  8
0
100
AcDbCircle
 62
7
  6
CONTINUOUS
 10
3.6877233022
 20
5.7303475806
 40
0.06
100
AcDbArc
 50
90.0
 51
161.1809366685
  0
ARC
  5
2A9
100
AcDbEntity
  8
0
100
AcDbCircle
 62
7
  6
CONTINUOUS
 10
3.7299905848
 20
4.7550341536
 40
0.0375
100
AcDbArc
 50
113.6868993614
 51
180.0
  0
ARC
  5
2AA
100
AcDbEntity
  8
0
100
AcDbCircle
 62
7
  6
CONTINUOUS
 10
3.7299905848
 20
4.7438074213
 40
0.0375
100
AcDbArc
 50
180.0
 51
266.7993266805
  0
ARC
  5
2AB
100
AcDbEntity
  8
0
100
AcDbCircle
 62
7
  6
CONTINUOUS
 10
3.7028732428
 20
4.8168475806
 40
0.03
100
AcDbArc
 50
293.6868993648
 51
353.9460923861
  0
ARC
  5
2AC
100
AcDbEntity
  8
0
100
AcDbCircle
 62
7
  6
CONTINUOUS
 10
3.6928653248
 20
5.3853475806
 40
0.015
100
AcDbArc
 50
270.0
 51
0.0000001323
  0
ARC
  5
2AD
100
AcDbEntity
  8
0
100
AcDbCircle
 62
7
  6
CONTINUOUS
 10
3.6928653248
 20
5.7753475806
 40
0.015
100
AcDbArc
 50
359.9999998677
 51
90.0
  0
ARC
  5
2AE
100
AcDbEntity
  8
0
100
AcDbCircle
 62
7
  6
CONTINUOUS
 10
3.7153653248
 20
5.8001763057
 40
0.0075
100
AcDbArc
 50
138.3455083132
 51
180.0
  0
ARC
  5
2AF
100
AcDbEntity
  8
0
100
AcDbCircle
 62
7
  6
CONTINUOUS
 10
3.7153653248
 20
5.3605188556
 40
0.0075
100
AcDbArc
 50
180.0
 51
221.6544916868
  0
ARC
  5
2B0
100
AcDbEntity
  8
0
100
AcDbCircle
 62
7
  6
CONTINUOUS
 10
4.0903167118
 20
2.3965975806
 40
0.56325
100
AcDbArc
 50
30.2628931686
 51
65.8818266345
  0
ARC
  5
2B1
100
AcDbEntity
  8
0
100
AcDbCircle
 62
7
  6
CONTINUOUS
 10
3.9323030639
 20
2.156658397
 40
0.1875
100
AcDbArc
 50
93.2006734504
 51
115.2146348242
  0
ARC
  5
2B2
100
AcDbEntity
  8
0
100
AcDbCircle
 62
7
  6
CONTINUOUS
 10
4.7172859806
 20
2.6725975806
 40
0.075
100
AcDbArc
 50
218.574242923
 51
270.0
  0
ARC
  5
2B3
100
AcDbEntity
  8
0
100
AcDbCircle
 62
7
  6
CONTINUOUS
 10
4.6286315235
 20
2.7106958552
 40
0.06
100
AcDbArc
 50
210.2628924365
 51
257.9052426455
  0
ARC
  5
2B4
100
AcDbEntity
  8
0
100
AcDbCircle
 62
7
  6
CONTINUOUS
 10
4.3513523478
 20
2.9553475806
 40
0.0562370231
100
AcDbArc
 50
180.0
 51
213.871340548
  0
ARC
  5
2B5
100
AcDbEntity
  8
ALL_FEATURES
100
AcDbCircle
 62
7
  6
CONTINUOUS
 10
4.3513523478
 20
2.9553475806
 40
0.0562370231
100
AcDbArc
 50
180.0
 51
213.871340548
  0
ARC
  5
2B6
100
AcDbEntity
  8
0
100
AcDbCircle
 62
7
  6
CONTINUOUS
 10
4.6170785749
 20
2.605787829
 40
0.045
100
AcDbArc
 50
38.5742443677
 51
77.9052432775
  0
ARC
  5
2B7
100
AcDbEntity
  8
0
100
AcDbCircle
 62
7
  6
CONTINUOUS
 10
3.9197405848
 20
2.3925341536
 40
0.0375
100
AcDbArc
 50
0.0
 51
66.3131006386
  0
ARC
  5
2B8
100
AcDbEntity
  8
0
100
AcDbCircle
 62
7
  6
CONTINUOUS
 10
3.9197405848
 20
2.3813074213
 40
0.0375
100
AcDbArc
 50
273.2006733195
 51
360.0
  0
ARC
  5
2B9
100
AcDbEntity
  8
0
100
AcDbCircle
 62
7
  6
CONTINUOUS
 10
4.3357951631
 20
2.9449048781
 40
0.0375
100
AcDbArc
 50
213.8713405478
 51
245.8818266345
  0
ARC
  5
2BA
100
AcDbEntity
  8
0
100
AcDbCircle
 62
7
  6
CONTINUOUS
 10
3.9468579269
 20
2.4543475806
 40
0.03
100
AcDbArc
 50
186.0539076139
 51
246.3131006352
  0
ARC
  5
2BB
100
AcDbEntity
  8
0
100
AcDbCircle
 62
7
  6
CONTINUOUS
 10
4.0903167118
 20
4.0390975806
 40
0.56325
100
AcDbArc
 50
294.1181733655
 51
329.7371068314
  0
ARC
  5
2BC
100
AcDbEntity
  8
0
100
AcDbCircle
 62
7
  6
CONTINUOUS
 10
3.8526153248
 20
3.2178475806
 40
0.525
100
AcDbArc
 50
161.1809366353
 51
198.8190633647
  0
ARC
  5
2BD
100
AcDbEntity
  8
0
100
AcDbCircle
 62
7
  6
CONTINUOUS
 10
4.7172859806
 20
3.7630975806
 40
0.075
100
AcDbArc
 50
90.0
 51
141.425757077
  0
ARC
  5
2BE
100
AcDbEntity
  8
0
100
AcDbCircle
 62
7
  6
CONTINUOUS
 10
4.6286315235
 20
3.7249993061
 40
0.06
100
AcDbArc
 50
102.0947573545
 51
149.7371075635
  0
ARC
  5
2BF
100
AcDbEntity
  8
0
100
AcDbCircle
 62
7
  6
CONTINUOUS
 10
4.3513523478
 20
3.4803475806
 40
0.0562370231
100
AcDbArc
 50
146.128659452
 51
180.0
  0
ARC
  5
2C0
100
AcDbEntity
  8
ALL_FEATURES
100
AcDbCircle
 62
7
  6
CONTINUOUS
 10
4.3513523478
 20
3.4803475806
 40
0.0562370231
100
AcDbArc
 50
146.128659452
 51
180.0
  0
ARC
  5
2C1
100
AcDbEntity
  8
0
100
AcDbCircle
 62
7
  6
CONTINUOUS
 10
4.6170785749
 20
3.8299073323
 40
0.045
100
AcDbArc
 50
282.0947567225
 51
321.4257556323
  0
ARC
  5
2C2
100
AcDbEntity
  8
0
100
AcDbCircle
 62
7
  6
CONTINUOUS
 10
4.3357951631
 20
3.4907902832
 40
0.0375
100
AcDbArc
 50
114.1181733657
 51
146.1286594522
  0
ARC
  5
2C3
100
AcDbEntity
  8
0
100
AcDbCircle
 62
7
  6
CONTINUOUS
 10
4.8452403248
 20
3.9355975806
 40
0.0075
100
AcDbArc
 50
90.0
 51
180.0
  0
ARC
  5
2C4
100
AcDbEntity
  8
0
100
AcDbCircle
 62
7
  6
CONTINUOUS
 10
6.2393545804
 20
2.1561477569
 40
2.7975
100
AcDbArc
 50
166.081199733
 51
173.946092351
  0
ARC
  5
2C5
100
AcDbEntity
  8
ALL_FEATURES
100
AcDbCircle
 62
7
  6
CONTINUOUS
 10
5.75305744
 20
1.7496714913
 40
0.3225
100
AcDbArc
 50
7.8967562426
 51
36.083035471
  0
ARC
  5
2C6
100
AcDbEntity
  8
ALL_FEATURES
100
AcDbCircle
 62
7
  6
CONTINUOUS
 10
6.0621802854
 20
1.9749475806
 40
0.06
100
AcDbArc
 50
180.0
 51
216.083035471
  0
ARC
  5
2C7
100
AcDbEntity
  8
ALL_FEATURES
100
AcDbCircle
 62
7
  6
CONTINUOUS
 10
6.1319302854
 20
1.8022225806
 40
0.06
100
AcDbArc
 50
187.8967562426
 51
270.0
  0
ARC
  5
2C8
100
AcDbEntity
  8
ALL_FEATURES
100
AcDbCircle
 62
7
  6
CONTINUOUS
 10
5.9496802854
 20
2.2217274834
 40
0.015
100
AcDbArc
 50
179.9999999837
 51
268.4999999996
  0
ARC
  5
2C9
100
AcDbEntity
  8
ALL_FEATURES
100
AcDbCircle
 62
7
  6
CONTINUOUS
 10
5.9871802854
 20
2.1907352276
 40
0.015
100
AcDbArc
 50
0.0000000165
 51
88.5000000004
  0
ARC
  5
2CA
100
AcDbEntity
  8
0
100
AcDbCircle
 62
7
  6
CONTINUOUS
 10
5.7909342224
 20
2.61253262
 40
0.0147637795
100
AcDbArc
 50
180.0000000785
 51
270.0
  0
ARC
  5
2CB
100
AcDbEntity
  8
ALL_FEATURES
100
AcDbCircle
 62
7
  6
CONTINUOUS
 10
5.9496802854
 20
4.2139676779
 40
0.015
100
AcDbArc
 50
91.5000000004
 51
180.0000000163
  0
ARC
  5
2CC
100
AcDbEntity
  8
ALL_FEATURES
100
AcDbCircle
 62
7
  6
CONTINUOUS
 10
5.9871802854
 20
4.2449599337
 40
0.015
100
AcDbArc
 50
271.4999999996
 51
359.9999999835
  0
ARC
  5
2CD
100
AcDbEntity
  8
0
100
AcDbCircle
 62
7
  6
CONTINUOUS
 10
5.7909342224
 20
3.8231625413
 40
0.0147637795
100
AcDbArc
 50
90.0
 51
179.9999999215
  0
ARC
  5
2CE
100
AcDbEntity
  8
0
100
AcDbCircle
 62
7
  6
CONTINUOUS
 10
5.1189903248
 20
3.9355975806
 40
0.0075
100
AcDbArc
 50
0.0
 51
90.0
  0
ARC
  5
2CF
100
AcDbEntity
  8
0
100
AcDbCircle
 62
7
  6
CONTINUOUS
 10
4.3663653248
 20
4.7928384736
 40
0.56325
100
AcDbArc
 50
36.1922176694
 51
66.7691079294
  0
ARC
  5
2D0
100
AcDbEntity
  8
0
100
AcDbCircle
 62
7
  6
CONTINUOUS
 10
3.9624905848
 20
5.0395975806
 40
0.38775
100
AcDbArc
 50
244.7853651837
 51
295.2146348163
  0
ARC
  5
2D1
100
AcDbEntity
  8
0
100
AcDbCircle
 62
7
  6
CONTINUOUS
 10
4.2075530639
 20
4.519158397
 40
0.1875
100
AcDbArc
 50
93.2006734504
 51
115.2146348242
  0
ARC
  5
2D2
100
AcDbEntity
  8
0
100
AcDbCircle
 62
7
  6
CONTINUOUS
 10
4.1949905848
 20
4.7550341536
 40
0.0375
100
AcDbArc
 50
0.0
 51
66.3131006386
  0
ARC
  5
2D3
100
AcDbEntity
  8
0
100
AcDbCircle
 62
7
  6
CONTINUOUS
 10
4.1949905848
 20
4.7438074213
 40
0.0375
100
AcDbArc
 50
273.2006733195
 51
360.0
  0
ARC
  5
2D4
100
AcDbEntity
  8
0
100
AcDbCircle
 62
7
  6
CONTINUOUS
 10
4.2221079269
 20
4.8168475806
 40
0.03
100
AcDbArc
 50
186.0539076139
 51
246.3131006352
  0
ARC
  5
2D5
100
AcDbEntity
  8
0
100
AcDbCircle
 62
7
  6
CONTINUOUS
 10
3.8283650111
 20
5.1843603271
 40
0.03
100
AcDbArc
 50
91.6702677144
 51
166.0812002786
  0
ARC
  5
2D6
100
AcDbEntity
  8
0
100
AcDbCircle
 62
7
  6
CONTINUOUS
 10
3.8349905848
 20
5.2818475806
 40
0.0075
100
AcDbArc
 50
89.9999996328
 51
180.0
  0
ARC
  5
2D7
100
AcDbEntity
  8
0
100
AcDbCircle
 62
7
  6
CONTINUOUS
 10
3.9624905848
 20
5.5803475806
 40
0.33825
100
AcDbArc
 50
36.933444909
 51
138.3455083111
  0
ARC
  5
2D8
100
AcDbEntity
  8
0
100
AcDbCircle
 62
7
  6
CONTINUOUS
 10
3.9624905848
 20
5.5803475806
 40
0.33825
100
AcDbArc
 50
221.6544916889
 51
239.3514548587
  0
ARC
  5
2D9
100
AcDbEntity
  8
0
100
AcDbCircle
 62
7
  6
CONTINUOUS
 10
3.9624905848
 20
5.5803475806
 40
0.33825
100
AcDbArc
 50
300.6485451413
 51
323.066555091
  0
ARC
  5
2DA
100
AcDbEntity
  8
ALL_FEATURES
100
AcDbCircle
 62
7
  6
CONTINUOUS
 10
3.9624905848
 20
5.5803475806
 40
0.33825
100
AcDbArc
 50
36.933444909
 51
138.3455083111
  0
ARC
  5
2DB
100
AcDbEntity
  8
ALL_FEATURES
100
AcDbCircle
 62
7
  6
CONTINUOUS
 10
3.9624905848
 20
5.5803475806
 40
0.33825
100
AcDbArc
 50
221.6544916889
 51
239.3514548587
  0
ARC
  5
2DC
100
AcDbEntity
  8
ALL_FEATURES
100
AcDbCircle
 62
7
  6
CONTINUOUS
 10
3.9624905848
 20
5.5803475806
 40
0.33825
100
AcDbArc
 50
300.6485451413
 51
323.066555091
  0
ARC
  5
2DD
100
AcDbEntity
  8
0
100
AcDbCircle
 62
7
  6
CONTINUOUS
 10
4.0966161586
 20
5.1843603271
 40
0.03
100
AcDbArc
 50
13.9187997207
 51
88.3297322854
  0
ARC
  5
2DE
100
AcDbEntity
  8
0
100
AcDbCircle
 62
7
  6
CONTINUOUS
 10
4.0899905848
 20
5.2818475806
 40
0.0075
100
AcDbArc
 50
0.0
 51
90.0000003672
  0
ARC
  5
2DF
100
AcDbEntity
  8
0
100
AcDbCircle
 62
7
  6
CONTINUOUS
 10
4.1278653248
 20
5.5803475806
 40
0.525
100
AcDbArc
 50
161.1809366353
 51
198.8190633647
  0
ARC
  5
2E0
100
AcDbEntity
  8
ALL_FEATURES
100
AcDbCircle
 62
7
  6
CONTINUOUS
 10
4.9691055249
 20
4.5103612512
 40
0.6922774635
100
AcDbArc
 50
283.1438899821
 51
283.5220984936
  0
ARC
  5
2E1
100
AcDbEntity
  8
ALL_FEATURES
100
AcDbCircle
 62
7
  6
CONTINUOUS
 10
4.9933793976
 20
4.5030146062
 40
0.6847263134
100
AcDbArc
 50
256.4545824201
 51
256.8585504424
  0
ARC
  5
2E2
100
AcDbEntity
  8
0
100
AcDbCircle
 62
7
  6
CONTINUOUS
 10
4.8814589399
 20
5.1697225806
 40
0.075
100
AcDbArc
 50
216.1922176693
 51
270.0
  0
ARC
  5
2E3
100
AcDbEntity
  8
0
100
AcDbCircle
 62
7
  6
CONTINUOUS
 10
4.6003653248
 20
5.3379894274
 40
0.03
100
AcDbArc
 50
180.0
 51
246.7691079294
  0
ARC
  5
2E4
100
AcDbEntity
  8
0
100
AcDbCircle
 62
7
  6
CONTINUOUS
 10
4.3663653248
 20
6.3678566877
 40
0.56325
100
AcDbArc
 50
293.2308920706
 51
323.8077823306
  0
ARC
  5
2E5
100
AcDbEntity
  8
0
100
AcDbCircle
 62
7
  6
CONTINUOUS
 10
4.8814589399
 20
5.9909725806
 40
0.075
100
AcDbArc
 50
90.0
 51
143.8077823307
  0
ARC
  5
2E6
100
AcDbEntity
  8
0
100
AcDbCircle
 62
7
  6
CONTINUOUS
 10
4.6003653248
 20
5.8227057338
 40
0.03
100
AcDbArc
 50
113.2308920706
 51
180.0
  0
ARC
  5
2E7
100
AcDbEntity
  8
0
100
AcDbCircle
 62
7
  6
CONTINUOUS
 10
6.5146045804
 20
4.5186477569
 40
2.7975
100
AcDbArc
 50
166.081199733
 51
173.946092351
  0
ARC
  5
2E8
100
AcDbEntity
  8
0
100
AcDbCircle
 62
7
  6
CONTINUOUS
 10
5.8370581839
 20
4.4793688388
 40
0.6418381027
100
AcDbArc
 50
269.5423336096
 51
269.998789793
  0
ARC
  5
2E9
100
AcDbEntity
  8
0
100
AcDbCircle
 62
7
  6
CONTINUOUS
 10
5.8370543759
 20
4.4774510619
 40
0.6399203786
100
AcDbArc
 50
267.9857487061
 51
269.5413029832
  0
ARC
  5
2EA
100
AcDbEntity
  8
ALL_FEATURES
100
AcDbCircle
 62
7
  6
CONTINUOUS
 10
5.75305744
 20
7.04972367
 40
0.3225
100
AcDbArc
 50
323.916964529
 51
352.1032437574
  0
ARC
  5
2EB
100
AcDbEntity
  8
ALL_FEATURES
100
AcDbCircle
 62
7
  6
CONTINUOUS
 10
6.0621802854
 20
6.8244475806
 40
0.06
100
AcDbArc
 50
143.916964529
 51
180.0
  0
ARC
  5
2EC
100
AcDbEntity
  8
ALL_FEATURES
100
AcDbCircle
 62
7
  6
CONTINUOUS
 10
6.1319302854
 20
6.9971725806
 40
0.06
100
AcDbArc
 50
90.0
 51
172.1032437574
  0
LINE
  5
2ED
100
AcDbEntity
  8
0
100
AcDbLine
 62
7
  6
CONTINUOUS
 10
5.814558772
 20
3.8379262245
 11
5.8166208325
 21
3.8378570146
  0
SPLINE
  5
2EE
100
AcDbEntity
  8
0
100
AcDbSpline
 62
7
  6
CONTINUOUS
 70
0
 71
3
 72
35
 73
31
 74
0
 42
0.0000001
 43
0.0000001
 44
0.0000000001
 40
0.0
 40
0.0
 40
0.0
 40
0.0
 40
0.0198798482
 40
0.0389061
 40
0.0572349263
 40
0.0750085906
 40
0.1093037191
 40
0.1423092093
 40
0.1743589853
 40
0.2056530689
 40
0.2363464043
 40
0.2665723801
 40
0.3259971954
 40
0.3844687642
 40
0.4423690724
 40
0.5
 40
0.5576309276
 40
0.6155312358
 40
0.6740028046
 40
0.7334276199
 40
0.7636535957
 40
0.7943469311
 40
0.8256410147
 40
0.8576907907
 40
0.8906962809
 40
0.9249914094
 40
0.9427650737
 40
0.9610939
 40
0.9801201518
 40
1.0
 40
1.0
 40
1.0
 40
1.0
 10
5.1306802854
 20
4.9602700806
 30
0.0
 10
5.1295362775
 20
4.9602700806
 30
0.0
 10
5.127296963
 20
4.9603250865
 30
0.0
 10
5.1240109977
 20
4.9605662083
 30
0.0
 10
5.1208598774
 20
4.9609424053
 30
0.0
 10
5.1168596135
 20
4.9615872865
 30
0.0
 10
5.1120694717
 20
4.9626179885
 30
0.0
 10
5.1065658205
 20
4.9641779625
 30
0.0
 10
5.1013203642
 20
4.9659824434
 30
0.0
 10
5.0963003634
 20
4.9680094654
 30
0.0
 10
5.0914813373
 20
4.9702360504
 30
0.0
 10
5.0853295068
 20
4.9734202096
 30
0.0
 10
5.0779983328
 20
4.9777873134
 30
0.0
 10
5.069717611
 20
4.9836137123
 30
0.0
 10
5.0619468612
 20
4.9899414738
 30
0.0
 10
5.0546647256
 20
4.9967545208
 30
0.0
 10
5.0478516786
 20
5.0040366565
 30
0.0
 10
5.0415239171
 20
5.0118074062
 30
0.0
 10
5.0356975181
 20
5.020088128
 30
0.0
 10
5.0313304143
 20
5.027419302
 30
0.0
 10
5.0281462551
 20
5.0335711325
 30
0.0
 10
5.0259196701
 20
5.0383901586
 30
0.0
 10
5.0238926481
 20
5.0434101595
 30
0.0
 10
5.0220881672
 20
5.0486556158
 30
0.0
 10
5.0205281933
 20
5.0541592669
 30
0.0
 10
5.0194974913
 20
5.0589494087
 30
0.0
 10
5.0188526101
 20
5.0629496726
 30
0.0
 10
5.018476413
 20
5.0661007929
 30
0.0
 10
5.0182352912
 20
5.0693867583
 30
0.0
 10
5.0181802854
 20
5.0716260727
 30
0.0
 10
5.0181802854
 20
5.0727700806
 30
0.0
  0
SPLINE
  5
2EF
100
AcDbEntity
  8
0
100
AcDbSpline
 62
7
  6
CONTINUOUS
 70
0
 71
3
 72
35
 73
31
 74
0
 42
0.0000001
 43
0.0000001
 44
0.0000000001
 40
0.0
 40
0.0
 40
0.0
 40
0.0
 40
0.0198798482
 40
0.0389061
 40
0.0572349263
 40
0.0750085906
 40
0.1093037191
 40
0.1423092093
 40
0.1743589853
 40
0.2056530689
 40
0.2363464043
 40
0.2665723801
 40
0.3259971954
 40
0.3844687642
 40
0.4423690724
 40
0.5
 40
0.5576309276
 40
0.6155312358
 40
0.6740028046
 40
0.7334276199
 40
0.7636535957
 40
0.7943469311
 40
0.8256410147
 40
0.8576907907
 40
0.8906962809
 40
0.9249914094
 40
0.9427650737
 40
0.9610939
 40
0.9801201518
 40
1.0
 40
1.0
 40
1.0
 40
1.0
 10
5.1306802854
 20
6.2004250806
 30
0.0
 10
5.1295362775
 20
6.2004250806
 30
0.0
 10
5.127296963
 20
6.2003700748
 30
0.0
 10
5.1240109977
 20
6.200128953
 30
0.0
 10
5.1208598774
 20
6.199752756
 30
0.0
 10
5.1168596135
 20
6.1991078748
 30
0.0
 10
5.1120694717
 20
6.1980771728
 30
0.0
 10
5.1065658205
 20
6.1965171988
 30
0.0
 10
5.1013203642
 20
6.1947127179
 30
0.0
 10
5.0963003634
 20
6.1926856959
 30
0.0
 10
5.0914813373
 20
6.1904591109
 30
0.0
 10
5.0853295068
 20
6.1872749517
 30
0.0
 10
5.0779983328
 20
6.1829078479
 30
0.0
 10
5.069717611
 20
6.1770814489
 30
0.0
 10
5.0619468612
 20
6.1707536875
 30
0.0
 10
5.0546647256
 20
6.1639406405
 30
0.0
 10
5.0478516786
 20
6.1566585048
 30
0.0
 10
5.0415239171
 20
6.1488877551
 30
0.0
 10
5.0356975181
 20
6.1406070333
 30
0.0
 10
5.0313304143
 20
6.1332758593
 30
0.0
 10
5.0281462551
 20
6.1271240288
 30
0.0
 10
5.0259196701
 20
6.1223050027
 30
0.0
 10
5.0238926481
 20
6.1172850018
 30
0.0
 10
5.0220881672
 20
6.1120395455
 30
0.0
 10
5.0205281933
 20
6.1065358944
 30
0.0
 10
5.0194974913
 20
6.1017457526
 30
0.0
 10
5.0188526101
 20
6.0977454887
 30
0.0
 10
5.018476413
 20
6.0945943684
 30
0.0
 10
5.0182352912
 20
6.091308403
 30
0.0
 10
5.0181802854
 20
6.0890690886
 30
0.0
 10
5.0181802854
 20
6.0879250806
 30
0.0
  0
LINE
  5
2F0
100
AcDbEntity
  8
ALL_FEATURES
100
AcDbLine
 62
7
  6
CONTINUOUS
 10
5.1343653248
 20
3.8380975806
 11
5.1309741053
 21
3.8372738504
  0
SPLINE
  5
2F1
100
AcDbEntity
  8
ALL_FEATURES
100
AcDbSpline
 62
7
  6
CONTINUOUS
 70
0
 71
3
 72
23
 73
19
 74
0
 42
0.0000001
 43
0.0000001
 44
0.0000000001
 40
0.0
 40
0.0
 40
0.0
 40
0.0
 40
0.0764409523
 40
0.193155345
 40
0.2631756764
 40
0.3004158095
 40
0.3388604638
 40
0.4184343366
 40
0.4590925504
 40
0.5000002522
 40
0.5409080643
 40
0.5815664853
 40
0.661140583
 40
0.6995852282
 40
0.7368252982
 40
0.8068453101
 40
0.9235593177
 40
1.0
 40
1.0
 40
1.0
 40
1.0
 10
5.126527572
 20
3.8362200304
 30
0.0
 10
5.1192952671
 20
3.8345315304
 30
0.0
 10
5.100952687
 20
3.8305507918
 30
0.0
 10
5.0757485788
 20
3.826168756
 30
0.0
 10
5.0541668031
 20
3.8233557852
 30
0.0
 10
5.0400872936
 20
3.8218762198
 30
0.0
 10
5.0250588369
 20
3.8205699328
 30
0.0
 10
5.0096643826
 20
3.8196639512
 30
0.0
 10
4.9940145615
 20
3.8192008394
 30
0.0
 10
4.9821151304
 20
3.8190812957
 30
0.0
 10
4.9702156797
 20
3.8192008642
 30
0.0
 10
4.9545658053
 20
3.8196639587
 30
0.0
 10
4.9391713113
 20
3.8205699705
 30
0.0
 10
4.9241428406
 20
3.8218762668
 30
0.0
 10
4.9100633707
 20
3.823355846
 30
0.0
 10
4.8884816704
 20
3.8261688169
 30
0.0
 10
4.8632776589
 20
3.8305508561
 30
0.0
 10
4.8449351415
 20
3.8345315827
 30
0.0
 10
4.8377028627
 20
3.8362200796
 30
0.0
  0
LINE
  5
2F2
100
AcDbEntity
  8
ALL_FEATURES
100
AcDbLine
 62
7
  6
CONTINUOUS
 10
4.8330054882
 20
3.8373342525
 11
4.8298653248
 21
3.8380975806
  0
ENDSEC
  0
SECTION
  2
OBJECTS
  0
DICTIONARY
  5
C
100
AcDbDictionary
280
0
281
1
  3
ACAD_GROUP
350
D
  3
ACAD_MLINESTYLE
350
17
  3
ACAD_LAYOUT
350
1A
  3
ACAD_PLOTSETTINGS
350
19
  3
ACAD_PLOTSTYLENAME
350
E
  0
DICTIONARY
  5
D
102
{ACAD_REACTORS
330
C
102
}
100
AcDbDictionary
280
0
281
1
  0
ACDBDICTIONARYWDFLT
  5
E
102
{ACAD_REACTORS
330
C
102
}
100
AcDbDictionary
281
1
  3
Normal
350
F
100
AcDbDictionaryWithDefault
340
F
  0
DICTIONARY
  5
17
102
{ACAD_REACTORS
330
C
102
}
100
AcDbDictionary
280
0
281
1
  3
Standard
350
18
  0
DICTIONARY
  5
19
102
{ACAD_REACTORS
330
C
102
}
100
AcDbDictionary
281
1
  0
DICTIONARY
  5
1A
102
{ACAD_REACTORS
330
C
102
}
100
AcDbDictionary
281
1
  3
Model
350
2F3
  3
Layout1
350
2F4
  0
ACDBPLACEHOLDER
  5
F
102
{ACAD_REACTORS
330
E
102
}
  0
MLINESTYLE
  5
18
102
{ACAD_REACTORS
330
17
102
}
100
AcDbMlineStyle
  2
STANDARD
 70
0
  3

 62
256
 51
90.0
 52
90.0
 71
2
 49
0.5
 62
256
  6
BYLAYER
 49
-0.5
 62
256
  6
BYLAYER
  0
LAYOUT
  5
2F3
102
{ACAD_REACTORS
330
1A
102
}
100
AcDbPlotSettings
  1

  2
none_device
  4
ANSI_A_(11.00_x_8.50_Inches)
  6

 40
0.0
 41
0.0
 42
0.0
 43
0.0
 44
279.4
 45
215.9
 46
0.0
 47
0.0
 48
0.0
 49
0.0
140
0.0
141
0.0
142
1.0
143
1.0
 70
1024
 72
0
 73
0
 74
0
  7

 75
0
147
1.0
148
0.0
149
0.0
100
AcDbLayout
  1
Model
 70
0
 71
0
 10
0.0
 20
0.0
 11
11.0
 21
8.5
 12
0.0
 22
0.0
 32
0.0
 14
0.0
 24
0.0
 34
0.0
 15
0.0
 25
0.0
 35
0.0
146
0.0
 13
0.0
 23
0.0
 33
0.0
 16
1.0
 26
0.0
 36
0.0
 17
0.0
 27
1.0
 37
0.0
 76
0
330
21C
345
0
346
0
  0
LAYOUT
  5
2F4
102
{ACAD_REACTORS
330
1A
102
}
100
AcDbPlotSettings
  1

  2
none_device
  4
ANSI_A_(11.00_x_8.50_Inches)
  6

 40
0.0
 41
0.0
 42
0.0
 43
0.0
 44
279.4
 45
215.9
 46
0.0
 47
0.0
 48
0.0
 49
0.0
140
0.0
141
0.0
142
1.0
143
1.0
 70
0
 72
0
 73
0
 74
0
  7

 75
0
147
1.0
148
0.0
149
0.0
100
AcDbLayout
  1
Layout1
 70
0
 71
1
 10
0.0
 20
0.0
 11
11.0
 21
8.5
 12
0.0
 22
0.0
 32
0.0
 14
0.0
 24
0.0
 34
0.0
 15
0.0
 25
0.0
 35
0.0
146
0.0
 13
0.0
 23
0.0
 33
0.0
 16
1.0
 26
0.0
 36
0.0
 17
0.0
 27
1.0
 37
0.0
 76
0
330
21D
345
0
346
0
  0
ENDSEC
  0
EOF
