999
DXF file: E:\BT Custom\CADOUTPUT\_FRONT.dxf
999
Pro/ENGINEER 2018400 by Parametric Technology Corporation
  0
SECTION
  2
HEADER
  9
$ACADVER
  1
AC1018
  9
$DWGCODEPAGE
  3
ANSI_1252
  9
$EXTMAX
 10
22.0
 20
17.0
 30
0.0
  9
$EXTMIN
 10
0.0
 20
0.0
 30
0.0
  9
$LIMMIN
 10
0.0
 20
0.0
  9
$LIMMAX
 10
22.0
 20
17.0
  9
$VIEWCTR
 10
11.0
 20
8.5
  9
$VIEWSIZE
 40
17.0
  9
$CLAYER
  8
0
  9
$LTSCALE
 40
1.21
  9
$CELTYPE
  6
BYLAYER
  9
$DIMSCALE
 40
1.0
  9
$DIMASZ
 40
0.1
  9
$DIMEXO
 40
0.0625
  9
$DIMDLI
 40
0.836
  9
$DIMEXE
 40
0.125
  9
$DIMCEN
 40
0.198
  9
$DIMLFAC
 40
1.0
  9
$DIMBLK
  1
_FILLED
  9
$DIMALT
 70
1
  9
$DIMALTD
 70
2
  9
$DIMALTTD
 70
2
  9
$DIMALTF
 40
25.4
  9
$DIMTXT
 40
0.08
  9
$DIMTOL
 70
1
  9
$DIMLIM
 70
0
  9
$DIMTFAC
 40
1.0
  9
$DIMTP
 40
0.001
  9
$DIMTM
 40
0.001
  9
$DIMGAP
 40
0.09
  9
$DIMDSEP
 70
46
  9
$AUNITS
 70
0
  9
$PDMODE
 70
3
  9
$PDSIZE
 40
0.06
  9
$HANDSEED
  5
352
  9
$TILEMODE
 70
1
  9
$MEASUREMENT
 70
0
  9
$INSUNITS
 70
1
  0
ENDSEC
  0
SECTION
  2
CLASSES
  0
CLASS
  1
ACDBDICTIONARYWDFLT
  2
AcDbDictionaryWithDefault
  3
AutoCAD 2000
 90
0
 91
1
280
0
281
0
  0
CLASS
  1
ACDBPLACEHOLDER
  2
AcDbPlaceHolder
  3
AutoCAD 2000
 90
0
 91
1
280
0
281
0
  0
CLASS
  1
LAYOUT
  2
AcDbLayout
  3
AutoCAD 2000
 90
0
 91
0
280
0
281
0
  0
ENDSEC
  0
SECTION
  2
TABLES
  0
TABLE
  2
VPORT
  5
8
100
AcDbSymbolTable
 70
2
  0
VPORT
  5
1F4
100
AcDbSymbolTableRecord
100
AcDbViewportTableRecord
  2
*ACTIVE
 70
0
 10
0.0
 20
0.0
 11
1.0
 21
1.0
 12
11.0
 22
8.5
 13
0.0
 23
0.0
 14
1.0
 24
1.0
 15
0.0
 25
0.0
 16
0.0
 26
0.0
 36
1.0
 17
0.0
 27
0.0
 37
0.0
 40
17.0
 41
1.2941176471
 42
50.0
 43
0.0
 44
0.0
 50
0.0
 51
0.0
 71
0
 72
100
 73
1
 74
1
 75
0
 76
0
 77
0
 78
0
  0
ENDTAB
  0
TABLE
  2
LTYPE
  5
5
100
AcDbSymbolTable
 70
6
  0
LTYPE
  5
14
100
AcDbSymbolTableRecord
100
AcDbLinetypeTableRecord
  2
BYBLOCK
 70
0
  3

 72
65
 73
0
 40
0.0
  0
LTYPE
  5
15
100
AcDbSymbolTableRecord
100
AcDbLinetypeTableRecord
  2
BYLAYER
 70
0
  3

 72
65
 73
0
 40
0.0
  0
LTYPE
  5
16
100
AcDbSymbolTableRecord
100
AcDbLinetypeTableRecord
  2
CONTINUOUS
 70
64
  3
Solid line
 72
65
 73
0
 40
0.0
  0
LTYPE
  5
1F5
100
AcDbSymbolTableRecord
100
AcDbLinetypeTableRecord
  2
CENTER
 70
64
  3
____ _ ____ _ ____ _ ____ _ ____ _ ____ _ ____
 72
65
 73
4
 40
0.6
 49
0.375
 74
0
 49
-0.075
 74
0
 49
0.075
 74
0
 49
-0.075
 74
0
  0
LTYPE
  5
1F6
100
AcDbSymbolTableRecord
100
AcDbLinetypeTableRecord
  2
HIDDEN
 70
64
  3
- - - - - - - - - - - - - - - - - - - -
 72
65
 73
2
 40
0.2
 49
0.1
 74
0
 49
-0.1
 74
0
  0
LTYPE
  5
1F7
100
AcDbSymbolTableRecord
100
AcDbLinetypeTableRecord
  2
PHANTOM
 70
64
  3
_____ _ _ _____ _ _ _____ _ _ _____
 72
65
 73
6
 40
0.8
 49
0.45
 74
0
 49
-0.05
 74
0
 49
0.1
 74
0
 49
-0.05
 74
0
 49
0.1
 74
0
 49
-0.05
 74
0
  0
LTYPE
  5
1F8
100
AcDbSymbolTableRecord
100
AcDbLinetypeTableRecord
  2
DOT
 70
64
  3
. . . . . . . . . . . . . . . . . . . .
 72
65
 73
2
 40
0.2
 49
0.1
 74
0
 49
-0.1
 74
0
  0
LTYPE
  5
1F9
100
AcDbSymbolTableRecord
100
AcDbLinetypeTableRecord
  2
DASHED
 70
64
  3
- - - - - - - - - - - - - - - - - - - -
 72
65
 73
2
 40
0.2
 49
0.1
 74
0
 49
-0.1
 74
0
  0
ENDTAB
  0
TABLE
  2
LAYER
  5
2
100
AcDbSymbolTable
 70
36
  0
LAYER
  5
10
100
AcDbSymbolTableRecord
100
AcDbLayerTableRecord
  2
0
 70
0
 62
7
  6
CONTINUOUS
370
-3
390
F
  0
LAYER
  5
1FA
100
AcDbSymbolTableRecord
100
AcDbLayerTableRecord
  2
DEFAULT_1
 70
0
 62
7
  6
CENTER
370
-3
390
F
  0
LAYER
  5
1FB
100
AcDbSymbolTableRecord
100
AcDbLayerTableRecord
  2
DEFAULT_2
 70
0
 62
8
  6
HIDDEN
370
-3
390
F
  0
LAYER
  5
1FC
100
AcDbSymbolTableRecord
100
AcDbLayerTableRecord
  2
DEFAULT_3
 70
0
 62
7
  6
PHANTOM
370
-3
390
F
  0
LAYER
  5
1FD
100
AcDbSymbolTableRecord
100
AcDbLayerTableRecord
  2
ALL_FEATURES
 70
0
 62
7
  6
CONTINUOUS
370
-3
390
F
  0
LAYER
  5
1FE
100
AcDbSymbolTableRecord
100
AcDbLayerTableRecord
  2
AXES_FEATURES
 70
0
 62
7
  6
CONTINUOUS
370
-3
390
F
  0
LAYER
  5
1FF
100
AcDbSymbolTableRecord
100
AcDbLayerTableRecord
  2
DIMENSIONS
 70
0
 62
7
  6
CONTINUOUS
370
-3
390
F
  0
ENDTAB
  0
TABLE
  2
STYLE
  5
3
100
AcDbSymbolTable
 70
1
  0
STYLE
  5
11
100
AcDbSymbolTableRecord
100
AcDbTextStyleTableRecord
  2
STANDARD
 70
0
 40
0.0
 41
0.8
 50
0.0
 71
0
 42
0.2
  3
txt
  4

  0
STYLE
  5
200
100
AcDbSymbolTableRecord
100
AcDbTextStyleTableRecord
  2
TEXTSTYLE_1
 70
0
 40
0.0
 41
0.8
 50
0.0
 71
0
 42
0.2
  3
gdt
  4

  0
ENDTAB
  0
TABLE
  2
VIEW
  5
6
100
AcDbSymbolTable
 70
0
  0
ENDTAB
  0
TABLE
  2
UCS
  5
7
100
AcDbSymbolTable
 70
0
  0
ENDTAB
  0
TABLE
  2
APPID
  5
9
100
AcDbSymbolTable
 70
1
  0
APPID
  5
201
100
AcDbSymbolTableRecord
100
AcDbRegAppTableRecord
  2
ACAD
 70
0
  0
ENDTAB
  0
TABLE
  2
BLOCK_RECORD
  5
1
100
AcDbSymbolTable
 70
0
  0
BLOCK_RECORD
  5
202
100
AcDbSymbolTableRecord
100
AcDbBlockTableRecord
  2
*Model_Space
  0
BLOCK_RECORD
  5
203
100
AcDbSymbolTableRecord
100
AcDbBlockTableRecord
  2
*Paper_Space
  0
BLOCK_RECORD
  5
204
100
AcDbSymbolTableRecord
100
AcDbBlockTableRecord
  2
_FILLED
  0
ENDTAB
  0
TABLE
  2
DIMSTYLE
  5
A
100
AcDbSymbolTable
 70
1
100
AcDbDimStyleTable
 71
0
  0
DIMSTYLE
105
205
100
AcDbSymbolTableRecord
100
AcDbDimStyleTableRecord
  2
STANDARD
 70
0
  3

  4

 40
1.0
 41
0.1
 42
0.0625
 43
0.38
 44
0.125
 45
0.0
 46
0.0
 47
0.001
 48
0.001
140
0.08
141
0.09
142
0.0
143
25.4
144
1.0
145
0.0
146
1.0
147
0.09
 71
1.0
 72
0.0
 73
1
 74
1
 75
0
 76
0
 77
0
 78
4
 79
1
170
1
171
2
172
0
173
0
174
0
175
0
176
0
177
0
178
0
270
2
179
3
271
3
272
3
273
2
274
2
275
0
280
0
281
0
282
0
283
1
284
4
285
0
286
0
287
3
288
0
340
11
278
46
341
204
342
204
343
204
344
204
  0
ENDTAB
  0
ENDSEC
  0
SECTION
  2
BLOCKS
  0
BLOCK
  5
20
100
AcDbEntity
  8
0
100
AcDbBlockBegin
  2
*Model_Space
 70
0
 10
0.0
 20
0.0
 30
0.0
  3
*Model_Space
  1

  0
ENDBLK
  5
21
100
AcDbEntity
  8
0
100
AcDbBlockEnd
  0
BLOCK
  5
1C
100
AcDbEntity
  8
0
100
AcDbBlockBegin
  2
*Paper_Space
 70
0
 10
0.0
 20
0.0
 30
0.0
  3
*Paper_Space
  1

  0
ENDBLK
  5
1D
100
AcDbEntity
  8
0
100
AcDbBlockEnd
  0
BLOCK
  5
206
100
AcDbEntity
  8
0
100
AcDbBlockBegin
  2
_FILLED
 70
64
 10
0.0
 20
0.0
  3
_FILLED
  1

  0
SOLID
  5
207
100
AcDbEntity
  8
0
  6
BYBLOCK
 62
0
100
AcDbTrace
 10
0.0
 20
0.0
 11
-1.0
 21
0.2
 12
-1.0
 22
-0.2
 13
-1.0
 23
-0.2
  0
ENDBLK
  5
208
100
AcDbEntity
  8
0
  6
BYBLOCK
 62
0
100
AcDbBlockEnd
  0
ENDSEC
  0
SECTION
  2
ENTITIES
  0
LINE
  5
209
100
AcDbEntity
  8
0
100
AcDbLine
 62
7
  6
CONTINUOUS
 10
3.6376923427
 20
9.100420413
 11
3.6376923427
 21
8.6014138815
  0
LINE
  5
20A
100
AcDbEntity
  8
0
100
AcDbLine
 62
9
  6
CONTINUOUS
 10
3.6601796522
 20
9.1472487894
 11
3.6601796522
 21
8.554585505
  0
LINE
  5
20B
100
AcDbEntity
  8
0
100
AcDbLine
 62
9
  6
CONTINUOUS
 10
3.7577381496
 20
9.2976343507
 11
3.7577381496
 21
8.4041999438
  0
LINE
  5
20C
100
AcDbEntity
  8
0
100
AcDbLine
 62
9
  6
CONTINUOUS
 10
3.8157894712
 20
9.3424671472
 11
3.8157894712
 21
8.3593671472
  0
LINE
  5
20D
100
AcDbEntity
  8
0
100
AcDbLine
 62
9
  6
CONTINUOUS
 10
3.8376923427
 20
8.3593671472
 11
3.8376923427
 21
9.3424671472
  0
LINE
  5
20E
100
AcDbEntity
  8
0
100
AcDbLine
 62
7
  6
CONTINUOUS
 10
3.8776923427
 20
8.3993671472
 11
3.8776923427
 21
9.3024664022
  0
LINE
  5
20F
100
AcDbEntity
  8
0
100
AcDbLine
 62
7
  6
CONTINUOUS
 10
6.0526923424
 20
9.1299171473
 11
6.0526923424
 21
8.5719171472
  0
LINE
  5
210
100
AcDbEntity
  8
0
100
AcDbLine
 62
9
  6
CONTINUOUS
 10
6.1330677309
 20
9.1776211224
 11
6.1330677309
 21
8.5242131721
  0
LINE
  5
211
100
AcDbEntity
  8
0
100
AcDbLine
 62
9
  6
CONTINUOUS
 10
6.4006901174
 20
9.1532968644
 11
6.4006901174
 21
8.5485374301
  0
LINE
  5
212
100
AcDbEntity
  8
0
100
AcDbLine
 62
7
  6
CONTINUOUS
 10
6.4476923427
 20
8.5879197718
 11
6.4476923427
 21
9.1139134612
  0
LINE
  5
213
100
AcDbEntity
  8
0
100
AcDbLine
 62
7
  6
CONTINUOUS
 10
6.4876923427
 20
8.100417494
 11
6.4876923427
 21
8.0955782909
  0
LINE
  5
214
100
AcDbEntity
  8
0
100
AcDbLine
 62
7
  6
CONTINUOUS
 10
6.5496923427
 20
8.6202678501
 11
6.5496923427
 21
9.0815664444
  0
LINE
  5
215
100
AcDbEntity
  8
0
100
AcDbLine
 62
7
  6
CONTINUOUS
 10
6.6131923427
 20
8.240417494
 11
6.6131923427
 21
8.160417494
  0
LINE
  5
216
100
AcDbEntity
  8
0
100
AcDbLine
 62
7
  6
CONTINUOUS
 10
6.6576923427
 20
9.2180451273
 11
6.6576923427
 21
9.2111890973
  0
LINE
  5
217
100
AcDbEntity
  8
0
100
AcDbLine
 62
7
  6
CONTINUOUS
 10
6.6791923427
 20
8.490417494
 11
6.6791923427
 21
8.240417494
  0
LINE
  5
218
100
AcDbEntity
  8
0
100
AcDbLine
 62
7
  6
CONTINUOUS
 10
8.0409151779
 20
6.0729662763
 11
7.8724153728
 21
6.234624839
  0
LINE
  5
219
100
AcDbEntity
  8
0
100
AcDbLine
 62
7
  6
CONTINUOUS
 10
7.7537873156
 20
6.4477477956
 11
7.8536582247
 21
6.324417494
  0
LINE
  5
21A
100
AcDbEntity
  8
0
100
AcDbLine
 62
7
  6
CONTINUOUS
 10
7.1961923427
 20
8.490417494
 11
7.1961923427
 21
8.240417494
  0
LINE
  5
21B
100
AcDbEntity
  8
0
100
AcDbLine
 62
7
  6
CONTINUOUS
 10
7.2176923427
 20
9.2180451273
 11
7.2176923427
 21
9.2111890973
  0
LINE
  5
21C
100
AcDbEntity
  8
0
100
AcDbLine
 62
7
  6
CONTINUOUS
 10
7.2621923427
 20
8.240417494
 11
7.2621923427
 21
8.160417494
  0
LINE
  5
21D
100
AcDbEntity
  8
0
100
AcDbLine
 62
7
  6
CONTINUOUS
 10
7.3876923427
 20
8.100417494
 11
7.3876923427
 21
8.0955782909
  0
LINE
  5
21E
100
AcDbEntity
  8
0
100
AcDbLine
 62
7
  6
CONTINUOUS
 10
16.0211274945
 20
6.020417494
 11
13.854257191
 21
6.020417494
  0
LINE
  5
21F
100
AcDbEntity
  8
0
100
AcDbLine
 62
7
  6
CONTINUOUS
 10
12.3782300344
 20
6.020417494
 11
9.4971546511
 21
6.020417494
  0
LINE
  5
220
100
AcDbEntity
  8
0
100
AcDbLine
 62
7
  6
CONTINUOUS
 10
8.0211274945
 20
6.020417494
 11
5.854257191
 21
6.020417494
  0
LINE
  5
221
100
AcDbEntity
  8
0
100
AcDbLine
 62
9
  6
CONTINUOUS
 10
16.0409151779
 20
6.0729662763
 11
13.8344695076
 21
6.0729662763
  0
LINE
  5
222
100
AcDbEntity
  8
0
100
AcDbLine
 62
9
  6
CONTINUOUS
 10
8.0409151779
 20
6.0729662763
 11
5.8344695076
 21
6.0729662763
  0
LINE
  5
223
100
AcDbEntity
  8
0
100
AcDbLine
 62
9
  6
CONTINUOUS
 10
12.4109321592
 20
6.0834516215
 11
9.4644525262
 21
6.0834516215
  0
LINE
  5
224
100
AcDbEntity
  8
0
100
AcDbLine
 62
9
  6
CONTINUOUS
 10
6.0029693127
 20
6.234624839
 11
7.8724153728
 21
6.234624839
  0
LINE
  5
225
100
AcDbEntity
  8
0
100
AcDbLine
 62
9
  6
CONTINUOUS
 10
14.0029693127
 20
6.234624839
 11
15.8724153728
 21
6.234624839
  0
LINE
  5
226
100
AcDbEntity
  8
0
100
AcDbLine
 62
9
  6
CONTINUOUS
 10
9.5393250379
 20
6.253571283
 11
12.3360596475
 21
6.253571283
  0
LINE
  5
227
100
AcDbEntity
  8
0
100
AcDbLine
 62
9
  6
CONTINUOUS
 10
6.0121801672
 20
6.2742324717
 11
7.8632045183
 21
6.2742324717
  0
LINE
  5
228
100
AcDbEntity
  8
0
100
AcDbLine
 62
9
  6
CONTINUOUS
 10
14.0121801672
 20
6.2742324717
 11
15.8632045183
 21
6.2742324717
  0
LINE
  5
229
100
AcDbEntity
  8
0
100
AcDbLine
 62
9
  6
CONTINUOUS
 10
9.5352146305
 20
6.281557259
 11
12.3401700549
 21
6.281557259
  0
LINE
  5
22A
100
AcDbEntity
  8
0
100
AcDbLine
 62
9
  6
CONTINUOUS
 10
12.3480118079
 20
6.301658139
 11
9.5273728776
 21
6.301658139
  0
LINE
  5
22B
100
AcDbEntity
  8
0
100
AcDbLine
 62
9
  6
CONTINUOUS
 10
6.0217264608
 20
6.324417494
 11
7.8536582247
 21
6.324417494
  0
LINE
  5
22C
100
AcDbEntity
  8
0
100
AcDbLine
 62
9
  6
CONTINUOUS
 10
14.0217264608
 20
6.324417494
 11
15.8536582247
 21
6.324417494
  0
LINE
  5
22D
100
AcDbEntity
  8
0
100
AcDbLine
 62
9
  6
CONTINUOUS
 10
9.5322874712
 20
6.3263560936
 11
12.3430972143
 21
6.3263560936
  0
LINE
  5
22E
100
AcDbEntity
  8
0
100
AcDbLine
 62
9
  6
CONTINUOUS
 10
15.7537873156
 20
6.4477477956
 11
14.1215973699
 21
6.4477477956
  0
LINE
  5
22F
100
AcDbEntity
  8
0
100
AcDbLine
 62
9
  6
CONTINUOUS
 10
7.7537873156
 20
6.4477477956
 11
6.1215973699
 21
6.4477477956
  0
LINE
  5
230
100
AcDbEntity
  8
0
100
AcDbLine
 62
7
  6
CONTINUOUS
 10
12.2441752496
 20
6.4621612755
 11
9.6312094359
 21
6.4621612755
  0
LINE
  5
231
100
AcDbEntity
  8
0
100
AcDbLine
 62
7
  6
CONTINUOUS
 10
12.2207719287
 20
6.4669137908
 11
9.6546127568
 21
6.4669137908
  0
LINE
  5
232
100
AcDbEntity
  8
0
100
AcDbLine
 62
7
  6
CONTINUOUS
 10
15.6993870983
 20
6.4736953682
 11
14.1759975872
 21
6.4736953682
  0
LINE
  5
233
100
AcDbEntity
  8
0
100
AcDbLine
 62
7
  6
CONTINUOUS
 10
7.6993870983
 20
6.4736953682
 11
6.1759975872
 21
6.4736953682
  0
LINE
  5
234
100
AcDbEntity
  8
0
100
AcDbLine
 62
7
  6
CONTINUOUS
 10
6.4326923427
 20
6.690417494
 11
7.4426923427
 21
6.690417494
  0
LINE
  5
235
100
AcDbEntity
  8
0
100
AcDbLine
 62
7
  6
CONTINUOUS
 10
14.4326923427
 20
6.690417494
 11
15.4426923427
 21
6.690417494
  0
LINE
  5
236
100
AcDbEntity
  8
0
100
AcDbLine
 62
9
  6
CONTINUOUS
 10
6.4619142486
 20
6.7807225623
 11
7.4134704369
 21
6.7807225623
  0
LINE
  5
237
100
AcDbEntity
  8
0
100
AcDbLine
 62
9
  6
CONTINUOUS
 10
14.4619142486
 20
6.7807225623
 11
15.4134704369
 21
6.7807225623
  0
LINE
  5
238
100
AcDbEntity
  8
0
100
AcDbLine
 62
9
  6
CONTINUOUS
 10
6.5064818176
 20
6.8292483132
 11
7.3689028679
 21
6.8292483132
  0
LINE
  5
239
100
AcDbEntity
  8
0
100
AcDbLine
 62
9
  6
CONTINUOUS
 10
14.5064818176
 20
6.8292483132
 11
15.3689028679
 21
6.8292483132
  0
LINE
  5
23A
100
AcDbEntity
  8
0
100
AcDbLine
 62
9
  6
CONTINUOUS
 10
10.1149986841
 20
6.902754234
 11
11.7603860014
 21
6.902754234
  0
LINE
  5
23B
100
AcDbEntity
  8
0
100
AcDbLine
 62
9
  6
CONTINUOUS
 10
10.1135770596
 20
6.9505327947
 11
11.7618076259
 21
6.9505327947
  0
LINE
  5
23C
100
AcDbEntity
  8
0
100
AcDbLine
 62
9
  6
CONTINUOUS
 10
10.1360400573
 20
7.0852688949
 11
11.7393446281
 21
7.0852688949
  0
LINE
  5
23D
100
AcDbEntity
  8
0
100
AcDbLine
 62
9
  6
CONTINUOUS
 10
11.7178924084
 20
7.1142481727
 11
10.157517204
 21
7.1142481727
  0
LINE
  5
23E
100
AcDbEntity
  8
0
100
AcDbLine
 62
7
  6
CONTINUOUS
 10
9.5273728776
 20
6.301658139
 11
9.5352146305
 21
6.281557259
  0
LINE
  5
23F
100
AcDbEntity
  8
0
100
AcDbLine
 62
7
  6
CONTINUOUS
 10
6.1215973699
 20
6.4477477956
 11
6.0217264608
 21
6.324417494
  0
LINE
  5
240
100
AcDbEntity
  8
0
100
AcDbLine
 62
9
  6
CONTINUOUS
 10
10.1574919966
 20
7.6990916491
 11
11.7178650247
 21
7.6990916491
  0
LINE
  5
241
100
AcDbEntity
  8
0
100
AcDbLine
 62
9
  6
CONTINUOUS
 10
11.7393448278
 20
7.728071185
 11
10.1360398577
 21
7.728071185
  0
LINE
  5
242
100
AcDbEntity
  8
0
100
AcDbLine
 62
7
  6
CONTINUOUS
 10
9.8361923427
 20
9.2418377087
 11
9.8367225125
 21
9.244642248
  0
LINE
  5
243
100
AcDbEntity
  8
0
100
AcDbLine
 62
7
  6
CONTINUOUS
 10
10.347678608
 20
10.9874682799
 11
10.3473077364
 21
10.9860265954
  0
LINE
  5
244
100
AcDbEntity
  8
0
100
AcDbLine
 62
7
  6
CONTINUOUS
 10
10.3473077364
 20
10.9860265954
 11
10.3467288036
 21
10.9838245065
  0
LWPOLYLINE
  5
245
100
AcDbEntity
  8
0
100
AcDbPolyline
 62
7
  6
CONTINUOUS
 90
4
 70
0
 10
9.9683638478
 20
9.7914785378
 10
9.9219467873
 20
9.6170898683
 10
9.8754306167
 20
9.4251807324
 10
9.8364727626
 20
9.2446462663
  0
LINE
  5
246
100
AcDbEntity
  8
0
100
AcDbLine
 62
7
  6
CONTINUOUS
 10
10.3467288036
 20
10.9838245065
 11
10.3461697889
 21
10.9817352788
  0
LWPOLYLINE
  5
247
100
AcDbEntity
  8
0
100
AcDbPolyline
 62
7
  6
CONTINUOUS
 90
3
 70
0
 10
9.9988848346
 20
9.8993623138
 10
9.9899728836
 20
9.8683301461
 10
9.9683635399
 20
9.7914774257
  0
LWPOLYLINE
  5
248
100
AcDbEntity
  8
0
100
AcDbPolyline
 62
7
  6
CONTINUOUS
 90
4
 70
0
 10
10.3461197984
 20
10.9815495974
 10
10.3324011262
 20
10.9348357311
 10
10.3034245076
 20
10.8437847108
 10
10.2635028145
 20
10.7231160894
  0
LWPOLYLINE
  5
249
100
AcDbEntity
  8
0
100
AcDbPolyline
 62
7
  6
CONTINUOUS
 90
4
 70
0
 10
10.1421703998
 20
10.3603388013
 10
10.0984218571
 20
10.2255182207
 10
10.047945657
 20
10.0642685273
 10
9.9988842835
 20
9.8993604055
  0
LWPOLYLINE
  5
24A
100
AcDbEntity
  8
0
100
AcDbPolyline
 62
7
  6
CONTINUOUS
 90
3
 70
0
 10
10.2634837067
 20
10.7230589764
 10
10.1886584892
 20
10.5001829138
 10
10.1421722005
 20
10.3603442796
  0
LINE
  5
24B
100
AcDbEntity
  8
0
100
AcDbLine
 62
7
  6
CONTINUOUS
 10
5.8344695076
 20
6.0729662763
 11
6.0029693127
 21
6.234624839
  0
LINE
  5
24C
100
AcDbEntity
  8
0
100
AcDbLine
 62
9
  6
CONTINUOUS
 10
10.1389538765
 20
7.8745752263
 11
11.736430809
 21
7.8745752263
  0
LINE
  5
24D
100
AcDbEntity
  8
0
100
AcDbLine
 62
9
  6
CONTINUOUS
 10
11.7141905409
 20
7.8989964937
 11
10.1612189532
 21
7.8989964937
  0
LINE
  5
24E
100
AcDbEntity
  8
0
100
AcDbLine
 62
9
  6
CONTINUOUS
 10
15.333970741
 20
8.0014509729
 11
14.5414139444
 21
8.001450973
  0
LINE
  5
24F
100
AcDbEntity
  8
0
100
AcDbLine
 62
9
  6
CONTINUOUS
 10
7.333970741
 20
8.001450973
 11
6.5414139444
 21
8.0014509729
  0
LINE
  5
250
100
AcDbEntity
  8
0
100
AcDbLine
 62
9
  6
CONTINUOUS
 10
15.3606753389
 20
8.0454572178
 11
14.5147093466
 21
8.0454572179
  0
LINE
  5
251
100
AcDbEntity
  8
0
100
AcDbLine
 62
9
  6
CONTINUOUS
 10
7.3606753389
 20
8.0454572179
 11
6.5147093466
 21
8.0454572178
  0
LINE
  5
252
100
AcDbEntity
  8
0
100
AcDbLine
 62
9
  6
CONTINUOUS
 10
6.4876923427
 20
8.0955782909
 11
7.3876923427
 21
8.0955782909
  0
LINE
  5
253
100
AcDbEntity
  8
0
100
AcDbLine
 62
9
  6
CONTINUOUS
 10
14.4876923427
 20
8.0955782909
 11
15.3876923427
 21
8.0955782909
  0
LINE
  5
254
100
AcDbEntity
  8
0
100
AcDbLine
 62
9
  6
CONTINUOUS
 10
15.3876923427
 20
8.100417494
 11
14.4876923427
 21
8.100417494
  0
LINE
  5
255
100
AcDbEntity
  8
0
100
AcDbLine
 62
9
  6
CONTINUOUS
 10
7.3876923427
 20
8.100417494
 11
6.4876923427
 21
8.100417494
  0
LINE
  5
256
100
AcDbEntity
  8
0
100
AcDbLine
 62
7
  6
CONTINUOUS
 10
15.3276776147
 20
8.160417494
 11
14.5477070707
 21
8.160417494
  0
LINE
  5
257
100
AcDbEntity
  8
0
100
AcDbLine
 62
7
  6
CONTINUOUS
 10
7.3276776147
 20
8.160417494
 11
6.5477070707
 21
8.160417494
  0
LINE
  5
258
100
AcDbEntity
  8
0
100
AcDbLine
 62
7
  6
CONTINUOUS
 10
15.2621789382
 20
8.240417494
 11
14.6132057473
 21
8.240417494
  0
LINE
  5
259
100
AcDbEntity
  8
0
100
AcDbLine
 62
7
  6
CONTINUOUS
 10
7.2621789382
 20
8.240417494
 11
6.6132057473
 21
8.240417494
  0
LINE
  5
25A
100
AcDbEntity
  8
0
100
AcDbLine
 62
7
  6
CONTINUOUS
 10
10.3926923427
 20
12.3649215103
 11
10.3926923427
 21
12.2749215103
  0
LINE
  5
25B
100
AcDbEntity
  8
0
100
AcDbLine
 62
7
  6
CONTINUOUS
 10
10.3478919919
 20
10.9883160593
 11
10.3479118118
 21
10.988398488
  0
LWPOLYLINE
  5
25C
100
AcDbEntity
  8
0
100
AcDbPolyline
 62
7
  6
CONTINUOUS
 90
3
 70
0
 10
10.3479097063
 20
10.9883899915
 10
10.3477957872
 20
10.987932004
 10
10.347678608
 20
10.9874682799
  0
LINE
  5
25D
100
AcDbEntity
  8
0
100
AcDbLine
 62
7
  6
CONTINUOUS
 10
3.8376923427
 20
8.3593671472
 11
3.8157894712
 21
8.3593671472
  0
LINE
  5
25E
100
AcDbEntity
  8
0
100
AcDbLine
 62
7
  6
CONTINUOUS
 10
18.0376923427
 20
8.3593671472
 11
18.0595952143
 21
8.3593671472
  0
LINE
  5
25F
100
AcDbEntity
  8
0
100
AcDbLine
 62
7
  6
CONTINUOUS
 10
15.2086923427
 20
8.490417494
 11
14.6666923427
 21
8.490417494
  0
LINE
  5
260
100
AcDbEntity
  8
0
100
AcDbLine
 62
7
  6
CONTINUOUS
 10
7.2086923427
 20
8.490417494
 11
6.6666923427
 21
8.490417494
  0
LINE
  5
261
100
AcDbEntity
  8
0
100
AcDbLine
 62
7
  6
CONTINUOUS
 10
6.5496923427
 20
8.6202671472
 11
6.4476923427
 21
8.6202671472
  0
LINE
  5
262
100
AcDbEntity
  8
0
100
AcDbLine
 62
7
  6
CONTINUOUS
 10
15.3256923427
 20
8.6202671472
 11
15.4276923427
 21
8.6202671472
  0
LINE
  5
263
100
AcDbEntity
  8
0
100
AcDbLine
 62
7
  6
CONTINUOUS
 10
12.2441752496
 20
6.4621612755
 11
12.3430972143
 21
6.3263560936
  0
LINE
  5
264
100
AcDbEntity
  8
0
100
AcDbLine
 62
7
  6
CONTINUOUS
 10
10.5426923427
 20
11.9499215103
 11
10.5426923427
 21
11.8949215103
  0
LINE
  5
265
100
AcDbEntity
  8
0
100
AcDbLine
 62
9
  6
CONTINUOUS
 10
10.9376923427
 20
9.3603794375
 11
10.9376923427
 21
11.5112676078
  0
LINE
  5
266
100
AcDbEntity
  8
0
100
AcDbLine
 62
9
  6
CONTINUOUS
 10
14.6388304472
 20
9.1886782572
 11
14.6461657233
 21
9.18873555
  0
LINE
  5
267
100
AcDbEntity
  8
0
100
AcDbLine
 62
7
  6
CONTINUOUS
 10
6.5496923427
 20
9.0815671472
 11
6.4476923427
 21
9.0815671472
  0
LINE
  5
268
100
AcDbEntity
  8
0
100
AcDbLine
 62
7
  6
CONTINUOUS
 10
15.3256923427
 20
9.0815671472
 11
15.4276923427
 21
9.0815671472
  0
LINE
  5
269
100
AcDbEntity
  8
0
100
AcDbLine
 62
9
  6
CONTINUOUS
 10
14.6535814953
 20
9.1886503792
 11
15.2365383758
 21
9.1886782572
  0
LINE
  5
26A
100
AcDbEntity
  8
0
100
AcDbLine
 62
9
  6
CONTINUOUS
 10
6.6388304472
 20
9.1886782572
 11
7.2365383758
 21
9.1886782572
  0
LINE
  5
26B
100
AcDbEntity
  8
0
100
AcDbLine
 62
7
  6
CONTINUOUS
 10
15.2299275887
 20
9.1911890973
 11
14.6454570967
 21
9.1911890973
  0
LINE
  5
26C
100
AcDbEntity
  8
0
100
AcDbLine
 62
7
  6
CONTINUOUS
 10
7.2299275887
 20
9.1911890973
 11
6.6454570967
 21
9.1911890973
  0
LINE
  5
26D
100
AcDbEntity
  8
0
100
AcDbLine
 62
9
  6
CONTINUOUS
 10
6.6576923427
 20
9.2111890973
 11
7.2176923427
 21
9.2111890973
  0
LINE
  5
26E
100
AcDbEntity
  8
0
100
AcDbLine
 62
9
  6
CONTINUOUS
 10
14.6576923427
 20
9.2111890973
 11
15.2176923427
 21
9.2111890973
  0
LINE
  5
26F
100
AcDbEntity
  8
0
100
AcDbLine
 62
9
  6
CONTINUOUS
 10
15.2176923427
 20
9.2180451273
 11
14.6576923427
 21
9.2180451273
  0
LINE
  5
270
100
AcDbEntity
  8
0
100
AcDbLine
 62
9
  6
CONTINUOUS
 10
7.2176923427
 20
9.2180451273
 11
6.6576923427
 21
9.2180451273
  0
LINE
  5
271
100
AcDbEntity
  8
0
100
AcDbLine
 62
9
  6
CONTINUOUS
 10
6.7118858911
 20
9.2937684861
 11
7.1634987944
 21
9.2937684861
  0
LINE
  5
272
100
AcDbEntity
  8
0
100
AcDbLine
 62
9
  6
CONTINUOUS
 10
14.7118858911
 20
9.2937684861
 11
15.1634987944
 21
9.2937684861
  0
LINE
  5
273
100
AcDbEntity
  8
0
100
AcDbLine
 62
9
  6
CONTINUOUS
 10
14.6461657233
 20
9.18873555
 11
14.6535814953
 21
9.1886503792
  0
LINE
  5
274
100
AcDbEntity
  8
0
100
AcDbLine
 62
7
  6
CONTINUOUS
 10
11.3326923427
 20
11.9499215103
 11
11.3326923427
 21
11.8949215103
  0
LINE
  5
275
100
AcDbEntity
  8
0
100
AcDbLine
 62
7
  6
CONTINUOUS
 10
11.4826923427
 20
12.3649215103
 11
11.4826923427
 21
12.2749215103
  0
LINE
  5
276
100
AcDbEntity
  8
0
100
AcDbLine
 62
7
  6
CONTINUOUS
 10
9.6312094359
 20
6.4621612755
 11
9.5322874712
 21
6.3263560936
  0
LINE
  5
277
100
AcDbEntity
  8
0
100
AcDbLine
 62
7
  6
CONTINUOUS
 10
3.8376923427
 20
9.3424671472
 11
3.8157894712
 21
9.3424671472
  0
LINE
  5
278
100
AcDbEntity
  8
0
100
AcDbLine
 62
7
  6
CONTINUOUS
 10
18.0376923427
 20
9.3424671472
 11
18.0595952143
 21
9.3424671472
  0
LINE
  5
279
100
AcDbEntity
  8
0
100
AcDbLine
 62
7
  6
CONTINUOUS
 10
11.6867261963
 20
10.5001829138
 11
11.6119009788
 21
10.7230589764
  0
LINE
  5
27A
100
AcDbEntity
  8
0
100
AcDbLine
 62
7
  6
CONTINUOUS
 10
11.733212485
 20
10.3603442796
 11
11.6867261963
 21
10.5001829138
  0
LWPOLYLINE
  5
27B
100
AcDbEntity
  8
0
100
AcDbPolyline
 62
7
  6
CONTINUOUS
 90
4
 70
0
 10
11.611881871
 20
10.7231160894
 10
11.5719601779
 20
10.8437847108
 10
11.5429835593
 20
10.9348357311
 10
11.529264887
 20
10.9815495974
  0
LWPOLYLINE
  5
27C
100
AcDbEntity
  8
0
100
AcDbPolyline
 62
7
  6
CONTINUOUS
 90
4
 70
0
 10
11.876500402
 20
9.8993604055
 10
11.8274390285
 20
10.0642685273
 10
11.7769628284
 20
10.2255182207
 10
11.7332142857
 20
10.3603388013
  0
LWPOLYLINE
  5
27D
100
AcDbEntity
  8
0
100
AcDbPolyline
 62
7
  6
CONTINUOUS
 90
3
 70
0
 10
11.9070211455
 20
9.7914774257
 10
11.8980175198
 20
9.8237885622
 10
11.8764998508
 20
9.8993623138
  0
LINE
  5
27E
100
AcDbEntity
  8
0
100
AcDbLine
 62
7
  6
CONTINUOUS
 10
11.529264887
 20
10.9815495974
 11
11.528570333
 21
10.9841471071
  0
LINE
  5
27F
100
AcDbEntity
  8
0
100
AcDbLine
 62
7
  6
CONTINUOUS
 10
11.528570333
 20
10.9841471071
 11
11.5279350026
 21
10.9865746789
  0
LINE
  5
280
100
AcDbEntity
  8
0
100
AcDbLine
 62
7
  6
CONTINUOUS
 10
11.5279350026
 20
10.9865746789
 11
11.5276624564
 21
10.9876402822
  0
LWPOLYLINE
  5
281
100
AcDbEntity
  8
0
100
AcDbPolyline
 62
7
  6
CONTINUOUS
 90
3
 70
0
 10
11.5276624564
 20
10.9876402822
 10
11.5275086649
 20
10.9882534095
 10
11.5274755898
 20
10.9883874996
  0
LWPOLYLINE
  5
282
100
AcDbEntity
  8
0
100
AcDbPolyline
 62
7
  6
CONTINUOUS
 90
4
 70
0
 10
12.0389119228
 20
9.2446462663
 10
11.9999540688
 20
9.4251807324
 10
11.9534378982
 20
9.6170898683
 10
11.9070208377
 20
9.7914785378
  0
LINE
  5
283
100
AcDbEntity
  8
0
100
AcDbLine
 62
7
  6
CONTINUOUS
 10
12.0386200228
 20
9.244641411
 11
12.0391923427
 21
9.2418377087
  0
LINE
  5
284
100
AcDbEntity
  8
0
100
AcDbLine
 62
7
  6
CONTINUOUS
 10
16.0409151779
 20
6.0729662763
 11
15.8724153728
 21
6.234624839
  0
LINE
  5
285
100
AcDbEntity
  8
0
100
AcDbLine
 62
7
  6
CONTINUOUS
 10
15.7537873156
 20
6.4477477956
 11
15.8536582247
 21
6.324417494
  0
LINE
  5
286
100
AcDbEntity
  8
0
100
AcDbLine
 62
7
  6
CONTINUOUS
 10
12.3480118079
 20
6.301658139
 11
12.3401700549
 21
6.281557259
  0
LINE
  5
287
100
AcDbEntity
  8
0
100
AcDbLine
 62
7
  6
CONTINUOUS
 10
10.5426923427
 20
11.8949215103
 11
11.3326923394
 21
11.8949215103
  0
LINE
  5
288
100
AcDbEntity
  8
0
100
AcDbLine
 62
9
  6
CONTINUOUS
 10
11.3326923427
 20
11.9499215103
 11
10.5426923427
 21
11.9499215103
  0
LINE
  5
289
100
AcDbEntity
  8
0
100
AcDbLine
 62
7
  6
CONTINUOUS
 10
11.2626884036
 20
12.0199215103
 11
10.6126962819
 21
12.0199215103
  0
LINE
  5
28A
100
AcDbEntity
  8
0
100
AcDbLine
 62
7
  6
CONTINUOUS
 10
11.4626923427
 20
12.2549215103
 11
10.4126923427
 21
12.2549215103
  0
LINE
  5
28B
100
AcDbEntity
  8
0
100
AcDbLine
 62
9
  6
CONTINUOUS
 10
10.3926923427
 20
12.2749215103
 11
11.4826923427
 21
12.2749215103
  0
LINE
  5
28C
100
AcDbEntity
  8
0
100
AcDbLine
 62
9
  6
CONTINUOUS
 10
11.4826923427
 20
12.3649215103
 11
10.3926923427
 21
12.3649215103
  0
LINE
  5
28D
100
AcDbEntity
  8
0
100
AcDbLine
 62
7
  6
CONTINUOUS
 10
11.4626905476
 20
12.3849215103
 11
10.4126941379
 21
12.3849215103
  0
LINE
  5
28E
100
AcDbEntity
  8
0
100
AcDbLine
 62
7
  6
CONTINUOUS
 10
14.4876923427
 20
8.100417494
 11
14.4876923427
 21
8.0955782909
  0
LINE
  5
28F
100
AcDbEntity
  8
0
100
AcDbLine
 62
7
  6
CONTINUOUS
 10
14.6131923427
 20
8.240417494
 11
14.6131923427
 21
8.160417494
  0
LINE
  5
290
100
AcDbEntity
  8
0
100
AcDbLine
 62
7
  6
CONTINUOUS
 10
14.6576923427
 20
9.2180451273
 11
14.6576923427
 21
9.2111890973
  0
LINE
  5
291
100
AcDbEntity
  8
0
100
AcDbLine
 62
7
  6
CONTINUOUS
 10
14.6791923427
 20
8.490417494
 11
14.6791923427
 21
8.240417494
  0
LINE
  5
292
100
AcDbEntity
  8
0
100
AcDbLine
 62
7
  6
CONTINUOUS
 10
15.1961923427
 20
8.490417494
 11
15.1961923427
 21
8.240417494
  0
LINE
  5
293
100
AcDbEntity
  8
0
100
AcDbLine
 62
7
  6
CONTINUOUS
 10
15.2176923427
 20
9.2180451273
 11
15.2176923427
 21
9.2111890973
  0
LINE
  5
294
100
AcDbEntity
  8
0
100
AcDbLine
 62
7
  6
CONTINUOUS
 10
15.2621923427
 20
8.240417494
 11
15.2621923427
 21
8.160417494
  0
LINE
  5
295
100
AcDbEntity
  8
0
100
AcDbLine
 62
7
  6
CONTINUOUS
 10
14.1215973699
 20
6.4477477956
 11
14.0217264608
 21
6.324417494
  0
LINE
  5
296
100
AcDbEntity
  8
0
100
AcDbLine
 62
7
  6
CONTINUOUS
 10
13.8344695076
 20
6.0729662763
 11
14.0029693127
 21
6.234624839
  0
LINE
  5
297
100
AcDbEntity
  8
0
100
AcDbLine
 62
7
  6
CONTINUOUS
 10
15.3256923427
 20
9.0815664444
 11
15.3256923427
 21
8.6202678501
  0
LINE
  5
298
100
AcDbEntity
  8
0
100
AcDbLine
 62
7
  6
CONTINUOUS
 10
15.3876923427
 20
8.100417494
 11
15.3876923427
 21
8.0955782909
  0
LINE
  5
299
100
AcDbEntity
  8
0
100
AcDbLine
 62
7
  6
CONTINUOUS
 10
15.4276923427
 20
8.5879208333
 11
15.4276923427
 21
9.1139134612
  0
LINE
  5
29A
100
AcDbEntity
  8
0
100
AcDbLine
 62
9
  6
CONTINUOUS
 10
15.474694568
 20
8.5485374301
 11
15.474694568
 21
9.1532968644
  0
LINE
  5
29B
100
AcDbEntity
  8
0
100
AcDbLine
 62
9
  6
CONTINUOUS
 10
15.7423169546
 20
8.5242131721
 11
15.7423169546
 21
9.1776211224
  0
LINE
  5
29C
100
AcDbEntity
  8
0
100
AcDbLine
 62
7
  6
CONTINUOUS
 10
15.822692343
 20
8.5719171472
 11
15.822692343
 21
9.1299171473
  0
LINE
  5
29D
100
AcDbEntity
  8
0
100
AcDbLine
 62
7
  6
CONTINUOUS
 10
17.9976923427
 20
8.3993678922
 11
17.9976923427
 21
9.3024671472
  0
LINE
  5
29E
100
AcDbEntity
  8
0
100
AcDbLine
 62
9
  6
CONTINUOUS
 10
18.0376923427
 20
9.3424671472
 11
18.0376923427
 21
8.3593671472
  0
LINE
  5
29F
100
AcDbEntity
  8
0
100
AcDbLine
 62
9
  6
CONTINUOUS
 10
18.0595952143
 20
8.3593671472
 11
18.0595952143
 21
9.3424671472
  0
LINE
  5
2A0
100
AcDbEntity
  8
0
100
AcDbLine
 62
9
  6
CONTINUOUS
 10
18.1176465359
 20
8.4041999438
 11
18.1176465359
 21
9.2976343507
  0
LINE
  5
2A1
100
AcDbEntity
  8
0
100
AcDbLine
 62
9
  6
CONTINUOUS
 10
18.2152050333
 20
8.554585505
 11
18.2152050333
 21
9.1472487894
  0
LINE
  5
2A2
100
AcDbEntity
  8
0
100
AcDbLine
 62
7
  6
CONTINUOUS
 10
18.2376923427
 20
8.6014128266
 11
18.2376923427
 21
9.1004214679
  0
ARC
  5
2A3
100
AcDbEntity
  8
0
100
AcDbCircle
 62
7
  6
CONTINUOUS
 10
-27.6816716733
 20
7.4066888093
 40
39.4006493773
100
AcDbArc
 50
359.5747337074
 51
0.4252113274
  0
ARC
  5
2A4
100
AcDbEntity
  8
0
100
AcDbCircle
 62
7
  6
CONTINUOUS
 10
1.8647975264
 20
-32.6607700568
 40
41.9999999998
100
AcDbArc
 50
84.2774261875
 51
87.2529863377
  0
ARC
  5
2A5
100
AcDbEntity
  8
0
100
AcDbCircle
 62
7
  6
CONTINUOUS
 10
6.0636923427
 20
6.2904341929
 40
0.054
100
AcDbArc
 50
141.0
 51
197.4595175183
  0
ARC
  5
2A6
100
AcDbEntity
  8
0
100
AcDbCircle
 62
7
  6
CONTINUOUS
 10
5.9740230001
 20
6.2622311968
 40
0.04
100
AcDbArc
 50
316.3573080803
 51
17.4595175184
  0
ARC
  5
2A7
100
AcDbEntity
  8
0
100
AcDbCircle
 62
7
  6
CONTINUOUS
 10
5.854257191
 20
6.050417494
 40
0.03
100
AcDbArc
 50
131.2685692711
 51
270.0
  0
ARC
  5
2A8
100
AcDbEntity
  8
0
100
AcDbCircle
 62
7
  6
CONTINUOUS
 10
2.1056309176
 20
7.5470173264
 40
4.459
100
AcDbArc
 50
350.7367477834
 51
5.849386431
  0
ARC
  5
2A9
100
AcDbEntity
  8
0
100
AcDbCircle
 62
7
  6
CONTINUOUS
 10
3.4819943719
 20
8.3321557276
 40
0.285
100
AcDbArc
 50
14.6424776248
 51
51.3022866217
  0
ARC
  5
2AA
100
AcDbEntity
  8
0
100
AcDbCircle
 62
7
  6
CONTINUOUS
 10
3.8157894712
 20
8.4193671472
 40
0.06
100
AcDbArc
 50
194.6424776248
 51
270.0
  0
ARC
  5
2AB
100
AcDbEntity
  8
0
100
AcDbCircle
 62
7
  6
CONTINUOUS
 10
3.6976923427
 20
8.6014128266
 40
0.06
100
AcDbArc
 50
180.0
 51
231.3022866216
  0
ARC
  5
2AC
100
AcDbEntity
  8
0
100
AcDbCircle
 62
7
  6
CONTINUOUS
 10
6.1120860822
 20
8.5804250073
 40
0.06
100
AcDbArc
 50
188.151882932
 51
290.4686088221
  0
ARC
  5
2AD
100
AcDbEntity
  8
0
100
AcDbCircle
 62
7
  6
CONTINUOUS
 10
3.8376923427
 20
8.3993671472
 40
0.04
100
AcDbArc
 50
270.0
 51
360.0
  0
ARC
  5
2AE
100
AcDbEntity
  8
0
100
AcDbCircle
 62
7
  6
CONTINUOUS
 10
10.2221492484
 20
4.9958384803
 40
2.45
100
AcDbArc
 50
36.9093517651
 51
51.1081952499
  0
ARC
  5
2AF
100
AcDbEntity
  8
0
100
AcDbCircle
 62
7
  6
CONTINUOUS
 10
6.9066923427
 20
5.8902775062
 40
0.93
100
AcDbArc
 50
120.6423451974
 51
141.168495232
  0
ARC
  5
2B0
100
AcDbEntity
  8
0
100
AcDbCircle
 62
7
  6
CONTINUOUS
 10
6.9686923427
 20
5.8902775062
 40
0.93
100
AcDbArc
 50
38.831504768
 51
59.3576548026
  0
ARC
  5
2B1
100
AcDbEntity
  8
0
100
AcDbCircle
 62
7
  6
CONTINUOUS
 10
9.0802025594
 20
6.35410262
 40
0.47
100
AcDbArc
 50
324.8405965889
 51
347.6492068003
  0
ARC
  5
2B2
100
AcDbEntity
  8
0
100
AcDbCircle
 62
7
  6
CONTINUOUS
 10
7.6993870983
 20
6.4036953682
 40
0.07
100
AcDbArc
 50
39.0
 51
90.0
  0
ARC
  5
2B3
100
AcDbEntity
  8
0
100
AcDbCircle
 62
7
  6
CONTINUOUS
 10
6.1759975872
 20
6.4036953682
 40
0.07
100
AcDbArc
 50
90.0
 51
141.0
  0
ARC
  5
2B4
100
AcDbEntity
  8
0
100
AcDbCircle
 62
7
  6
CONTINUOUS
 10
9.6546127568
 20
6.4069137908
 40
0.06
100
AcDbArc
 50
90.0
 51
112.9579434022
  0
ARC
  5
2B5
100
AcDbEntity
  8
0
100
AcDbCircle
 62
7
  6
CONTINUOUS
 10
6.4755875639
 20
6.726417494
 40
0.056
100
AcDbArc
 50
104.1325726664
 51
220.0052008849
  0
ARC
  5
2B6
100
AcDbEntity
  8
0
100
AcDbCircle
 62
7
  6
CONTINUOUS
 10
7.3997971216
 20
6.726417494
 40
0.056
100
AcDbArc
 50
319.9947991151
 51
75.8674273336
  0
ARC
  5
2B7
100
AcDbEntity
  8
0
100
AcDbCircle
 62
7
  6
CONTINUOUS
 10
7.8116923427
 20
6.2904341929
 40
0.054
100
AcDbArc
 50
342.5404824817
 51
39.0
  0
ARC
  5
2B8
100
AcDbEntity
  8
0
100
AcDbCircle
 62
7
  6
CONTINUOUS
 10
7.9013616854
 20
6.2622311968
 40
0.04
100
AcDbArc
 50
162.5404824816
 51
223.6426919197
  0
ARC
  5
2B9
100
AcDbEntity
  8
0
100
AcDbCircle
 62
7
  6
CONTINUOUS
 10
9.4971546511
 20
6.060417494
 40
0.04
100
AcDbArc
 50
144.8405965889
 51
270.0
  0
ARC
  5
2BA
100
AcDbEntity
  8
0
100
AcDbCircle
 62
7
  6
CONTINUOUS
 10
9.5002507844
 20
6.2621271415
 40
0.04
100
AcDbArc
 50
347.6492068003
 51
29.0618146148
  0
ARC
  5
2BB
100
AcDbEntity
  8
0
100
AcDbCircle
 62
7
  6
CONTINUOUS
 10
8.0211274945
 20
6.050417494
 40
0.03
100
AcDbArc
 50
270.0
 51
48.7314307289
  0
ARC
  5
2BC
100
AcDbEntity
  8
0
100
AcDbCircle
 62
7
  6
CONTINUOUS
 10
9.5565364195
 20
6.3086928971
 40
0.03
100
AcDbArc
 50
143.93
 51
193.5616760918
  0
ARC
  5
2BD
100
AcDbEntity
  8
0
100
AcDbCircle
 62
7
  6
CONTINUOUS
 10
10.1056309176
 20
7.5470173264
 40
4.459
100
AcDbArc
 50
350.7367477834
 51
5.8493864313
  0
ARC
  5
2BE
100
AcDbEntity
  8
0
100
AcDbCircle
 62
7
  6
CONTINUOUS
 10
6.9376923427
 20
8.6311890973
 40
0.7
100
AcDbArc
 50
71.180936631
 51
108.819063369
  0
ARC
  5
2BF
100
AcDbEntity
  8
0
100
AcDbCircle
 62
7
  6
CONTINUOUS
 10
6.311411745
 20
8.0464125729
 40
0.51
100
AcDbArc
 50
79.9181044226
 51
110.4686088223
  0
ARC
  5
2C0
100
AcDbEntity
  8
0
100
AcDbCircle
 62
7
  6
CONTINUOUS
 10
10.1576923427
 20
7.8009215103
 40
0.076
100
AcDbArc
 50
104.2739707055
 51
253.4470619298
  0
ARC
  5
2C1
100
AcDbEntity
  8
0
100
AcDbCircle
 62
7
  6
CONTINUOUS
 10
10.1576923427
 20
7.0124185103
 40
0.076
100
AcDbArc
 50
106.5527810609
 51
234.5167977112
  0
ARC
  5
2C2
100
AcDbEntity
  8
0
100
AcDbCircle
 62
7
  6
CONTINUOUS
 10
7.3276923427
 20
8.0955782909
 40
0.06
100
AcDbArc
 50
303.3475728908
 51
360.0
  0
ARC
  5
2C3
100
AcDbEntity
  8
0
100
AcDbCircle
 62
7
  6
CONTINUOUS
 10
7.393658335
 20
7.9953361448
 40
0.06
100
AcDbArc
 50
123.3475728905
 51
174.1506135686
  0
ARC
  5
2C4
100
AcDbEntity
  8
0
100
AcDbCircle
 62
7
  6
CONTINUOUS
 10
7.4281204176
 20
6.8389065641
 40
0.06
100
AcDbArc
 50
189.2632522166
 51
255.8674273336
  0
ARC
  5
2C5
100
AcDbEntity
  8
0
100
AcDbCircle
 62
7
  6
CONTINUOUS
 10
6.4472642679
 20
6.8389065641
 40
0.06
100
AcDbArc
 50
284.1325726664
 51
350.7367477834
  0
ARC
  5
2C6
100
AcDbEntity
  8
0
100
AcDbCircle
 62
7
  6
CONTINUOUS
 10
6.4817263504
 20
7.9953361448
 40
0.06
100
AcDbArc
 50
5.8493864314
 51
56.6524271106
  0
ARC
  5
2C7
100
AcDbEntity
  8
0
100
AcDbCircle
 62
7
  6
CONTINUOUS
 10
6.5476923427
 20
8.0955782909
 40
0.06
100
AcDbArc
 50
180.0
 51
236.6524271109
  0
ARC
  5
2C8
100
AcDbEntity
  8
0
100
AcDbCircle
 62
7
  6
CONTINUOUS
 10
7.3276923427
 20
8.100417494
 40
0.06
100
AcDbArc
 50
0.0
 51
90.0
  0
ARC
  5
2C9
100
AcDbEntity
  8
0
100
AcDbCircle
 62
7
  6
CONTINUOUS
 10
6.5476923427
 20
8.100417494
 40
0.06
100
AcDbArc
 50
90.0
 51
180.0
  0
ARC
  5
2CA
100
AcDbEntity
  8
0
100
AcDbCircle
 62
7
  6
CONTINUOUS
 10
6.4076923427
 20
8.5879197718
 40
0.04
100
AcDbArc
 50
259.9181044225
 51
360.0
  0
ARC
  5
2CB
100
AcDbEntity
  8
0
100
AcDbCircle
 62
7
  6
CONTINUOUS
 10
10.1315571135
 20
7.9036490616
 40
0.03
100
AcDbArc
 50
284.2739707055
 51
351.0782394857
  0
ARC
  5
2CC
100
AcDbEntity
  8
0
100
AcDbCircle
 62
7
  6
CONTINUOUS
 10
10.1274928242
 20
7.6993144777
 40
0.03
100
AcDbArc
 50
359.5744248204
 51
73.4470619302
  0
ARC
  5
2CD
100
AcDbEntity
  8
0
100
AcDbCircle
 62
7
  6
CONTINUOUS
 10
10.1274931026
 20
7.1140256257
 40
0.03
100
AcDbArc
 50
286.552781061
 51
0.4250373636
  0
ARC
  5
2CE
100
AcDbEntity
  8
0
100
AcDbCircle
 62
7
  6
CONTINUOUS
 10
10.096163132
 20
6.9261042228
 40
0.03
100
AcDbArc
 50
308.89180475
 51
54.5167977113
  0
ARC
  5
2CF
100
AcDbEntity
  8
0
100
AcDbCircle
 62
7
  6
CONTINUOUS
 10
1.8647975264
 20
50.3626043516
 40
42.0
100
AcDbArc
 50
272.7470136623
 51
275.7225738124
  0
ARC
  5
2D0
100
AcDbEntity
  8
0
100
AcDbCircle
 62
7
  6
CONTINUOUS
 10
3.5016815943
 20
8.950921116
 40
6.7420807484
100
AcDbArc
 50
351.023825638
 51
1.6951133494
  0
ARC
  5
2D1
100
AcDbEntity
  8
0
100
AcDbCircle
 62
7
  6
CONTINUOUS
 10
10.9376897916
 20
10.9112673058
 40
1.0600008459
100
AcDbArc
 50
321.6275555273
 51
68.121259741
  0
ARC
  5
2D2
100
AcDbEntity
  8
0
100
AcDbCircle
 62
7
  6
CONTINUOUS
 10
10.9376900516
 20
10.9112692411
 40
1.0599960978
100
AcDbArc
 50
111.8785342657
 51
218.3499093851
  0
ARC
  5
2D3
100
AcDbEntity
  8
0
100
AcDbCircle
 62
7
  6
CONTINUOUS
 10
10.8659236822
 20
12.5931127068
 40
0.66
100
AcDbArc
 50
299.7184980024
 51
329.1754473178
  0
ARC
  5
2D4
100
AcDbEntity
  8
0
100
AcDbCircle
 62
7
  6
CONTINUOUS
 10
10.9351777584
 20
10.909528816
 40
0.5975567628
100
AcDbArc
 50
172.3677531244
 51
173.0143948349
  0
ARC
  5
2D5
100
AcDbEntity
  8
0
100
AcDbCircle
 62
7
  6
CONTINUOUS
 10
10.9328845863
 20
10.9098088734
 40
0.5952465529
100
AcDbArc
 50
173.0143065601
 51
173.7860543874
  0
ARC
  5
2D6
100
AcDbEntity
  8
0
100
AcDbCircle
 62
9
  6
CONTINUOUS
 10
10.889840148
 20
10.8888628909
 40
0.5534948677
100
AcDbArc
 50
169.5898537885
 51
170.0568869889
  0
ARC
  5
2D7
100
AcDbEntity
  8
0
100
AcDbCircle
 62
9
  6
CONTINUOUS
 10
10.8851671234
 20
10.8896849358
 40
0.5487500906
100
AcDbArc
 50
170.0571798481
 51
170.3246314716
  0
ARC
  5
2D8
100
AcDbEntity
  8
0
100
AcDbCircle
 62
9
  6
CONTINUOUS
 10
10.8776132066
 20
10.8909572489
 40
0.5410897903
100
AcDbArc
 50
170.3230073226
 51
171.2977870351
  0
ARC
  5
2D9
100
AcDbEntity
  8
0
100
AcDbCircle
 62
7
  6
CONTINUOUS
 10
10.851513676
 20
10.8859689098
 40
0.5143557251
100
AcDbArc
 50
168.5156434012
 51
168.8521995902
  0
ARC
  5
2DA
100
AcDbEntity
  8
0
100
AcDbCircle
 62
7
  6
CONTINUOUS
 10
10.8473310871
 20
10.8867947408
 40
0.5100923879
100
AcDbArc
 50
168.8523776148
 51
169.0638625996
  0
ARC
  5
2DB
100
AcDbEntity
  8
0
100
AcDbCircle
 62
7
  6
CONTINUOUS
 10
6.311411745
 20
9.6554217216
 40
0.51
100
AcDbArc
 50
249.531391178
 51
280.0818955774
  0
ARC
  5
2DC
100
AcDbEntity
  8
0
100
AcDbCircle
 62
7
  6
CONTINUOUS
 10
10.8441490436
 20
10.8874095547
 40
0.5068514934
100
AcDbArc
 50
169.0638589604
 51
169.2807406028
  0
ARC
  5
2DD
100
AcDbEntity
  8
0
100
AcDbCircle
 62
7
  6
CONTINUOUS
 10
6.9376923427
 20
8.8509171472
 40
0.451
100
AcDbArc
 50
306.9334449091
 51
48.4965643543
  0
ARC
  5
2DE
100
AcDbEntity
  8
0
100
AcDbCircle
 62
7
  6
CONTINUOUS
 10
6.9376923427
 20
8.8509171472
 40
0.451
100
AcDbArc
 50
210.6485451413
 51
233.0665550909
  0
ARC
  5
2DF
100
AcDbEntity
  8
0
100
AcDbCircle
 62
7
  6
CONTINUOUS
 10
6.9376923427
 20
8.8509171472
 40
0.451
100
AcDbArc
 50
131.5034356457
 51
149.3514548587
  0
ARC
  5
2E0
100
AcDbEntity
  8
0
100
AcDbCircle
 62
7
  6
CONTINUOUS
 10
3.4819943719
 20
9.3696785669
 40
0.285
100
AcDbArc
 50
308.6977133783
 51
345.3575223752
  0
ARC
  5
2E1
100
AcDbEntity
  8
0
100
AcDbCircle
 62
7
  6
CONTINUOUS
 10
7.1376923427
 20
9.2180451273
 40
0.08
100
AcDbArc
 50
0.0
 51
71.1809366309
  0
ARC
  5
2E2
100
AcDbEntity
  8
0
100
AcDbCircle
 62
7
  6
CONTINUOUS
 10
6.7376923427
 20
9.2180451273
 40
0.08
100
AcDbArc
 50
108.8190633691
 51
180.0
  0
ARC
  5
2E3
100
AcDbEntity
  8
0
100
AcDbCircle
 62
7
  6
CONTINUOUS
 10
10.6126923427
 20
11.9499215103
 40
0.07
100
AcDbArc
 50
90.0
 51
180.0
  0
ARC
  5
2E4
100
AcDbEntity
  8
0
100
AcDbCircle
 62
7
  6
CONTINUOUS
 10
3.6976923427
 20
9.1004214679
 40
0.06
100
AcDbArc
 50
128.6977133784
 51
180.0
  0
ARC
  5
2E5
100
AcDbEntity
  8
0
100
AcDbCircle
 62
7
  6
CONTINUOUS
 10
3.8157894712
 20
9.2824671472
 40
0.06
100
AcDbArc
 50
90.0
 51
165.3575223752
  0
ARC
  5
2E6
100
AcDbEntity
  8
0
100
AcDbCircle
 62
7
  6
CONTINUOUS
 10
6.1120860822
 20
9.1214092872
 40
0.06
100
AcDbArc
 50
69.531391178
 51
171.848117067
  0
ARC
  5
2E7
100
AcDbEntity
  8
0
100
AcDbCircle
 62
7
  6
CONTINUOUS
 10
3.8376923427
 20
9.3024671472
 40
0.04
100
AcDbArc
 50
0.0
 51
90.0
  0
ARC
  5
2E8
100
AcDbEntity
  8
0
100
AcDbCircle
 62
7
  6
CONTINUOUS
 10
6.4076923427
 20
9.1139145227
 40
0.04
100
AcDbArc
 50
0.0
 51
100.0818955775
  0
ARC
  5
2E9
100
AcDbEntity
  8
0
100
AcDbCircle
 62
7
  6
CONTINUOUS
 10
7.1976923427
 20
9.2111890973
 40
0.02
100
AcDbArc
 50
270.0
 51
360.0
  0
ARC
  5
2EA
100
AcDbEntity
  8
0
100
AcDbCircle
 62
7
  6
CONTINUOUS
 10
6.6776923427
 20
9.2111890973
 40
0.02
100
AcDbArc
 50
180.0
 51
270.0
  0
ARC
  5
2EB
100
AcDbEntity
  8
0
100
AcDbCircle
 62
7
  6
CONTINUOUS
 10
10.4126923427
 20
12.3649215103
 40
0.02
100
AcDbArc
 50
90.0
 51
180.0
  0
ARC
  5
2EC
100
AcDbEntity
  8
0
100
AcDbCircle
 62
7
  6
CONTINUOUS
 10
10.4126923427
 20
12.2749215103
 40
0.02
100
AcDbArc
 50
180.0
 51
270.0
  0
ARC
  5
2ED
100
AcDbEntity
  8
0
100
AcDbCircle
 62
7
  6
CONTINUOUS
 10
7.2299275887
 20
9.1811890973
 40
0.01
100
AcDbArc
 50
48.496564353
 51
90.0
  0
ARC
  5
2EE
100
AcDbEntity
  8
0
100
AcDbCircle
 62
7
  6
CONTINUOUS
 10
6.6454570967
 20
9.1811890973
 40
0.01
100
AcDbArc
 50
90.0
 51
131.503435647
  0
ARC
  5
2EF
100
AcDbEntity
  8
0
100
AcDbCircle
 62
7
  6
CONTINUOUS
 10
20.010587159
 20
-32.6607700568
 40
41.9999999998
100
AcDbArc
 50
92.7470136623
 51
95.7225738125
  0
ARC
  5
2F0
100
AcDbEntity
  8
0
100
AcDbCircle
 62
7
  6
CONTINUOUS
 10
11.6532354371
 20
4.9958384803
 40
2.45
100
AcDbArc
 50
128.8918047501
 51
143.0906482349
  0
ARC
  5
2F1
100
AcDbEntity
  8
0
100
AcDbCircle
 62
7
  6
CONTINUOUS
 10
14.9686923427
 20
5.8902775062
 40
0.93
100
AcDbArc
 50
38.831504768
 51
59.3576548026
  0
ARC
  5
2F2
100
AcDbEntity
  8
0
100
AcDbCircle
 62
7
  6
CONTINUOUS
 10
14.9066923427
 20
5.8902775062
 40
0.93
100
AcDbArc
 50
120.6423451974
 51
141.168495232
  0
ARC
  5
2F3
100
AcDbEntity
  8
0
100
AcDbCircle
 62
7
  6
CONTINUOUS
 10
12.7951821261
 20
6.35410262
 40
0.47
100
AcDbArc
 50
192.3507931997
 51
215.1594034111
  0
ARC
  5
2F4
100
AcDbEntity
  8
0
100
AcDbCircle
 62
7
  6
CONTINUOUS
 10
14.1759975872
 20
6.4036953682
 40
0.07
100
AcDbArc
 50
90.0
 51
141.0
  0
ARC
  5
2F5
100
AcDbEntity
  8
0
100
AcDbCircle
 62
7
  6
CONTINUOUS
 10
15.6993870983
 20
6.4036953682
 40
0.07
100
AcDbArc
 50
39.0
 51
90.0
  0
ARC
  5
2F6
100
AcDbEntity
  8
0
100
AcDbCircle
 62
7
  6
CONTINUOUS
 10
12.2207719287
 20
6.4069137908
 40
0.06
100
AcDbArc
 50
67.0420565978
 51
90.0
  0
ARC
  5
2F7
100
AcDbEntity
  8
0
100
AcDbCircle
 62
7
  6
CONTINUOUS
 10
15.3997971216
 20
6.726417494
 40
0.056
100
AcDbArc
 50
319.9947991151
 51
75.8674273336
  0
ARC
  5
2F8
100
AcDbEntity
  8
0
100
AcDbCircle
 62
7
  6
CONTINUOUS
 10
14.4755875639
 20
6.726417494
 40
0.056
100
AcDbArc
 50
104.1325726664
 51
220.0052008849
  0
ARC
  5
2F9
100
AcDbEntity
  8
0
100
AcDbCircle
 62
7
  6
CONTINUOUS
 10
14.0636923427
 20
6.2904341929
 40
0.054
100
AcDbArc
 50
141.0
 51
197.4595175183
  0
ARC
  5
2FA
100
AcDbEntity
  8
0
100
AcDbCircle
 62
7
  6
CONTINUOUS
 10
13.9740230001
 20
6.2622311968
 40
0.04
100
AcDbArc
 50
316.3573080803
 51
17.4595175184
  0
ARC
  5
2FB
100
AcDbEntity
  8
0
100
AcDbCircle
 62
7
  6
CONTINUOUS
 10
12.3782300344
 20
6.060417494
 40
0.04
100
AcDbArc
 50
270.0
 51
35.1594034111
  0
ARC
  5
2FC
100
AcDbEntity
  8
0
100
AcDbCircle
 62
7
  6
CONTINUOUS
 10
12.375133901
 20
6.2621271415
 40
0.04
100
AcDbArc
 50
150.9381853852
 51
192.3507931997
  0
ARC
  5
2FD
100
AcDbEntity
  8
0
100
AcDbCircle
 62
7
  6
CONTINUOUS
 10
13.854257191
 20
6.050417494
 40
0.03
100
AcDbArc
 50
131.2685692711
 51
270.0
  0
ARC
  5
2FE
100
AcDbEntity
  8
0
100
AcDbCircle
 62
7
  6
CONTINUOUS
 10
12.318848266
 20
6.3086928971
 40
0.03
100
AcDbArc
 50
346.4383239082
 51
36.07
  0
ARC
  5
2FF
100
AcDbEntity
  8
0
100
AcDbCircle
 62
7
  6
CONTINUOUS
 10
11.7697537679
 20
7.5470173264
 40
4.459
100
AcDbArc
 50
174.1506135687
 51
189.2632522166
  0
ARC
  5
300
100
AcDbEntity
  8
0
100
AcDbCircle
 62
7
  6
CONTINUOUS
 10
14.9376923427
 20
8.6311890973
 40
0.7
100
AcDbArc
 50
71.180936631
 51
108.819063369
  0
ARC
  5
301
100
AcDbEntity
  8
0
100
AcDbCircle
 62
7
  6
CONTINUOUS
 10
15.5639729405
 20
8.0464125729
 40
0.51
100
AcDbArc
 50
69.5313911777
 51
100.0818955774
  0
ARC
  5
302
100
AcDbEntity
  8
0
100
AcDbCircle
 62
7
  6
CONTINUOUS
 10
11.7176923427
 20
7.8009215103
 40
0.076
100
AcDbArc
 50
286.5529380702
 51
75.7260292945
  0
ARC
  5
303
100
AcDbEntity
  8
0
100
AcDbCircle
 62
7
  6
CONTINUOUS
 10
11.7176923427
 20
7.0124185103
 40
0.076
100
AcDbArc
 50
305.4832022888
 51
73.4472189391
  0
ARC
  5
304
100
AcDbEntity
  8
0
100
AcDbCircle
 62
7
  6
CONTINUOUS
 10
14.5476923427
 20
8.0955782909
 40
0.06
100
AcDbArc
 50
180.0
 51
236.6524271092
  0
ARC
  5
305
100
AcDbEntity
  8
0
100
AcDbCircle
 62
7
  6
CONTINUOUS
 10
14.4817263504
 20
7.9953361448
 40
0.06
100
AcDbArc
 50
5.8493864314
 51
56.6524271095
  0
ARC
  5
306
100
AcDbEntity
  8
0
100
AcDbCircle
 62
7
  6
CONTINUOUS
 10
14.4472642679
 20
6.8389065641
 40
0.06
100
AcDbArc
 50
284.1325726664
 51
350.7367477834
  0
ARC
  5
307
100
AcDbEntity
  8
0
100
AcDbCircle
 62
7
  6
CONTINUOUS
 10
15.4281204176
 20
6.8389065641
 40
0.06
100
AcDbArc
 50
189.2632522166
 51
255.8674273336
  0
ARC
  5
308
100
AcDbEntity
  8
0
100
AcDbCircle
 62
7
  6
CONTINUOUS
 10
15.393658335
 20
7.9953361448
 40
0.06
100
AcDbArc
 50
123.3475728894
 51
174.1506135686
  0
ARC
  5
309
100
AcDbEntity
  8
0
100
AcDbCircle
 62
7
  6
CONTINUOUS
 10
15.3276923427
 20
8.0955782909
 40
0.06
100
AcDbArc
 50
303.3475728891
 51
360.0
  0
ARC
  5
30A
100
AcDbEntity
  8
0
100
AcDbCircle
 62
7
  6
CONTINUOUS
 10
14.5476923427
 20
8.100417494
 40
0.06
100
AcDbArc
 50
90.0
 51
180.0
  0
ARC
  5
30B
100
AcDbEntity
  8
0
100
AcDbCircle
 62
7
  6
CONTINUOUS
 10
15.3276923427
 20
8.100417494
 40
0.06
100
AcDbArc
 50
0.0
 51
90.0
  0
ARC
  5
30C
100
AcDbEntity
  8
0
100
AcDbCircle
 62
7
  6
CONTINUOUS
 10
15.4676923427
 20
8.5879197718
 40
0.04
100
AcDbArc
 50
180.0
 51
280.0818955775
  0
ARC
  5
30D
100
AcDbEntity
  8
0
100
AcDbCircle
 62
7
  6
CONTINUOUS
 10
11.743827572
 20
7.9036490616
 40
0.03
100
AcDbArc
 50
188.9217605143
 51
255.7260292945
  0
ARC
  5
30E
100
AcDbEntity
  8
0
100
AcDbCircle
 62
7
  6
CONTINUOUS
 10
11.7478918613
 20
7.6993144777
 40
0.03
100
AcDbArc
 50
106.5529380698
 51
180.4255751796
  0
ARC
  5
30F
100
AcDbEntity
  8
0
100
AcDbCircle
 62
7
  6
CONTINUOUS
 10
11.7478915829
 20
7.1140256257
 40
0.03
100
AcDbArc
 50
179.5749626364
 51
253.447218939
  0
ARC
  5
310
100
AcDbEntity
  8
0
100
AcDbCircle
 62
7
  6
CONTINUOUS
 10
11.7792215535
 20
6.9261042228
 40
0.03
100
AcDbArc
 50
125.4832022887
 51
231.10819525
  0
ARC
  5
311
100
AcDbEntity
  8
0
100
AcDbCircle
 62
7
  6
CONTINUOUS
 10
15.8116923427
 20
6.2904341929
 40
0.054
100
AcDbArc
 50
342.5404824817
 51
39.0
  0
ARC
  5
312
100
AcDbEntity
  8
0
100
AcDbCircle
 62
7
  6
CONTINUOUS
 10
15.9013616854
 20
6.2622311968
 40
0.04
100
AcDbArc
 50
162.5404824816
 51
223.6426919197
  0
ARC
  5
313
100
AcDbEntity
  8
0
100
AcDbCircle
 62
7
  6
CONTINUOUS
 10
16.0211274945
 20
6.050417494
 40
0.03
100
AcDbArc
 50
270.0
 51
48.7314307289
  0
ARC
  5
314
100
AcDbEntity
  8
0
100
AcDbCircle
 62
7
  6
CONTINUOUS
 10
19.7697537679
 20
7.5470173264
 40
4.459
100
AcDbArc
 50
174.150613569
 51
189.2632522166
  0
ARC
  5
315
100
AcDbEntity
  8
0
100
AcDbCircle
 62
7
  6
CONTINUOUS
 10
18.3933903135
 20
8.3321557276
 40
0.285
100
AcDbArc
 50
128.6977133783
 51
165.3575223752
  0
ARC
  5
316
100
AcDbEntity
  8
0
100
AcDbCircle
 62
7
  6
CONTINUOUS
 10
18.0595952143
 20
8.4193671472
 40
0.06
100
AcDbArc
 50
270.0
 51
345.3575223752
  0
ARC
  5
317
100
AcDbEntity
  8
0
100
AcDbCircle
 62
7
  6
CONTINUOUS
 10
18.1776923427
 20
8.6014128266
 40
0.06
100
AcDbArc
 50
308.6977133784
 51
360.0
  0
ARC
  5
318
100
AcDbEntity
  8
0
100
AcDbCircle
 62
7
  6
CONTINUOUS
 10
15.7632986033
 20
8.5804250073
 40
0.06
100
AcDbArc
 50
249.5313911779
 51
351.848117068
  0
ARC
  5
319
100
AcDbEntity
  8
0
100
AcDbCircle
 62
7
  6
CONTINUOUS
 10
18.0376923427
 20
8.3993671472
 40
0.04
100
AcDbArc
 50
180.0
 51
270.0
  0
ARC
  5
31A
100
AcDbEntity
  8
0
100
AcDbCircle
 62
7
  6
CONTINUOUS
 10
49.5570563588
 20
7.4066888093
 40
39.4006493773
100
AcDbArc
 50
179.5747886726
 51
180.4252662926
  0
ARC
  5
31B
100
AcDbEntity
  8
0
100
AcDbCircle
 62
7
  6
CONTINUOUS
 10
10.9376923427
 20
10.9112676078
 40
0.7
100
AcDbArc
 50
344.3985310489
 51
195.6014760594
  0
ARC
  5
31C
100
AcDbEntity
  8
0
100
AcDbCircle
 62
9
  6
CONTINUOUS
 10
10.9376923427
 20
10.9112676078
 40
0.625
100
AcDbArc
 50
357.4665894585
 51
182.5652321168
  0
ARC
  5
31D
100
AcDbEntity
  8
0
100
AcDbCircle
 62
7
  6
CONTINUOUS
 10
10.940230888
 20
10.9095323265
 40
0.5975326863
100
AcDbArc
 50
6.9856706066
 51
7.6417965435
  0
ARC
  5
31E
100
AcDbEntity
  8
0
100
AcDbCircle
 62
7
  6
CONTINUOUS
 10
10.942512435
 20
10.909811102
 40
0.5952341712
100
AcDbArc
 50
6.2246820785
 51
6.9857455268
  0
ARC
  5
31F
100
AcDbEntity
  8
0
100
AcDbCircle
 62
7
  6
CONTINUOUS
 10
10.9376923427
 20
11.5264599718
 40
0.9884615385
100
AcDbArc
 50
60.2827711041
 51
119.7172288959
  0
ARC
  5
320
100
AcDbEntity
  8
0
100
AcDbCircle
 62
9
  6
CONTINUOUS
 10
10.9853241075
 20
10.8888231669
 40
0.5537188478
100
AcDbArc
 50
9.9671020276
 51
10.4204164315
  0
ARC
  5
321
100
AcDbEntity
  8
0
100
AcDbCircle
 62
9
  6
CONTINUOUS
 10
10.9900665335
 20
10.8896589339
 40
0.548903341
100
AcDbArc
 50
9.6753703704
 51
9.9668597379
  0
ARC
  5
322
100
AcDbEntity
  8
0
100
AcDbCircle
 62
9
  6
CONTINUOUS
 10
10.9977222088
 20
10.8909491311
 40
0.5411397239
100
AcDbArc
 50
8.7105921575
 51
9.6769385425
  0
ARC
  5
323
100
AcDbEntity
  8
0
100
AcDbCircle
 62
7
  6
CONTINUOUS
 10
11.0232262145
 20
10.8858392088
 40
0.5150134346
100
AcDbArc
 50
11.2192473274
 51
11.4963170034
  0
ARC
  5
324
100
AcDbEntity
  8
0
100
AcDbCircle
 62
7
  6
CONTINUOUS
 10
11.0272175606
 20
10.8866313455
 40
0.5109442425
100
AcDbArc
 50
10.9754443318
 51
11.2191994286
  0
ARC
  5
325
100
AcDbEntity
  8
0
100
AcDbCircle
 62
7
  6
CONTINUOUS
 10
11.0309532455
 20
10.8873557068
 40
0.5071389776
100
AcDbArc
 50
10.7182400426
 51
10.9754577466
  0
ARC
  5
326
100
AcDbEntity
  8
0
100
AcDbCircle
 62
7
  6
CONTINUOUS
 10
11.0094610033
 20
12.5931127068
 40
0.66
100
AcDbArc
 50
210.8245526822
 51
240.2815019976
  0
ARC
  5
327
100
AcDbEntity
  8
0
100
AcDbCircle
 62
7
  6
CONTINUOUS
 10
11.2626923427
 20
11.9499215103
 40
0.07
100
AcDbArc
 50
0.0
 51
90.0
  0
ARC
  5
328
100
AcDbEntity
  8
0
100
AcDbCircle
 62
7
  6
CONTINUOUS
 10
11.4626923427
 20
12.2749215103
 40
0.02
100
AcDbArc
 50
270.0
 51
360.0
  0
ARC
  5
329
100
AcDbEntity
  8
0
100
AcDbCircle
 62
7
  6
CONTINUOUS
 10
11.4626923427
 20
12.3649215103
 40
0.02
100
AcDbArc
 50
0.0
 51
90.0
  0
ARC
  5
32A
100
AcDbEntity
  8
0
100
AcDbCircle
 62
7
  6
CONTINUOUS
 10
14.9376923427
 20
8.8509171472
 40
0.451
100
AcDbArc
 50
131.5034356457
 51
233.0665550909
  0
ARC
  5
32B
100
AcDbEntity
  8
0
100
AcDbCircle
 62
7
  6
CONTINUOUS
 10
14.9376923427
 20
8.8509171472
 40
0.451
100
AcDbArc
 50
306.9334449091
 51
329.3514548587
  0
ARC
  5
32C
100
AcDbEntity
  8
0
100
AcDbCircle
 62
7
  6
CONTINUOUS
 10
14.9376923427
 20
8.8509171472
 40
0.451
100
AcDbArc
 50
30.6485451413
 51
48.4965643543
  0
ARC
  5
32D
100
AcDbEntity
  8
0
100
AcDbCircle
 62
7
  6
CONTINUOUS
 10
14.7376923427
 20
9.2180451273
 40
0.08
100
AcDbArc
 50
108.8190633691
 51
180.0
  0
ARC
  5
32E
100
AcDbEntity
  8
0
100
AcDbCircle
 62
7
  6
CONTINUOUS
 10
15.1376923427
 20
9.2180451273
 40
0.08
100
AcDbArc
 50
0.0
 51
71.1809366309
  0
ARC
  5
32F
100
AcDbEntity
  8
0
100
AcDbCircle
 62
7
  6
CONTINUOUS
 10
15.4676923427
 20
9.1139145227
 40
0.04
100
AcDbArc
 50
79.9181044225
 51
180.0
  0
ARC
  5
330
100
AcDbEntity
  8
0
100
AcDbCircle
 62
7
  6
CONTINUOUS
 10
14.6776923427
 20
9.2111890973
 40
0.02
100
AcDbArc
 50
180.0
 51
270.0
  0
ARC
  5
331
100
AcDbEntity
  8
0
100
AcDbCircle
 62
7
  6
CONTINUOUS
 10
15.1976923427
 20
9.2111890973
 40
0.02
100
AcDbArc
 50
270.0
 51
360.0
  0
ARC
  5
332
100
AcDbEntity
  8
0
100
AcDbCircle
 62
7
  6
CONTINUOUS
 10
14.6454570967
 20
9.1811890973
 40
0.01
100
AcDbArc
 50
90.0
 51
131.503435647
  0
ARC
  5
333
100
AcDbEntity
  8
0
100
AcDbCircle
 62
7
  6
CONTINUOUS
 10
15.2299275887
 20
9.1811890973
 40
0.01
100
AcDbArc
 50
48.496564353
 51
90.0
  0
ARC
  5
334
100
AcDbEntity
  8
0
100
AcDbCircle
 62
7
  6
CONTINUOUS
 10
18.3737030911
 20
8.950921116
 40
6.7420807484
100
AcDbArc
 50
178.302499449
 51
188.976174362
  0
ARC
  5
335
100
AcDbEntity
  8
0
100
AcDbCircle
 62
7
  6
CONTINUOUS
 10
15.5639729405
 20
9.6554217216
 40
0.51
100
AcDbArc
 50
259.9181044226
 51
290.468608822
  0
ARC
  5
336
100
AcDbEntity
  8
0
100
AcDbCircle
 62
7
  6
CONTINUOUS
 10
18.3933903135
 20
9.3696785669
 40
0.285
100
AcDbArc
 50
194.6424776248
 51
231.3022866217
  0
ARC
  5
337
100
AcDbEntity
  8
0
100
AcDbCircle
 62
7
  6
CONTINUOUS
 10
18.1776923427
 20
9.1004214679
 40
0.06
100
AcDbArc
 50
0.0
 51
51.3022866216
  0
ARC
  5
338
100
AcDbEntity
  8
0
100
AcDbCircle
 62
7
  6
CONTINUOUS
 10
18.0595952143
 20
9.2824671472
 40
0.06
100
AcDbArc
 50
14.6424776248
 51
90.0
  0
ARC
  5
339
100
AcDbEntity
  8
0
100
AcDbCircle
 62
7
  6
CONTINUOUS
 10
15.7632986033
 20
9.1214092872
 40
0.06
100
AcDbArc
 50
8.151882933
 51
110.468608822
  0
ARC
  5
33A
100
AcDbEntity
  8
0
100
AcDbCircle
 62
7
  6
CONTINUOUS
 10
18.0376923427
 20
9.3024671472
 40
0.04
100
AcDbArc
 50
90.0
 51
180.0
  0
ARC
  5
33B
100
AcDbEntity
  8
0
100
AcDbCircle
 62
7
  6
CONTINUOUS
 10
20.0105871591
 20
50.3626043516
 40
42.0
100
AcDbArc
 50
264.2774261876
 51
267.2529863377
  0
SPLINE
  5
33C
100
AcDbEntity
  8
0
100
AcDbSpline
 62
7
  6
CONTINUOUS
 70
0
 71
3
 72
23
 73
19
 74
0
 42
0.0000001
 43
0.0000001
 44
0.0000000001
 40
0.0
 40
0.0
 40
0.0
 40
0.0
 40
0.0656864607
 40
0.1311501779
 40
0.1963469363
 40
0.2611714202
 40
0.3255154997
 40
0.389266002
 40
0.4523448126
 40
0.5147178764
 40
0.5764013221
 40
0.6374506285
 40
0.6979627382
 40
0.7580872824
 40
0.8180457566
 40
0.878131195
 40
0.9386667303
 40
1.0
 40
1.0
 40
1.0
 40
1.0
 10
11.5279072013
 20
10.9884839325
 30
0.0
 10
11.5241971485
 20
11.0067257469
 30
0.0
 10
11.5148220441
 20
11.0427643559
 30
0.0
 10
11.4961518714
 20
11.0952406935
 30
0.0
 10
11.4735805628
 20
11.1458924814
 30
0.0
 10
11.447464752
 20
11.1944463722
 30
0.0
 10
11.4180852267
 20
11.2406115307
 30
0.0
 10
11.3857172741
 20
11.2841182956
 30
0.0
 10
11.3505419125
 20
11.3246567552
 30
0.0
 10
11.3127079619
 20
11.3619012599
 30
0.0
 10
11.2724093039
 20
11.3955785315
 30
0.0
 10
11.2298538815
 20
11.4254522511
 30
0.0
 10
11.1852311827
 20
11.4512783533
 30
0.0
 10
11.1387155521
 20
11.4728020604
 30
0.0
 10
11.0904861699
 20
11.4897977253
 30
0.0
 10
11.0407323023
 20
11.5021163391
 30
0.0
 10
10.9896354899
 20
11.5096061997
 30
0.0
 10
10.9550739367
 20
11.5112676078
 30
0.0
 10
10.9376923427
 20
11.5112676078
 30
0.0
  0
SPLINE
  5
33D
100
AcDbEntity
  8
0
100
AcDbSpline
 62
7
  6
CONTINUOUS
 70
0
 71
3
 72
23
 73
19
 74
0
 42
0.0000001
 43
0.0000001
 44
0.0000000001
 40
0.0
 40
0.0
 40
0.0
 40
0.0
 40
0.0613328159
 40
0.1218678489
 40
0.1819528143
 40
0.2419109136
 40
0.3020352303
 40
0.3625472642
 40
0.4235966458
 40
0.4852803007
 40
0.5476536912
 40
0.6107328961
 40
0.674483805
 40
0.7388282185
 40
0.8036529301
 40
0.8688497872
 40
0.9343134741
 40
1.0
 40
1.0
 40
1.0
 40
1.0
 10
10.9376923427
 20
11.5112676078
 30
0.0
 10
10.9203086558
 20
11.5112676078
 30
0.0
 10
10.8857429503
 20
11.5096057993
 30
0.0
 10
10.8346401223
 20
11.5021141327
 30
0.0
 10
10.7848806108
 20
11.4897925704
 30
0.0
 10
10.7366460255
 20
11.4727928705
 30
0.0
 10
10.6901257107
 20
11.4512641091
 30
0.0
 10
10.6454988973
 20
11.4254320655
 30
0.0
 10
10.6029400021
 20
11.3955516037
 30
0.0
 10
10.5626385896
 20
11.3618668727
 30
0.0
 10
10.5248026984
 20
11.3246142768
 30
0.0
 10
10.4896262231
 20
11.2840672691
 30
0.0
 10
10.4572580157
 20
11.2405516436
 30
0.0
 10
10.4278792835
 20
11.19437735
 30
0.0
 10
10.4017654653
 20
11.1458141587
 30
0.0
 10
10.379197466
 20
11.0951530226
 30
0.0
 10
10.3605323454
 20
11.0426672561
 30
0.0
 10
10.3511625074
 20
11.0066222739
 30
0.0
 10
10.3474558147
 20
10.9883773297
 30
0.0
  0
SPLINE
  5
33E
100
AcDbEntity
  8
0
100
AcDbSpline
 62
7
  6
CONTINUOUS
 70
0
 71
3
 72
33
 73
29
 74
0
 42
0.0000001
 43
0.0000001
 44
0.0000000001
 40
0.0
 40
0.0
 40
0.0
 40
0.0
 40
0.1708214821
 40
0.3295396654
 40
0.4773981397
 40
0.5472808835
 40
0.6143612612
 40
0.6785113526
 40
0.7394965746
 40
0.7687144513
 40
0.7969957242
 40
0.8242603499
 40
0.8504305085
 40
0.8754169994
 40
0.8990785256
 40
0.9212424828
 40
0.931683363
 40
0.9416523398
 40
0.9511149515
 40
0.96002206
 40
0.9683283037
 40
0.976001507
 40
0.9829999084
 40
0.9892266604
 40
0.9920637978
 40
0.9947562662
 40
0.9973696829
 40
1.0
 40
1.0
 40
1.0
 40
1.0
 10
10.9376923427
 20
9.1232959798
 30
0.0
 10
10.8738357162
 20
9.1232959798
 30
0.0
 10
10.7506428372
 20
9.1243991231
 30
0.0
 10
10.5722432198
 20
9.1294517265
 30
0.0
 10
10.4316637044
 20
9.1361728758
 30
0.0
 10
10.3254163656
 20
9.1431268893
 30
0.0
 10
10.2504645737
 20
9.1490156005
 30
0.0
 10
10.178918928
 20
9.1556986638
 30
0.0
 10
10.1215685064
 20
9.1620822699
 30
0.0
 10
10.0776336037
 20
9.167701816
 30
0.0
 10
10.0462554676
 20
9.1721185114
 30
0.0
 10
10.0160712471
 20
9.1768219144
 30
0.0
 10
9.987185985
 20
9.1818354081
 30
0.0
 10
9.9597292272
 20
9.1871748108
 30
0.0
 10
9.9338797134
 20
9.1928913056
 30
0.0
 10
9.9134930955
 20
9.1980921634
 30
0.0
 10
9.8982166313
 20
9.2025606121
 30
0.0
 10
9.8875869996
 20
9.2059881519
 30
0.0
 10
9.8776133235
 20
9.2095657039
 30
0.0
 10
9.8683702208
 20
9.2133176843
 30
0.0
 10
9.8599403098
 20
9.2172652304
 30
0.0
 10
9.852417733
 20
9.2214294856
 30
0.0
 10
9.8459235122
 20
9.2257909555
 30
0.0
 10
9.8414372178
 20
9.2298470936
 30
0.0
 10
9.8387702056
 20
9.2333570342
 30
0.0
 10
9.8373135431
 20
9.2360466442
 30
0.0
 10
9.8363971973
 20
9.2388876313
 30
0.0
 10
9.8361923427
 20
9.2408544414
 30
0.0
 10
9.8361923427
 20
9.2418377087
 30
0.0
  0
SPLINE
  5
33F
100
AcDbEntity
  8
0
100
AcDbSpline
 62
7
  6
CONTINUOUS
 70
0
 71
3
 72
33
 73
29
 74
0
 42
0.0000001
 43
0.0000001
 44
0.0000000001
 40
0.0
 40
0.0
 40
0.0
 40
0.0
 40
0.0026303171
 40
0.0052437338
 40
0.0079362022
 40
0.0107733396
 40
0.0170000916
 40
0.023998493
 40
0.0316716963
 40
0.03997794
 40
0.0488850485
 40
0.0583476602
 40
0.068316637
 40
0.0787575172
 40
0.1009214744
 40
0.1245830006
 40
0.1495694915
 40
0.1757396501
 40
0.2030042758
 40
0.2312855487
 40
0.2605034254
 40
0.3214886474
 40
0.3856387388
 40
0.4527191165
 40
0.5226018603
 40
0.6704603346
 40
0.8291785179
 40
1.0
 40
1.0
 40
1.0
 40
1.0
 10
12.0391923427
 20
9.2418377087
 30
0.0
 10
12.0391923427
 20
9.2408544414
 30
0.0
 10
12.0389874882
 20
9.2388876313
 30
0.0
 10
12.0380711424
 20
9.2360466442
 30
0.0
 10
12.0366144799
 20
9.2333570342
 30
0.0
 10
12.0339474677
 20
9.2298470936
 30
0.0
 10
12.0294611733
 20
9.2257909555
 30
0.0
 10
12.0229669525
 20
9.2214294856
 30
0.0
 10
12.0154443757
 20
9.2172652304
 30
0.0
 10
12.0070144646
 20
9.2133176843
 30
0.0
 10
11.997771362
 20
9.2095657039
 30
0.0
 10
11.9877976858
 20
9.2059881519
 30
0.0
 10
11.9771680542
 20
9.2025606121
 30
0.0
 10
11.9618915899
 20
9.1980921634
 30
0.0
 10
11.9415049721
 20
9.1928913056
 30
0.0
 10
11.9156554583
 20
9.1871748108
 30
0.0
 10
11.8881987005
 20
9.1818354081
 30
0.0
 10
11.8593134383
 20
9.1768219144
 30
0.0
 10
11.8291292179
 20
9.1721185114
 30
0.0
 10
11.7977510818
 20
9.167701816
 30
0.0
 10
11.7538161791
 20
9.1620822699
 30
0.0
 10
11.6964657574
 20
9.1556986638
 30
0.0
 10
11.6249201118
 20
9.1490156005
 30
0.0
 10
11.5499683199
 20
9.1431268893
 30
0.0
 10
11.443720981
 20
9.1361728758
 30
0.0
 10
11.3031414656
 20
9.1294517265
 30
0.0
 10
11.1247418483
 20
9.1243991231
 30
0.0
 10
11.0015489693
 20
9.1232959798
 30
0.0
 10
10.9376923427
 20
9.1232959798
 30
0.0
  0
SPLINE
  5
340
100
AcDbEntity
  8
0
100
AcDbSpline
 62
9
  6
CONTINUOUS
 70
0
 71
3
 72
28
 73
24
 74
0
 42
0.0000001
 43
0.0000001
 44
0.0000000001
 40
0.0
 40
0.0
 40
0.0
 40
0.0
 40
0.0076137471
 40
0.0156144017
 40
0.0240963489
 40
0.0330327553
 40
0.0424168547
 40
0.0522414884
 40
0.0624849454
 40
0.073117915
 40
0.0954665771
 40
0.1191126069
 40
0.1438974842
 40
0.1697102361
 40
0.2240885972
 40
0.2817472808
 40
0.3422680998
 40
0.4054384894
 40
0.4711028569
 40
0.5391877355
 40
0.682469991
 40
0.8355865899
 40
1.0
 40
1.0
 40
1.0
 40
1.0
 10
11.8764998498
 20
9.8993623172
 30
0.0
 10
11.8758081929
 20
9.9017566324
 30
0.0
 10
11.8737727912
 20
9.9064978731
 30
0.0
 10
11.8693488744
 20
9.9130617843
 30
0.0
 10
11.8638441599
 20
9.9193209489
 30
0.0
 10
11.8575139033
 20
9.9254062075
 30
0.0
 10
11.850437914
 20
9.9313158354
 30
0.0
 10
11.8426928655
 20
9.9370636215
 30
0.0
 10
11.8343471693
 20
9.9426673006
 30
0.0
 10
11.8223029998
 20
9.950097564
 30
0.0
 10
11.8060459105
 20
9.9590264647
 30
0.0
 10
11.785211691
 20
9.9691752174
 30
0.0
 10
11.7629672148
 20
9.9789748179
 30
0.0
 10
11.7310897798
 20
9.9918152779
 30
0.0
 10
11.6885545374
 20
10.0069354911
 30
0.0
 10
11.6345540644
 20
10.0235429645
 30
0.0
 10
11.5772179355
 20
10.0389611786
 30
0.0
 10
11.5168583277
 20
10.0530933383
 30
0.0
 10
11.4536745426
 20
10.0658940172
 30
0.0
 10
11.3643082444
 20
10.081339547
 30
0.0
 10
11.2459327057
 20
10.0967216443
 30
0.0
 10
11.0954716262
 20
10.10824871
 30
0.0
 10
10.9915099347
 20
10.1107611564
 30
0.0
 10
10.9376923427
 20
10.1107611564
 30
0.0
  0
SPLINE
  5
341
100
AcDbEntity
  8
0
100
AcDbSpline
 62
7
  6
CONTINUOUS
 70
0
 71
3
 72
35
 73
31
 74
0
 42
0.0000001
 43
0.0000001
 44
0.0000000001
 40
0.0
 40
0.0
 40
0.0
 40
0.0
 40
0.002598821
 40
0.005271565
 40
0.0080842093
 40
0.0110746822
 40
0.0176305172
 40
0.0211882427
 40
0.0249104135
 40
0.032828243
 40
0.0413592422
 40
0.0504655562
 40
0.0600989564
 40
0.0702167455
 40
0.0807876948
 40
0.1031548452
 40
0.1269614155
 40
0.1520484724
 40
0.1782851175
 40
0.2055896363
 40
0.2338853413
 40
0.2630934987
 40
0.3240074156
 40
0.388029756
 40
0.4549353849
 40
0.5246033715
 40
0.5969469283
 40
0.67192704
 40
0.8299812505
 40
1.0
 40
1.0
 40
1.0
 40
1.0
 10
9.8364725477
 20
9.2446452019
 30
0.0
 10
9.8366643438
 20
9.2455950906
 30
0.0
 10
9.8372537133
 20
9.2474860764
 30
0.0
 10
9.8386710098
 20
9.2501618076
 30
0.0
 10
9.8405660005
 20
9.2527039891
 30
0.0
 10
9.8437603312
 20
9.2560377903
 30
0.0
 10
9.8476391072
 20
9.2590479558
 30
0.0
 10
9.8519618984
 20
9.2618631507
 30
0.0
 10
9.8568465462
 20
9.264740649
 30
0.0
 10
9.8635466716
 20
9.2681722278
 30
0.0
 10
9.8722761749
 20
9.2720034928
 30
0.0
 10
9.8817717092
 20
9.2756503495
 30
0.0
 10
9.8919537818
 20
9.2791366668
 30
0.0
 10
9.9027565302
 20
9.2824792496
 30
0.0
 10
9.9182105637
 20
9.2868352546
 30
0.0
 10
9.9387549202
 20
9.2919206957
 30
0.0
 10
9.9647327832
 20
9.2975216536
 30
0.0
 10
9.9922560286
 20
9.3027591742
 30
0.0
 10
10.0211607298
 20
9.3076807538
 30
0.0
 10
10.0513260284
 20
9.3122996702
 30
0.0
 10
10.0826513624
 20
9.3166400371
 30
0.0
 10
10.1264611672
 20
9.3221659582
 30
0.0
 10
10.1835988352
 20
9.3284477019
 30
0.0
 10
10.254832937
 20
9.3350294562
 30
0.0
 10
10.3294089355
 20
9.3408311777
 30
0.0
 10
10.407149246
 20
9.3458744137
 30
0.0
 10
10.4879484422
 20
9.3501895185
 30
0.0
 10
10.60171595
 20
9.3550703074
 30
0.0
 10
10.75195847
 20
9.3592912489
 30
0.0
 10
10.8742950905
 20
9.3603794375
 30
0.0
 10
10.9376923427
 20
9.3603794375
 30
0.0
  0
SPLINE
  5
342
100
AcDbEntity
  8
0
100
AcDbSpline
 62
9
  6
CONTINUOUS
 70
0
 71
3
 72
25
 73
21
 74
0
 42
0.0000001
 43
0.0000001
 44
0.0000000001
 40
0.0
 40
0.0
 40
0.0
 40
0.0
 40
0.0219909051
 40
0.0448722884
 40
0.0687057224
 40
0.0934506226
 40
0.1190328856
 40
0.1453569924
 40
0.1723506464
 40
0.1999517687
 40
0.2568083684
 40
0.2859998262
 40
0.3156450189
 40
0.3762121232
 40
0.4384207985
 40
0.567584573
 40
0.7033727185
 40
0.7740280761
 40
0.8468257625
 40
1.0
 40
1.0
 40
1.0
 40
1.0
 10
11.733212485
 20
10.3603442796
 30
0.0
 10
11.7311827846
 20
10.366518297
 30
0.0
 10
11.7253816568
 20
10.378559732
 30
0.0
 10
11.714133866
 20
10.3954964381
 30
0.0
 10
11.7006749807
 20
10.4118141403
 30
0.0
 10
11.6854639359
 20
10.4276140498
 30
0.0
 10
11.6687714992
 20
10.4429457229
 30
0.0
 10
11.6508412668
 20
10.4578647612
 30
0.0
 10
11.6318239204
 20
10.4723749465
 30
0.0
 10
11.6049144031
 20
10.491378941
 30
0.0
 10
11.5765051954
 20
10.509345998
 30
0.0
 10
11.5468399386
 20
10.526352524
 30
0.0
 10
11.5157552413
 20
10.5430637055
 30
0.0
 10
11.4752437385
 20
10.5628112157
 30
0.0
 10
11.4067272676
 20
10.5920205583
 30
0.0
 10
11.3150533284
 20
10.6232610274
 30
0.0
 10
11.2183892256
 20
10.6461674665
 30
0.0
 10
11.1369191325
 20
10.6594957243
 30
0.0
 10
11.0498059554
 20
10.6695312431
 30
0.0
 10
10.9829607477
 20
10.6724097401
 30
0.0
 10
10.9376923427
 20
10.6724097401
 30
0.0
  0
SPLINE
  5
343
100
AcDbEntity
  8
0
100
AcDbSpline
 62
9
  6
CONTINUOUS
 70
0
 71
3
 72
28
 73
24
 74
0
 42
0.0000001
 43
0.0000001
 44
0.0000000001
 40
0.0
 40
0.0
 40
0.0
 40
0.0
 40
0.0071166919
 40
0.014644149
 40
0.0226992112
 40
0.0312519768
 40
0.0402863497
 40
0.0497939026
 40
0.0597508497
 40
0.0701245107
 40
0.0920244231
 40
0.1153037371
 40
0.1397889053
 40
0.165360807
 40
0.2194081416
 40
0.276914296
 40
0.3374365364
 40
0.4007465711
 40
0.4666755353
 40
0.5351396486
 40
0.6794847308
 40
0.8339845055
 40
1.0
 40
1.0
 40
1.0
 40
1.0
 10
11.9070208387
 20
9.7914785341
 30
0.0
 10
11.9063846754
 20
9.7937765695
 30
0.0
 10
11.904414576
 20
9.7983327648
 30
0.0
 10
11.9000011809
 20
9.804567097
 30
0.0
 10
11.8944382587
 20
9.8104598943
 30
0.0
 10
11.8879968762
 20
9.8161573918
 30
0.0
 10
11.8807746402
 20
9.821668664
 30
0.0
 10
11.8728496754
 20
9.8270030837
 30
0.0
 10
11.8642936242
 20
9.8321803365
 30
0.0
 10
11.8519075844
 20
9.8390267782
 30
0.0
 10
11.8351703758
 20
9.8471971821
 30
0.0
 10
11.813714727
 20
9.856403394
 30
0.0
 10
11.7907806004
 20
9.865236866
 30
0.0
 10
11.7578513636
 20
9.8767525118
 30
0.0
 10
11.7138947274
 20
9.8901842734
 30
0.0
 10
11.6581051318
 20
9.9047744502
 30
0.0
 10
11.5988401958
 20
9.9182053177
 30
0.0
 10
11.5364363502
 20
9.9304205648
 30
0.0
 10
11.4711060607
 20
9.9414115263
 30
0.0
 10
11.3786422665
 20
9.954601568
 30
0.0
 10
11.2562176616
 20
9.9676164895
 30
0.0
 10
11.1007224538
 20
9.9773061348
 30
0.0
 10
10.9933162246
 20
9.9794029155
 30
0.0
 10
10.9376923427
 20
9.9794029155
 30
0.0
  0
SPLINE
  5
344
100
AcDbEntity
  8
0
100
AcDbSpline
 62
7
  6
CONTINUOUS
 70
0
 71
3
 72
22
 73
18
 74
0
 42
0.0000001
 43
0.0000001
 44
0.0000000001
 40
0.0
 40
0.0
 40
0.0
 40
0.0
 40
0.062540597
 40
0.1250500343
 40
0.1875425618
 40
0.2500440478
 40
0.3125566695
 40
0.3750686515
 40
0.4375719817
 40
0.5000721271
 40
0.5625799154
 40
0.625093534
 40
0.6876022967
 40
0.7500985492
 40
0.8125976714
 40
0.8751222422
 40
1.0
 40
1.0
 40
1.0
 40
1.0
 10
10.3429147823
 20
10.988892863
 30
0.0
 10
10.3453060087
 20
11.0067380844
 30
0.0
 10
10.3516971306
 20
11.0422242298
 30
0.0
 10
10.3659597849
 20
11.0943677587
 30
0.0
 10
10.3848256337
 20
11.1450229437
 30
0.0
 10
10.408184322
 20
11.1937685928
 30
0.0
 10
10.4357878316
 20
11.2402472584
 30
0.0
 10
10.4674035971
 20
11.2840960281
 30
0.0
 10
10.5027953322
 20
11.324955767
 30
0.0
 10
10.5417385226
 20
11.3624458304
 30
0.0
 10
10.5838971883
 20
11.3962818359
 30
0.0
 10
10.6289091056
 20
11.4262208903
 30
0.0
 10
10.6764152466
 20
11.4520163301
 30
0.0
 10
10.7260551266
 20
11.4734089743
 30
0.0
 10
10.7774485148
 20
11.4901955739
 30
0.0
 10
10.8476285577
 20
11.5063139179
 30
0.0
 10
10.9017414725
 20
11.5112676078
 30
0.0
 10
10.9376923427
 20
11.5112676078
 30
0.0
  0
SPLINE
  5
345
100
AcDbEntity
  8
0
100
AcDbSpline
 62
9
  6
CONTINUOUS
 70
0
 71
3
 72
23
 73
19
 74
0
 42
0.0000001
 43
0.0000001
 44
0.0000000001
 40
0.0
 40
0.0
 40
0.0
 40
0.0
 40
0.061699966
 40
0.1229268446
 40
0.1838975713
 40
0.2448109561
 40
0.3058496666
 40
0.367154418
 40
0.4288140731
 40
0.4908808358
 40
0.553381065
 40
0.6163202869
 40
0.6796677696
 40
0.7433606593
 40
0.8073125549
 40
0.8714447638
 40
0.9356859519
 40
1.0
 40
1.0
 40
1.0
 40
1.0
 10
10.9376923427
 20
11.5112676078
 30
0.0
 10
10.9201142404
 20
11.5112676078
 30
0.0
 10
10.8850696095
 20
11.5096029214
 30
0.0
 10
10.8331356442
 20
11.502146371
 30
0.0
 10
10.7823519243
 20
11.4898735934
 30
0.0
 10
10.7329929138
 20
11.4729185161
 30
0.0
 10
10.6853407628
 20
11.4514049371
 30
0.0
 10
10.6396573705
 20
11.4255513891
 30
0.0
 10
10.5961852085
 20
11.3956182278
 30
0.0
 10
10.5551776809
 20
11.3618537438
 30
0.0
 10
10.5169025663
 20
11.3244989553
 30
0.0
 10
10.4816108222
 20
11.2838333268
 30
0.0
 10
10.4494820421
 20
11.2402067288
 30
0.0
 10
10.4207146314
 20
11.1939544824
 30
0.0
 10
10.3955651406
 20
11.1453862981
 30
0.0
 10
10.374299619
 20
11.094823696
 30
0.0
 10
10.3571604856
 20
11.0426107979
 30
0.0
 10
10.3487667699
 20
11.0068969814
 30
0.0
 10
10.3454560892
 20
10.988875715
 30
0.0
  0
SPLINE
  5
346
100
AcDbEntity
  8
0
100
AcDbSpline
 62
9
  6
CONTINUOUS
 70
0
 71
3
 72
23
 73
19
 74
0
 42
0.0000001
 43
0.0000001
 44
0.0000000001
 40
0.0
 40
0.0
 40
0.0
 40
0.0
 40
0.0629089162
 40
0.1245698339
 40
0.1853774921
 40
0.2457116425
 40
0.3059270305
 40
0.3663010462
 40
0.4881840088
 40
0.5500460883
 40
0.6125874313
 40
0.6758175109
 40
0.7396994412
 40
0.8041426851
 40
0.8690601749
 40
0.9343559881
 40
0.9671325158
 40
1.0
 40
1.0
 40
1.0
 40
1.0
 10
10.9376923427
 20
11.4587971156
 30
0.0
 10
10.9206273683
 20
11.4587971156
 30
0.0
 10
10.8868154409
 20
11.457332025
 30
0.0
 10
10.836907865
 20
11.4506623371
 30
0.0
 10
10.7884834676
 20
11.4396694587
 30
0.0
 10
10.7416224789
 20
11.4244805557
 30
0.0
 10
10.6964087605
 20
11.4052210316
 30
0.0
 10
10.6382950521
 20
11.374278412
 30
0.0
 10
10.5839151608
 20
11.335894019
 30
0.0
 10
10.5341137186
 20
11.2912944367
 30
0.0
 10
10.4987996975
 20
11.2545711243
 30
0.0
 10
10.4658524735
 20
11.2150061296
 30
0.0
 10
10.4354087753
 20
11.1728449077
 30
0.0
 10
10.4077415496
 20
11.1282692539
 30
0.0
 10
10.3831392469
 20
11.0814979836
 30
0.0
 10
10.3655460888
 20
11.0408756652
 30
0.0
 10
10.3536221392
 20
11.0074062693
 30
0.0
 10
10.3484894201
 20
10.990344033
 30
0.0
 10
10.3461697889
 20
10.9817352788
 30
0.0
  0
SPLINE
  5
347
100
AcDbEntity
  8
0
100
AcDbSpline
 62
7
  6
CONTINUOUS
 70
0
 71
3
 72
22
 73
18
 74
0
 42
0.0000001
 43
0.0000001
 44
0.0000000001
 40
0.0
 40
0.0
 40
0.0
 40
0.0
 40
0.1248766329
 40
0.1874001931
 40
0.2498986792
 40
0.3123947234
 40
0.3749033799
 40
0.4374168024
 40
0.4999243945
 40
0.5624245164
 40
0.6249281457
 40
0.6874404803
 40
0.7499533659
 40
0.8124550826
 40
0.8749481003
 40
0.9374584006
 40
1.0
 40
1.0
 40
1.0
 40
1.0
 10
10.9376923427
 20
11.5112676078
 30
0.0
 10
10.9736387374
 20
11.5112676078
 30
0.0
 10
11.0277447227
 20
11.5063150524
 30
0.0
 10
11.0979163923
 20
11.4902011006
 30
0.0
 10
11.149304049
 20
11.4734187564
 30
0.0
 10
11.1989386767
 20
11.4520304447
 30
0.0
 10
11.2464408957
 20
11.4262412671
 30
0.0
 10
11.2914499028
 20
11.3963094093
 30
0.0
 10
11.333606708
 20
11.3624812261
 30
0.0
 10
11.3725481557
 20
11.3249983245
 30
0.0
 10
11.4079400249
 20
11.2841467938
 30
0.0
 10
11.4395576745
 20
11.2403067793
 30
0.0
 10
11.4671641612
 20
11.1938368606
 30
0.0
 10
11.4905264832
 20
11.1450995549
 30
0.0
 10
11.5093970086
 20
11.0944523198
 30
0.0
 10
11.5236664589
 20
11.0423164511
 30
0.0
 10
11.5300628042
 20
11.0068349331
 30
0.0
 10
11.5324567654
 20
10.9889918851
 30
0.0
  0
SPLINE
  5
348
100
AcDbEntity
  8
0
100
AcDbSpline
 62
9
  6
CONTINUOUS
 70
0
 71
3
 72
23
 73
19
 74
0
 42
0.0000001
 43
0.0000001
 44
0.0000000001
 40
0.0
 40
0.0
 40
0.0
 40
0.0
 40
0.0643141089
 40
0.1285553854
 40
0.1926875919
 40
0.2566393949
 40
0.3203321053
 40
0.3836793458
 40
0.4466183178
 40
0.5091183323
 40
0.5711849446
 40
0.6328445227
 40
0.6941492835
 40
0.7551880946
 40
0.8161016702
 40
0.8770726463
 40
0.9382997927
 40
1.0
 40
1.0
 40
1.0
 40
1.0
 10
11.5299105164
 20
10.988974081
 30
0.0
 10
11.526596982
 20
11.0069926627
 30
0.0
 10
11.5181985369
 20
11.0427009608
 30
0.0
 10
11.5010542932
 20
11.0949054401
 30
0.0
 10
11.4797850585
 20
11.1454595035
 30
0.0
 10
11.4546330971
 20
11.1940191036
 30
0.0
 10
11.4258644055
 20
11.2402628664
 30
0.0
 10
11.393735395
 20
11.2838811785
 30
0.0
 10
11.3584443427
 20
11.3245387946
 30
0.0
 10
11.3201708054
 20
11.3618859796
 30
0.0
 10
11.2791657351
 20
11.39564346
 30
0.0
 10
11.2356967945
 20
11.4255702883
 30
0.0
 10
11.1900173007
 20
11.4514182595
 30
0.0
 10
11.1423696367
 20
11.4729270953
 30
0.0
 10
11.0930156364
 20
11.4898784012
 30
0.0
 10
11.0422373452
 20
11.5021484294
 30
0.0
 10
10.9903091331
 20
11.5096032979
 30
0.0
 10
10.9552684589
 20
11.5112676078
 30
0.0
 10
10.9376923427
 20
11.5112676078
 30
0.0
  0
SPLINE
  5
349
100
AcDbEntity
  8
0
100
AcDbSpline
 62
9
  6
CONTINUOUS
 70
0
 71
3
 72
25
 73
21
 74
0
 42
0.0000001
 43
0.0000001
 44
0.0000000001
 40
0.0
 40
0.0
 40
0.0
 40
0.0
 40
0.1531742375
 40
0.2259719239
 40
0.2966272815
 40
0.432415427
 40
0.5615792015
 40
0.6237878768
 40
0.6843549811
 40
0.7140001738
 40
0.7431916316
 40
0.8000482313
 40
0.8276493536
 40
0.8546430076
 40
0.8809671144
 40
0.9065493774
 40
0.9312942776
 40
0.9551277116
 40
0.9780090949
 40
1.0
 40
1.0
 40
1.0
 40
1.0
 10
10.9376923427
 20
10.6724097401
 30
0.0
 10
10.8924239378
 20
10.6724097401
 30
0.0
 10
10.8255787301
 20
10.6695312431
 30
0.0
 10
10.738465553
 20
10.6594957243
 30
0.0
 10
10.6569954599
 20
10.6461674665
 30
0.0
 10
10.5603313571
 20
10.6232610274
 30
0.0
 10
10.4686574179
 20
10.5920205583
 30
0.0
 10
10.400140947
 20
10.5628112157
 30
0.0
 10
10.3596294442
 20
10.5430637055
 30
0.0
 10
10.3285447469
 20
10.526352524
 30
0.0
 10
10.2988794901
 20
10.509345998
 30
0.0
 10
10.2704702824
 20
10.491378941
 30
0.0
 10
10.2435607651
 20
10.4723749465
 30
0.0
 10
10.2245434187
 20
10.4578647612
 30
0.0
 10
10.2066131863
 20
10.4429457229
 30
0.0
 10
10.1899207495
 20
10.4276140498
 30
0.0
 10
10.1747097048
 20
10.4118141403
 30
0.0
 10
10.1612508195
 20
10.3954964381
 30
0.0
 10
10.1500030286
 20
10.378559732
 30
0.0
 10
10.1442019009
 20
10.366518297
 30
0.0
 10
10.1421722005
 20
10.3603442796
 30
0.0
  0
SPLINE
  5
34A
100
AcDbEntity
  8
0
100
AcDbSpline
 62
9
  6
CONTINUOUS
 70
0
 71
3
 72
23
 73
19
 74
0
 42
0.0000001
 43
0.0000001
 44
0.0000000001
 40
0.0
 40
0.0
 40
0.0
 40
0.0
 40
0.0328674838
 40
0.0656440114
 40
0.1309398242
 40
0.1958573135
 40
0.2603005567
 40
0.3241824862
 40
0.3874125649
 40
0.4499539071
 40
0.5118159861
 40
0.6336989486
 40
0.6940729647
 40
0.7542883533
 40
0.8146225048
 40
0.8754301641
 40
0.9370910828
 40
1.0
 40
1.0
 40
1.0
 40
1.0
 10
11.529214845
 20
10.9817354702
 30
0.0
 10
11.5268952107
 20
10.9903442212
 30
0.0
 10
11.5217624861
 20
11.0074064512
 30
0.0
 10
11.5098385286
 20
11.0408758348
 30
0.0
 10
11.492245364
 20
11.0814981383
 30
0.0
 10
11.4676430569
 20
11.1282693912
 30
0.0
 10
11.4399758292
 20
11.172845028
 30
0.0
 10
11.409532131
 20
11.2150062335
 30
0.0
 10
11.3765849088
 20
11.2545712125
 30
0.0
 10
11.3412708908
 20
11.2912945098
 30
0.0
 10
11.2914694543
 20
11.3358940735
 30
0.0
 10
11.2370895714
 20
11.3742784499
 30
0.0
 10
11.1789758736
 20
11.4052210559
 30
0.0
 10
11.1337621638
 20
11.4244805713
 30
0.0
 10
11.0869011848
 20
11.4396694674
 30
0.0
 10
11.0384767978
 20
11.4506623408
 30
0.0
 10
10.988569233
 20
11.4573320256
 30
0.0
 10
10.9547573133
 20
11.4587971156
 30
0.0
 10
10.9376923427
 20
11.4587971156
 30
0.0
  0
SPLINE
  5
34B
100
AcDbEntity
  8
0
100
AcDbSpline
 62
9
  6
CONTINUOUS
 70
0
 71
3
 72
28
 73
24
 74
0
 42
0.0000001
 43
0.0000001
 44
0.0000000001
 40
0.0
 40
0.0
 40
0.0
 40
0.0
 40
0.1644134101
 40
0.317530009
 40
0.4608122645
 40
0.5288971431
 40
0.5945615106
 40
0.6577319003
 40
0.7182527192
 40
0.7759114028
 40
0.8302897639
 40
0.8561025158
 40
0.8808873931
 40
0.9045334229
 40
0.9268820851
 40
0.9375150546
 40
0.9477585116
 40
0.9575831453
 40
0.9669672447
 40
0.9759036511
 40
0.9843855983
 40
0.9923862529
 40
1.0
 40
1.0
 40
1.0
 40
1.0
 10
10.9376923427
 20
10.1107611564
 30
0.0
 10
10.8838747508
 20
10.1107611564
 30
0.0
 10
10.7799130593
 20
10.10824871
 30
0.0
 10
10.6294519797
 20
10.0967216443
 30
0.0
 10
10.511076441
 20
10.081339547
 30
0.0
 10
10.4217101429
 20
10.0658940172
 30
0.0
 10
10.3585263578
 20
10.0530933383
 30
0.0
 10
10.29816675
 20
10.0389611786
 30
0.0
 10
10.2408306211
 20
10.0235429645
 30
0.0
 10
10.1868301481
 20
10.0069354911
 30
0.0
 10
10.1442949057
 20
9.9918152779
 30
0.0
 10
10.1124174706
 20
9.9789748179
 30
0.0
 10
10.0901729944
 20
9.9691752173
 30
0.0
 10
10.0693387749
 20
9.9590264647
 30
0.0
 10
10.0530816857
 20
9.950097564
 30
0.0
 10
10.0410375162
 20
9.9426673006
 30
0.0
 10
10.03269182
 20
9.9370636215
 30
0.0
 10
10.0249467714
 20
9.9313158354
 30
0.0
 10
10.0178707822
 20
9.9254062074
 30
0.0
 10
10.0115405256
 20
9.9193209489
 30
0.0
 10
10.0060358111
 20
9.9130617843
 30
0.0
 10
10.0016118942
 20
9.9064978731
 30
0.0
 10
9.9995764926
 20
9.9017566324
 30
0.0
 10
9.9988848356
 20
9.8993623172
 30
0.0
  0
SPLINE
  5
34C
100
AcDbEntity
  8
0
100
AcDbSpline
 62
9
  6
CONTINUOUS
 70
0
 71
3
 72
28
 73
24
 74
0
 42
0.0000001
 43
0.0000001
 44
0.0000000001
 40
0.0
 40
0.0
 40
0.0
 40
0.0
 40
0.1660154945
 40
0.3205152692
 40
0.4648603514
 40
0.5333244647
 40
0.5992534289
 40
0.6625634636
 40
0.7230857039
 40
0.7805918584
 40
0.834639193
 40
0.8602110947
 40
0.8846962629
 40
0.9079755769
 40
0.9298754893
 40
0.9402491503
 40
0.9502060973
 40
0.9597136503
 40
0.9687480232
 40
0.9773007888
 40
0.985355851
 40
0.9928833081
 40
1.0
 40
1.0
 40
1.0
 40
1.0
 10
10.9376923427
 20
9.9794029155
 30
0.0
 10
10.8820684609
 20
9.9794029155
 30
0.0
 10
10.7746622316
 20
9.9773061348
 30
0.0
 10
10.6191670238
 20
9.9676164895
 30
0.0
 10
10.496742419
 20
9.954601568
 30
0.0
 10
10.4042786248
 20
9.9414115263
 30
0.0
 10
10.3389483353
 20
9.9304205648
 30
0.0
 10
10.2765444897
 20
9.9182053177
 30
0.0
 10
10.2172795536
 20
9.9047744502
 30
0.0
 10
10.1614899581
 20
9.8901842734
 30
0.0
 10
10.1175333219
 20
9.8767525118
 30
0.0
 10
10.0846040851
 20
9.865236866
 30
0.0
 10
10.0616699584
 20
9.856403394
 30
0.0
 10
10.0402143097
 20
9.8471971821
 30
0.0
 10
10.023477101
 20
9.8390267782
 30
0.0
 10
10.0110910613
 20
9.8321803366
 30
0.0
 10
10.0025350101
 20
9.8270030837
 30
0.0
 10
9.9946100453
 20
9.821668664
 30
0.0
 10
9.9873878093
 20
9.8161573918
 30
0.0
 10
9.9809464268
 20
9.8104598943
 30
0.0
 10
9.9753835046
 20
9.8045670971
 30
0.0
 10
9.9709701095
 20
9.7983327648
 30
0.0
 10
9.9690000101
 20
9.7937765695
 30
0.0
 10
9.9683638468
 20
9.7914785342
 30
0.0
  0
SPLINE
  5
34D
100
AcDbEntity
  8
0
100
AcDbSpline
 62
9
  6
CONTINUOUS
 70
0
 71
3
 72
26
 73
22
 74
0
 42
0.0000001
 43
0.0000001
 44
0.0000000001
 40
0.0
 40
0.0
 40
0.0
 40
0.0
 40
0.0143032692
 40
0.0286251082
 40
0.0573800267
 40
0.0863316233
 40
0.1154844491
 40
0.1448214456
 40
0.1743178001
 40
0.203957215
 40
0.2337246667
 40
0.2936104522
 40
0.3539094715
 40
0.4145997104
 40
0.4757373211
 40
0.5996990424
 40
0.6628818922
 40
0.7270899367
 40
0.7925696312
 40
0.8596591162
 40
1.0
 40
1.0
 40
1.0
 40
1.0
 10
11.611881871
 20
10.7231160894
 30
0.0
 10
11.6106491039
 20
10.7267989312
 30
0.0
 10
11.6079684603
 20
10.7340989649
 30
0.0
 10
11.6019210111
 20
10.7484621552
 30
0.0
 10
11.5931545683
 20
10.7659705655
 30
0.0
 10
11.581135663
 20
10.7862798993
 30
0.0
 10
11.5678540743
 20
10.8059745152
 30
0.0
 10
11.5535011321
 20
10.8250838904
 30
0.0
 10
11.5382227175
 20
10.8436312803
 30
0.0
 10
11.5221078237
 20
10.8616130175
 30
0.0
 10
11.4995675008
 20
10.8848839864
 30
0.0
 10
11.4696097522
 20
10.9125147876
 30
0.0
 10
11.4312761956
 20
10.9432713603
 30
0.0
 10
11.3906980976
 20
10.9716045935
 30
0.0
 10
11.3335273028
 20
11.0061077573
 30
0.0
 10
11.2724082949
 20
11.0351060827
 30
0.0
 10
11.208144944
 20
11.0581928664
 30
0.0
 10
11.1577672511
 20
11.0726411833
 30
0.0
 10
11.1055193541
 20
11.0840013952
 30
0.0
 10
11.032213958
 20
11.0950895353
 30
0.0
 10
10.9757983385
 20
11.0982091525
 30
0.0
 10
10.9376923427
 20
11.0982091525
 30
0.0
  0
SPLINE
  5
34E
100
AcDbEntity
  8
0
100
AcDbSpline
 62
9
  6
CONTINUOUS
 70
0
 71
3
 72
26
 73
22
 74
0
 42
0.0000001
 43
0.0000001
 44
0.0000000001
 40
0.0
 40
0.0
 40
0.0
 40
0.0
 40
0.1403408838
 40
0.2074303688
 40
0.2729100633
 40
0.3371181078
 40
0.4003009576
 40
0.5242626789
 40
0.5854002896
 40
0.6460905285
 40
0.7063895478
 40
0.7662753333
 40
0.796042785
 40
0.8256821999
 40
0.8551785544
 40
0.8845155509
 40
0.9136683767
 40
0.9426199733
 40
0.9713748918
 40
0.9856967308
 40
1.0
 40
1.0
 40
1.0
 40
1.0
 10
10.9376923427
 20
11.0982091525
 30
0.0
 10
10.8995863469
 20
11.0982091525
 30
0.0
 10
10.8431707275
 20
11.0950895353
 30
0.0
 10
10.7698653314
 20
11.0840013952
 30
0.0
 10
10.7176174344
 20
11.0726411833
 30
0.0
 10
10.6672397415
 20
11.0581928664
 30
0.0
 10
10.6029763906
 20
11.0351060827
 30
0.0
 10
10.5418573827
 20
11.0061077573
 30
0.0
 10
10.4846865879
 20
10.9716045935
 30
0.0
 10
10.4441084898
 20
10.9432713603
 30
0.0
 10
10.4057749333
 20
10.9125147876
 30
0.0
 10
10.3758171847
 20
10.8848839864
 30
0.0
 10
10.3532768618
 20
10.8616130175
 30
0.0
 10
10.337161968
 20
10.8436312803
 30
0.0
 10
10.3218835534
 20
10.8250838904
 30
0.0
 10
10.3075306111
 20
10.8059745152
 30
0.0
 10
10.2942490224
 20
10.7862798993
 30
0.0
 10
10.2822301172
 20
10.7659705655
 30
0.0
 10
10.2734636743
 20
10.7484621552
 30
0.0
 10
10.2674162252
 20
10.7340989649
 30
0.0
 10
10.2647355816
 20
10.7267989312
 30
0.0
 10
10.2635028145
 20
10.7231160894
 30
0.0
  0
SPLINE
  5
34F
100
AcDbEntity
  8
0
100
AcDbSpline
 62
7
  6
CONTINUOUS
 70
0
 71
3
 72
35
 73
31
 74
0
 42
0.0000001
 43
0.0000001
 44
0.0000000001
 40
0.0
 40
0.0
 40
0.0
 40
0.0
 40
0.1700188493
 40
0.3280731425
 40
0.4030532899
 40
0.4753968781
 40
0.5450648916
 40
0.6119705425
 40
0.6759928991
 40
0.7369068253
 40
0.7661149842
 40
0.7944106877
 40
0.821715202
 40
0.8479518392
 40
0.8730388842
 40
0.8968454372
 40
0.9192125635
 40
0.9297834971
 40
0.9399012684
 40
0.9495346482
 40
0.9586409384
 40
0.9671719104
 40
0.9750897101
 40
0.9788118654
 40
0.9823695736
 40
0.9889253686
 40
0.9919158215
 40
0.9947284486
 40
0.9974011811
 40
1.0
 40
1.0
 40
1.0
 40
1.0
 10
10.9376923427
 20
9.3603794375
 30
0.0
 10
11.0010896517
 20
9.3603794375
 30
0.0
 10
11.123426378
 20
9.359291247
 30
0.0
 10
11.2736690254
 20
9.355070298
 30
0.0
 10
11.3874366238
 20
9.3501895005
 30
0.0
 10
11.4682358797
 20
9.345874388
 30
0.0
 10
11.5459762435
 20
9.3408311429
 30
0.0
 10
11.6205522887
 20
9.3350294107
 30
0.0
 10
11.6917864293
 20
9.328447644
 30
0.0
 10
11.7489241238
 20
9.3221658878
 30
0.0
 10
11.7927339444
 20
9.3166399551
 30
0.0
 10
11.8240592852
 20
9.312299579
 30
0.0
 10
11.8542245865
 20
9.3076806522
 30
0.0
 10
11.8831292858
 20
9.3027590613
 30
0.0
 10
11.9106525236
 20
9.2975215283
 30
0.0
 10
11.9366303716
 20
9.2919205563
 30
0.0
 10
11.9571747095
 20
9.2868351012
 30
0.0
 10
11.972628722
 20
9.2824790825
 30
0.0
 10
11.9834314498
 20
9.2791364894
 30
0.0
 10
11.9936134977
 20
9.2756501611
 30
0.0
 10
12.0031090021
 20
9.2720032918
 30
0.0
 10
12.0118384697
 20
9.2681720127
 30
0.0
 10
12.0185385603
 20
9.2647404199
 30
0.0
 10
12.0234231764
 20
9.2618629103
 30
0.0
 10
12.0277459302
 20
9.2590477047
 30
0.0
 10
12.0316246607
 20
9.2560375232
 30
0.0
 10
12.0348189308
 20
9.2527037011
 30
0.0
 10
12.0367138707
 20
9.2501615027
 30
0.0
 10
12.0381311091
 20
9.247485752
 30
0.0
 10
12.0387204331
 20
9.2455947563
 30
0.0
 10
12.0389122062
 20
9.2446448634
 30
0.0
  0
ENDSEC
  0
SECTION
  2
OBJECTS
  0
DICTIONARY
  5
C
100
AcDbDictionary
280
0
281
1
  3
ACAD_GROUP
350
D
  3
ACAD_MLINESTYLE
350
17
  3
ACAD_LAYOUT
350
1A
  3
ACAD_PLOTSETTINGS
350
19
  3
ACAD_PLOTSTYLENAME
350
E
  0
DICTIONARY
  5
D
102
{ACAD_REACTORS
330
C
102
}
100
AcDbDictionary
280
0
281
1
  0
ACDBDICTIONARYWDFLT
  5
E
102
{ACAD_REACTORS
330
C
102
}
100
AcDbDictionary
281
1
  3
Normal
350
F
100
AcDbDictionaryWithDefault
340
F
  0
DICTIONARY
  5
17
102
{ACAD_REACTORS
330
C
102
}
100
AcDbDictionary
280
0
281
1
  3
Standard
350
18
  0
DICTIONARY
  5
19
102
{ACAD_REACTORS
330
C
102
}
100
AcDbDictionary
281
1
  0
DICTIONARY
  5
1A
102
{ACAD_REACTORS
330
C
102
}
100
AcDbDictionary
281
1
  3
Model
350
350
  3
Layout1
350
351
  0
ACDBPLACEHOLDER
  5
F
102
{ACAD_REACTORS
330
E
102
}
  0
MLINESTYLE
  5
18
102
{ACAD_REACTORS
330
17
102
}
100
AcDbMlineStyle
  2
STANDARD
 70
0
  3

 62
256
 51
90.0
 52
90.0
 71
2
 49
0.5
 62
256
  6
BYLAYER
 49
-0.5
 62
256
  6
BYLAYER
  0
LAYOUT
  5
350
102
{ACAD_REACTORS
330
1A
102
}
100
AcDbPlotSettings
  1

  2
none_device
  4
ANSI_C_(22.00_x_17.00_Inches)
  6

 40
0.0
 41
0.0
 42
0.0
 43
0.0
 44
558.8
 45
431.8
 46
0.0
 47
0.0
 48
0.0
 49
0.0
140
0.0
141
0.0
142
1.0
143
1.0
 70
1024
 72
0
 73
0
 74
0
  7

 75
0
147
1.0
148
0.0
149
0.0
100
AcDbLayout
  1
Model
 70
0
 71
0
 10
0.0
 20
0.0
 11
22.0
 21
17.0
 12
0.0
 22
0.0
 32
0.0
 14
0.0
 24
0.0
 34
0.0
 15
0.0
 25
0.0
 35
0.0
146
0.0
 13
0.0
 23
0.0
 33
0.0
 16
1.0
 26
0.0
 36
0.0
 17
0.0
 27
1.0
 37
0.0
 76
0
330
202
345
0
346
0
  0
LAYOUT
  5
351
102
{ACAD_REACTORS
330
1A
102
}
100
AcDbPlotSettings
  1

  2
none_device
  4
ANSI_C_(22.00_x_17.00_Inches)
  6

 40
0.0
 41
0.0
 42
0.0
 43
0.0
 44
558.8
 45
431.8
 46
0.0
 47
0.0
 48
0.0
 49
0.0
140
0.0
141
0.0
142
1.0
143
1.0
 70
0
 72
0
 73
0
 74
0
  7

 75
0
147
1.0
148
0.0
149
0.0
100
AcDbLayout
  1
Layout1
 70
0
 71
1
 10
0.0
 20
0.0
 11
22.0
 21
17.0
 12
0.0
 22
0.0
 32
0.0
 14
0.0
 24
0.0
 34
0.0
 15
0.0
 25
0.0
 35
0.0
146
0.0
 13
0.0
 23
0.0
 33
0.0
 16
1.0
 26
0.0
 36
0.0
 17
0.0
 27
1.0
 37
0.0
 76
0
330
203
345
0
346
0
  0
ENDSEC
  0
EOF
