999
DXF file: E:\BT Custom\CADOUTPUT\_FRONT.dxf
999
Pro/ENGINEER 2018400 by Parametric Technology Corporation
  0
SECTION
  2
HEADER
  9
$ACADVER
  1
AC1018
  9
$DWGCODEPAGE
  3
ANSI_1252
  9
$EXTMAX
 10
22.0
 20
17.0
 30
0.0
  9
$EXTMIN
 10
0.0
 20
0.0
 30
0.0
  9
$LIMMIN
 10
0.0
 20
0.0
  9
$LIMMAX
 10
22.0
 20
17.0
  9
$VIEWCTR
 10
11.0
 20
8.5
  9
$VIEWSIZE
 40
17.0
  9
$CLAYER
  8
0
  9
$LTSCALE
 40
1.21
  9
$CELTYPE
  6
BYLAYER
  9
$DIMSCALE
 40
1.0
  9
$DIMASZ
 40
0.1
  9
$DIMEXO
 40
0.0625
  9
$DIMDLI
 40
0.836
  9
$DIMEXE
 40
0.125
  9
$DIMCEN
 40
0.198
  9
$DIMLFAC
 40
1.0
  9
$DIMBLK
  1
_FILLED
  9
$DIMALT
 70
1
  9
$DIMALTD
 70
2
  9
$DIMALTTD
 70
2
  9
$DIMALTF
 40
25.4
  9
$DIMTXT
 40
0.08
  9
$DIMTOL
 70
1
  9
$DIMLIM
 70
0
  9
$DIMTFAC
 40
1.0
  9
$DIMTP
 40
0.001
  9
$DIMTM
 40
0.001
  9
$DIMGAP
 40
0.09
  9
$DIMDSEP
 70
46
  9
$AUNITS
 70
0
  9
$PDMODE
 70
3
  9
$PDSIZE
 40
0.06
  9
$HANDSEED
  5
27D
  9
$TILEMODE
 70
1
  9
$MEASUREMENT
 70
0
  9
$INSUNITS
 70
1
  0
ENDSEC
  0
SECTION
  2
CLASSES
  0
CLASS
  1
ACDBDICTIONARYWDFLT
  2
AcDbDictionaryWithDefault
  3
AutoCAD 2000
 90
0
 91
1
280
0
281
0
  0
CLASS
  1
ACDBPLACEHOLDER
  2
AcDbPlaceHolder
  3
AutoCAD 2000
 90
0
 91
1
280
0
281
0
  0
CLASS
  1
LAYOUT
  2
AcDbLayout
  3
AutoCAD 2000
 90
0
 91
0
280
0
281
0
  0
ENDSEC
  0
SECTION
  2
TABLES
  0
TABLE
  2
VPORT
  5
8
100
AcDbSymbolTable
 70
2
  0
VPORT
  5
1F4
100
AcDbSymbolTableRecord
100
AcDbViewportTableRecord
  2
*ACTIVE
 70
0
 10
0.0
 20
0.0
 11
1.0
 21
1.0
 12
11.0
 22
8.5
 13
0.0
 23
0.0
 14
1.0
 24
1.0
 15
0.0
 25
0.0
 16
0.0
 26
0.0
 36
1.0
 17
0.0
 27
0.0
 37
0.0
 40
17.0
 41
1.2941176471
 42
50.0
 43
0.0
 44
0.0
 50
0.0
 51
0.0
 71
0
 72
100
 73
1
 74
1
 75
0
 76
0
 77
0
 78
0
  0
ENDTAB
  0
TABLE
  2
LTYPE
  5
5
100
AcDbSymbolTable
 70
6
  0
LTYPE
  5
14
100
AcDbSymbolTableRecord
100
AcDbLinetypeTableRecord
  2
BYBLOCK
 70
0
  3

 72
65
 73
0
 40
0.0
  0
LTYPE
  5
15
100
AcDbSymbolTableRecord
100
AcDbLinetypeTableRecord
  2
BYLAYER
 70
0
  3

 72
65
 73
0
 40
0.0
  0
LTYPE
  5
16
100
AcDbSymbolTableRecord
100
AcDbLinetypeTableRecord
  2
CONTINUOUS
 70
64
  3
Solid line
 72
65
 73
0
 40
0.0
  0
LTYPE
  5
1F5
100
AcDbSymbolTableRecord
100
AcDbLinetypeTableRecord
  2
CENTER
 70
64
  3
____ _ ____ _ ____ _ ____ _ ____ _ ____ _ ____
 72
65
 73
4
 40
0.6
 49
0.375
 74
0
 49
-0.075
 74
0
 49
0.075
 74
0
 49
-0.075
 74
0
  0
LTYPE
  5
1F6
100
AcDbSymbolTableRecord
100
AcDbLinetypeTableRecord
  2
HIDDEN
 70
64
  3
- - - - - - - - - - - - - - - - - - - -
 72
65
 73
2
 40
0.2
 49
0.1
 74
0
 49
-0.1
 74
0
  0
LTYPE
  5
1F7
100
AcDbSymbolTableRecord
100
AcDbLinetypeTableRecord
  2
PHANTOM
 70
64
  3
_____ _ _ _____ _ _ _____ _ _ _____
 72
65
 73
6
 40
0.8
 49
0.45
 74
0
 49
-0.05
 74
0
 49
0.1
 74
0
 49
-0.05
 74
0
 49
0.1
 74
0
 49
-0.05
 74
0
  0
LTYPE
  5
1F8
100
AcDbSymbolTableRecord
100
AcDbLinetypeTableRecord
  2
DOT
 70
64
  3
. . . . . . . . . . . . . . . . . . . .
 72
65
 73
2
 40
0.2
 49
0.1
 74
0
 49
-0.1
 74
0
  0
LTYPE
  5
1F9
100
AcDbSymbolTableRecord
100
AcDbLinetypeTableRecord
  2
DASHED
 70
64
  3
- - - - - - - - - - - - - - - - - - - -
 72
65
 73
2
 40
0.2
 49
0.1
 74
0
 49
-0.1
 74
0
  0
ENDTAB
  0
TABLE
  2
LAYER
  5
2
100
AcDbSymbolTable
 70
36
  0
LAYER
  5
10
100
AcDbSymbolTableRecord
100
AcDbLayerTableRecord
  2
0
 70
0
 62
7
  6
CONTINUOUS
370
-3
390
F
  0
LAYER
  5
1FA
100
AcDbSymbolTableRecord
100
AcDbLayerTableRecord
  2
DEFAULT_1
 70
0
 62
7
  6
CENTER
370
-3
390
F
  0
LAYER
  5
1FB
100
AcDbSymbolTableRecord
100
AcDbLayerTableRecord
  2
DEFAULT_2
 70
0
 62
8
  6
HIDDEN
370
-3
390
F
  0
LAYER
  5
1FC
100
AcDbSymbolTableRecord
100
AcDbLayerTableRecord
  2
DEFAULT_3
 70
0
 62
7
  6
PHANTOM
370
-3
390
F
  0
LAYER
  5
1FD
100
AcDbSymbolTableRecord
100
AcDbLayerTableRecord
  2
ALL_FEATURES
 70
0
 62
7
  6
CONTINUOUS
370
-3
390
F
  0
LAYER
  5
1FE
100
AcDbSymbolTableRecord
100
AcDbLayerTableRecord
  2
AXES_FEATURES
 70
0
 62
7
  6
CONTINUOUS
370
-3
390
F
  0
LAYER
  5
1FF
100
AcDbSymbolTableRecord
100
AcDbLayerTableRecord
  2
DIMENSIONS
 70
0
 62
7
  6
CONTINUOUS
370
-3
390
F
  0
ENDTAB
  0
TABLE
  2
STYLE
  5
3
100
AcDbSymbolTable
 70
1
  0
STYLE
  5
11
100
AcDbSymbolTableRecord
100
AcDbTextStyleTableRecord
  2
STANDARD
 70
0
 40
0.0
 41
0.8
 50
0.0
 71
0
 42
0.2
  3
txt
  4

  0
STYLE
  5
200
100
AcDbSymbolTableRecord
100
AcDbTextStyleTableRecord
  2
TEXTSTYLE_1
 70
0
 40
0.0
 41
0.8
 50
0.0
 71
0
 42
0.2
  3
gdt
  4

  0
ENDTAB
  0
TABLE
  2
VIEW
  5
6
100
AcDbSymbolTable
 70
0
  0
ENDTAB
  0
TABLE
  2
UCS
  5
7
100
AcDbSymbolTable
 70
0
  0
ENDTAB
  0
TABLE
  2
APPID
  5
9
100
AcDbSymbolTable
 70
1
  0
APPID
  5
201
100
AcDbSymbolTableRecord
100
AcDbRegAppTableRecord
  2
ACAD
 70
0
  0
ENDTAB
  0
TABLE
  2
BLOCK_RECORD
  5
1
100
AcDbSymbolTable
 70
0
  0
BLOCK_RECORD
  5
202
100
AcDbSymbolTableRecord
100
AcDbBlockTableRecord
  2
*Model_Space
  0
BLOCK_RECORD
  5
203
100
AcDbSymbolTableRecord
100
AcDbBlockTableRecord
  2
*Paper_Space
  0
BLOCK_RECORD
  5
204
100
AcDbSymbolTableRecord
100
AcDbBlockTableRecord
  2
_FILLED
  0
ENDTAB
  0
TABLE
  2
DIMSTYLE
  5
A
100
AcDbSymbolTable
 70
1
100
AcDbDimStyleTable
 71
0
  0
DIMSTYLE
105
205
100
AcDbSymbolTableRecord
100
AcDbDimStyleTableRecord
  2
STANDARD
 70
0
  3

  4

 40
1.0
 41
0.1
 42
0.0625
 43
0.38
 44
0.125
 45
0.0
 46
0.0
 47
0.001
 48
0.001
140
0.08
141
0.09
142
0.0
143
25.4
144
1.0
145
0.0
146
1.0
147
0.09
 71
1.0
 72
0.0
 73
1
 74
1
 75
0
 76
0
 77
0
 78
4
 79
1
170
1
171
2
172
0
173
0
174
0
175
0
176
0
177
0
178
0
270
2
179
3
271
3
272
3
273
2
274
2
275
0
280
0
281
0
282
0
283
1
284
4
285
0
286
0
287
3
288
0
340
11
278
46
341
204
342
204
343
204
344
204
  0
ENDTAB
  0
ENDSEC
  0
SECTION
  2
BLOCKS
  0
BLOCK
  5
20
100
AcDbEntity
  8
0
100
AcDbBlockBegin
  2
*Model_Space
 70
0
 10
0.0
 20
0.0
 30
0.0
  3
*Model_Space
  1

  0
ENDBLK
  5
21
100
AcDbEntity
  8
0
100
AcDbBlockEnd
  0
BLOCK
  5
1C
100
AcDbEntity
  8
0
100
AcDbBlockBegin
  2
*Paper_Space
 70
0
 10
0.0
 20
0.0
 30
0.0
  3
*Paper_Space
  1

  0
ENDBLK
  5
1D
100
AcDbEntity
  8
0
100
AcDbBlockEnd
  0
BLOCK
  5
206
100
AcDbEntity
  8
0
100
AcDbBlockBegin
  2
_FILLED
 70
64
 10
0.0
 20
0.0
  3
_FILLED
  1

  0
SOLID
  5
207
100
AcDbEntity
  8
0
  6
BYBLOCK
 62
0
100
AcDbTrace
 10
0.0
 20
0.0
 11
-1.0
 21
0.2
 12
-1.0
 22
-0.2
 13
-1.0
 23
-0.2
  0
ENDBLK
  5
208
100
AcDbEntity
  8
0
  6
BYBLOCK
 62
0
100
AcDbBlockEnd
  0
ENDSEC
  0
SECTION
  2
ENTITIES
  0
LINE
  5
209
100
AcDbEntity
  8
0
100
AcDbLine
 62
7
  6
CONTINUOUS
 10
9.3974119215
 20
10.625173178
 11
9.3751923427
 21
10.6029535993
  0
LINE
  5
20A
100
AcDbEntity
  8
0
100
AcDbLine
 62
9
  6
CONTINUOUS
 10
8.9932306004
 20
10.4207062229
 11
8.9932306004
 21
10.0106327814
  0
LINE
  5
20B
100
AcDbEntity
  8
0
100
AcDbLine
 62
9
  6
CONTINUOUS
 10
9.0423966704
 20
10.0449321448
 11
9.0423966704
 21
10.3864068595
  0
LINE
  5
20C
100
AcDbEntity
  8
0
100
AcDbLine
 62
7
  6
CONTINUOUS
 10
9.0670785996
 20
10.3956695021
 11
9.0670785996
 21
10.0356695021
  0
LINE
  5
20D
100
AcDbEntity
  8
0
100
AcDbLine
 62
9
  6
CONTINUOUS
 10
9.0940525419
 20
10.0240259378
 11
9.0940525419
 21
10.4073130665
  0
LINE
  5
20E
100
AcDbEntity
  8
0
100
AcDbLine
 62
7
  6
CONTINUOUS
 10
9.3735000275
 20
10.5006695021
 11
9.3451923427
 21
10.4206695021
  0
LINE
  5
20F
100
AcDbEntity
  8
0
100
AcDbLine
 62
7
  6
CONTINUOUS
 10
9.4011923427
 20
10.5166695021
 11
9.3735000275
 21
10.5006695021
  0
LINE
  5
210
100
AcDbEntity
  8
0
100
AcDbLine
 62
7
  6
CONTINUOUS
 10
9.1616923427
 20
8.2556695021
 11
9.1616923427
 21
8.1936695021
  0
LINE
  5
211
100
AcDbEntity
  8
0
100
AcDbLine
 62
7
  6
CONTINUOUS
 10
9.2461923427
 20
8.2556695021
 11
9.2461923427
 21
8.6068772478
  0
LINE
  5
212
100
AcDbEntity
  8
0
100
AcDbLine
 62
7
  6
CONTINUOUS
 10
9.0423966704
 20
10.0449321448
 11
8.9932306004
 21
10.0106327814
  0
LINE
  5
213
100
AcDbEntity
  8
0
100
AcDbLine
 62
7
  6
CONTINUOUS
 10
9.4481823866
 20
10.6416695021
 11
9.3974119215
 21
10.625173178
  0
LINE
  5
214
100
AcDbEntity
  8
0
100
AcDbLine
 62
9
  6
CONTINUOUS
 10
9.3453771718
 20
10.4038123593
 11
9.3453771718
 21
10.027526645
  0
LINE
  5
215
100
AcDbEntity
  8
0
100
AcDbLine
 62
9
  6
CONTINUOUS
 10
9.366002597
 20
10.3543826673
 11
9.366002597
 21
10.0769163348
  0
LINE
  5
216
100
AcDbEntity
  8
0
100
AcDbLine
 62
7
  6
CONTINUOUS
 10
9.3751923427
 20
10.6029535993
 11
9.3751923427
 21
10.5316695021
  0
LINE
  5
217
100
AcDbEntity
  8
0
100
AcDbLine
 62
7
  6
CONTINUOUS
 10
9.3801923427
 20
10.1506695021
 11
9.3801923427
 21
10.2806695021
  0
LINE
  5
218
100
AcDbEntity
  8
0
100
AcDbLine
 62
7
  6
CONTINUOUS
 10
8.7226936218
 20
7.8186695021
 11
11.0826910636
 21
7.8186695021
  0
LINE
  5
219
100
AcDbEntity
  8
0
100
AcDbLine
 62
7
  6
CONTINUOUS
 10
9.5591923427
 20
9.8806695021
 11
9.5591923427
 21
9.5216695021
  0
LINE
  5
21A
100
AcDbEntity
  8
0
100
AcDbLine
 62
7
  6
CONTINUOUS
 10
10.4041923427
 20
10.5166695021
 11
10.4301923427
 21
10.5316695021
  0
LINE
  5
21B
100
AcDbEntity
  8
0
100
AcDbLine
 62
7
  6
CONTINUOUS
 10
8.9026923427
 20
8.0056695021
 11
10.9026923427
 21
8.0056695021
  0
LINE
  5
21C
100
AcDbEntity
  8
0
100
AcDbLine
 62
7
  6
CONTINUOUS
 10
9.7026923427
 20
9.5056695021
 11
9.7026923427
 21
9.5216695021
  0
LINE
  5
21D
100
AcDbEntity
  8
0
100
AcDbLine
 62
7
  6
CONTINUOUS
 10
9.3621923427
 20
9.1712859409
 11
9.2880583485
 21
9.0653683137
  0
LINE
  5
21E
100
AcDbEntity
  8
0
100
AcDbLine
 62
7
  6
CONTINUOUS
 10
10.4851923427
 20
10.4126695021
 11
10.6851923427
 21
10.4971695021
  0
LINE
  5
21F
100
AcDbEntity
  8
0
100
AcDbLine
 62
7
  6
CONTINUOUS
 10
9.3451923427
 20
10.0106695021
 11
9.3751923427
 21
9.9316695021
  0
LINE
  5
220
100
AcDbEntity
  8
0
100
AcDbLine
 62
7
  6
CONTINUOUS
 10
9.9026908954
 20
8.5056142608
 11
9.9026923427
 21
8.2556695021
  0
LINE
  5
221
100
AcDbEntity
  8
0
100
AcDbLine
 62
7
  6
CONTINUOUS
 10
10.7156938783
 20
8.1936695021
 11
9.0896908072
 21
8.1936695021
  0
LINE
  5
222
100
AcDbEntity
  8
0
100
AcDbLine
 62
7
  6
CONTINUOUS
 10
9.1616928686
 20
8.2556695021
 11
10.6436918169
 21
8.2556695021
  0
LINE
  5
223
100
AcDbEntity
  8
0
100
AcDbLine
 62
7
  6
CONTINUOUS
 10
10.1026923427
 20
9.5056695021
 11
10.1026923427
 21
9.5216695021
  0
LINE
  5
224
100
AcDbEntity
  8
0
100
AcDbLine
 62
7
  6
CONTINUOUS
 10
10.4601923427
 20
10.0106695021
 11
10.4301923427
 21
9.9316695021
  0
LINE
  5
225
100
AcDbEntity
  8
0
100
AcDbLine
 62
7
  6
CONTINUOUS
 10
9.2615289031
 20
8.6221695021
 11
9.2461923427
 21
8.6068771204
  0
LINE
  5
226
100
AcDbEntity
  8
0
100
AcDbLine
 62
7
  6
CONTINUOUS
 10
10.2731923427
 20
9.8806695021
 11
10.4301923427
 21
9.9316695021
  0
LINE
  5
227
100
AcDbEntity
  8
0
100
AcDbLine
 62
7
  6
CONTINUOUS
 10
10.5438557824
 20
8.6221695021
 11
10.5591923427
 21
8.6068771204
  0
LINE
  5
228
100
AcDbEntity
  8
0
100
AcDbLine
 62
7
  6
CONTINUOUS
 10
10.2461923427
 20
9.8806695021
 11
10.2461923427
 21
9.5216695021
  0
LINE
  5
229
100
AcDbEntity
  8
0
100
AcDbLine
 62
9
  6
CONTINUOUS
 10
10.5438557824
 20
8.6221695021
 11
9.2615289031
 21
8.6221695021
  0
LINE
  5
22A
100
AcDbEntity
  8
0
100
AcDbLine
 62
7
  6
CONTINUOUS
 10
10.4251923427
 20
10.2806695021
 11
10.4251923427
 21
10.1506695021
  0
LINE
  5
22B
100
AcDbEntity
  8
0
100
AcDbLine
 62
7
  6
CONTINUOUS
 10
10.4301923427
 20
10.6029535993
 11
10.4301923427
 21
10.5316695021
  0
LINE
  5
22C
100
AcDbEntity
  8
0
100
AcDbLine
 62
7
  6
CONTINUOUS
 10
10.4851923427
 20
10.0186695021
 11
10.4851923427
 21
10.4126695021
  0
LINE
  5
22D
100
AcDbEntity
  8
0
100
AcDbLine
 62
7
  6
CONTINUOUS
 10
10.5591923427
 20
8.6068772478
 11
10.5591923427
 21
8.2556695021
  0
LINE
  5
22E
100
AcDbEntity
  8
0
100
AcDbLine
 62
9
  6
CONTINUOUS
 10
9.2841923427
 20
8.8371695021
 11
10.5211923427
 21
8.8371695021
  0
LINE
  5
22F
100
AcDbEntity
  8
0
100
AcDbLine
 62
7
  6
CONTINUOUS
 10
10.4431923427
 20
9.1712859409
 11
10.5173263369
 21
9.0653683137
  0
LINE
  5
230
100
AcDbEntity
  8
0
100
AcDbLine
 62
7
  6
CONTINUOUS
 10
10.6436923427
 20
8.2556695021
 11
10.6436923427
 21
8.1936695021
  0
LINE
  5
231
100
AcDbEntity
  8
0
100
AcDbLine
 62
7
  6
CONTINUOUS
 10
10.6851923427
 20
10.4971695021
 11
10.6851923427
 21
9.9341695021
  0
LINE
  5
232
100
AcDbEntity
  8
0
100
AcDbLine
 62
9
  6
CONTINUOUS
 10
9.2880583485
 20
9.0653683137
 11
10.5173263369
 21
9.0653683137
  0
LINE
  5
233
100
AcDbEntity
  8
0
100
AcDbLine
 62
7
  6
CONTINUOUS
 10
9.0423966704
 20
10.3864068595
 11
8.9932306004
 21
10.4207062229
  0
LINE
  5
234
100
AcDbEntity
  8
0
100
AcDbLine
 62
7
  6
CONTINUOUS
 10
10.7901923427
 20
9.9341695021
 11
10.7901923427
 21
10.4971695021
  0
LINE
  5
235
100
AcDbEntity
  8
0
100
AcDbLine
 62
9
  6
CONTINUOUS
 10
10.4431923427
 20
9.1712859409
 11
9.3621923427
 21
9.1712859409
  0
LINE
  5
236
100
AcDbEntity
  8
0
100
AcDbLine
 62
7
  6
CONTINUOUS
 10
10.431884658
 20
10.5006695021
 11
10.4601923427
 21
10.4206695021
  0
LINE
  5
237
100
AcDbEntity
  8
0
100
AcDbLine
 62
7
  6
CONTINUOUS
 10
9.5321923427
 20
9.8806695021
 11
9.3751923427
 21
9.9316695021
  0
LINE
  5
238
100
AcDbEntity
  8
0
100
AcDbLine
 62
9
  6
CONTINUOUS
 10
10.3324320703
 20
9.4772687448
 11
9.4729526152
 21
9.4772687448
  0
LINE
  5
239
100
AcDbEntity
  8
0
100
AcDbLine
 62
7
  6
CONTINUOUS
 10
10.3015261593
 20
9.5056695021
 11
9.5038434542
 21
9.5056695021
  0
LINE
  5
23A
100
AcDbEntity
  8
0
100
AcDbLine
 62
7
  6
CONTINUOUS
 10
9.5592059003
 20
9.5216695021
 11
10.2461787852
 21
9.5216695021
  0
LINE
  5
23B
100
AcDbEntity
  8
0
100
AcDbLine
 62
7
  6
CONTINUOUS
 10
9.4011923427
 20
10.5166695021
 11
9.3751923427
 21
10.5316695021
  0
LINE
  5
23C
100
AcDbEntity
  8
0
100
AcDbLine
 62
7
  6
CONTINUOUS
 10
10.4851923427
 20
10.0186695021
 11
10.6851923427
 21
9.9341695021
  0
LINE
  5
23D
100
AcDbEntity
  8
0
100
AcDbLine
 62
7
  6
CONTINUOUS
 10
9.5322065995
 20
9.8806695021
 11
10.273178086
 21
9.8806695021
  0
LINE
  5
23E
100
AcDbEntity
  8
0
100
AcDbLine
 62
7
  6
CONTINUOUS
 10
10.4301923427
 20
9.9316695021
 11
9.3751923427
 21
9.9316695021
  0
LINE
  5
23F
100
AcDbEntity
  8
0
100
AcDbLine
 62
7
  6
CONTINUOUS
 10
13.1591923427
 20
9.9341695021
 11
13.0791923427
 21
9.9341695021
  0
LINE
  5
240
100
AcDbEntity
  8
0
100
AcDbLine
 62
7
  6
CONTINUOUS
 10
10.7901923427
 20
9.9341695021
 11
10.6851923427
 21
9.9341695021
  0
LINE
  5
241
100
AcDbEntity
  8
0
100
AcDbLine
 62
7
  6
CONTINUOUS
 10
9.3451923427
 20
10.0106695021
 11
10.4601923427
 21
10.0106695021
  0
LINE
  5
242
100
AcDbEntity
  8
0
100
AcDbLine
 62
7
  6
CONTINUOUS
 10
10.4851923427
 20
10.0186695021
 11
10.4573282176
 21
10.0186695021
  0
LINE
  5
243
100
AcDbEntity
  8
0
100
AcDbLine
 62
7
  6
CONTINUOUS
 10
10.4079727639
 20
10.625173178
 11
10.4301923427
 21
10.6029535993
  0
LINE
  5
244
100
AcDbEntity
  8
0
100
AcDbLine
 62
7
  6
CONTINUOUS
 10
10.4041923427
 20
10.5166695021
 11
10.431884658
 21
10.5006695021
  0
LINE
  5
245
100
AcDbEntity
  8
0
100
AcDbLine
 62
7
  6
CONTINUOUS
 10
13.1791923427
 20
9.9541695021
 11
13.1591923427
 21
9.9341695021
  0
LINE
  5
246
100
AcDbEntity
  8
0
100
AcDbLine
 62
7
  6
CONTINUOUS
 10
10.4851923427
 20
10.4126695021
 11
10.4573279655
 21
10.4126695021
  0
LINE
  5
247
100
AcDbEntity
  8
0
100
AcDbLine
 62
7
  6
CONTINUOUS
 10
10.4601923427
 20
10.4206695021
 11
9.3451923427
 21
10.4206695021
  0
LINE
  5
248
100
AcDbEntity
  8
0
100
AcDbLine
 62
7
  6
CONTINUOUS
 10
13.1591923427
 20
10.4971695021
 11
13.0791923427
 21
10.4971695021
  0
LINE
  5
249
100
AcDbEntity
  8
0
100
AcDbLine
 62
7
  6
CONTINUOUS
 10
10.7901923427
 20
10.4971695021
 11
10.6851923427
 21
10.4971695021
  0
LINE
  5
24A
100
AcDbEntity
  8
0
100
AcDbLine
 62
7
  6
CONTINUOUS
 10
9.3735000275
 20
10.5006695021
 11
10.431884658
 21
10.5006695021
  0
LINE
  5
24B
100
AcDbEntity
  8
0
100
AcDbLine
 62
7
  6
CONTINUOUS
 10
9.4011923427
 20
10.5166695021
 11
10.4041923427
 21
10.5166695021
  0
LINE
  5
24C
100
AcDbEntity
  8
0
100
AcDbLine
 62
7
  6
CONTINUOUS
 10
9.3751923427
 20
10.5316695021
 11
10.4301923427
 21
10.5316695021
  0
LINE
  5
24D
100
AcDbEntity
  8
0
100
AcDbLine
 62
7
  6
CONTINUOUS
 10
10.3572022989
 20
10.6416695021
 11
10.4079727639
 21
10.625173178
  0
LINE
  5
24E
100
AcDbEntity
  8
0
100
AcDbLine
 62
7
  6
CONTINUOUS
 10
10.4301923427
 20
10.6029535993
 11
9.3751923427
 21
10.6029535993
  0
LINE
  5
24F
100
AcDbEntity
  8
0
100
AcDbLine
 62
7
  6
CONTINUOUS
 10
9.3974119215
 20
10.625173178
 11
10.4079727639
 21
10.625173178
  0
LINE
  5
250
100
AcDbEntity
  8
0
100
AcDbLine
 62
7
  6
CONTINUOUS
 10
10.3572014361
 20
10.6416695021
 11
9.4481832494
 21
10.6416695021
  0
LINE
  5
251
100
AcDbEntity
  8
0
100
AcDbLine
 62
9
  6
CONTINUOUS
 10
9.5075476862
 20
10.6654787954
 11
10.2978369993
 21
10.6654787954
  0
LINE
  5
252
100
AcDbEntity
  8
0
100
AcDbLine
 62
7
  6
CONTINUOUS
 10
13.0791923427
 20
10.4971695021
 11
13.0791923427
 21
9.9341695021
  0
LINE
  5
253
100
AcDbEntity
  8
0
100
AcDbLine
 62
7
  6
CONTINUOUS
 10
13.1591923427
 20
9.9341695021
 11
13.1591923427
 21
10.4971695021
  0
LINE
  5
254
100
AcDbEntity
  8
0
100
AcDbLine
 62
7
  6
CONTINUOUS
 10
13.1791923427
 20
9.9541702951
 11
13.1791923427
 21
10.4771687092
  0
LINE
  5
255
100
AcDbEntity
  8
0
100
AcDbLine
 62
7
  6
CONTINUOUS
 10
13.1791923427
 20
10.4771695021
 11
13.1591923427
 21
10.4971695021
  0
ARC
  5
256
100
AcDbEntity
  8
0
100
AcDbCircle
 62
7
  6
CONTINUOUS
 10
9.9026923427
 20
9.1659994867
 40
1.5506700155
100
AcDbArc
 50
75.2369687319
 51
104.7630312681
  0
ARC
  5
257
100
AcDbEntity
  8
0
100
AcDbCircle
 62
7
  6
CONTINUOUS
 10
8.6509594365
 20
10.2663276193
 40
0.7398094094
100
AcDbArc
 50
340.1279540587
 51
341.1838304442
  0
ARC
  5
258
100
AcDbEntity
  8
0
100
AcDbCircle
 62
7
  6
CONTINUOUS
 10
8.6541369695
 20
10.1661259127
 40
0.7364422276
100
AcDbArc
 50
18.7944236252
 51
19.8693085648
  0
ARC
  5
259
100
AcDbEntity
  8
0
100
AcDbCircle
 62
7
  6
CONTINUOUS
 10
10.9552312448
 20
9.5296728307
 40
0.625
100
AcDbArc
 50
184.8096995456
 51
214.9889904702
  0
ARC
  5
25A
100
AcDbEntity
  8
0
100
AcDbCircle
 62
7
  6
CONTINUOUS
 10
8.8501534407
 20
9.5296728307
 40
0.625
100
AcDbArc
 50
325.0110095298
 51
355.1903004544
  0
ARC
  5
25B
100
AcDbEntity
  8
0
100
AcDbCircle
 62
7
  6
CONTINUOUS
 10
12.9016715094
 20
10.2156695021
 40
0.3735208333
100
AcDbArc
 50
317.9864211384
 51
42.0135788616
  0
ARC
  5
25C
100
AcDbEntity
  8
0
100
AcDbCircle
 62
7
  6
CONTINUOUS
 10
8.8501923427
 20
10.2156695021
 40
0.25
100
AcDbArc
 50
55.0995
 51
304.9005
  0
ARC
  5
25D
100
AcDbEntity
  8
0
100
AcDbCircle
 62
7
  6
CONTINUOUS
 10
10.3502172217
 20
8.9484050989
 40
0.2039751211
100
AcDbArc
 50
326.9521644936
 51
34.9889904702
  0
ARC
  5
25E
100
AcDbEntity
  8
0
100
AcDbCircle
 62
7
  6
CONTINUOUS
 10
9.4551674638
 20
8.9484050989
 40
0.2039751211
100
AcDbArc
 50
145.0110095298
 51
213.0478355064
  0
ARC
  5
25F
100
AcDbEntity
  8
0
100
AcDbCircle
 62
7
  6
CONTINUOUS
 10
10.8955562316
 20
7.8186695021
 40
0.1871361111
100
AcDbArc
 50
0.0
 51
87.8145949287
  0
ARC
  5
260
100
AcDbEntity
  8
0
100
AcDbCircle
 62
7
  6
CONTINUOUS
 10
8.9098284538
 20
7.8186695021
 40
0.1871361111
100
AcDbArc
 50
92.1854050713
 51
180.0
  0
ARC
  5
261
100
AcDbEntity
  8
0
100
AcDbCircle
 62
7
  6
CONTINUOUS
 10
9.0896896689
 20
8.0066695021
 40
0.187
100
AcDbArc
 50
90.0
 51
180.3063960032
  0
ARC
  5
262
100
AcDbEntity
  8
0
100
AcDbCircle
 62
7
  6
CONTINUOUS
 10
10.7156950166
 20
8.0066695021
 40
0.187
100
AcDbArc
 50
359.6936039968
 51
90.0
  0
ARC
  5
263
100
AcDbEntity
  8
0
100
AcDbCircle
 62
7
  6
CONTINUOUS
 10
9.2216246208
 20
9.8886695021
 40
0.186
100
AcDbArc
 50
48.2918697479
 51
133.3041758004
  0
ARC
  5
264
100
AcDbEntity
  8
0
100
AcDbCircle
 62
7
  6
CONTINUOUS
 10
9.2216246208
 20
10.5426695021
 40
0.186
100
AcDbArc
 50
226.6958241996
 51
311.7081302521
  0
ARC
  5
265
100
AcDbEntity
  8
0
100
AcDbCircle
 62
7
  6
CONTINUOUS
 10
9.1404178091
 20
8.7436304776
 40
0.1715245336
100
AcDbArc
 50
314.9173576842
 51
33.0478355064
  0
ARC
  5
266
100
AcDbEntity
  8
0
100
AcDbCircle
 62
7
  6
CONTINUOUS
 10
10.6649668764
 20
8.7436304776
 40
0.1715245336
100
AcDbArc
 50
146.9521644936
 51
225.0826423158
  0
ARC
  5
267
100
AcDbEntity
  8
0
100
AcDbCircle
 62
7
  6
CONTINUOUS
 10
9.5038434542
 20
9.4746695021
 40
0.031
100
AcDbArc
 50
90.0
 51
175.1903004544
  0
ARC
  5
268
100
AcDbEntity
  8
0
100
AcDbCircle
 62
7
  6
CONTINUOUS
 10
10.3015412312
 20
9.4746695021
 40
0.031
100
AcDbArc
 50
4.8096995456
 51
90.0
  0
ARC
  5
269
100
AcDbEntity
  8
0
100
AcDbCircle
 62
7
  6
CONTINUOUS
 10
9.366002597
 20
10.0506695021
 40
0.031
100
AcDbArc
 50
228.291869748
 51
238.6675569797
  0
ARC
  5
26A
100
AcDbEntity
  8
0
100
AcDbCircle
 62
7
  6
CONTINUOUS
 10
9.366002597
 20
10.3806695021
 40
0.031
100
AcDbArc
 50
121.3354607478
 51
131.708130252
  0
ARC
  5
26B
100
AcDbEntity
  8
0
100
AcDbCircle
 62
7
  6
CONTINUOUS
 10
10.2901923427
 20
10.6364691552
 40
0.03
100
AcDbArc
 50
9.9823558487
 51
75.2369687317
  0
ARC
  5
26C
100
AcDbEntity
  8
0
100
AcDbCircle
 62
7
  6
CONTINUOUS
 10
9.5151923427
 20
10.6364691552
 40
0.03
100
AcDbArc
 50
104.7630312683
 51
170.0176441513
  0
ARC
  5
26D
100
AcDbEntity
  8
0
100
AcDbCircle
 62
7
  6
CONTINUOUS
 10
9.0515511189
 20
10.0318097946
 40
0.016
100
AcDbArc
 50
13.9592487755
 51
124.9005
  0
ARC
  5
26E
100
AcDbEntity
  8
0
100
AcDbCircle
 62
7
  6
CONTINUOUS
 10
9.0515511189
 20
10.3995292096
 40
0.016
100
AcDbArc
 50
235.0995
 51
346.0407512245
  0
ARC
  5
26F
100
AcDbEntity
  8
0
100
AcDbCircle
 62
7
  6
CONTINUOUS
 10
9.0830785996
 20
10.3956695021
 40
0.016
100
AcDbArc
 50
46.6958241996
 51
180.0
  0
ARC
  5
270
100
AcDbEntity
  8
0
100
AcDbCircle
 62
7
  6
CONTINUOUS
 10
9.0830785996
 20
10.0356695021
 40
0.016
100
AcDbArc
 50
180.0
 51
313.3041758004
  0
SPLINE
  5
271
100
AcDbEntity
  8
0
100
AcDbSpline
 62
7
  6
CONTINUOUS
 70
0
 71
3
 72
32
 73
28
 74
0
 42
0.0000001
 43
0.0000001
 44
0.0000000001
 40
0.0
 40
0.0
 40
0.0
 40
0.0
 40
0.0000737816
 40
0.0002949437
 40
0.0006632185
 40
0.0011783383
 40
0.0026480426
 40
0.0047019168
 40
0.0073378221
 40
0.0105536211
 40
0.0143471776
 40
0.0187163565
 40
0.0291730469
 40
0.041903528
 40
0.0568688798
 40
0.0740232698
 40
0.0933210019
 40
0.1147165432
 40
0.1636110161
 40
0.2202686762
 40
0.2842238453
 40
0.3550046478
 40
0.4321128663
 40
0.5150558954
 40
0.6033504008
 40
0.7940937854
 40
1.0
 40
1.0
 40
1.0
 40
1.0
 10
10.4601923427
 20
10.4206695021
 30
0.0
 10
10.4601902305
 20
10.4206666405
 30
0.0
 10
10.4601874222
 20
10.4206521562
 30
0.0
 10
10.460174269
 20
10.4206232839
 30
0.0
 10
10.4601569706
 20
10.4205727117
 30
0.0
 10
10.4601169767
 20
10.4204666803
 30
0.0
 10
10.460050194
 20
10.4202837111
 30
0.0
 10
10.4599475123
 20
10.420005149
 30
0.0
 10
10.4598164378
 20
10.419647284
 30
0.0
 10
10.4596567235
 20
10.4192106204
 30
0.0
 10
10.4594687896
 20
10.4186953022
 30
0.0
 10
10.45916194
 20
10.4178518111
 30
0.0
 10
10.4587094818
 20
10.4166028529
 30
0.0
 10
10.4580858962
 20
10.4148726048
 30
0.0
 10
10.4573581028
 20
10.4128367193
 30
0.0
 10
10.4565312661
 20
10.4105000492
 30
0.0
 10
10.4556106487
 20
10.4078677716
 30
0.0
 10
10.45420128
 20
10.4037855173
 30
0.0
 10
10.4522423695
 20
10.3979877441
 30
0.0
 10
10.4497092297
 20
10.3902188064
 30
0.0
 10
10.4469586837
 20
10.3814116957
 30
0.0
 10
10.4440516436
 20
10.3716215904
 30
0.0
 10
10.4410564125
 20
10.3609041971
 30
0.0
 10
10.4380411977
 20
10.3493175508
 30
0.0
 10
10.4339803239
 20
10.3323458455
 30
0.0
 10
10.4293025865
 20
10.3094325966
 30
0.0
 10
10.4264177054
 20
10.2905195329
 30
0.0
 10
10.4251923427
 20
10.2806695021
 30
0.0
  0
SPLINE
  5
272
100
AcDbEntity
  8
0
100
AcDbSpline
 62
7
  6
CONTINUOUS
 70
0
 71
3
 72
10
 73
6
 74
0
 42
0.0000001
 43
0.0000001
 44
0.0000000001
 40
0.0
 40
0.0
 40
0.0
 40
0.0
 40
0.3965975064
 40
0.7157364027
 40
1.0
 40
1.0
 40
1.0
 40
1.0
 10
10.4251923427
 20
10.1506695021
 30
0.0
 10
10.427551991
 20
10.1317015604
 30
0.0
 10
10.4336323226
 20
10.0976728048
 30
0.0
 10
10.44614449
 20
10.0510947024
 30
0.0
 10
10.4554641343
 20
10.0235279226
 30
0.0
 10
10.4601923427
 20
10.0106695021
 30
0.0
  0
LINE
  5
273
100
AcDbEntity
  8
0
100
AcDbLine
 62
7
  6
CONTINUOUS
 10
9.3451923427
 20
10.0106695021
 11
9.3467162162
 21
10.0148510484
  0
SPLINE
  5
274
100
AcDbEntity
  8
0
100
AcDbSpline
 62
7
  6
CONTINUOUS
 70
0
 71
3
 72
10
 73
6
 74
0
 42
0.0000001
 43
0.0000001
 44
0.0000000001
 40
0.0
 40
0.0
 40
0.0
 40
0.0
 40
0.4082553414
 40
0.6867894414
 40
1.0
 40
1.0
 40
1.0
 40
1.0
 10
9.351232155
 20
10.0277147908
 30
0.0
 10
9.356785962
 20
10.0440113278
 30
0.0
 10
9.3651724472
 20
10.0717714617
 30
0.0
 10
9.3745726685
 20
10.1129014331
 30
0.0
 10
9.3785617259
 20
10.1375618515
 30
0.0
 10
9.3801923427
 20
10.1506695021
 30
0.0
  0
SPLINE
  5
275
100
AcDbEntity
  8
0
100
AcDbSpline
 62
7
  6
CONTINUOUS
 70
0
 71
3
 72
10
 73
6
 74
0
 42
0.0000001
 43
0.0000001
 44
0.0000000001
 40
0.0
 40
0.0
 40
0.0
 40
0.0
 40
0.3128004739
 40
0.591139603
 40
1.0
 40
1.0
 40
1.0
 40
1.0
 10
9.3801923427
 20
10.2806695021
 30
0.0
 10
9.3785670696
 20
10.2937341975
 30
0.0
 10
9.3745928917
 20
10.3183211707
 30
0.0
 10
9.3652234327
 20
10.3593728011
 30
0.0
 10
9.3568580962
 20
10.38709771
 30
0.0
 10
9.3513125545
 20
10.4033881269
 30
0.0
  0
LINE
  5
276
100
AcDbEntity
  8
0
100
AcDbLine
 62
7
  6
CONTINUOUS
 10
9.3467390285
 20
10.416424819
 11
9.3451923427
 21
10.4206695021
  0
SPLINE
  5
277
100
AcDbEntity
  8
0
100
AcDbSpline
 62
7
  6
CONTINUOUS
 70
0
 71
3
 72
69
 73
65
 74
0
 42
0.0000001
 43
0.0000001
 44
0.0000000001
 40
0.0
 40
0.0
 40
0.0
 40
0.0
 40
0.0625069941
 40
0.125013991
 40
0.187520984
 40
0.2500279807
 40
0.3125349797
 40
0.3750419762
 40
0.4062960193
 40
0.4375500628
 40
0.4688041059
 40
0.5000581489
 40
0.5313121921
 40
0.5625662354
 40
0.5938202788
 40
0.6094473683
 40
0.6250744577
 40
0.6407015474
 40
0.6563286377
 40
0.6719557272
 40
0.6797692796
 40
0.6875828323
 40
0.6953963868
 40
0.7032099424
 40
0.7110234904
 40
0.7188370451
 40
0.7227438331
 40
0.7266505896
 40
0.7286039638
 40
0.7305573667
 40
0.7325108168
 40
0.7344642567
 40
0.7364175938
 40
0.7383708176
 40
0.7393475478
 40
0.7403245281
 40
0.7413015422
 40
0.7422780942
 40
0.7432543851
 40
0.7442311382
 40
0.7452079698
 40
0.746184655
 40
0.7471613274
 40
0.7481380162
 40
0.7500913987
 40
0.7520447691
 40
0.7539981456
 40
0.7579048993
 40
0.7618116512
 40
0.765718363
 40
0.7696250755
 40
0.7735318071
 40
0.781344959
 40
0.7891580925
 40
0.7969712275
 40
0.8125950214
 40
0.8282188129
 40
0.843842604
 40
0.8594664258
 40
0.8750901266
 40
0.9063178485
 40
0.9375454198
 40
0.9687727153
 40
1.0
 40
1.0
 40
1.0
 40
1.0
 10
10.7901923427
 20
9.9341695021
 30
0.0
 10
10.8393324479
 20
9.936418703
 30
0.0
 10
10.9376697455
 20
9.9397563956
 30
0.0
 10
11.0852495842
 20
9.9412794503
 30
0.0
 10
11.2328250885
 20
9.9393184892
 30
0.0
 10
11.3803130152
 20
9.9338729194
 30
0.0
 10
11.5276308901
 20
9.9249467037
 30
0.0
 10
11.650187687
 20
9.9146117452
 30
0.0
 10
11.74806377
 20
9.9046095011
 30
0.0
 10
11.8213781906
 20
9.8962416337
 30
0.0
 10
11.8945886083
 20
9.8870088259
 30
0.0
 10
11.9676849352
 20
9.8769122625
 30
0.0
 10
12.0406569835
 20
9.8659534903
 30
0.0
 10
12.1134945235
 20
9.8541340217
 30
0.0
 10
12.1740721674
 20
9.843568471
 30
0.0
 10
12.2224566044
 20
9.8346874139
 30
0.0
 10
12.258705107
 20
9.8278124958
 30
0.0
 10
12.2949123866
 20
9.8207237348
 30
0.0
 10
12.331077193
 20
9.8134213936
 30
0.0
 10
12.3611781083
 20
9.8071582977
 30
0.0
 10
12.385236286
 20
9.8020411955
 30
0.0
 10
12.4032685337
 20
9.798150144
 30
0.0
 10
12.4212892328
 20
9.7942059495
 30
0.0
 10
12.4392982572
 20
9.790208801
 30
0.0
 10
12.4572952799
 20
9.7861579541
 30
0.0
 10
12.472282698
 20
9.7827376559
 30
0.0
 10
12.4842670317
 20
9.7799770969
 30
0.0
 10
12.4917541139
 20
9.7782382852
 30
0.0
 10
12.497742063
 20
9.7768398849
 30
0.0
 10
12.5022327397
 20
9.7757895998
 30
0.0
 10
12.506723733
 20
9.7747404381
 30
0.0
 10
12.5112137852
 20
9.7736874919
 30
0.0
 10
12.5157014612
 20
9.7726251619
 30
0.0
 10
12.5194367283
 20
9.7717214379
 30
0.0
 10
12.5224281472
 20
9.7710107123
 30
0.0
 10
12.5246768853
 20
9.770498044
 30
0.0
 10
12.5269266118
 20
9.7699905875
 30
0.0
 10
12.5291684135
 20
9.7694502624
 30
0.0
 10
12.5313902561
 20
9.768832897
 30
0.0
 10
12.5335933587
 20
9.7681524171
 30
0.0
 10
12.535799861
 20
9.7674820519
 30
0.0
 10
12.5380157874
 20
9.7668436763
 30
0.0
 10
12.5402346873
 20
9.7662163575
 30
0.0
 10
12.5431953168
 20
9.7653872876
 30
0.0
 10
12.5469013929
 20
9.7643698586
 30
0.0
 10
12.5513595526
 20
9.7631891578
 30
0.0
 10
12.5573185895
 20
9.761672064
 30
0.0
 10
12.5647933191
 20
9.7598790895
 30
0.0
 10
12.5737994046
 20
9.7578859633
 30
0.0
 10
12.5828391887
 20
9.7560517612
 30
0.0
 10
12.5919104042
 20
9.7543798224
 30
0.0
 10
12.6040430044
 20
9.7523677454
 30
0.0
 10
12.6192732826
 20
9.7502591975
 30
0.0
 10
12.6376278847
 20
9.7483825128
 30
0.0
 10
12.662171437
 20
9.7467560334
 30
0.0
 10
12.6929373555
 20
9.7463682606
 30
0.0
 10
12.7297909289
 20
9.7485382005
 30
0.0
 10
12.7663961656
 20
9.7533329165
 30
0.0
 10
12.8025672241
 20
9.760728593
 30
0.0
 10
12.849945832
 20
9.7739952329
 30
0.0
 10
12.907215764
 20
9.796881053
 30
0.0
 10
12.9713026396
 20
9.8338307555
 30
0.0
 10
13.0294514853
 20
9.8795425166
 30
0.0
 10
13.0635369491
 20
9.915226257
 30
0.0
 10
13.0791923427
 20
9.9341695021
 30
0.0
  0
SPLINE
  5
278
100
AcDbEntity
  8
0
100
AcDbSpline
 62
7
  6
CONTINUOUS
 70
0
 71
3
 72
69
 73
65
 74
0
 42
0.0000001
 43
0.0000001
 44
0.0000000001
 40
0.0
 40
0.0
 40
0.0
 40
0.0
 40
0.0625069941
 40
0.125013991
 40
0.187520984
 40
0.2500279807
 40
0.3125349797
 40
0.3750419762
 40
0.4062960193
 40
0.4375500628
 40
0.4688041059
 40
0.5000581489
 40
0.5313121921
 40
0.5625662354
 40
0.5938202788
 40
0.6094473683
 40
0.6250744577
 40
0.6407015474
 40
0.6563286377
 40
0.6719557272
 40
0.6797692796
 40
0.6875828323
 40
0.6953963868
 40
0.7032099424
 40
0.7110234904
 40
0.7188370451
 40
0.7227438331
 40
0.7266505896
 40
0.7286039638
 40
0.7305573667
 40
0.7325108168
 40
0.7344642567
 40
0.7364175938
 40
0.7383708176
 40
0.7393475478
 40
0.7403245281
 40
0.7413015422
 40
0.7422780942
 40
0.7432543851
 40
0.7442311382
 40
0.7452079698
 40
0.746184655
 40
0.7471613274
 40
0.7481380162
 40
0.7500913987
 40
0.7520447691
 40
0.7539981456
 40
0.7579048993
 40
0.7618116512
 40
0.765718363
 40
0.7696250755
 40
0.7735318071
 40
0.781344959
 40
0.7891580925
 40
0.7969712275
 40
0.8125950214
 40
0.8282188129
 40
0.843842604
 40
0.8594664258
 40
0.8750901266
 40
0.9063178485
 40
0.9375454198
 40
0.9687727153
 40
1.0
 40
1.0
 40
1.0
 40
1.0
 10
10.7901923427
 20
10.4971695021
 30
0.0
 10
10.8393324479
 20
10.4949203013
 30
0.0
 10
10.9376697455
 20
10.4915826087
 30
0.0
 10
11.0852495842
 20
10.490059554
 30
0.0
 10
11.2328250885
 20
10.4920205151
 30
0.0
 10
11.3803130152
 20
10.4974660849
 30
0.0
 10
11.5276308901
 20
10.5063923006
 30
0.0
 10
11.650187687
 20
10.5167272591
 30
0.0
 10
11.74806377
 20
10.5267295032
 30
0.0
 10
11.8213781906
 20
10.5350973706
 30
0.0
 10
11.8945886083
 20
10.5443301784
 30
0.0
 10
11.9676849352
 20
10.5544267418
 30
0.0
 10
12.0406569835
 20
10.565385514
 30
0.0
 10
12.1134945235
 20
10.5772049826
 30
0.0
 10
12.1740721674
 20
10.5877705333
 30
0.0
 10
12.2224566044
 20
10.5966515904
 30
0.0
 10
12.258705107
 20
10.6035265085
 30
0.0
 10
12.2949123866
 20
10.6106152695
 30
0.0
 10
12.331077193
 20
10.6179176107
 30
0.0
 10
12.3611781083
 20
10.6241807066
 30
0.0
 10
12.385236286
 20
10.6292978087
 30
0.0
 10
12.4032685337
 20
10.6331888603
 30
0.0
 10
12.4212892328
 20
10.6371330548
 30
0.0
 10
12.4392982572
 20
10.6411302033
 30
0.0
 10
12.4572952799
 20
10.6451810502
 30
0.0
 10
12.472282698
 20
10.6486013484
 30
0.0
 10
12.4842670317
 20
10.6513619074
 30
0.0
 10
12.4917541139
 20
10.6531007191
 30
0.0
 10
12.497742063
 20
10.6544991194
 30
0.0
 10
12.5022327397
 20
10.6555494045
 30
0.0
 10
12.506723733
 20
10.6565985662
 30
0.0
 10
12.5112137852
 20
10.6576515124
 30
0.0
 10
12.5157014612
 20
10.6587138424
 30
0.0
 10
12.5194367283
 20
10.6596175663
 30
0.0
 10
12.5224281472
 20
10.660328292
 30
0.0
 10
12.5246768853
 20
10.6608409603
 30
0.0
 10
12.5269266118
 20
10.6613484168
 30
0.0
 10
12.5291684135
 20
10.6618887419
 30
0.0
 10
12.5313902561
 20
10.6625061072
 30
0.0
 10
12.5335933587
 20
10.6631865872
 30
0.0
 10
12.535799861
 20
10.6638569524
 30
0.0
 10
12.5380157874
 20
10.664495328
 30
0.0
 10
12.5402346873
 20
10.6651226468
 30
0.0
 10
12.5431953168
 20
10.6659517166
 30
0.0
 10
12.5469013929
 20
10.6669691457
 30
0.0
 10
12.5513595526
 20
10.6681498465
 30
0.0
 10
12.5573185895
 20
10.6696669403
 30
0.0
 10
12.5647933191
 20
10.6714599148
 30
0.0
 10
12.5737994046
 20
10.673453041
 30
0.0
 10
12.5828391887
 20
10.6752872431
 30
0.0
 10
12.5919104042
 20
10.6769591818
 30
0.0
 10
12.6040430044
 20
10.6789712588
 30
0.0
 10
12.6192732826
 20
10.6810798068
 30
0.0
 10
12.6376278847
 20
10.6829564915
 30
0.0
 10
12.662171437
 20
10.6845829708
 30
0.0
 10
12.6929373555
 20
10.6849707437
 30
0.0
 10
12.7297909289
 20
10.6828008038
 30
0.0
 10
12.7663961656
 20
10.6780060878
 30
0.0
 10
12.8025672241
 20
10.6706104113
 30
0.0
 10
12.849945832
 20
10.6573437714
 30
0.0
 10
12.907215764
 20
10.6344579512
 30
0.0
 10
12.9713026396
 20
10.5975082487
 30
0.0
 10
13.0294514853
 20
10.5517964877
 30
0.0
 10
13.0635369491
 20
10.5161127473
 30
0.0
 10
13.0791923427
 20
10.4971695021
 30
0.0
  0
SPLINE
  5
279
100
AcDbEntity
  8
0
100
AcDbSpline
 62
7
  6
CONTINUOUS
 70
0
 71
3
 72
19
 73
15
 74
0
 42
0.0000001
 43
0.0000001
 44
0.0000000001
 40
0.0
 40
0.0
 40
0.0
 40
0.0
 40
0.1267461183
 40
0.1896739
 40
0.2522700234
 40
0.3764894579
 40
0.4383009099
 40
0.500000036
 40
0.5616991619
 40
0.6235106148
 40
0.7477300477
 40
0.8103261719
 40
0.8732539489
 40
1.0
 40
1.0
 40
1.0
 40
1.0
 10
9.9026908954
 20
8.5056142608
 30
0.0
 10
9.877250132
 20
8.5202601814
 30
0.0
 10
9.8383191477
 20
8.5407742699
 30
0.0
 10
9.7846797248
 20
8.5640106164
 30
0.0
 10
9.7303363969
 20
8.5838852502
 30
0.0
 10
9.6743108378
 20
8.5982467001
 30
0.0
 10
9.6173522149
 20
8.6056205178
 30
0.0
 10
9.5744423602
 20
8.6075047583
 30
0.0
 10
9.5315325054
 20
8.6056205145
 30
0.0
 10
9.4745738823
 20
8.5982467106
 30
0.0
 10
9.4185483124
 20
8.5838852806
 30
0.0
 10
9.3642050225
 20
8.5640105471
 30
0.0
 10
9.3105655679
 20
8.5407743384
 30
0.0
 10
9.2716343976
 20
8.5202606278
 30
0.0
 10
9.2461936444
 20
8.5056147209
 30
0.0
  0
SPLINE
  5
27A
100
AcDbEntity
  8
0
100
AcDbSpline
 62
7
  6
CONTINUOUS
 70
0
 71
3
 72
19
 73
15
 74
0
 42
0.0000001
 43
0.0000001
 44
0.0000000001
 40
0.0
 40
0.0
 40
0.0
 40
0.0
 40
0.1267460265
 40
0.1896738035
 40
0.2522699325
 40
0.3764893673
 40
0.4383008188
 40
0.4999999326
 40
0.5616990486
 40
0.623510498
 40
0.7477299385
 40
0.8103260704
 40
0.8732538588
 40
1.0
 40
1.0
 40
1.0
 40
1.0
 10
10.5591911654
 20
8.5056149989
 30
0.0
 10
10.5337504198
 20
8.5202609092
 30
0.0
 10
10.4948191196
 20
8.5407743738
 30
0.0
 10
10.4411796236
 20
8.5640104642
 30
0.0
 10
10.3868363509
 20
8.5838852532
 30
0.0
 10
10.3308107915
 20
8.5982467223
 30
0.0
 10
10.2738521883
 20
8.6056206633
 30
0.0
 10
10.2309423376
 20
8.6075049662
 30
0.0
 10
10.1880324868
 20
8.605620673
 30
0.0
 10
10.1310738825
 20
8.598246713
 30
0.0
 10
10.0750483376
 20
8.5838852169
 30
0.0
 10
10.0207050008
 20
8.564010589
 30
0.0
 10
9.9670655537
 20
8.5407742725
 30
0.0
 10
9.9281345587
 20
8.5202601844
 30
0.0
 10
9.9026937901
 20
8.5056142608
 30
0.0
  0
ENDSEC
  0
SECTION
  2
OBJECTS
  0
DICTIONARY
  5
C
100
AcDbDictionary
280
0
281
1
  3
ACAD_GROUP
350
D
  3
ACAD_MLINESTYLE
350
17
  3
ACAD_LAYOUT
350
1A
  3
ACAD_PLOTSETTINGS
350
19
  3
ACAD_PLOTSTYLENAME
350
E
  0
DICTIONARY
  5
D
102
{ACAD_REACTORS
330
C
102
}
100
AcDbDictionary
280
0
281
1
  0
ACDBDICTIONARYWDFLT
  5
E
102
{ACAD_REACTORS
330
C
102
}
100
AcDbDictionary
281
1
  3
Normal
350
F
100
AcDbDictionaryWithDefault
340
F
  0
DICTIONARY
  5
17
102
{ACAD_REACTORS
330
C
102
}
100
AcDbDictionary
280
0
281
1
  3
Standard
350
18
  0
DICTIONARY
  5
19
102
{ACAD_REACTORS
330
C
102
}
100
AcDbDictionary
281
1
  0
DICTIONARY
  5
1A
102
{ACAD_REACTORS
330
C
102
}
100
AcDbDictionary
281
1
  3
Model
350
27B
  3
Layout1
350
27C
  0
ACDBPLACEHOLDER
  5
F
102
{ACAD_REACTORS
330
E
102
}
  0
MLINESTYLE
  5
18
102
{ACAD_REACTORS
330
17
102
}
100
AcDbMlineStyle
  2
STANDARD
 70
0
  3

 62
256
 51
90.0
 52
90.0
 71
2
 49
0.5
 62
256
  6
BYLAYER
 49
-0.5
 62
256
  6
BYLAYER
  0
LAYOUT
  5
27B
102
{ACAD_REACTORS
330
1A
102
}
100
AcDbPlotSettings
  1

  2
none_device
  4
ANSI_C_(22.00_x_17.00_Inches)
  6

 40
0.0
 41
0.0
 42
0.0
 43
0.0
 44
558.8
 45
431.8
 46
0.0
 47
0.0
 48
0.0
 49
0.0
140
0.0
141
0.0
142
1.0
143
1.0
 70
1024
 72
0
 73
0
 74
0
  7

 75
0
147
1.0
148
0.0
149
0.0
100
AcDbLayout
  1
Model
 70
0
 71
0
 10
0.0
 20
0.0
 11
22.0
 21
17.0
 12
0.0
 22
0.0
 32
0.0
 14
0.0
 24
0.0
 34
0.0
 15
0.0
 25
0.0
 35
0.0
146
0.0
 13
0.0
 23
0.0
 33
0.0
 16
1.0
 26
0.0
 36
0.0
 17
0.0
 27
1.0
 37
0.0
 76
0
330
202
345
0
346
0
  0
LAYOUT
  5
27C
102
{ACAD_REACTORS
330
1A
102
}
100
AcDbPlotSettings
  1

  2
none_device
  4
ANSI_C_(22.00_x_17.00_Inches)
  6

 40
0.0
 41
0.0
 42
0.0
 43
0.0
 44
558.8
 45
431.8
 46
0.0
 47
0.0
 48
0.0
 49
0.0
140
0.0
141
0.0
142
1.0
143
1.0
 70
0
 72
0
 73
0
 74
0
  7

 75
0
147
1.0
148
0.0
149
0.0
100
AcDbLayout
  1
Layout1
 70
0
 71
1
 10
0.0
 20
0.0
 11
22.0
 21
17.0
 12
0.0
 22
0.0
 32
0.0
 14
0.0
 24
0.0
 34
0.0
 15
0.0
 25
0.0
 35
0.0
146
0.0
 13
0.0
 23
0.0
 33
0.0
 16
1.0
 26
0.0
 36
0.0
 17
0.0
 27
1.0
 37
0.0
 76
0
330
203
345
0
346
0
  0
ENDSEC
  0
EOF
