999
DXF file: 3-2941_right.dxf
999
Pro/ENGINEER 2019352 by Parametric Technology Corporation
  0
SECTION
  2
HEADER
  9
$ACADVER
  1
AC1032
  9
$DWGCODEPAGE
  3
ANSI_1252
  9
$EXTMAX
 10
11.0
 20
8.5
 30
0.0
  9
$EXTMIN
 10
0.0
 20
0.0
 30
0.0
  9
$LIMMIN
 10
0.0
 20
0.0
  9
$LIMMAX
 10
11.0
 20
8.5
  9
$VIEWCTR
 10
5.5
 20
4.25
  9
$VIEWSIZE
 40
8.5
  9
$CLAYER
  8
0
  9
$LTSCALE
 40
0.605
  9
$CELTYPE
  6
BYLAYER
  9
$DIMSCALE
 40
1.0
  9
$DIMASZ
 40
0.1
  9
$DIMEXO
 40
0.0625
  9
$DIMDLI
 40
0.418
  9
$DIMEXE
 40
0.125
  9
$DIMCEN
 40
0.099
  9
$DIMLFAC
 40
1.0
  9
$DIMBLK
  1
_FILLED
  9
$DIMALT
 70
1
  9
$DIMALTD
 70
2
  9
$DIMALTTD
 70
2
  9
$DIMALTF
 40
25.4
  9
$DIMTXT
 40
0.08
  9
$DIMTOL
 70
1
  9
$DIMLIM
 70
0
  9
$DIMTFAC
 40
1.0
  9
$DIMTP
 40
0.001
  9
$DIMTM
 40
0.001
  9
$DIMGAP
 40
0.09
  9
$DIMDSEP
 70
46
  9
$AUNITS
 70
0
  9
$PDMODE
 70
3
  9
$PDSIZE
 40
0.3125
  9
$HANDSEED
  5
3E6
  9
$TILEMODE
 70
1
  9
$MEASUREMENT
 70
0
  9
$INSUNITS
 70
1
  0
ENDSEC
  0
SECTION
  2
CLASSES
  0
CLASS
  1
ACDBDICTIONARYWDFLT
  2
AcDbDictionaryWithDefault
  3
AutoCAD 2000
 90
0
 91
1
280
0
281
0
  0
CLASS
  1
ACDBPLACEHOLDER
  2
AcDbPlaceHolder
  3
AutoCAD 2000
 90
0
 91
1
280
0
281
0
  0
CLASS
  1
LAYOUT
  2
AcDbLayout
  3
AutoCAD 2000
 90
0
 91
0
280
0
281
0
  0
ENDSEC
  0
SECTION
  2
TABLES
  0
TABLE
  2
VPORT
  5
8
100
AcDbSymbolTable
 70
2
  0
VPORT
  5
1F4
100
AcDbSymbolTableRecord
100
AcDbViewportTableRecord
  2
*ACTIVE
 70
0
 10
0.0
 20
0.0
 11
1.0
 21
1.0
 12
5.5
 22
4.25
 13
0.0
 23
0.0
 14
1.0
 24
1.0
 15
0.0
 25
0.0
 16
0.0
 26
0.0
 36
1.0
 17
0.0
 27
0.0
 37
0.0
 40
8.5
 41
1.2941176471
 42
50.0
 43
0.0
 44
0.0
 50
0.0
 51
0.0
 71
0
 72
100
 73
1
 74
1
 75
0
 76
0
 77
0
 78
0
  0
ENDTAB
  0
TABLE
  2
LTYPE
  5
5
100
AcDbSymbolTable
 70
6
  0
LTYPE
  5
14
100
AcDbSymbolTableRecord
100
AcDbLinetypeTableRecord
  2
BYBLOCK
 70
0
  3

 72
65
 73
0
 40
0.0
  0
LTYPE
  5
15
100
AcDbSymbolTableRecord
100
AcDbLinetypeTableRecord
  2
BYLAYER
 70
0
  3

 72
65
 73
0
 40
0.0
  0
LTYPE
  5
16
100
AcDbSymbolTableRecord
100
AcDbLinetypeTableRecord
  2
CONTINUOUS
 70
64
  3
Solid line
 72
65
 73
0
 40
0.0
  0
LTYPE
  5
1F5
100
AcDbSymbolTableRecord
100
AcDbLinetypeTableRecord
  2
CENTER
 70
64
  3
____ _ ____ _ ____ _ ____ _ ____ _ ____ _ ____
 72
65
 73
4
 40
0.6
 49
0.375
 74
0
 49
-0.075
 74
0
 49
0.075
 74
0
 49
-0.075
 74
0
  0
LTYPE
  5
1F6
100
AcDbSymbolTableRecord
100
AcDbLinetypeTableRecord
  2
HIDDEN
 70
64
  3
- - - - - - - - - - - - - - - - - - - -
 72
65
 73
2
 40
0.2
 49
0.1
 74
0
 49
-0.1
 74
0
  0
LTYPE
  5
1F7
100
AcDbSymbolTableRecord
100
AcDbLinetypeTableRecord
  2
PHANTOM
 70
64
  3
_____ _ _ _____ _ _ _____ _ _ _____
 72
65
 73
6
 40
0.8
 49
0.45
 74
0
 49
-0.05
 74
0
 49
0.1
 74
0
 49
-0.05
 74
0
 49
0.1
 74
0
 49
-0.05
 74
0
  0
LTYPE
  5
1F8
100
AcDbSymbolTableRecord
100
AcDbLinetypeTableRecord
  2
DOT
 70
64
  3
. . . . . . . . . . . . . . . . . . . .
 72
65
 73
2
 40
0.2
 49
0.1
 74
0
 49
-0.1
 74
0
  0
LTYPE
  5
1F9
100
AcDbSymbolTableRecord
100
AcDbLinetypeTableRecord
  2
DASHED
 70
64
  3
- - - - - - - - - - - - - - - - - - - -
 72
65
 73
2
 40
0.2
 49
0.1
 74
0
 49
-0.1
 74
0
  0
ENDTAB
  0
TABLE
  2
LAYER
  5
2
100
AcDbSymbolTable
 70
36
  0
LAYER
  5
10
100
AcDbSymbolTableRecord
100
AcDbLayerTableRecord
  2
0
 70
0
 62
7
  6
CONTINUOUS
370
-3
390
F
  0
LAYER
  5
1FA
100
AcDbSymbolTableRecord
100
AcDbLayerTableRecord
  2
DEFAULT_1
 70
0
 62
7
  6
CENTER
370
-3
390
F
  0
LAYER
  5
1FB
100
AcDbSymbolTableRecord
100
AcDbLayerTableRecord
  2
DEFAULT_2
 70
0
 62
8
  6
HIDDEN
370
-3
390
F
  0
LAYER
  5
1FC
100
AcDbSymbolTableRecord
100
AcDbLayerTableRecord
  2
DEFAULT_3
 70
0
 62
7
  6
PHANTOM
370
-3
390
F
  0
LAYER
  5
1FD
100
AcDbSymbolTableRecord
100
AcDbLayerTableRecord
  2
DEFAULT_COORDINATE_SYSTEM
 70
0
 62
7
  6
CONTINUOUS
370
-3
390
F
  0
LAYER
  5
1FE
100
AcDbSymbolTableRecord
100
AcDbLayerTableRecord
  2
DEFAULT_DATUM_AXES
 70
0
 62
7
  6
CONTINUOUS
370
-3
390
F
  0
LAYER
  5
1FF
100
AcDbSymbolTableRecord
100
AcDbLayerTableRecord
  2
DEFAULT_DATUM_PLANES
 70
0
 62
7
  6
CONTINUOUS
370
-3
390
F
  0
ENDTAB
  0
TABLE
  2
STYLE
  5
3
100
AcDbSymbolTable
 70
1
  0
STYLE
  5
11
100
AcDbSymbolTableRecord
100
AcDbTextStyleTableRecord
  2
STANDARD
 70
0
 40
0.0
 41
0.8
 50
0.0
 71
0
 42
0.2
  3
txt
  4

  0
STYLE
  5
200
100
AcDbSymbolTableRecord
100
AcDbTextStyleTableRecord
  2
TEXTSTYLE_1
 70
0
 40
0.0
 41
0.8
 50
0.0
 71
0
 42
0.2
  3
gdt
  4

  0
ENDTAB
  0
TABLE
  2
VIEW
  5
6
100
AcDbSymbolTable
 70
0
  0
ENDTAB
  0
TABLE
  2
UCS
  5
7
100
AcDbSymbolTable
 70
0
  0
ENDTAB
  0
TABLE
  2
APPID
  5
9
100
AcDbSymbolTable
 70
1
  0
APPID
  5
201
100
AcDbSymbolTableRecord
100
AcDbRegAppTableRecord
  2
ACAD
 70
0
  0
ENDTAB
  0
TABLE
  2
BLOCK_RECORD
  5
1
100
AcDbSymbolTable
 70
0
  0
BLOCK_RECORD
  5
202
100
AcDbSymbolTableRecord
100
AcDbBlockTableRecord
  2
*Model_Space
  0
BLOCK_RECORD
  5
203
100
AcDbSymbolTableRecord
100
AcDbBlockTableRecord
  2
*Paper_Space
  0
BLOCK_RECORD
  5
204
100
AcDbSymbolTableRecord
100
AcDbBlockTableRecord
  2
_FILLED
  0
ENDTAB
  0
TABLE
  2
DIMSTYLE
  5
A
100
AcDbSymbolTable
 70
1
100
AcDbDimStyleTable
 71
0
  0
DIMSTYLE
105
205
100
AcDbSymbolTableRecord
100
AcDbDimStyleTableRecord
  2
STANDARD
 70
0
  3

  4

 40
1.0
 41
0.1
 42
0.0625
 43
0.38
 44
0.125
 45
0.0
 46
0.0
 47
0.001
 48
0.001
140
0.08
141
0.09
142
0.0
143
25.4
144
1.0
145
0.0
146
1.0
147
0.09
 71
1.0
 72
0.0
 73
1
 74
1
 75
0
 76
0
 77
0
 78
4
 79
1
170
1
171
2
172
0
173
0
174
0
175
0
176
0
177
0
178
0
270
2
179
3
271
3
272
3
273
2
274
2
275
0
280
0
281
0
282
0
283
1
284
4
285
0
286
0
287
3
288
0
340
11
278
46
341
204
342
204
343
204
344
204
  0
ENDTAB
  0
ENDSEC
  0
SECTION
  2
BLOCKS
  0
BLOCK
  5
20
100
AcDbEntity
  8
0
100
AcDbBlockBegin
  2
*Model_Space
 70
0
 10
0.0
 20
0.0
 30
0.0
  3
*Model_Space
  1

  0
ENDBLK
  5
21
100
AcDbEntity
  8
0
100
AcDbBlockEnd
  0
BLOCK
  5
1C
100
AcDbEntity
  8
0
100
AcDbBlockBegin
  2
*Paper_Space
 70
0
 10
0.0
 20
0.0
 30
0.0
  3
*Paper_Space
  1

  0
ENDBLK
  5
1D
100
AcDbEntity
  8
0
100
AcDbBlockEnd
  0
BLOCK
  5
206
100
AcDbEntity
  8
0
100
AcDbBlockBegin
  2
_FILLED
 70
64
 10
0.0
 20
0.0
  3
_FILLED
  1

  0
SOLID
  5
207
100
AcDbEntity
  8
0
  6
BYBLOCK
 62
0
100
AcDbTrace
 10
0.0
 20
0.0
 11
-1.0
 21
0.2
 12
-1.0
 22
-0.2
 13
-1.0
 23
-0.2
  0
ENDBLK
  5
208
100
AcDbEntity
  8
0
  6
BYBLOCK
 62
0
100
AcDbBlockEnd
  0
ENDSEC
  0
SECTION
  2
ENTITIES
  0
MTEXT
  5
209
100
AcDbEntity
  8
0
100
AcDbMText
 62
2
  6
CONTINUOUS
  7
STANDARD
 71
3
 72
1
 10
5.6655624051
 20
2.5886990276
 30
0.0
 11
1.0
 21
0.0
 31
0.0
 73
2
 44
0.9
  1
SCALE 0.500
 40
0.08
 41
0.704
  0
LINE
  5
20A
100
AcDbEntity
  8
0
100
AcDbLine
 62
7
  6
CONTINUOUS
 10
0.0
 20
0.0
 11
0.0
 21
8.5
  0
LINE
  5
20B
100
AcDbEntity
  8
0
100
AcDbLine
 62
7
  6
CONTINUOUS
 10
0.0
 20
0.0
 11
11.0
 21
0.0
  0
LINE
  5
20C
100
AcDbEntity
  8
0
100
AcDbLine
 62
7
  6
CONTINUOUS
 10
0.0
 20
8.5
 11
11.0
 21
8.5
  0
LINE
  5
20D
100
AcDbEntity
  8
0
100
AcDbLine
 62
7
  6
CONTINUOUS
 10
11.0
 20
0.0
 11
11.0
 21
8.5
  0
LINE
  5
20E
100
AcDbEntity
  8
0
100
AcDbLine
 62
7
  6
CONTINUOUS
 10
2.9049952949
 20
3.394058187
 11
2.9049952949
 21
4.114058187
  0
LINE
  5
20F
100
AcDbEntity
  8
0
100
AcDbLine
 62
7
  6
CONTINUOUS
 10
3.3424952949
 20
3.394058187
 11
3.3424952949
 21
4.114058187
  0
LINE
  5
210
100
AcDbEntity
  8
0
100
AcDbLine
 62
7
  6
CONTINUOUS
 10
4.1237452949
 20
5.332808187
 11
4.1237452949
 21
4.895308187
  0
LINE
  5
211
100
AcDbEntity
  8
0
100
AcDbLine
 62
7
  6
CONTINUOUS
 10
2.9049954778
 20
3.394058187
 11
3.3424951119
 21
3.394058187
  0
LINE
  5
212
100
AcDbEntity
  8
0
100
AcDbLine
 62
7
  6
CONTINUOUS
 10
2.9049952949
 20
4.114058187
 11
3.3424952949
 21
4.114058187
  0
LINE
  5
213
100
AcDbEntity
  8
0
100
AcDbLine
 62
7
  6
CONTINUOUS
 10
7.7187452949
 20
4.551558187
 11
7.7587452949
 21
4.551558187
  0
LINE
  5
214
100
AcDbEntity
  8
0
100
AcDbLine
 62
7
  6
CONTINUOUS
 10
7.8337452949
 20
4.551558187
 11
7.8737452949
 21
4.551558187
  0
LINE
  5
215
100
AcDbEntity
  8
0
100
AcDbLine
 62
7
  6
CONTINUOUS
 10
7.7587452949
 20
4.576558187
 11
7.8087452949
 21
4.576558187
  0
LINE
  5
216
100
AcDbEntity
  8
0
100
AcDbLine
 62
7
  6
CONTINUOUS
 10
7.8737452949
 20
4.639058187
 11
7.8337452949
 21
4.639058187
  0
LINE
  5
217
100
AcDbEntity
  8
0
100
AcDbLine
 62
7
  6
CONTINUOUS
 10
7.7587452949
 20
4.6391434578
 11
7.7187452949
 21
4.6391434578
  0
LINE
  5
218
100
AcDbEntity
  8
0
100
AcDbLine
 62
7
  6
CONTINUOUS
 10
7.7587452949
 20
4.6393232883
 11
7.7187452949
 21
4.6393232883
  0
LINE
  5
219
100
AcDbEntity
  8
0
100
AcDbLine
 62
7
  6
CONTINUOUS
 10
7.7587452949
 20
4.6402653355
 11
7.7187452949
 21
4.6402653355
  0
LINE
  5
21A
100
AcDbEntity
  8
0
100
AcDbLine
 62
7
  6
CONTINUOUS
 10
7.7587452949
 20
4.6408043342
 11
7.7187452949
 21
4.6408043342
  0
LINE
  5
21B
100
AcDbEntity
  8
0
100
AcDbLine
 62
7
  6
CONTINUOUS
 10
7.7587452949
 20
4.6426858465
 11
7.7187452949
 21
4.6426858465
  0
LINE
  5
21C
100
AcDbEntity
  8
0
100
AcDbLine
 62
7
  6
CONTINUOUS
 10
7.7587452949
 20
4.643582536
 11
7.7187452949
 21
4.643582536
  0
LINE
  5
21D
100
AcDbEntity
  8
0
100
AcDbLine
 62
7
  6
CONTINUOUS
 10
7.7587452949
 20
4.6463983563
 11
7.7187452949
 21
4.6463983563
  0
LINE
  5
21E
100
AcDbEntity
  8
0
100
AcDbLine
 62
7
  6
CONTINUOUS
 10
7.7587452949
 20
4.6476502788
 11
7.7187452949
 21
4.6476502788
  0
LINE
  5
21F
100
AcDbEntity
  8
0
100
AcDbLine
 62
7
  6
CONTINUOUS
 10
7.7587452949
 20
4.6513926893
 11
7.7187452949
 21
4.6513926893
  0
LINE
  5
220
100
AcDbEntity
  8
0
100
AcDbLine
 62
7
  6
CONTINUOUS
 10
7.7587452949
 20
4.6529964133
 11
7.7187452949
 21
4.6529964133
  0
LINE
  5
221
100
AcDbEntity
  8
0
100
AcDbLine
 62
7
  6
CONTINUOUS
 10
7.7587452949
 20
4.6576551561
 11
7.7187452949
 21
4.6576551561
  0
LINE
  5
222
100
AcDbEntity
  8
0
100
AcDbLine
 62
7
  6
CONTINUOUS
 10
7.7587452949
 20
4.6596062861
 11
7.7187452949
 21
4.6596062861
  0
LINE
  5
223
100
AcDbEntity
  8
0
100
AcDbLine
 62
7
  6
CONTINUOUS
 10
7.8087452949
 20
4.664058187
 11
7.7587452949
 21
4.664058187
  0
LINE
  5
224
100
AcDbEntity
  8
0
100
AcDbLine
 62
7
  6
CONTINUOUS
 10
7.7587452949
 20
4.665168592
 11
7.7187452949
 21
4.665168592
  0
LINE
  5
225
100
AcDbEntity
  8
0
100
AcDbLine
 62
7
  6
CONTINUOUS
 10
7.7587452949
 20
4.66746178
 11
7.7187452949
 21
4.66746178
  0
LINE
  5
226
100
AcDbEntity
  8
0
100
AcDbLine
 62
7
  6
CONTINUOUS
 10
7.7587452949
 20
4.6739124031
 11
7.7187452949
 21
4.6739124031
  0
LINE
  5
227
100
AcDbEntity
  8
0
100
AcDbLine
 62
7
  6
CONTINUOUS
 10
7.7587452949
 20
4.6765413635
 11
7.7187452949
 21
4.6765413635
  0
LINE
  5
228
100
AcDbEntity
  8
0
100
AcDbLine
 62
7
  6
CONTINUOUS
 10
7.7587452949
 20
4.6838626231
 11
7.7187452949
 21
4.6838626231
  0
LINE
  5
229
100
AcDbEntity
  8
0
100
AcDbLine
 62
7
  6
CONTINUOUS
 10
7.7587452949
 20
4.6868201503
 11
7.7187452949
 21
4.6868201503
  0
LINE
  5
22A
100
AcDbEntity
  8
0
100
AcDbLine
 62
7
  6
CONTINUOUS
 10
7.7587452949
 20
4.6949919793
 11
7.7187452949
 21
4.6949919793
  0
LINE
  5
22B
100
AcDbEntity
  8
0
100
AcDbLine
 62
7
  6
CONTINUOUS
 10
7.7587452949
 20
4.6982699668
 11
7.7187452949
 21
4.6982699668
  0
LINE
  5
22C
100
AcDbEntity
  8
0
100
AcDbLine
 62
7
  6
CONTINUOUS
 10
7.7587452949
 20
4.7072699668
 11
7.7187452949
 21
4.7072699668
  0
LINE
  5
22D
100
AcDbEntity
  8
0
100
AcDbLine
 62
7
  6
CONTINUOUS
 10
7.7587452949
 20
4.71085943
 11
7.7187452949
 21
4.71085943
  0
LINE
  5
22E
100
AcDbEntity
  8
0
100
AcDbLine
 62
7
  6
CONTINUOUS
 10
7.7587452949
 20
4.7206629326
 11
7.7187452949
 21
4.7206629326
  0
LINE
  5
22F
100
AcDbEntity
  8
0
100
AcDbLine
 62
7
  6
CONTINUOUS
 10
7.7587452949
 20
4.7245540329
 11
7.7187452949
 21
4.7245540329
  0
LINE
  5
230
100
AcDbEntity
  8
0
100
AcDbLine
 62
7
  6
CONTINUOUS
 10
7.7587452949
 20
4.7351341674
 11
7.7187452949
 21
4.7351341674
  0
LINE
  5
231
100
AcDbEntity
  8
0
100
AcDbLine
 62
7
  6
CONTINUOUS
 10
6.7612452949
 20
4.7391662025
 11
6.8112452949
 21
4.7391662025
  0
LINE
  5
232
100
AcDbEntity
  8
0
100
AcDbLine
 62
7
  6
CONTINUOUS
 10
7.7587452949
 20
4.7393162396
 11
7.7187452949
 21
4.7393162396
  0
LINE
  5
233
100
AcDbEntity
  8
0
100
AcDbLine
 62
7
  6
CONTINUOUS
 10
6.7612452949
 20
4.7393802469
 11
6.8112452949
 21
4.7393802469
  0
LINE
  5
234
100
AcDbEntity
  8
0
100
AcDbLine
 62
7
  6
CONTINUOUS
 10
6.7612452949
 20
4.7405575032
 11
6.8112452949
 21
4.7405575032
  0
LINE
  5
235
100
AcDbEntity
  8
0
100
AcDbLine
 62
7
  6
CONTINUOUS
 10
6.7612452949
 20
4.7411987197
 11
6.8112452949
 21
4.7411987197
  0
LINE
  5
236
100
AcDbEntity
  8
0
100
AcDbLine
 62
7
  6
CONTINUOUS
 10
6.7612452949
 20
4.7435481911
 11
6.8112452949
 21
4.7435481911
  0
LINE
  5
237
100
AcDbEntity
  8
0
100
AcDbLine
 62
7
  6
CONTINUOUS
 10
6.7612452949
 20
4.744613834
 11
6.8112452949
 21
4.744613834
  0
LINE
  5
238
100
AcDbEntity
  8
0
100
AcDbLine
 62
7
  6
CONTINUOUS
 10
6.7612452949
 20
4.7481254598
 11
6.8112452949
 21
4.7481254598
  0
LINE
  5
239
100
AcDbEntity
  8
0
100
AcDbLine
 62
7
  6
CONTINUOUS
 10
6.7612452949
 20
4.7496109657
 11
6.8112452949
 21
4.7496109657
  0
LINE
  5
23A
100
AcDbEntity
  8
0
100
AcDbLine
 62
7
  6
CONTINUOUS
 10
7.7187452949
 20
4.750353877
 11
7.7587452949
 21
4.750353877
  0
LINE
  5
23B
100
AcDbEntity
  8
0
100
AcDbLine
 62
7
  6
CONTINUOUS
 10
7.7587452949
 20
4.7506440066
 11
7.7187452949
 21
4.7506440066
  0
LINE
  5
23C
100
AcDbEntity
  8
0
100
AcDbLine
 62
7
  6
CONTINUOUS
 10
6.7612452949
 20
4.7542697085
 11
6.8112452949
 21
4.7542697085
  0
LINE
  5
23D
100
AcDbEntity
  8
0
100
AcDbLine
 62
7
  6
CONTINUOUS
 10
7.7587452949
 20
4.755105588
 11
7.7187452949
 21
4.755105588
  0
LINE
  5
23E
100
AcDbEntity
  8
0
100
AcDbLine
 62
7
  6
CONTINUOUS
 10
6.7612452949
 20
4.7561687164
 11
6.8112452949
 21
4.7561687164
  0
LINE
  5
23F
100
AcDbEntity
  8
0
100
AcDbLine
 62
7
  6
CONTINUOUS
 10
7.0687452949
 20
4.7565737986
 11
7.0187452949
 21
4.7565737986
  0
LINE
  5
240
100
AcDbEntity
  8
0
100
AcDbLine
 62
7
  6
CONTINUOUS
 10
7.0687452949
 20
4.7566714916
 11
7.0187452949
 21
4.7566714916
  0
LINE
  5
241
100
AcDbEntity
  8
0
100
AcDbLine
 62
7
  6
CONTINUOUS
 10
7.0687452949
 20
4.7569021265
 11
7.0187452949
 21
4.7569021265
  0
LINE
  5
242
100
AcDbEntity
  8
0
100
AcDbLine
 62
7
  6
CONTINUOUS
 10
7.0687452949
 20
4.7581439671
 11
7.0187452949
 21
4.7581439671
  0
LINE
  5
243
100
AcDbEntity
  8
0
100
AcDbLine
 62
7
  6
CONTINUOUS
 10
7.0687452949
 20
4.7588347727
 11
7.0187452949
 21
4.7588347727
  0
LINE
  5
244
100
AcDbEntity
  8
0
100
AcDbLine
 62
7
  6
CONTINUOUS
 10
7.0687452949
 20
4.7613125359
 11
7.0187452949
 21
4.7613125359
  0
LINE
  5
245
100
AcDbEntity
  8
0
100
AcDbLine
 62
7
  6
CONTINUOUS
 10
6.7612452949
 20
4.7619546268
 11
6.8112452949
 21
4.7619546268
  0
LINE
  5
246
100
AcDbEntity
  8
0
100
AcDbLine
 62
7
  6
CONTINUOUS
 10
7.0687452949
 20
4.7624602201
 11
7.0187452949
 21
4.7624602201
  0
LINE
  5
247
100
AcDbEntity
  8
0
100
AcDbLine
 62
7
  6
CONTINUOUS
 10
6.7612452949
 20
4.7642590047
 11
6.8112452949
 21
4.7642590047
  0
LINE
  5
248
100
AcDbEntity
  8
0
100
AcDbLine
 62
7
  6
CONTINUOUS
 10
7.0687452949
 20
4.7661620984
 11
7.0187452949
 21
4.7661620984
  0
LINE
  5
249
100
AcDbEntity
  8
0
100
AcDbLine
 62
7
  6
CONTINUOUS
 10
7.7187452949
 20
4.7662664086
 11
7.7587452949
 21
4.7662664086
  0
LINE
  5
24A
100
AcDbEntity
  8
0
100
AcDbLine
 62
7
  6
CONTINUOUS
 10
7.7587452949
 20
4.7671499389
 11
7.7187452949
 21
4.7671499389
  0
LINE
  5
24B
100
AcDbEntity
  8
0
100
AcDbLine
 62
7
  6
CONTINUOUS
 10
7.0687452949
 20
4.7677611921
 11
7.0187452949
 21
4.7677611921
  0
LINE
  5
24C
100
AcDbEntity
  8
0
100
AcDbLine
 62
7
  6
CONTINUOUS
 10
6.7612452949
 20
4.7711473065
 11
6.8112452949
 21
4.7711473065
  0
LINE
  5
24D
100
AcDbEntity
  8
0
100
AcDbLine
 62
7
  6
CONTINUOUS
 10
7.7587452949
 20
4.7718788004
 11
7.7187452949
 21
4.7718788004
  0
LINE
  5
24E
100
AcDbEntity
  8
0
100
AcDbLine
 62
7
  6
CONTINUOUS
 10
7.0687452949
 20
4.7726695442
 11
7.0187452949
 21
4.7726695442
  0
LINE
  5
24F
100
AcDbEntity
  8
0
100
AcDbLine
 62
7
  6
CONTINUOUS
 10
6.7612452949
 20
4.7738471869
 11
6.8112452949
 21
4.7738471869
  0
LINE
  5
250
100
AcDbEntity
  8
0
100
AcDbLine
 62
7
  6
CONTINUOUS
 10
7.0687452949
 20
4.7747124269
 11
7.0187452949
 21
4.7747124269
  0
LINE
  5
251
100
AcDbEntity
  8
0
100
AcDbLine
 62
7
  6
CONTINUOUS
 10
7.0687452949
 20
4.7808038623
 11
7.0187452949
 21
4.7808038623
  0
LINE
  5
252
100
AcDbEntity
  8
0
100
AcDbLine
 62
7
  6
CONTINUOUS
 10
6.7612452949
 20
4.7818083833
 11
6.8112452949
 21
4.7818083833
  0
LINE
  5
253
100
AcDbEntity
  8
0
100
AcDbLine
 62
7
  6
CONTINUOUS
 10
7.7187452949
 20
4.7831322134
 11
7.7587452949
 21
4.7831322134
  0
LINE
  5
254
100
AcDbEntity
  8
0
100
AcDbLine
 62
7
  6
CONTINUOUS
 10
7.0687452949
 20
4.7832807988
 11
7.0187452949
 21
4.7832807988
  0
LINE
  5
255
100
AcDbEntity
  8
0
100
AcDbLine
 62
7
  6
CONTINUOUS
 10
7.7587452949
 20
4.7846067225
 11
7.7187452949
 21
4.7846067225
  0
LINE
  5
256
100
AcDbEntity
  8
0
100
AcDbLine
 62
7
  6
CONTINUOUS
 10
6.7612452949
 20
4.7848922047
 11
6.8112452949
 21
4.7848922047
  0
LINE
  5
257
100
AcDbEntity
  8
0
100
AcDbLine
 62
7
  6
CONTINUOUS
 10
6.8112452949
 20
4.786058187
 11
7.0174702556
 21
4.786058187
  0
LINE
  5
258
100
AcDbEntity
  8
0
100
AcDbLine
 62
7
  6
CONTINUOUS
 10
7.0687452949
 20
4.786058187
 11
7.6837452949
 21
4.786058187
  0
LINE
  5
259
100
AcDbEntity
  8
0
100
AcDbLine
 62
7
  6
CONTINUOUS
 10
7.7587452949
 20
4.7895899028
 11
7.7187452949
 21
4.7895899028
  0
LINE
  5
25A
100
AcDbEntity
  8
0
100
AcDbLine
 62
7
  6
CONTINUOUS
 10
7.0687452949
 20
4.7905262891
 11
7.0187452949
 21
4.7905262891
  0
LINE
  5
25B
100
AcDbEntity
  8
0
100
AcDbLine
 62
7
  6
CONTINUOUS
 10
7.0687452949
 20
4.7934254755
 11
7.0187452949
 21
4.7934254755
  0
LINE
  5
25C
100
AcDbEntity
  8
0
100
AcDbLine
 62
7
  6
CONTINUOUS
 10
6.7612452949
 20
4.7938922047
 11
6.8112452949
 21
4.7938922047
  0
LINE
  5
25D
100
AcDbEntity
  8
0
100
AcDbLine
 62
7
  6
CONTINUOUS
 10
6.7612452949
 20
4.7973467619
 11
6.8112452949
 21
4.7973467619
  0
LINE
  5
25E
100
AcDbEntity
  8
0
100
AcDbLine
 62
7
  6
CONTINUOUS
 10
7.7187452949
 20
4.8009050632
 11
7.7587452949
 21
4.8009050632
  0
LINE
  5
25F
100
AcDbEntity
  8
0
100
AcDbLine
 62
7
  6
CONTINUOUS
 10
7.6787452949
 20
4.801558187
 11
7.0687452949
 21
4.801558187
  0
LINE
  5
260
100
AcDbEntity
  8
0
100
AcDbLine
 62
7
  6
CONTINUOUS
 10
7.0687452949
 20
4.8017904926
 11
7.0187452949
 21
4.8017904926
  0
LINE
  5
261
100
AcDbEntity
  8
0
100
AcDbLine
 62
7
  6
CONTINUOUS
 10
7.7587452949
 20
4.8029665097
 11
7.7187452949
 21
4.8029665097
  0
LINE
  5
262
100
AcDbEntity
  8
0
100
AcDbLine
 62
7
  6
CONTINUOUS
 10
7.0687452949
 20
4.8050981132
 11
7.0187452949
 21
4.8050981132
  0
LINE
  5
263
100
AcDbEntity
  8
0
100
AcDbLine
 62
7
  6
CONTINUOUS
 10
6.7612452949
 20
4.8073470261
 11
6.8112452949
 21
4.8073470261
  0
LINE
  5
264
100
AcDbEntity
  8
0
100
AcDbLine
 62
7
  6
CONTINUOUS
 10
7.7587452949
 20
4.8081903502
 11
7.7187452949
 21
4.8081903502
  0
LINE
  5
265
100
AcDbEntity
  8
0
100
AcDbLine
 62
7
  6
CONTINUOUS
 10
6.7612452949
 20
4.811157526
 11
6.8112452949
 21
4.811157526
  0
LINE
  5
266
100
AcDbEntity
  8
0
100
AcDbLine
 62
7
  6
CONTINUOUS
 10
7.6837452949
 20
4.814058187
 11
7.6787452949
 21
4.814058187
  0
LINE
  5
267
100
AcDbEntity
  8
0
100
AcDbLine
 62
7
  6
CONTINUOUS
 10
7.0687452949
 20
4.814542794
 11
7.0187452949
 21
4.814542794
  0
LINE
  5
268
100
AcDbEntity
  8
0
100
AcDbLine
 62
7
  6
CONTINUOUS
 10
7.0687452949
 20
4.8182430863
 11
7.0187452949
 21
4.8182430863
  0
LINE
  5
269
100
AcDbEntity
  8
0
100
AcDbLine
 62
7
  6
CONTINUOUS
 10
7.7187452949
 20
4.8195362439
 11
7.7587452949
 21
4.8195362439
  0
LINE
  5
26A
100
AcDbEntity
  8
0
100
AcDbLine
 62
7
  6
CONTINUOUS
 10
6.7612452949
 20
4.8221152317
 11
6.8112452949
 21
4.8221152317
  0
LINE
  5
26B
100
AcDbEntity
  8
0
100
AcDbLine
 62
7
  6
CONTINUOUS
 10
7.7587452949
 20
4.8221789775
 11
7.7187452949
 21
4.8221789775
  0
LINE
  5
26C
100
AcDbEntity
  8
0
100
AcDbLine
 62
7
  6
CONTINUOUS
 10
6.7612452949
 20
4.8262653572
 11
6.8112452949
 21
4.8262653572
  0
LINE
  5
26D
100
AcDbEntity
  8
0
100
AcDbLine
 62
7
  6
CONTINUOUS
 10
7.7587452949
 20
4.8276291601
 11
7.7187452949
 21
4.8276291601
  0
LINE
  5
26E
100
AcDbEntity
  8
0
100
AcDbLine
 62
7
  6
CONTINUOUS
 10
7.0687452949
 20
4.8287224226
 11
7.0187452949
 21
4.8287224226
  0
LINE
  5
26F
100
AcDbEntity
  8
0
100
AcDbLine
 62
7
  6
CONTINUOUS
 10
7.0687452949
 20
4.8327977531
 11
7.0187452949
 21
4.8327977531
  0
LINE
  5
270
100
AcDbEntity
  8
0
100
AcDbLine
 62
7
  6
CONTINUOUS
 10
6.8112452949
 20
4.8373811378
 11
6.7612452949
 21
4.8373811378
  0
LINE
  5
271
100
AcDbEntity
  8
0
100
AcDbLine
 62
7
  6
CONTINUOUS
 10
6.7612452949
 20
4.8381335819
 11
6.8112452949
 21
4.8381335819
  0
LINE
  5
272
100
AcDbEntity
  8
0
100
AcDbLine
 62
7
  6
CONTINUOUS
 10
7.7187452949
 20
4.8389746889
 11
7.7587452949
 21
4.8389746889
  0
LINE
  5
273
100
AcDbEntity
  8
0
100
AcDbLine
 62
7
  6
CONTINUOUS
 10
7.7587452949
 20
4.842191466
 11
7.7187452949
 21
4.842191466
  0
LINE
  5
274
100
AcDbEntity
  8
0
100
AcDbLine
 62
7
  6
CONTINUOUS
 10
6.7612452949
 20
4.8426055615
 11
6.8112452949
 21
4.8426055615
  0
LINE
  5
275
100
AcDbEntity
  8
0
100
AcDbLine
 62
7
  6
CONTINUOUS
 10
7.0187452949
 20
4.8438390992
 11
7.0687452949
 21
4.8438390992
  0
LINE
  5
276
100
AcDbEntity
  8
0
100
AcDbLine
 62
7
  6
CONTINUOUS
 10
7.0687452949
 20
4.844261806
 11
7.0187452949
 21
4.844261806
  0
LINE
  5
277
100
AcDbEntity
  8
0
100
AcDbLine
 62
7
  6
CONTINUOUS
 10
7.7587452949
 20
4.847853052
 11
7.7187452949
 21
4.847853052
  0
LINE
  5
278
100
AcDbEntity
  8
0
100
AcDbLine
 62
7
  6
CONTINUOUS
 10
7.0687452949
 20
4.8486927539
 11
7.0187452949
 21
4.8486927539
  0
LINE
  5
279
100
AcDbEntity
  8
0
100
AcDbLine
 62
7
  6
CONTINUOUS
 10
6.8112452949
 20
4.8538428915
 11
6.7612452949
 21
4.8538428915
  0
LINE
  5
27A
100
AcDbEntity
  8
0
100
AcDbLine
 62
7
  6
CONTINUOUS
 10
6.7612452949
 20
4.8553334836
 11
6.8112452949
 21
4.8553334836
  0
LINE
  5
27B
100
AcDbEntity
  8
0
100
AcDbLine
 62
7
  6
CONTINUOUS
 10
7.7187452949
 20
4.8591671186
 11
7.7587452949
 21
4.8591671186
  0
LINE
  5
27C
100
AcDbEntity
  8
0
100
AcDbLine
 62
7
  6
CONTINUOUS
 10
7.0187452949
 20
4.8598838913
 11
7.0687452949
 21
4.8598838913
  0
LINE
  5
27D
100
AcDbEntity
  8
0
100
AcDbLine
 62
7
  6
CONTINUOUS
 10
6.7612452949
 20
4.8601081676
 11
6.8112452949
 21
4.8601081676
  0
LINE
  5
27E
100
AcDbEntity
  8
0
100
AcDbLine
 62
7
  6
CONTINUOUS
 10
7.0687452949
 20
4.8610868921
 11
7.0187452949
 21
4.8610868921
  0
LINE
  5
27F
100
AcDbEntity
  8
0
100
AcDbLine
 62
7
  6
CONTINUOUS
 10
7.7587452949
 20
4.8629491222
 11
7.7187452949
 21
4.8629491222
  0
LINE
  5
280
100
AcDbEntity
  8
0
100
AcDbLine
 62
7
  6
CONTINUOUS
 10
6.6387452949
 20
4.864058187
 11
6.6837452949
 21
4.864058187
  0
LINE
  5
281
100
AcDbEntity
  8
0
100
AcDbLine
 62
7
  6
CONTINUOUS
 10
7.0687452949
 20
4.8658523419
 11
7.0187452949
 21
4.8658523419
  0
LINE
  5
282
100
AcDbEntity
  8
0
100
AcDbLine
 62
7
  6
CONTINUOUS
 10
7.7587452949
 20
4.8688065937
 11
7.7187452949
 21
4.8688065937
  0
LINE
  5
283
100
AcDbEntity
  8
0
100
AcDbLine
 62
7
  6
CONTINUOUS
 10
6.8112452949
 20
4.871418927
 11
6.7612452949
 21
4.871418927
  0
LINE
  5
284
100
AcDbEntity
  8
0
100
AcDbLine
 62
7
  6
CONTINUOUS
 10
6.7612452949
 20
4.8736412842
 11
6.8112452949
 21
4.8736412842
  0
LINE
  5
285
100
AcDbEntity
  8
0
100
AcDbLine
 62
7
  6
CONTINUOUS
 10
7.0187452949
 20
4.8771399397
 11
7.0687452949
 21
4.8771399397
  0
LINE
  5
286
100
AcDbEntity
  8
0
100
AcDbLine
 62
7
  6
CONTINUOUS
 10
6.7612452949
 20
4.8786982267
 11
6.8112452949
 21
4.8786982267
  0
LINE
  5
287
100
AcDbEntity
  8
0
100
AcDbLine
 62
7
  6
CONTINUOUS
 10
7.0687452949
 20
4.8791175016
 11
7.0187452949
 21
4.8791175016
  0
LINE
  5
288
100
AcDbEntity
  8
0
100
AcDbLine
 62
7
  6
CONTINUOUS
 10
7.7187452949
 20
4.880058187
 11
7.7587452949
 21
4.880058187
  0
LINE
  5
289
100
AcDbEntity
  8
0
100
AcDbLine
 62
7
  6
CONTINUOUS
 10
7.0687452949
 20
4.8841947437
 11
7.0187452949
 21
4.8841947437
  0
LINE
  5
28A
100
AcDbEntity
  8
0
100
AcDbLine
 62
7
  6
CONTINUOUS
 10
7.7587452949
 20
4.884395051
 11
7.7187452949
 21
4.884395051
  0
LINE
  5
28B
100
AcDbEntity
  8
0
100
AcDbLine
 62
7
  6
CONTINUOUS
 10
6.8112452949
 20
4.8900339811
 11
6.7612452949
 21
4.8900339811
  0
LINE
  5
28C
100
AcDbEntity
  8
0
100
AcDbLine
 62
7
  6
CONTINUOUS
 10
7.7587452949
 20
4.890432353
 11
7.7187452949
 21
4.890432353
  0
LINE
  5
28D
100
AcDbEntity
  8
0
100
AcDbLine
 62
7
  6
CONTINUOUS
 10
6.7612452949
 20
4.8929785868
 11
6.8112452949
 21
4.8929785868
  0
LINE
  5
28E
100
AcDbEntity
  8
0
100
AcDbLine
 62
7
  6
CONTINUOUS
 10
4.1237452949
 20
4.895308187
 11
6.6237452949
 21
4.895308187
  0
LINE
  5
28F
100
AcDbEntity
  8
0
100
AcDbLine
 62
7
  6
CONTINUOUS
 10
7.0187452949
 20
4.8955250114
 11
7.0687452949
 21
4.8955250114
  0
LINE
  5
290
100
AcDbEntity
  8
0
100
AcDbLine
 62
7
  6
CONTINUOUS
 10
7.0687452949
 20
4.8982677104
 11
7.0187452949
 21
4.8982677104
  0
LINE
  5
291
100
AcDbEntity
  8
0
100
AcDbLine
 62
7
  6
CONTINUOUS
 10
6.7612452949
 20
4.8982961333
 11
6.8112452949
 21
4.8982961333
  0
LINE
  5
292
100
AcDbEntity
  8
0
100
AcDbLine
 62
7
  6
CONTINUOUS
 10
7.7187452949
 20
4.9015906331
 11
7.7587452949
 21
4.9015906331
  0
LINE
  5
293
100
AcDbEntity
  8
0
100
AcDbLine
 62
7
  6
CONTINUOUS
 10
7.0687452949
 20
4.9036325496
 11
7.0187452949
 21
4.9036325496
  0
LINE
  5
294
100
AcDbEntity
  8
0
100
AcDbLine
 62
7
  6
CONTINUOUS
 10
7.7587452949
 20
4.9064704704
 11
7.7187452949
 21
4.9064704704
  0
LINE
  5
295
100
AcDbEntity
  8
0
100
AcDbLine
 62
7
  6
CONTINUOUS
 10
6.8112452949
 20
4.9096083412
 11
6.7612452949
 21
4.9096083412
  0
LINE
  5
296
100
AcDbEntity
  8
0
100
AcDbLine
 62
7
  6
CONTINUOUS
 10
7.7587452949
 20
4.9126710551
 11
7.7187452949
 21
4.9126710551
  0
LINE
  5
297
100
AcDbEntity
  8
0
100
AcDbLine
 62
7
  6
CONTINUOUS
 10
6.7612452949
 20
4.9132625863
 11
6.8112452949
 21
4.9132625863
  0
LINE
  5
298
100
AcDbEntity
  8
0
100
AcDbLine
 62
7
  6
CONTINUOUS
 10
6.9412452949
 20
4.914058187
 11
6.8962452949
 21
4.914058187
  0
LINE
  5
299
100
AcDbEntity
  8
0
100
AcDbLine
 62
7
  6
CONTINUOUS
 10
7.0187452949
 20
4.9149514932
 11
7.0687452949
 21
4.9149514932
  0
LINE
  5
29A
100
AcDbEntity
  8
0
100
AcDbLine
 62
7
  6
CONTINUOUS
 10
7.0687452949
 20
4.9184462592
 11
7.0187452949
 21
4.9184462592
  0
LINE
  5
29B
100
AcDbEntity
  8
0
100
AcDbLine
 62
7
  6
CONTINUOUS
 10
6.7612452949
 20
4.9188179661
 11
6.8112452949
 21
4.9188179661
  0
LINE
  5
29C
100
AcDbEntity
  8
0
100
AcDbLine
 62
7
  6
CONTINUOUS
 10
7.7187452949
 20
4.923705438
 11
7.7587452949
 21
4.923705438
  0
LINE
  5
29D
100
AcDbEntity
  8
0
100
AcDbLine
 62
7
  6
CONTINUOUS
 10
7.0687452949
 20
4.9240731294
 11
7.0187452949
 21
4.9240731294
  0
LINE
  5
29E
100
AcDbEntity
  8
0
100
AcDbLine
 62
7
  6
CONTINUOUS
 10
7.7587452949
 20
4.9291148734
 11
7.7187452949
 21
4.9291148734
  0
LINE
  5
29F
100
AcDbEntity
  8
0
100
AcDbLine
 62
7
  6
CONTINUOUS
 10
6.8112452949
 20
4.930058187
 11
6.7612452949
 21
4.930058187
  0
LINE
  5
2A0
100
AcDbEntity
  8
0
100
AcDbLine
 62
7
  6
CONTINUOUS
 10
6.7612452949
 20
4.9344064234
 11
6.8112452949
 21
4.9344064234
  0
LINE
  5
2A1
100
AcDbEntity
  8
0
100
AcDbLine
 62
7
  6
CONTINUOUS
 10
7.0187452949
 20
4.9353268091
 11
7.0687452949
 21
4.9353268091
  0
LINE
  5
2A2
100
AcDbEntity
  8
0
100
AcDbLine
 62
7
  6
CONTINUOUS
 10
7.7587452949
 20
4.9354617454
 11
7.7187452949
 21
4.9354617454
  0
LINE
  5
2A3
100
AcDbEntity
  8
0
100
AcDbLine
 62
7
  6
CONTINUOUS
 10
7.0687452949
 20
4.9395569878
 11
7.0187452949
 21
4.9395569878
  0
LINE
  5
2A4
100
AcDbEntity
  8
0
100
AcDbLine
 62
7
  6
CONTINUOUS
 10
6.7612452949
 20
4.9401758475
 11
6.8112452949
 21
4.9401758475
  0
LINE
  5
2A5
100
AcDbEntity
  8
0
100
AcDbLine
 62
7
  6
CONTINUOUS
 10
7.0687452949
 20
4.9454190746
 11
7.0187452949
 21
4.9454190746
  0
LINE
  5
2A6
100
AcDbEntity
  8
0
100
AcDbLine
 62
7
  6
CONTINUOUS
 10
7.7187452949
 20
4.9463419866
 11
7.7587452949
 21
4.9463419866
  0
LINE
  5
2A7
100
AcDbEntity
  8
0
100
AcDbLine
 62
7
  6
CONTINUOUS
 10
6.8112452949
 20
4.951295949
 11
6.7643539007
 21
4.951295949
  0
LINE
  5
2A8
100
AcDbEntity
  8
0
100
AcDbLine
 62
7
  6
CONTINUOUS
 10
7.7587452949
 20
4.9522661931
 11
7.7187452949
 21
4.9522661931
  0
LINE
  5
2A9
100
AcDbEntity
  8
0
100
AcDbLine
 62
7
  6
CONTINUOUS
 10
6.7655099971
 20
4.9563195569
 11
6.8112452949
 21
4.9563195569
  0
LINE
  5
2AA
100
AcDbEntity
  8
0
100
AcDbLine
 62
7
  6
CONTINUOUS
 10
7.0187452949
 20
4.9565538614
 11
7.0687452949
 21
4.9565538614
  0
LINE
  5
2AB
100
AcDbEntity
  8
0
100
AcDbLine
 62
7
  6
CONTINUOUS
 10
7.7587452949
 20
4.9587419561
 11
7.7187452949
 21
4.9587419561
  0
LINE
  5
2AC
100
AcDbEntity
  8
0
100
AcDbLine
 62
7
  6
CONTINUOUS
 10
7.0687452949
 20
4.9614992942
 11
7.0187452949
 21
4.9614992942
  0
LINE
  5
2AD
100
AcDbEntity
  8
0
100
AcDbLine
 62
7
  6
CONTINUOUS
 10
6.7682622206
 20
4.9622783198
 11
6.8112452949
 21
4.9622783198
  0
LINE
  5
2AE
100
AcDbEntity
  8
0
100
AcDbLine
 62
7
  6
CONTINUOUS
 10
6.7754315645
 20
4.965308187
 11
6.8812452949
 21
4.965308187
  0
LINE
  5
2AF
100
AcDbEntity
  8
0
100
AcDbLine
 62
7
  6
CONTINUOUS
 10
7.0687452949
 20
4.9675686619
 11
7.0187452949
 21
4.9675686619
  0
LINE
  5
2B0
100
AcDbEntity
  8
0
100
AcDbLine
 62
7
  6
CONTINUOUS
 10
7.7187452949
 20
4.9694382336
 11
7.7587452949
 21
4.9694382336
  0
LINE
  5
2B1
100
AcDbEntity
  8
0
100
AcDbLine
 62
7
  6
CONTINUOUS
 10
7.7587452949
 20
4.9758609734
 11
7.7187452949
 21
4.9758609734
  0
LINE
  5
2B2
100
AcDbEntity
  8
0
100
AcDbLine
 62
7
  6
CONTINUOUS
 10
7.0187452949
 20
4.9785314936
 11
7.0687452949
 21
4.9785314936
  0
LINE
  5
2B3
100
AcDbEntity
  8
0
100
AcDbLine
 62
7
  6
CONTINUOUS
 10
7.7587452949
 20
4.9824478778
 11
7.7187452949
 21
4.9824478778
  0
LINE
  5
2B4
100
AcDbEntity
  8
0
100
AcDbLine
 62
7
  6
CONTINUOUS
 10
7.0687452949
 20
4.9841686131
 11
7.0187452949
 21
4.9841686131
  0
LINE
  5
2B5
100
AcDbEntity
  8
0
100
AcDbLine
 62
7
  6
CONTINUOUS
 10
7.0687452949
 20
4.9904163385
 11
7.0187452949
 21
4.9904163385
  0
LINE
  5
2B6
100
AcDbEntity
  8
0
100
AcDbLine
 62
7
  6
CONTINUOUS
 10
7.7187452949
 20
4.9929308738
 11
7.7587452949
 21
4.9929308738
  0
LINE
  5
2B7
100
AcDbEntity
  8
0
100
AcDbLine
 62
7
  6
CONTINUOUS
 10
7.7587452949
 20
4.9998345427
 11
7.7187452949
 21
4.9998345427
  0
LINE
  5
2B8
100
AcDbEntity
  8
0
100
AcDbLine
 62
7
  6
CONTINUOUS
 10
7.0187452949
 20
5.0011549721
 11
7.0687452949
 21
5.0011549721
  0
LINE
  5
2B9
100
AcDbEntity
  8
0
100
AcDbLine
 62
7
  6
CONTINUOUS
 10
7.7587452949
 20
5.0065145342
 11
7.7187452949
 21
5.0065145342
  0
LINE
  5
2BA
100
AcDbEntity
  8
0
100
AcDbLine
 62
7
  6
CONTINUOUS
 10
7.0687452949
 20
5.007456915
 11
7.0187452949
 21
5.007456915
  0
LINE
  5
2BB
100
AcDbEntity
  8
0
100
AcDbLine
 62
7
  6
CONTINUOUS
 10
7.0687452949
 20
5.0138532248
 11
7.0187452949
 21
5.0138532248
  0
LINE
  5
2BC
100
AcDbEntity
  8
0
100
AcDbLine
 62
7
  6
CONTINUOUS
 10
6.6957452949
 20
5.016558187
 11
6.6727571456
 21
5.016558187
  0
LINE
  5
2BD
100
AcDbEntity
  8
0
100
AcDbLine
 62
7
  6
CONTINUOUS
 10
7.7187452949
 20
5.0167555156
 11
7.7587452949
 21
5.0167555156
  0
LINE
  5
2BE
100
AcDbEntity
  8
0
100
AcDbLine
 62
7
  6
CONTINUOUS
 10
7.7587452949
 20
5.024121191
 11
7.7187452949
 21
5.024121191
  0
LINE
  5
2BF
100
AcDbEntity
  8
0
100
AcDbLine
 62
7
  6
CONTINUOUS
 10
7.0187452949
 20
5.0243164859
 11
7.0687452949
 21
5.0243164859
  0
LINE
  5
2C0
100
AcDbEntity
  8
0
100
AcDbLine
 62
7
  6
CONTINUOUS
 10
7.7587452949
 20
5.0308759603
 11
7.7187452949
 21
5.0308759603
  0
LINE
  5
2C1
100
AcDbEntity
  8
0
100
AcDbLine
 62
7
  6
CONTINUOUS
 10
7.0687452949
 20
5.0312532205
 11
7.0187452949
 21
5.0312532205
  0
LINE
  5
2C2
100
AcDbEntity
  8
0
100
AcDbLine
 62
7
  6
CONTINUOUS
 10
7.0687452949
 20
5.0377676334
 11
7.0187452949
 21
5.0377676334
  0
LINE
  5
2C3
100
AcDbEntity
  8
0
100
AcDbLine
 62
7
  6
CONTINUOUS
 10
7.7187452949
 20
5.0408468573
 11
7.7587452949
 21
5.0408468573
  0
LINE
  5
2C4
100
AcDbEntity
  8
0
100
AcDbLine
 62
7
  6
CONTINUOUS
 10
7.0187452949
 20
5.0479056597
 11
7.0687452949
 21
5.0479056597
  0
LINE
  5
2C5
100
AcDbEntity
  8
0
100
AcDbLine
 62
7
  6
CONTINUOUS
 10
7.7587452949
 20
5.0486543504
 11
7.7187452949
 21
5.0486543504
  0
LINE
  5
2C6
100
AcDbEntity
  8
0
100
AcDbLine
 62
7
  6
CONTINUOUS
 10
7.0687452949
 20
5.0554441294
 11
7.0187452949
 21
5.0554441294
  0
LINE
  5
2C7
100
AcDbEntity
  8
0
100
AcDbLine
 62
7
  6
CONTINUOUS
 10
7.7587452949
 20
5.0554653831
 11
7.7187452949
 21
5.0554653831
  0
LINE
  5
2C8
100
AcDbEntity
  8
0
100
AcDbLine
 62
7
  6
CONTINUOUS
 10
7.0687452949
 20
5.0620456013
 11
7.0187452949
 21
5.0620456013
  0
LINE
  5
2C9
100
AcDbEntity
  8
0
100
AcDbLine
 62
7
  6
CONTINUOUS
 10
7.7187452949
 20
5.0651388661
 11
7.7587452949
 21
5.0651388661
  0
LINE
  5
2CA
100
AcDbEntity
  8
0
100
AcDbLine
 62
7
  6
CONTINUOUS
 10
7.0187452949
 20
5.0718100805
 11
7.0687452949
 21
5.0718100805
  0
LINE
  5
2CB
100
AcDbEntity
  8
0
100
AcDbLine
 62
7
  6
CONTINUOUS
 10
7.7587452949
 20
5.0733667772
 11
7.7187452949
 21
5.0733667772
  0
LINE
  5
2CC
100
AcDbEntity
  8
0
100
AcDbLine
 62
7
  6
CONTINUOUS
 10
7.0687452949
 20
5.079914361
 11
7.0187452949
 21
5.079914361
  0
LINE
  5
2CD
100
AcDbEntity
  8
0
100
AcDbLine
 62
7
  6
CONTINUOUS
 10
7.7587452949
 20
5.0802154047
 11
7.7187452949
 21
5.0802154047
  0
LINE
  5
2CE
100
AcDbEntity
  8
0
100
AcDbLine
 62
7
  6
CONTINUOUS
 10
7.0687452949
 20
5.0865714328
 11
7.0187452949
 21
5.0865714328
  0
LINE
  5
2CF
100
AcDbEntity
  8
0
100
AcDbLine
 62
7
  6
CONTINUOUS
 10
7.7187452949
 20
5.0895649594
 11
7.7587452949
 21
5.0895649594
  0
LINE
  5
2D0
100
AcDbEntity
  8
0
100
AcDbLine
 62
7
  6
CONTINUOUS
 10
7.0187452949
 20
5.0959158328
 11
7.0687452949
 21
5.0959158328
  0
LINE
  5
2D1
100
AcDbEntity
  8
0
100
AcDbLine
 62
7
  6
CONTINUOUS
 10
7.7587452949
 20
5.0981907363
 11
7.7187452949
 21
5.0981907363
  0
LINE
  5
2D2
100
AcDbEntity
  8
0
100
AcDbLine
 62
7
  6
CONTINUOUS
 10
7.0687452949
 20
5.1045473034
 11
7.0187452949
 21
5.1045473034
  0
LINE
  5
2D3
100
AcDbEntity
  8
0
100
AcDbLine
 62
7
  6
CONTINUOUS
 10
7.7587452949
 20
5.105058187
 11
7.7187452949
 21
5.105058187
  0
LINE
  5
2D4
100
AcDbEntity
  8
0
100
AcDbLine
 62
7
  6
CONTINUOUS
 10
7.0687452949
 20
5.1112282511
 11
7.0187452949
 21
5.1112282511
  0
LINE
  5
2D5
100
AcDbEntity
  8
0
100
AcDbLine
 62
7
  6
CONTINUOUS
 10
7.7187452949
 20
5.114058187
 11
7.7587452949
 21
5.114058187
  0
LINE
  5
2D6
100
AcDbEntity
  8
0
100
AcDbLine
 62
7
  6
CONTINUOUS
 10
7.0187452949
 20
5.1201080416
 11
7.0687452949
 21
5.1201080416
  0
LINE
  5
2D7
100
AcDbEntity
  8
0
100
AcDbLine
 62
7
  6
CONTINUOUS
 10
7.7587452949
 20
5.123058187
 11
7.7187452949
 21
5.123058187
  0
LINE
  5
2D8
100
AcDbEntity
  8
0
100
AcDbLine
 62
7
  6
CONTINUOUS
 10
7.0687452949
 20
5.1292255696
 11
7.0187452949
 21
5.1292255696
  0
LINE
  5
2D9
100
AcDbEntity
  8
0
100
AcDbLine
 62
7
  6
CONTINUOUS
 10
7.7587452949
 20
5.1299256376
 11
7.7187452949
 21
5.1299256376
  0
LINE
  5
2DA
100
AcDbEntity
  8
0
100
AcDbLine
 62
7
  6
CONTINUOUS
 10
7.0687452949
 20
5.1358985555
 11
7.0187452949
 21
5.1358985555
  0
LINE
  5
2DB
100
AcDbEntity
  8
0
100
AcDbLine
 62
7
  6
CONTINUOUS
 10
7.7187452949
 20
5.1385514145
 11
7.7587452949
 21
5.1385514145
  0
LINE
  5
2DC
100
AcDbEntity
  8
0
100
AcDbLine
 62
7
  6
CONTINUOUS
 10
7.0187452949
 20
5.1442714201
 11
7.0687452949
 21
5.1442714201
  0
LINE
  5
2DD
100
AcDbEntity
  8
0
100
AcDbLine
 62
7
  6
CONTINUOUS
 10
7.7587452949
 20
5.1479009692
 11
7.7187452949
 21
5.1479009692
  0
LINE
  5
2DE
100
AcDbEntity
  8
0
100
AcDbLine
 62
7
  6
CONTINUOUS
 10
7.0687452949
 20
5.1538315562
 11
7.0187452949
 21
5.1538315562
  0
LINE
  5
2DF
100
AcDbEntity
  8
0
100
AcDbLine
 62
7
  6
CONTINUOUS
 10
7.7587452949
 20
5.1547495967
 11
7.7187452949
 21
5.1547495967
  0
LINE
  5
2E0
100
AcDbEntity
  8
0
100
AcDbLine
 62
7
  6
CONTINUOUS
 10
7.0687452949
 20
5.1604647805
 11
7.0187452949
 21
5.1604647805
  0
LINE
  5
2E1
100
AcDbEntity
  8
0
100
AcDbLine
 62
7
  6
CONTINUOUS
 10
7.7187452949
 20
5.1629775078
 11
7.7587452949
 21
5.1629775078
  0
LINE
  5
2E2
100
AcDbEntity
  8
0
100
AcDbLine
 62
7
  6
CONTINUOUS
 10
7.0187452949
 20
5.1682908188
 11
7.0687452949
 21
5.1682908188
  0
LINE
  5
2E3
100
AcDbEntity
  8
0
100
AcDbLine
 62
7
  6
CONTINUOUS
 10
7.7587452949
 20
5.1726509908
 11
7.7187452949
 21
5.1726509908
  0
LINE
  5
2E4
100
AcDbEntity
  8
0
100
AcDbLine
 62
7
  6
CONTINUOUS
 10
7.0687452949
 20
5.1782480047
 11
7.0187452949
 21
5.1782480047
  0
LINE
  5
2E5
100
AcDbEntity
  8
0
100
AcDbLine
 62
7
  6
CONTINUOUS
 10
7.7587452949
 20
5.1794620235
 11
7.7187452949
 21
5.1794620235
  0
LINE
  5
2E6
100
AcDbEntity
  8
0
100
AcDbLine
 62
7
  6
CONTINUOUS
 10
7.0687452949
 20
5.184809857
 11
7.0187452949
 21
5.184809857
  0
LINE
  5
2E7
100
AcDbEntity
  8
0
100
AcDbLine
 62
7
  6
CONTINUOUS
 10
7.7187452949
 20
5.1872695166
 11
7.7587452949
 21
5.1872695166
  0
LINE
  5
2E8
100
AcDbEntity
  8
0
100
AcDbLine
 62
7
  6
CONTINUOUS
 10
7.0187452949
 20
5.1920517743
 11
7.0687452949
 21
5.1920517743
  0
LINE
  5
2E9
100
AcDbEntity
  8
0
100
AcDbLine
 62
7
  6
CONTINUOUS
 10
7.7587452949
 20
5.1972404136
 11
7.7187452949
 21
5.1972404136
  0
LINE
  5
2EA
100
AcDbEntity
  8
0
100
AcDbLine
 62
7
  6
CONTINUOUS
 10
7.0687452949
 20
5.2023585594
 11
7.0187452949
 21
5.2023585594
  0
LINE
  5
2EB
100
AcDbEntity
  8
0
100
AcDbLine
 62
7
  6
CONTINUOUS
 10
7.7587452949
 20
5.2039951829
 11
7.7187452949
 21
5.2039951829
  0
LINE
  5
2EC
100
AcDbEntity
  8
0
100
AcDbLine
 62
7
  6
CONTINUOUS
 10
7.0687452949
 20
5.2088177695
 11
7.0187452949
 21
5.2088177695
  0
LINE
  5
2ED
100
AcDbEntity
  8
0
100
AcDbLine
 62
7
  6
CONTINUOUS
 10
7.7187452949
 20
5.2113608583
 11
7.7587452949
 21
5.2113608583
  0
LINE
  5
2EE
100
AcDbEntity
  8
0
100
AcDbLine
 62
7
  6
CONTINUOUS
 10
6.6957452949
 20
5.211558187
 11
6.6727571456
 21
5.211558187
  0
LINE
  5
2EF
100
AcDbEntity
  8
0
100
AcDbLine
 62
7
  6
CONTINUOUS
 10
7.0187452949
 20
5.2154410548
 11
7.0687452949
 21
5.2154410548
  0
LINE
  5
2F0
100
AcDbEntity
  8
0
100
AcDbLine
 62
7
  6
CONTINUOUS
 10
7.7587452949
 20
5.2216018397
 11
7.7187452949
 21
5.2216018397
  0
LINE
  5
2F1
100
AcDbEntity
  8
0
100
AcDbLine
 62
7
  6
CONTINUOUS
 10
7.0687452949
 20
5.2260483226
 11
7.0187452949
 21
5.2260483226
  0
LINE
  5
2F2
100
AcDbEntity
  8
0
100
AcDbLine
 62
7
  6
CONTINUOUS
 10
7.7587452949
 20
5.2282818312
 11
7.7187452949
 21
5.2282818312
  0
LINE
  5
2F3
100
AcDbEntity
  8
0
100
AcDbLine
 62
7
  6
CONTINUOUS
 10
7.0687452949
 20
5.2323741095
 11
7.0187452949
 21
5.2323741095
  0
LINE
  5
2F4
100
AcDbEntity
  8
0
100
AcDbLine
 62
7
  6
CONTINUOUS
 10
7.7187452949
 20
5.2351855001
 11
7.7587452949
 21
5.2351855001
  0
LINE
  5
2F5
100
AcDbEntity
  8
0
100
AcDbLine
 62
7
  6
CONTINUOUS
 10
7.0187452949
 20
5.2383471999
 11
7.0687452949
 21
5.2383471999
  0
LINE
  5
2F6
100
AcDbEntity
  8
0
100
AcDbLine
 62
7
  6
CONTINUOUS
 10
7.7587452949
 20
5.2456684961
 11
7.7187452949
 21
5.2456684961
  0
LINE
  5
2F7
100
AcDbEntity
  8
0
100
AcDbLine
 62
7
  6
CONTINUOUS
 10
7.0687452949
 20
5.2492044019
 11
7.0187452949
 21
5.2492044019
  0
LINE
  5
2F8
100
AcDbEntity
  8
0
100
AcDbLine
 62
7
  6
CONTINUOUS
 10
7.7587452949
 20
5.2522554005
 11
7.7187452949
 21
5.2522554005
  0
LINE
  5
2F9
100
AcDbEntity
  8
0
100
AcDbLine
 62
7
  6
CONTINUOUS
 10
7.0687452949
 20
5.2553666202
 11
7.0187452949
 21
5.2553666202
  0
LINE
  5
2FA
100
AcDbEntity
  8
0
100
AcDbLine
 62
7
  6
CONTINUOUS
 10
7.7187452949
 20
5.2586781403
 11
7.7587452949
 21
5.2586781403
  0
LINE
  5
2FB
100
AcDbEntity
  8
0
100
AcDbLine
 62
7
  6
CONTINUOUS
 10
7.0187452949
 20
5.2606610511
 11
7.0687452949
 21
5.2606610511
  0
LINE
  5
2FC
100
AcDbEntity
  8
0
100
AcDbLine
 62
7
  6
CONTINUOUS
 10
6.7754315645
 20
5.262808187
 11
6.8812452949
 21
5.262808187
  0
LINE
  5
2FD
100
AcDbEntity
  8
0
100
AcDbLine
 62
7
  6
CONTINUOUS
 10
6.7682622206
 20
5.2658380541
 11
6.8112452949
 21
5.2658380541
  0
LINE
  5
2FE
100
AcDbEntity
  8
0
100
AcDbLine
 62
7
  6
CONTINUOUS
 10
7.7587452949
 20
5.2693744178
 11
7.7187452949
 21
5.2693744178
  0
LINE
  5
2FF
100
AcDbEntity
  8
0
100
AcDbLine
 62
7
  6
CONTINUOUS
 10
7.0687452949
 20
5.2717164478
 11
7.0187452949
 21
5.2717164478
  0
LINE
  5
300
100
AcDbEntity
  8
0
100
AcDbLine
 62
7
  6
CONTINUOUS
 10
6.7655099971
 20
5.2717968171
 11
6.8112452949
 21
5.2717968171
  0
LINE
  5
301
100
AcDbEntity
  8
0
100
AcDbLine
 62
7
  6
CONTINUOUS
 10
7.7587452949
 20
5.2758501808
 11
7.7187452949
 21
5.2758501808
  0
LINE
  5
302
100
AcDbEntity
  8
0
100
AcDbLine
 62
7
  6
CONTINUOUS
 10
6.8112452949
 20
5.276820425
 11
6.7643539007
 21
5.276820425
  0
LINE
  5
303
100
AcDbEntity
  8
0
100
AcDbLine
 62
7
  6
CONTINUOUS
 10
7.0687452949
 20
5.2776857319
 11
7.0187452949
 21
5.2776857319
  0
LINE
  5
304
100
AcDbEntity
  8
0
100
AcDbLine
 62
7
  6
CONTINUOUS
 10
7.7187452949
 20
5.2817743873
 11
7.7587452949
 21
5.2817743873
  0
LINE
  5
305
100
AcDbEntity
  8
0
100
AcDbLine
 62
7
  6
CONTINUOUS
 10
7.0187452949
 20
5.282276273
 11
7.0687452949
 21
5.282276273
  0
LINE
  5
306
100
AcDbEntity
  8
0
100
AcDbLine
 62
7
  6
CONTINUOUS
 10
6.7612452949
 20
5.2879405264
 11
6.8112452949
 21
5.2879405264
  0
LINE
  5
307
100
AcDbEntity
  8
0
100
AcDbLine
 62
7
  6
CONTINUOUS
 10
7.8087452949
 20
5.651558187
 11
7.8337452949
 21
5.676558187
  0
LINE
  5
308
100
AcDbEntity
  8
0
100
AcDbLine
 62
7
  6
CONTINUOUS
 10
7.7587452949
 20
5.2926546285
 11
7.7187452949
 21
5.2926546285
  0
LINE
  5
309
100
AcDbEntity
  8
0
100
AcDbLine
 62
7
  6
CONTINUOUS
 10
7.0687452949
 20
5.2934771804
 11
7.0187452949
 21
5.2934771804
  0
LINE
  5
30A
100
AcDbEntity
  8
0
100
AcDbLine
 62
7
  6
CONTINUOUS
 10
6.7612452949
 20
5.2937099505
 11
6.8112452949
 21
5.2937099505
  0
LINE
  5
30B
100
AcDbEntity
  8
0
100
AcDbLine
 62
7
  6
CONTINUOUS
 10
6.8112452949
 20
5.298058187
 11
6.7612452949
 21
5.298058187
  0
LINE
  5
30C
100
AcDbEntity
  8
0
100
AcDbLine
 62
7
  6
CONTINUOUS
 10
7.7587452949
 20
5.2990015005
 11
7.7187452949
 21
5.2990015005
  0
LINE
  5
30D
100
AcDbEntity
  8
0
100
AcDbLine
 62
7
  6
CONTINUOUS
 10
7.0687452949
 20
5.2992250838
 11
7.0187452949
 21
5.2992250838
  0
LINE
  5
30E
100
AcDbEntity
  8
0
100
AcDbLine
 62
7
  6
CONTINUOUS
 10
7.0187452949
 20
5.303089859
 11
7.0687452949
 21
5.303089859
  0
LINE
  5
30F
100
AcDbEntity
  8
0
100
AcDbLine
 62
7
  6
CONTINUOUS
 10
7.7187452949
 20
5.3044109359
 11
7.7587452949
 21
5.3044109359
  0
LINE
  5
310
100
AcDbEntity
  8
0
100
AcDbLine
 62
7
  6
CONTINUOUS
 10
6.7612452949
 20
5.3092984078
 11
6.8112452949
 21
5.3092984078
  0
LINE
  5
311
100
AcDbEntity
  8
0
100
AcDbLine
 62
7
  6
CONTINUOUS
 10
6.9412452949
 20
5.314058187
 11
6.8962452949
 21
5.314058187
  0
LINE
  5
312
100
AcDbEntity
  8
0
100
AcDbLine
 62
7
  6
CONTINUOUS
 10
7.0687452949
 20
5.3143828998
 11
7.0187452949
 21
5.3143828998
  0
LINE
  5
313
100
AcDbEntity
  8
0
100
AcDbLine
 62
7
  6
CONTINUOUS
 10
6.7612452949
 20
5.3148537876
 11
6.8112452949
 21
5.3148537876
  0
LINE
  5
314
100
AcDbEntity
  8
0
100
AcDbLine
 62
7
  6
CONTINUOUS
 10
7.7587452949
 20
5.3154453188
 11
7.7187452949
 21
5.3154453188
  0
LINE
  5
315
100
AcDbEntity
  8
0
100
AcDbLine
 62
7
  6
CONTINUOUS
 10
6.8112452949
 20
5.3185080327
 11
6.7612452949
 21
5.3185080327
  0
LINE
  5
316
100
AcDbEntity
  8
0
100
AcDbLine
 62
7
  6
CONTINUOUS
 10
7.0687452949
 20
5.3198820312
 11
7.0187452949
 21
5.3198820312
  0
LINE
  5
317
100
AcDbEntity
  8
0
100
AcDbLine
 62
7
  6
CONTINUOUS
 10
7.7587452949
 20
5.3216459035
 11
7.7187452949
 21
5.3216459035
  0
LINE
  5
318
100
AcDbEntity
  8
0
100
AcDbLine
 62
7
  6
CONTINUOUS
 10
7.0187452949
 20
5.3230026231
 11
7.0687452949
 21
5.3230026231
  0
LINE
  5
319
100
AcDbEntity
  8
0
100
AcDbLine
 62
7
  6
CONTINUOUS
 10
7.7187452949
 20
5.3265257408
 11
7.7587452949
 21
5.3265257408
  0
LINE
  5
31A
100
AcDbEntity
  8
0
100
AcDbLine
 62
7
  6
CONTINUOUS
 10
6.7612452949
 20
5.3298202406
 11
6.8112452949
 21
5.3298202406
  0
LINE
  5
31B
100
AcDbEntity
  8
0
100
AcDbLine
 62
7
  6
CONTINUOUS
 10
4.1237452949
 20
5.332808187
 11
6.6237452949
 21
5.332808187
  0
LINE
  5
31C
100
AcDbEntity
  8
0
100
AcDbLine
 62
7
  6
CONTINUOUS
 10
7.0687452949
 20
5.3343339806
 11
7.0187452949
 21
5.3343339806
  0
LINE
  5
31D
100
AcDbEntity
  8
0
100
AcDbLine
 62
7
  6
CONTINUOUS
 10
6.7612452949
 20
5.3351377871
 11
6.8112452949
 21
5.3351377871
  0
LINE
  5
31E
100
AcDbEntity
  8
0
100
AcDbLine
 62
7
  6
CONTINUOUS
 10
7.7587452949
 20
5.3376840209
 11
7.7187452949
 21
5.3376840209
  0
LINE
  5
31F
100
AcDbEntity
  8
0
100
AcDbLine
 62
7
  6
CONTINUOUS
 10
6.8112452949
 20
5.3380823928
 11
6.7612452949
 21
5.3380823928
  0
LINE
  5
320
100
AcDbEntity
  8
0
100
AcDbLine
 62
7
  6
CONTINUOUS
 10
7.0687452949
 20
5.3395581342
 11
7.0187452949
 21
5.3395581342
  0
LINE
  5
321
100
AcDbEntity
  8
0
100
AcDbLine
 62
7
  6
CONTINUOUS
 10
7.0187452949
 20
5.3419196718
 11
7.0687452949
 21
5.3419196718
  0
LINE
  5
322
100
AcDbEntity
  8
0
100
AcDbLine
 62
7
  6
CONTINUOUS
 10
7.7587452949
 20
5.3437213229
 11
7.7187452949
 21
5.3437213229
  0
LINE
  5
323
100
AcDbEntity
  8
0
100
AcDbLine
 62
7
  6
CONTINUOUS
 10
7.7187452949
 20
5.348058187
 11
7.7587452949
 21
5.348058187
  0
LINE
  5
324
100
AcDbEntity
  8
0
100
AcDbLine
 62
7
  6
CONTINUOUS
 10
6.7612452949
 20
5.3494181472
 11
6.8112452949
 21
5.3494181472
  0
LINE
  5
325
100
AcDbEntity
  8
0
100
AcDbLine
 62
7
  6
CONTINUOUS
 10
7.0687452949
 20
5.3532353471
 11
7.0187452949
 21
5.3532353471
  0
LINE
  5
326
100
AcDbEntity
  8
0
100
AcDbLine
 62
7
  6
CONTINUOUS
 10
6.7612452949
 20
5.3544750897
 11
6.8112452949
 21
5.3544750897
  0
LINE
  5
327
100
AcDbEntity
  8
0
100
AcDbLine
 62
7
  6
CONTINUOUS
 10
6.8112452949
 20
5.3566974469
 11
6.7612452949
 21
5.3566974469
  0
LINE
  5
328
100
AcDbEntity
  8
0
100
AcDbLine
 62
7
  6
CONTINUOUS
 10
7.0687452949
 20
5.3581596272
 11
7.0187452949
 21
5.3581596272
  0
LINE
  5
329
100
AcDbEntity
  8
0
100
AcDbLine
 62
7
  6
CONTINUOUS
 10
7.7587452949
 20
5.3593097802
 11
7.7187452949
 21
5.3593097802
  0
LINE
  5
32A
100
AcDbEntity
  8
0
100
AcDbLine
 62
7
  6
CONTINUOUS
 10
7.0187452949
 20
5.3597508567
 11
7.0687452949
 21
5.3597508567
  0
LINE
  5
32B
100
AcDbEntity
  8
0
100
AcDbLine
 62
7
  6
CONTINUOUS
 10
6.6387452949
 20
5.364058187
 11
6.6837452949
 21
5.364058187
  0
LINE
  5
32C
100
AcDbEntity
  8
0
100
AcDbLine
 62
7
  6
CONTINUOUS
 10
7.7587452949
 20
5.3651672517
 11
7.7187452949
 21
5.3651672517
  0
LINE
  5
32D
100
AcDbEntity
  8
0
100
AcDbLine
 62
7
  6
CONTINUOUS
 10
6.7612452949
 20
5.3680082063
 11
6.8112452949
 21
5.3680082063
  0
LINE
  5
32E
100
AcDbEntity
  8
0
100
AcDbLine
 62
7
  6
CONTINUOUS
 10
7.7187452949
 20
5.3689492553
 11
7.7587452949
 21
5.3689492553
  0
LINE
  5
32F
100
AcDbEntity
  8
0
100
AcDbLine
 62
7
  6
CONTINUOUS
 10
7.0687452949
 20
5.3709969254
 11
7.0187452949
 21
5.3709969254
  0
LINE
  5
330
100
AcDbEntity
  8
0
100
AcDbLine
 62
7
  6
CONTINUOUS
 10
6.7612452949
 20
5.3727828903
 11
6.8112452949
 21
5.3727828903
  0
LINE
  5
331
100
AcDbEntity
  8
0
100
AcDbLine
 62
7
  6
CONTINUOUS
 10
6.8112452949
 20
5.3742734824
 11
6.7612452949
 21
5.3742734824
  0
LINE
  5
332
100
AcDbEntity
  8
0
100
AcDbLine
 62
7
  6
CONTINUOUS
 10
7.0687452949
 20
5.3755978657
 11
7.0187452949
 21
5.3755978657
  0
LINE
  5
333
100
AcDbEntity
  8
0
100
AcDbLine
 62
7
  6
CONTINUOUS
 10
7.0187452949
 20
5.3764112042
 11
7.0687452949
 21
5.3764112042
  0
LINE
  5
334
100
AcDbEntity
  8
0
100
AcDbLine
 62
7
  6
CONTINUOUS
 10
7.7587452949
 20
5.3802633219
 11
7.7187452949
 21
5.3802633219
  0
LINE
  5
335
100
AcDbEntity
  8
0
100
AcDbLine
 62
7
  6
CONTINUOUS
 10
6.7612452949
 20
5.3855108124
 11
6.8112452949
 21
5.3855108124
  0
LINE
  5
336
100
AcDbEntity
  8
0
100
AcDbLine
 62
7
  6
CONTINUOUS
 10
7.7587452949
 20
5.3859249079
 11
7.7187452949
 21
5.3859249079
  0
LINE
  5
337
100
AcDbEntity
  8
0
100
AcDbLine
 62
7
  6
CONTINUOUS
 10
7.0687452949
 20
5.3875340736
 11
7.0187452949
 21
5.3875340736
  0
LINE
  5
338
100
AcDbEntity
  8
0
100
AcDbLine
 62
7
  6
CONTINUOUS
 10
7.7187452949
 20
5.389141685
 11
7.7587452949
 21
5.389141685
  0
LINE
  5
339
100
AcDbEntity
  8
0
100
AcDbLine
 62
7
  6
CONTINUOUS
 10
6.7612452949
 20
5.389982792
 11
6.8112452949
 21
5.389982792
  0
LINE
  5
33A
100
AcDbEntity
  8
0
100
AcDbLine
 62
7
  6
CONTINUOUS
 10
6.8112452949
 20
5.3907352361
 11
6.7612452949
 21
5.3907352361
  0
LINE
  5
33B
100
AcDbEntity
  8
0
100
AcDbLine
 62
7
  6
CONTINUOUS
 10
7.0687452949
 20
5.3917897486
 11
7.0187452949
 21
5.3917897486
  0
LINE
  5
33C
100
AcDbEntity
  8
0
100
AcDbLine
 62
7
  6
CONTINUOUS
 10
7.7587452949
 20
5.4004872138
 11
7.7187452949
 21
5.4004872138
  0
LINE
  5
33D
100
AcDbEntity
  8
0
100
AcDbLine
 62
7
  6
CONTINUOUS
 10
6.7612452949
 20
5.4018510167
 11
6.8112452949
 21
5.4018510167
  0
LINE
  5
33E
100
AcDbEntity
  8
0
100
AcDbLine
 62
7
  6
CONTINUOUS
 10
7.0687452949
 20
5.4027679847
 11
7.0187452949
 21
5.4027679847
  0
LINE
  5
33F
100
AcDbEntity
  8
0
100
AcDbLine
 62
7
  6
CONTINUOUS
 10
7.7587452949
 20
5.4059373964
 11
7.7187452949
 21
5.4059373964
  0
LINE
  5
340
100
AcDbEntity
  8
0
100
AcDbLine
 62
7
  6
CONTINUOUS
 10
6.7612452949
 20
5.4060011422
 11
6.8112452949
 21
5.4060011422
  0
LINE
  5
341
100
AcDbEntity
  8
0
100
AcDbLine
 62
7
  6
CONTINUOUS
 10
7.0687452949
 20
5.4066581141
 11
7.0187452949
 21
5.4066581141
  0
LINE
  5
342
100
AcDbEntity
  8
0
100
AcDbLine
 62
7
  6
CONTINUOUS
 10
7.7187452949
 20
5.40858013
 11
7.7587452949
 21
5.40858013
  0
LINE
  5
343
100
AcDbEntity
  8
0
100
AcDbLine
 62
7
  6
CONTINUOUS
 10
7.6837452949
 20
5.414058187
 11
7.6787452949
 21
5.414058187
  0
LINE
  5
344
100
AcDbEntity
  8
0
100
AcDbLine
 62
7
  6
CONTINUOUS
 10
7.0687452949
 20
5.4166260621
 11
7.0187452949
 21
5.4166260621
  0
LINE
  5
345
100
AcDbEntity
  8
0
100
AcDbLine
 62
7
  6
CONTINUOUS
 10
6.7612452949
 20
5.4169588479
 11
6.8112452949
 21
5.4169588479
  0
LINE
  5
346
100
AcDbEntity
  8
0
100
AcDbLine
 62
7
  6
CONTINUOUS
 10
7.7587452949
 20
5.4199260237
 11
7.7187452949
 21
5.4199260237
  0
LINE
  5
347
100
AcDbEntity
  8
0
100
AcDbLine
 62
7
  6
CONTINUOUS
 10
7.0687452949
 20
5.4201321076
 11
7.0187452949
 21
5.4201321076
  0
LINE
  5
348
100
AcDbEntity
  8
0
100
AcDbLine
 62
7
  6
CONTINUOUS
 10
6.7612452949
 20
5.4207693478
 11
6.8112452949
 21
5.4207693478
  0
LINE
  5
349
100
AcDbEntity
  8
0
100
AcDbLine
 62
7
  6
CONTINUOUS
 10
7.7587452949
 20
5.4251498642
 11
7.7187452949
 21
5.4251498642
  0
LINE
  5
34A
100
AcDbEntity
  8
0
100
AcDbLine
 62
7
  6
CONTINUOUS
 10
7.6787452949
 20
5.426558187
 11
7.0687452949
 21
5.426558187
  0
LINE
  5
34B
100
AcDbEntity
  8
0
100
AcDbLine
 62
7
  6
CONTINUOUS
 10
7.7187452949
 20
5.4272113107
 11
7.7587452949
 21
5.4272113107
  0
LINE
  5
34C
100
AcDbEntity
  8
0
100
AcDbLine
 62
7
  6
CONTINUOUS
 10
7.0687452949
 20
5.4290422658
 11
7.0187452949
 21
5.4290422658
  0
LINE
  5
34D
100
AcDbEntity
  8
0
100
AcDbLine
 62
7
  6
CONTINUOUS
 10
6.7612452949
 20
5.430769612
 11
6.8112452949
 21
5.430769612
  0
LINE
  5
34E
100
AcDbEntity
  8
0
100
AcDbLine
 62
7
  6
CONTINUOUS
 10
7.0687452949
 20
5.4321475196
 11
7.0187452949
 21
5.4321475196
  0
LINE
  5
34F
100
AcDbEntity
  8
0
100
AcDbLine
 62
7
  6
CONTINUOUS
 10
6.7612452949
 20
5.4342241692
 11
6.8112452949
 21
5.4342241692
  0
LINE
  5
350
100
AcDbEntity
  8
0
100
AcDbLine
 62
7
  6
CONTINUOUS
 10
7.7587452949
 20
5.4385264711
 11
7.7187452949
 21
5.4385264711
  0
LINE
  5
351
100
AcDbEntity
  8
0
100
AcDbLine
 62
7
  6
CONTINUOUS
 10
7.0687452949
 20
5.4399574269
 11
7.0187452949
 21
5.4399574269
  0
LINE
  5
352
100
AcDbEntity
  8
0
100
AcDbLine
 62
7
  6
CONTINUOUS
 10
6.8112452949
 20
5.442058187
 11
7.0174702556
 21
5.442058187
  0
LINE
  5
353
100
AcDbEntity
  8
0
100
AcDbLine
 62
7
  6
CONTINUOUS
 10
7.0687452949
 20
5.442058187
 11
7.6837452949
 21
5.442058187
  0
LINE
  5
354
100
AcDbEntity
  8
0
100
AcDbLine
 62
7
  6
CONTINUOUS
 10
7.0687452949
 20
5.442647091
 11
7.0187452949
 21
5.442647091
  0
LINE
  5
355
100
AcDbEntity
  8
0
100
AcDbLine
 62
7
  6
CONTINUOUS
 10
6.7612452949
 20
5.4432241692
 11
6.8112452949
 21
5.4432241692
  0
LINE
  5
356
100
AcDbEntity
  8
0
100
AcDbLine
 62
7
  6
CONTINUOUS
 10
7.7587452949
 20
5.4435096514
 11
7.7187452949
 21
5.4435096514
  0
LINE
  5
357
100
AcDbEntity
  8
0
100
AcDbLine
 62
7
  6
CONTINUOUS
 10
7.7187452949
 20
5.4449841605
 11
7.7587452949
 21
5.4449841605
  0
LINE
  5
358
100
AcDbEntity
  8
0
100
AcDbLine
 62
7
  6
CONTINUOUS
 10
6.7612452949
 20
5.4463079906
 11
6.8112452949
 21
5.4463079906
  0
LINE
  5
359
100
AcDbEntity
  8
0
100
AcDbLine
 62
7
  6
CONTINUOUS
 10
7.0687452949
 20
5.4493195297
 11
7.0187452949
 21
5.4493195297
  0
LINE
  5
35A
100
AcDbEntity
  8
0
100
AcDbLine
 62
7
  6
CONTINUOUS
 10
7.0687452949
 20
5.4515807867
 11
7.0187452949
 21
5.4515807867
  0
LINE
  5
35B
100
AcDbEntity
  8
0
100
AcDbLine
 62
7
  6
CONTINUOUS
 10
6.7612452949
 20
5.454269187
 11
6.8112452949
 21
5.454269187
  0
LINE
  5
35C
100
AcDbEntity
  8
0
100
AcDbLine
 62
7
  6
CONTINUOUS
 10
7.7587452949
 20
5.4562375735
 11
7.7187452949
 21
5.4562375735
  0
LINE
  5
35D
100
AcDbEntity
  8
0
100
AcDbLine
 62
7
  6
CONTINUOUS
 10
6.7612452949
 20
5.4569690674
 11
6.8112452949
 21
5.4569690674
  0
LINE
  5
35E
100
AcDbEntity
  8
0
100
AcDbLine
 62
7
  6
CONTINUOUS
 10
7.0687452949
 20
5.4570839596
 11
7.0187452949
 21
5.4570839596
  0
LINE
  5
35F
100
AcDbEntity
  8
0
100
AcDbLine
 62
7
  6
CONTINUOUS
 10
7.0687452949
 20
5.4589060335
 11
7.0187452949
 21
5.4589060335
  0
LINE
  5
360
100
AcDbEntity
  8
0
100
AcDbLine
 62
7
  6
CONTINUOUS
 10
7.7587452949
 20
5.460966435
 11
7.7187452949
 21
5.460966435
  0
LINE
  5
361
100
AcDbEntity
  8
0
100
AcDbLine
 62
7
  6
CONTINUOUS
 10
7.7187452949
 20
5.4618499653
 11
7.7587452949
 21
5.4618499653
  0
LINE
  5
362
100
AcDbEntity
  8
0
100
AcDbLine
 62
7
  6
CONTINUOUS
 10
7.0687452949
 20
5.4632137154
 11
7.0187452949
 21
5.4632137154
  0
LINE
  5
363
100
AcDbEntity
  8
0
100
AcDbLine
 62
7
  6
CONTINUOUS
 10
6.7612452949
 20
5.4638573692
 11
6.8112452949
 21
5.4638573692
  0
LINE
  5
364
100
AcDbEntity
  8
0
100
AcDbLine
 62
7
  6
CONTINUOUS
 10
7.0687452949
 20
5.4645879232
 11
7.0187452949
 21
5.4645879232
  0
LINE
  5
365
100
AcDbEntity
  8
0
100
AcDbLine
 62
7
  6
CONTINUOUS
 10
6.7612452949
 20
5.4661617471
 11
6.8112452949
 21
5.4661617471
  0
LINE
  5
366
100
AcDbEntity
  8
0
100
AcDbLine
 62
7
  6
CONTINUOUS
 10
7.0687452949
 20
5.4676795862
 11
7.0187452949
 21
5.4676795862
  0
LINE
  5
367
100
AcDbEntity
  8
0
100
AcDbLine
 62
7
  6
CONTINUOUS
 10
7.0687452949
 20
5.4685993791
 11
7.0187452949
 21
5.4685993791
  0
LINE
  5
368
100
AcDbEntity
  8
0
100
AcDbLine
 62
7
  6
CONTINUOUS
 10
7.0687452949
 20
5.4704602899
 11
7.0187452949
 21
5.4704602899
  0
LINE
  5
369
100
AcDbEntity
  8
0
100
AcDbLine
 62
7
  6
CONTINUOUS
 10
7.0687452949
 20
5.4709212848
 11
7.0187452949
 21
5.4709212848
  0
LINE
  5
36A
100
AcDbEntity
  8
0
100
AcDbLine
 62
7
  6
CONTINUOUS
 10
7.8337452949
 20
5.589058187
 11
7.8087452949
 21
5.564058187
  0
LINE
  5
36B
100
AcDbEntity
  8
0
100
AcDbLine
 62
7
  6
CONTINUOUS
 10
7.0687452949
 20
5.4715425753
 11
7.0187452949
 21
5.4715425753
  0
LINE
  5
36C
100
AcDbEntity
  8
0
100
AcDbLine
 62
7
  6
CONTINUOUS
 10
6.7612452949
 20
5.4719476575
 11
6.8112452949
 21
5.4719476575
  0
LINE
  5
36D
100
AcDbEntity
  8
0
100
AcDbLine
 62
7
  6
CONTINUOUS
 10
7.7587452949
 20
5.4730107859
 11
7.7187452949
 21
5.4730107859
  0
LINE
  5
36E
100
AcDbEntity
  8
0
100
AcDbLine
 62
7
  6
CONTINUOUS
 10
6.7612452949
 20
5.4738466654
 11
6.8112452949
 21
5.4738466654
  0
LINE
  5
36F
100
AcDbEntity
  8
0
100
AcDbLine
 62
7
  6
CONTINUOUS
 10
7.7587452949
 20
5.4774723673
 11
7.7187452949
 21
5.4774723673
  0
LINE
  5
370
100
AcDbEntity
  8
0
100
AcDbLine
 62
7
  6
CONTINUOUS
 10
7.7187452949
 20
5.4777624969
 11
7.7587452949
 21
5.4777624969
  0
LINE
  5
371
100
AcDbEntity
  8
0
100
AcDbLine
 62
7
  6
CONTINUOUS
 10
6.7612452949
 20
5.4785054082
 11
6.8112452949
 21
5.4785054082
  0
LINE
  5
372
100
AcDbEntity
  8
0
100
AcDbLine
 62
7
  6
CONTINUOUS
 10
6.7612452949
 20
5.4799909141
 11
6.8112452949
 21
5.4799909141
  0
LINE
  5
373
100
AcDbEntity
  8
0
100
AcDbLine
 62
7
  6
CONTINUOUS
 10
6.7612452949
 20
5.4835025399
 11
6.8112452949
 21
5.4835025399
  0
LINE
  5
374
100
AcDbEntity
  8
0
100
AcDbLine
 62
7
  6
CONTINUOUS
 10
6.7612452949
 20
5.4845681828
 11
6.8112452949
 21
5.4845681828
  0
LINE
  5
375
100
AcDbEntity
  8
0
100
AcDbLine
 62
7
  6
CONTINUOUS
 10
6.7612452949
 20
5.4869176542
 11
6.8112452949
 21
5.4869176542
  0
LINE
  5
376
100
AcDbEntity
  8
0
100
AcDbLine
 62
7
  6
CONTINUOUS
 10
6.7612452949
 20
5.4875588707
 11
6.8112452949
 21
5.4875588707
  0
LINE
  5
377
100
AcDbEntity
  8
0
100
AcDbLine
 62
7
  6
CONTINUOUS
 10
6.7612452949
 20
5.488736127
 11
6.8112452949
 21
5.488736127
  0
LINE
  5
378
100
AcDbEntity
  8
0
100
AcDbLine
 62
7
  6
CONTINUOUS
 10
7.7587452949
 20
5.4888001343
 11
7.7187452949
 21
5.4888001343
  0
LINE
  5
379
100
AcDbEntity
  8
0
100
AcDbLine
 62
7
  6
CONTINUOUS
 10
6.7612452949
 20
5.4889501714
 11
6.8112452949
 21
5.4889501714
  0
LINE
  5
37A
100
AcDbEntity
  8
0
100
AcDbLine
 62
7
  6
CONTINUOUS
 10
7.7587452949
 20
5.4929822065
 11
7.7187452949
 21
5.4929822065
  0
LINE
  5
37B
100
AcDbEntity
  8
0
100
AcDbLine
 62
7
  6
CONTINUOUS
 10
7.7587452949
 20
5.503562341
 11
7.7187452949
 21
5.503562341
  0
LINE
  5
37C
100
AcDbEntity
  8
0
100
AcDbLine
 62
7
  6
CONTINUOUS
 10
7.7587452949
 20
5.5074534413
 11
7.7187452949
 21
5.5074534413
  0
LINE
  5
37D
100
AcDbEntity
  8
0
100
AcDbLine
 62
7
  6
CONTINUOUS
 10
7.7587452949
 20
5.5172569439
 11
7.7187452949
 21
5.5172569439
  0
LINE
  5
37E
100
AcDbEntity
  8
0
100
AcDbLine
 62
7
  6
CONTINUOUS
 10
7.7587452949
 20
5.5208464071
 11
7.7187452949
 21
5.5208464071
  0
LINE
  5
37F
100
AcDbEntity
  8
0
100
AcDbLine
 62
7
  6
CONTINUOUS
 10
7.7587452949
 20
5.5298464071
 11
7.7187452949
 21
5.5298464071
  0
LINE
  5
380
100
AcDbEntity
  8
0
100
AcDbLine
 62
7
  6
CONTINUOUS
 10
7.7587452949
 20
5.5331243946
 11
7.7187452949
 21
5.5331243946
  0
LINE
  5
381
100
AcDbEntity
  8
0
100
AcDbLine
 62
7
  6
CONTINUOUS
 10
7.7587452949
 20
5.5412962236
 11
7.7187452949
 21
5.5412962236
  0
LINE
  5
382
100
AcDbEntity
  8
0
100
AcDbLine
 62
7
  6
CONTINUOUS
 10
7.7587452949
 20
5.5442537508
 11
7.7187452949
 21
5.5442537508
  0
LINE
  5
383
100
AcDbEntity
  8
0
100
AcDbLine
 62
7
  6
CONTINUOUS
 10
7.7587452949
 20
5.5515750104
 11
7.7187452949
 21
5.5515750104
  0
LINE
  5
384
100
AcDbEntity
  8
0
100
AcDbLine
 62
7
  6
CONTINUOUS
 10
7.7587452949
 20
5.5542039708
 11
7.7187452949
 21
5.5542039708
  0
LINE
  5
385
100
AcDbEntity
  8
0
100
AcDbLine
 62
7
  6
CONTINUOUS
 10
7.7587452949
 20
5.5606545939
 11
7.7187452949
 21
5.5606545939
  0
LINE
  5
386
100
AcDbEntity
  8
0
100
AcDbLine
 62
7
  6
CONTINUOUS
 10
7.7587452949
 20
5.5629477819
 11
7.7187452949
 21
5.5629477819
  0
LINE
  5
387
100
AcDbEntity
  8
0
100
AcDbLine
 62
7
  6
CONTINUOUS
 10
7.8087452949
 20
5.564058187
 11
7.7587452949
 21
5.564058187
  0
LINE
  5
388
100
AcDbEntity
  8
0
100
AcDbLine
 62
7
  6
CONTINUOUS
 10
7.7587452949
 20
5.5685100878
 11
7.7187452949
 21
5.5685100878
  0
LINE
  5
389
100
AcDbEntity
  8
0
100
AcDbLine
 62
7
  6
CONTINUOUS
 10
7.7587452949
 20
5.5704612178
 11
7.7187452949
 21
5.5704612178
  0
LINE
  5
38A
100
AcDbEntity
  8
0
100
AcDbLine
 62
7
  6
CONTINUOUS
 10
7.7587452949
 20
5.5751199606
 11
7.7187452949
 21
5.5751199606
  0
LINE
  5
38B
100
AcDbEntity
  8
0
100
AcDbLine
 62
7
  6
CONTINUOUS
 10
7.7587452949
 20
5.5767236846
 11
7.7187452949
 21
5.5767236846
  0
LINE
  5
38C
100
AcDbEntity
  8
0
100
AcDbLine
 62
7
  6
CONTINUOUS
 10
7.7587452949
 20
5.5804660951
 11
7.7187452949
 21
5.5804660951
  0
LINE
  5
38D
100
AcDbEntity
  8
0
100
AcDbLine
 62
7
  6
CONTINUOUS
 10
7.7587452949
 20
5.5817180176
 11
7.7187452949
 21
5.5817180176
  0
LINE
  5
38E
100
AcDbEntity
  8
0
100
AcDbLine
 62
7
  6
CONTINUOUS
 10
7.7587452949
 20
5.5845338379
 11
7.7187452949
 21
5.5845338379
  0
LINE
  5
38F
100
AcDbEntity
  8
0
100
AcDbLine
 62
7
  6
CONTINUOUS
 10
7.7587452949
 20
5.5854305274
 11
7.7187452949
 21
5.5854305274
  0
LINE
  5
390
100
AcDbEntity
  8
0
100
AcDbLine
 62
7
  6
CONTINUOUS
 10
7.7587452949
 20
5.5873120397
 11
7.7187452949
 21
5.5873120397
  0
LINE
  5
391
100
AcDbEntity
  8
0
100
AcDbLine
 62
7
  6
CONTINUOUS
 10
7.7587452949
 20
5.5878510384
 11
7.7187452949
 21
5.5878510384
  0
LINE
  5
392
100
AcDbEntity
  8
0
100
AcDbLine
 62
7
  6
CONTINUOUS
 10
7.7587452949
 20
5.5887930856
 11
7.7187452949
 21
5.5887930856
  0
LINE
  5
393
100
AcDbEntity
  8
0
100
AcDbLine
 62
7
  6
CONTINUOUS
 10
7.7587452949
 20
5.5889729161
 11
7.7187452949
 21
5.5889729161
  0
LINE
  5
394
100
AcDbEntity
  8
0
100
AcDbLine
 62
7
  6
CONTINUOUS
 10
7.8737452949
 20
5.589058187
 11
7.8337452949
 21
5.589058187
  0
LINE
  5
395
100
AcDbEntity
  8
0
100
AcDbLine
 62
7
  6
CONTINUOUS
 10
7.7587452949
 20
5.651558187
 11
7.8087452949
 21
5.651558187
  0
LINE
  5
396
100
AcDbEntity
  8
0
100
AcDbLine
 62
7
  6
CONTINUOUS
 10
6.6237452949
 20
4.9616381649
 11
6.6237452949
 21
4.879058187
  0
LINE
  5
397
100
AcDbEntity
  8
0
100
AcDbLine
 62
7
  6
CONTINUOUS
 10
6.6237452949
 20
5.266478209
 11
6.6237452949
 21
5.349058187
  0
LINE
  5
398
100
AcDbEntity
  8
0
100
AcDbLine
 62
7
  6
CONTINUOUS
 10
6.6387452949
 20
4.864058187
 11
6.6387452949
 21
4.9742693114
  0
LINE
  5
399
100
AcDbEntity
  8
0
100
AcDbLine
 62
7
  6
CONTINUOUS
 10
6.6387452949
 20
5.2538470625
 11
6.6387452949
 21
5.364058187
  0
LINE
  5
39A
100
AcDbEntity
  8
0
100
AcDbLine
 62
7
  6
CONTINUOUS
 10
6.6832452949
 20
5.016558187
 11
6.6832452949
 21
5.0369318356
  0
LINE
  5
39B
100
AcDbEntity
  8
0
100
AcDbLine
 62
7
  6
CONTINUOUS
 10
6.6832452949
 20
5.1911845383
 11
6.6832452949
 21
5.211558187
  0
LINE
  5
39C
100
AcDbEntity
  8
0
100
AcDbLine
 62
7
  6
CONTINUOUS
 10
6.6837452949
 20
5.364058187
 11
6.6837452949
 21
5.211558187
  0
LINE
  5
39D
100
AcDbEntity
  8
0
100
AcDbLine
 62
7
  6
CONTINUOUS
 10
6.6837452949
 20
5.016558187
 11
6.6837452949
 21
4.864058187
  0
LINE
  5
39E
100
AcDbEntity
  8
0
100
AcDbLine
 62
7
  6
CONTINUOUS
 10
7.7187452949
 20
5.676558187
 11
7.7587452949
 21
5.676558187
  0
LINE
  5
39F
100
AcDbEntity
  8
0
100
AcDbLine
 62
7
  6
CONTINUOUS
 10
7.8337452949
 20
5.676558187
 11
7.8737452949
 21
5.676558187
  0
LINE
  5
3A0
100
AcDbEntity
  8
0
100
AcDbLine
 62
7
  6
CONTINUOUS
 10
6.6957452949
 20
5.016558187
 11
6.6957452949
 21
5.0764531689
  0
LINE
  5
3A1
100
AcDbEntity
  8
0
100
AcDbLine
 62
7
  6
CONTINUOUS
 10
6.6957452949
 20
5.151663205
 11
6.6957452949
 21
5.211558187
  0
LINE
  5
3A2
100
AcDbEntity
  8
0
100
AcDbLine
 62
7
  6
CONTINUOUS
 10
6.6987452949
 20
5.0160954617
 11
6.6987452949
 21
4.8445528722
  0
LINE
  5
3A3
100
AcDbEntity
  8
0
100
AcDbLine
 62
7
  6
CONTINUOUS
 10
6.6987452949
 20
5.2120209122
 11
6.6987452949
 21
5.3835626295
  0
LINE
  5
3A4
100
AcDbEntity
  8
0
100
AcDbLine
 62
7
  6
CONTINUOUS
 10
6.7057452949
 20
5.2678079988
 11
6.7057452949
 21
4.960308187
  0
LINE
  5
3A5
100
AcDbEntity
  8
0
100
AcDbLine
 62
7
  6
CONTINUOUS
 10
6.7091619615
 20
4.8302702584
 11
6.7091619615
 21
4.9464182034
  0
LINE
  5
3A6
100
AcDbEntity
  8
0
100
AcDbLine
 62
7
  6
CONTINUOUS
 10
6.7091619615
 20
5.2816981705
 11
6.7091619615
 21
5.3978461155
  0
LINE
  5
3A7
100
AcDbEntity
  8
0
100
AcDbLine
 62
7
  6
CONTINUOUS
 10
6.7612452949
 20
4.7391662025
 11
6.7612452949
 21
4.9445139711
  0
LINE
  5
3A8
100
AcDbEntity
  8
0
100
AcDbLine
 62
7
  6
CONTINUOUS
 10
6.7612452949
 20
5.2836024028
 11
6.7612452949
 21
5.4889501714
  0
LINE
  5
3A9
100
AcDbEntity
  8
0
100
AcDbLine
 62
7
  6
CONTINUOUS
 10
6.7655099971
 20
5.271558187
 11
6.7655099971
 21
4.956558187
  0
LINE
  5
3AA
100
AcDbEntity
  8
0
100
AcDbLine
 62
7
  6
CONTINUOUS
 10
6.7754315645
 20
5.262808187
 11
6.7754315645
 21
4.965308187
  0
LINE
  5
3AB
100
AcDbEntity
  8
0
100
AcDbLine
 62
7
  6
CONTINUOUS
 10
6.8112452949
 20
4.7391662025
 11
6.8112452949
 21
4.965308187
  0
LINE
  5
3AC
100
AcDbEntity
  8
0
100
AcDbLine
 62
7
  6
CONTINUOUS
 10
6.8112452949
 20
5.262808187
 11
6.8112452949
 21
5.4889501714
  0
LINE
  5
3AD
100
AcDbEntity
  8
0
100
AcDbLine
 62
7
  6
CONTINUOUS
 10
6.8812452949
 20
5.2990580034
 11
6.8812452949
 21
4.9290583705
  0
LINE
  5
3AE
100
AcDbEntity
  8
0
100
AcDbLine
 62
7
  6
CONTINUOUS
 10
6.8962452949
 20
5.314058187
 11
6.8962452949
 21
4.914058187
  0
LINE
  5
3AF
100
AcDbEntity
  8
0
100
AcDbLine
 62
7
  6
CONTINUOUS
 10
6.9412452949
 20
4.914058187
 11
6.9412452949
 21
5.314058187
  0
LINE
  5
3B0
100
AcDbEntity
  8
0
100
AcDbLine
 62
7
  6
CONTINUOUS
 10
6.9562452949
 20
5.3432189393
 11
6.9562452949
 21
4.8848974346
  0
LINE
  5
3B1
100
AcDbEntity
  8
0
100
AcDbLine
 62
7
  6
CONTINUOUS
 10
6.9629417234
 20
5.3557111498
 11
6.9629417234
 21
4.8724052241
  0
LINE
  5
3B2
100
AcDbEntity
  8
0
100
AcDbLine
 62
7
  6
CONTINUOUS
 10
7.0187452949
 20
4.7565737986
 11
7.0187452949
 21
5.3917897486
  0
LINE
  5
3B3
100
AcDbEntity
  8
0
100
AcDbLine
 62
7
  6
CONTINUOUS
 10
7.0187452949
 20
5.3918213201
 11
7.0187452949
 21
5.4715425753
  0
LINE
  5
3B4
100
AcDbEntity
  8
0
100
AcDbLine
 62
7
  6
CONTINUOUS
 10
7.0687452949
 20
5.4715425753
 11
7.0687452949
 21
5.3918213201
  0
LINE
  5
3B5
100
AcDbEntity
  8
0
100
AcDbLine
 62
7
  6
CONTINUOUS
 10
7.0687452949
 20
5.3917897486
 11
7.0687452949
 21
4.7565737986
  0
LINE
  5
3B6
100
AcDbEntity
  8
0
100
AcDbLine
 62
7
  6
CONTINUOUS
 10
7.8087452949
 20
4.576558187
 11
7.8337452949
 21
4.551558187
  0
LINE
  5
3B7
100
AcDbEntity
  8
0
100
AcDbLine
 62
7
  6
CONTINUOUS
 10
7.8337452949
 20
4.639058187
 11
7.8087452949
 21
4.664058187
  0
LINE
  5
3B8
100
AcDbEntity
  8
0
100
AcDbLine
 62
7
  6
CONTINUOUS
 10
7.6787452949
 20
4.801558187
 11
7.6787452949
 21
5.426558187
  0
LINE
  5
3B9
100
AcDbEntity
  8
0
100
AcDbLine
 62
7
  6
CONTINUOUS
 10
7.6837452949
 20
4.6552740399
 11
7.6837452949
 21
5.572842334
  0
LINE
  5
3BA
100
AcDbEntity
  8
0
100
AcDbLine
 62
7
  6
CONTINUOUS
 10
7.6918222179
 20
4.6419672369
 11
7.6918222179
 21
4.7322019645
  0
LINE
  5
3BB
100
AcDbEntity
  8
0
100
AcDbLine
 62
7
  6
CONTINUOUS
 10
7.6918222179
 20
5.4959144094
 11
7.6918222179
 21
5.586149137
  0
LINE
  5
3BC
100
AcDbEntity
  8
0
100
AcDbLine
 62
7
  6
CONTINUOUS
 10
7.6942452949
 20
5.4969203149
 11
7.6942452949
 21
4.731196059
  0
LINE
  5
3BD
100
AcDbEntity
  8
0
100
AcDbLine
 62
7
  6
CONTINUOUS
 10
7.7187452949
 20
4.551558187
 11
7.7187452949
 21
5.676558187
  0
LINE
  5
3BE
100
AcDbEntity
  8
0
100
AcDbLine
 62
7
  6
CONTINUOUS
 10
7.7587452949
 20
4.551558187
 11
7.7587452949
 21
5.676558187
  0
LINE
  5
3BF
100
AcDbEntity
  8
0
100
AcDbLine
 62
7
  6
CONTINUOUS
 10
7.8087452949
 20
4.576558187
 11
7.8087452949
 21
5.651558187
  0
LINE
  5
3C0
100
AcDbEntity
  8
0
100
AcDbLine
 62
7
  6
CONTINUOUS
 10
7.8337452949
 20
4.551558187
 11
7.8337452949
 21
5.676558187
  0
LINE
  5
3C1
100
AcDbEntity
  8
0
100
AcDbLine
 62
7
  6
CONTINUOUS
 10
7.8737452949
 20
4.551558187
 11
7.8737452949
 21
5.676558187
  0
ARC
  5
3C2
100
AcDbEntity
  8
0
100
AcDbCircle
 62
7
  6
CONTINUOUS
 10
4.1237452949
 20
4.114058187
 40
1.21875
100
AcDbArc
 50
90.0
 51
180.0
  0
ARC
  5
3C3
100
AcDbEntity
  8
0
100
AcDbCircle
 62
7
  6
CONTINUOUS
 10
4.1237452949
 20
4.114058187
 40
0.78125
100
AcDbArc
 50
90.0
 51
180.0
  0
ARC
  5
3C4
100
AcDbEntity
  8
0
100
AcDbCircle
 62
7
  6
CONTINUOUS
 10
6.8937452949
 20
4.7683050115
 40
0.125
100
AcDbArc
 50
1.9995201783
 51
56.3876254015
  0
ARC
  5
3C5
100
AcDbEntity
  8
0
100
AcDbCircle
 62
7
  6
CONTINUOUS
 10
6.6862452949
 20
4.7588571897
 40
0.075
100
AcDbArc
 50
2.3645578217
 51
72.208409427
  0
ARC
  5
3C6
100
AcDbEntity
  8
0
100
AcDbCircle
 62
7
  6
CONTINUOUS
 10
7.6687452949
 20
4.5976112269
 40
0.05
100
AcDbArc
 50
0.0
 51
62.5135737496
  0
ARC
  5
3C7
100
AcDbEntity
  8
0
100
AcDbCircle
 62
7
  6
CONTINUOUS
 10
7.6837452949
 20
4.697808187
 40
0.035
100
AcDbArc
 50
2.1982544508
 51
72.5423968763
  0
ARC
  5
3C8
100
AcDbEntity
  8
0
100
AcDbCircle
 62
7
  6
CONTINUOUS
 10
7.6987452949
 20
4.745505147
 40
0.015
100
AcDbArc
 50
180.0
 51
252.5423968763
  0
ARC
  5
3C9
100
AcDbEntity
  8
0
100
AcDbCircle
 62
7
  6
CONTINUOUS
 10
7.6987452949
 20
4.6552740399
 40
0.015
100
AcDbArc
 50
180.0
 51
242.5135737496
  0
ARC
  5
3CA
100
AcDbEntity
  8
0
100
AcDbCircle
 62
7
  6
CONTINUOUS
 10
6.7137452949
 20
4.8445528722
 40
0.015
100
AcDbArc
 50
180.0
 51
252.208409427
  0
ARC
  5
3CB
100
AcDbEntity
  8
0
100
AcDbCircle
 62
7
  6
CONTINUOUS
 10
6.6837452949
 20
4.849058187
 40
0.015
100
AcDbArc
 50
0.0
 51
90.0
  0
CIRCLE
  5
3CC
100
AcDbEntity
  8
0
100
AcDbCircle
 62
7
  6
CONTINUOUS
 10
6.5082452949
 20
5.114058187
 40
0.19125
  0
CIRCLE
  5
3CD
100
AcDbEntity
  8
0
100
AcDbCircle
 62
7
  6
CONTINUOUS
 10
6.5082452949
 20
5.114058187
 40
0.16125
  0
ARC
  5
3CE
100
AcDbEntity
  8
0
100
AcDbCircle
 62
7
  6
CONTINUOUS
 10
6.7357452949
 20
4.960308187
 40
0.03
100
AcDbArc
 50
180.0
 51
352.8192442185
  0
ARC
  5
3CF
100
AcDbEntity
  8
0
100
AcDbCircle
 62
7
  6
CONTINUOUS
 10
6.9712452949
 20
4.8848972496
 40
0.015
100
AcDbArc
 50
180.0
 51
236.3876254015
  0
ARC
  5
3D0
100
AcDbEntity
  8
0
100
AcDbCircle
 62
7
  6
CONTINUOUS
 10
6.9412452949
 20
4.899058187
 40
0.015
100
AcDbArc
 50
0.0
 51
90.0
  0
ARC
  5
3D1
100
AcDbEntity
  8
0
100
AcDbCircle
 62
7
  6
CONTINUOUS
 10
6.8962452949
 20
4.929058187
 40
0.015
100
AcDbArc
 50
180.0
 51
270.0
  0
ARC
  5
3D2
100
AcDbEntity
  8
0
100
AcDbCircle
 62
7
  6
CONTINUOUS
 10
6.6387452949
 20
4.879058187
 40
0.015
100
AcDbArc
 50
180.0
 51
270.0
  0
ARC
  5
3D3
100
AcDbEntity
  8
0
100
AcDbCircle
 62
7
  6
CONTINUOUS
 10
6.6957452949
 20
5.006558187
 40
0.01
100
AcDbArc
 50
0.0
 51
90.0
  0
ARC
  5
3D4
100
AcDbEntity
  8
0
100
AcDbCircle
 62
7
  6
CONTINUOUS
 10
6.6957452949
 20
5.221558187
 40
0.01
100
AcDbArc
 50
270.0
 51
360.0
  0
ARC
  5
3D5
100
AcDbEntity
  8
0
100
AcDbCircle
 62
7
  6
CONTINUOUS
 10
6.7754315645
 20
4.955308187
 40
0.01
100
AcDbArc
 50
90.0
 51
172.8192442185
  0
ARC
  5
3D6
100
AcDbEntity
  8
0
100
AcDbCircle
 62
7
  6
CONTINUOUS
 10
6.8937452949
 20
5.4598113624
 40
0.125
100
AcDbArc
 50
303.6123745985
 51
358.4336770722
  0
ARC
  5
3D7
100
AcDbEntity
  8
0
100
AcDbCircle
 62
7
  6
CONTINUOUS
 10
6.6862452949
 20
5.4692591842
 40
0.075
100
AcDbArc
 50
287.791590573
 51
357.6354421783
  0
ARC
  5
3D8
100
AcDbEntity
  8
0
100
AcDbCircle
 62
7
  6
CONTINUOUS
 10
6.7357452949
 20
5.267808187
 40
0.03
100
AcDbArc
 50
7.1807557815
 51
180.0
  0
ARC
  5
3D9
100
AcDbEntity
  8
0
100
AcDbCircle
 62
7
  6
CONTINUOUS
 10
6.9712452949
 20
5.3432191243
 40
0.015
100
AcDbArc
 50
123.6123745985
 51
180.0
  0
ARC
  5
3DA
100
AcDbEntity
  8
0
100
AcDbCircle
 62
7
  6
CONTINUOUS
 10
6.9412452949
 20
5.329058187
 40
0.015
100
AcDbArc
 50
270.0
 51
360.0
  0
ARC
  5
3DB
100
AcDbEntity
  8
0
100
AcDbCircle
 62
7
  6
CONTINUOUS
 10
6.8962452949
 20
5.299058187
 40
0.015
100
AcDbArc
 50
90.0
 51
180.0
  0
ARC
  5
3DC
100
AcDbEntity
  8
0
100
AcDbCircle
 62
7
  6
CONTINUOUS
 10
6.7137452949
 20
5.3835635017
 40
0.015
100
AcDbArc
 50
107.791590573
 51
180.0
  0
ARC
  5
3DD
100
AcDbEntity
  8
0
100
AcDbCircle
 62
7
  6
CONTINUOUS
 10
6.6837452949
 20
5.379058187
 40
0.015
100
AcDbArc
 50
270.0
 51
360.0
  0
ARC
  5
3DE
100
AcDbEntity
  8
0
100
AcDbCircle
 62
7
  6
CONTINUOUS
 10
6.6387452949
 20
5.349058187
 40
0.015
100
AcDbArc
 50
90.0
 51
180.0
  0
ARC
  5
3DF
100
AcDbEntity
  8
0
100
AcDbCircle
 62
7
  6
CONTINUOUS
 10
6.7754315645
 20
5.272808187
 40
0.01
100
AcDbArc
 50
187.1807557815
 51
270.0
  0
ARC
  5
3E0
100
AcDbEntity
  8
0
100
AcDbCircle
 62
7
  6
CONTINUOUS
 10
7.6687452949
 20
5.630505147
 40
0.05
100
AcDbArc
 50
297.4864262504
 51
360.0
  0
ARC
  5
3E1
100
AcDbEntity
  8
0
100
AcDbCircle
 62
7
  6
CONTINUOUS
 10
7.6837452949
 20
5.530308187
 40
0.035
100
AcDbArc
 50
287.4576031237
 51
357.8017455492
  0
ARC
  5
3E2
100
AcDbEntity
  8
0
100
AcDbCircle
 62
7
  6
CONTINUOUS
 10
7.6987452949
 20
5.4826112269
 40
0.015
100
AcDbArc
 50
107.4576031237
 51
180.0
  0
ARC
  5
3E3
100
AcDbEntity
  8
0
100
AcDbCircle
 62
7
  6
CONTINUOUS
 10
7.6987452949
 20
5.572842334
 40
0.015
100
AcDbArc
 50
117.4864262504
 51
180.0
  0
ENDSEC
  0
SECTION
  2
OBJECTS
  0
DICTIONARY
  5
C
100
AcDbDictionary
280
0
281
1
  3
ACAD_GROUP
350
D
  3
ACAD_MLINESTYLE
350
17
  3
ACAD_LAYOUT
350
1A
  3
ACAD_PLOTSETTINGS
350
19
  3
ACAD_PLOTSTYLENAME
350
E
  0
DICTIONARY
  5
D
102
{ACAD_REACTORS
330
C
102
}
100
AcDbDictionary
280
0
281
1
  0
ACDBDICTIONARYWDFLT
  5
E
102
{ACAD_REACTORS
330
C
102
}
100
AcDbDictionary
281
1
  3
Normal
350
F
100
AcDbDictionaryWithDefault
340
F
  0
DICTIONARY
  5
17
102
{ACAD_REACTORS
330
C
102
}
100
AcDbDictionary
280
0
281
1
  3
Standard
350
18
  0
DICTIONARY
  5
19
102
{ACAD_REACTORS
330
C
102
}
100
AcDbDictionary
281
1
  0
DICTIONARY
  5
1A
102
{ACAD_REACTORS
330
C
102
}
100
AcDbDictionary
281
1
  3
Model
350
3E4
  3
Layout1
350
3E5
  0
ACDBPLACEHOLDER
  5
F
102
{ACAD_REACTORS
330
E
102
}
  0
MLINESTYLE
  5
18
102
{ACAD_REACTORS
330
17
102
}
100
AcDbMlineStyle
  2
STANDARD
 70
0
  3

 62
256
 51
90.0
 52
90.0
 71
2
 49
0.5
 62
256
  6
BYLAYER
 49
-0.5
 62
256
  6
BYLAYER
  0
LAYOUT
  5
3E4
102
{ACAD_REACTORS
330
1A
102
}
100
AcDbPlotSettings
  1

  2
none_device
  4
ANSI_A_(11.00_x_8.50_Inches)
  6

 40
0.0
 41
0.0
 42
0.0
 43
0.0
 44
279.4
 45
215.9
 46
0.0
 47
0.0
 48
0.0
 49
0.0
140
0.0
141
0.0
142
1.0
143
1.0
 70
1024
 72
0
 73
0
 74
0
  7

 75
0
147
1.0
148
0.0
149
0.0
100
AcDbLayout
  1
Model
 70
0
 71
0
 10
0.0
 20
0.0
 11
11.0
 21
8.5
 12
0.0
 22
0.0
 32
0.0
 14
0.0
 24
0.0
 34
0.0
 15
0.0
 25
0.0
 35
0.0
146
0.0
 13
0.0
 23
0.0
 33
0.0
 16
1.0
 26
0.0
 36
0.0
 17
0.0
 27
1.0
 37
0.0
 76
0
330
202
345
0
346
0
  0
LAYOUT
  5
3E5
102
{ACAD_REACTORS
330
1A
102
}
100
AcDbPlotSettings
  1

  2
none_device
  4
ANSI_A_(11.00_x_8.50_Inches)
  6

 40
0.0
 41
0.0
 42
0.0
 43
0.0
 44
279.4
 45
215.9
 46
0.0
 47
0.0
 48
0.0
 49
0.0
140
0.0
141
0.0
142
1.0
143
1.0
 70
0
 72
0
 73
0
 74
0
  7

 75
0
147
1.0
148
0.0
149
0.0
100
AcDbLayout
  1
Layout1
 70
0
 71
1
 10
0.0
 20
0.0
 11
11.0
 21
8.5
 12
0.0
 22
0.0
 32
0.0
 14
0.0
 24
0.0
 34
0.0
 15
0.0
 25
0.0
 35
0.0
146
0.0
 13
0.0
 23
0.0
 33
0.0
 16
1.0
 26
0.0
 36
0.0
 17
0.0
 27
1.0
 37
0.0
 76
0
330
203
345
0
346
0
  0
ENDSEC
  0
EOF
