999
DXF file: 3-2945_right.dxf
999
Pro/ENGINEER 2019352 by Parametric Technology Corporation
  0
SECTION
  2
HEADER
  9
$ACADVER
  1
AC1032
  9
$DWGCODEPAGE
  3
ANSI_1252
  9
$EXTMAX
 10
11.0
 20
8.5
 30
0.0
  9
$EXTMIN
 10
0.0
 20
0.0
 30
0.0
  9
$LIMMIN
 10
0.0
 20
0.0
  9
$LIMMAX
 10
11.0
 20
8.5
  9
$VIEWCTR
 10
5.5
 20
4.25
  9
$VIEWSIZE
 40
8.5
  9
$CLAYER
  8
0
  9
$LTSCALE
 40
0.605
  9
$CELTYPE
  6
BYLAYER
  9
$DIMSCALE
 40
1.0
  9
$DIMASZ
 40
0.1
  9
$DIMEXO
 40
0.0625
  9
$DIMDLI
 40
0.418
  9
$DIMEXE
 40
0.125
  9
$DIMCEN
 40
0.099
  9
$DIMLFAC
 40
1.0
  9
$DIMBLK
  1
_FILLED
  9
$DIMALT
 70
1
  9
$DIMALTD
 70
2
  9
$DIMALTTD
 70
2
  9
$DIMALTF
 40
25.4
  9
$DIMTXT
 40
0.08
  9
$DIMTOL
 70
1
  9
$DIMLIM
 70
0
  9
$DIMTFAC
 40
1.0
  9
$DIMTP
 40
0.001
  9
$DIMTM
 40
0.001
  9
$DIMGAP
 40
0.09
  9
$DIMDSEP
 70
46
  9
$AUNITS
 70
0
  9
$PDMODE
 70
3
  9
$PDSIZE
 40
0.3125
  9
$HANDSEED
  5
407
  9
$TILEMODE
 70
1
  9
$MEASUREMENT
 70
0
  9
$INSUNITS
 70
1
  0
ENDSEC
  0
SECTION
  2
CLASSES
  0
CLASS
  1
ACDBDICTIONARYWDFLT
  2
AcDbDictionaryWithDefault
  3
AutoCAD 2000
 90
0
 91
1
280
0
281
0
  0
CLASS
  1
ACDBPLACEHOLDER
  2
AcDbPlaceHolder
  3
AutoCAD 2000
 90
0
 91
1
280
0
281
0
  0
CLASS
  1
LAYOUT
  2
AcDbLayout
  3
AutoCAD 2000
 90
0
 91
0
280
0
281
0
  0
ENDSEC
  0
SECTION
  2
TABLES
  0
TABLE
  2
VPORT
  5
8
100
AcDbSymbolTable
 70
2
  0
VPORT
  5
1F4
100
AcDbSymbolTableRecord
100
AcDbViewportTableRecord
  2
*ACTIVE
 70
0
 10
0.0
 20
0.0
 11
1.0
 21
1.0
 12
5.5
 22
4.25
 13
0.0
 23
0.0
 14
1.0
 24
1.0
 15
0.0
 25
0.0
 16
0.0
 26
0.0
 36
1.0
 17
0.0
 27
0.0
 37
0.0
 40
8.5
 41
1.2941176471
 42
50.0
 43
0.0
 44
0.0
 50
0.0
 51
0.0
 71
0
 72
100
 73
1
 74
1
 75
0
 76
0
 77
0
 78
0
  0
ENDTAB
  0
TABLE
  2
LTYPE
  5
5
100
AcDbSymbolTable
 70
6
  0
LTYPE
  5
14
100
AcDbSymbolTableRecord
100
AcDbLinetypeTableRecord
  2
BYBLOCK
 70
0
  3

 72
65
 73
0
 40
0.0
  0
LTYPE
  5
15
100
AcDbSymbolTableRecord
100
AcDbLinetypeTableRecord
  2
BYLAYER
 70
0
  3

 72
65
 73
0
 40
0.0
  0
LTYPE
  5
16
100
AcDbSymbolTableRecord
100
AcDbLinetypeTableRecord
  2
CONTINUOUS
 70
64
  3
Solid line
 72
65
 73
0
 40
0.0
  0
LTYPE
  5
1F5
100
AcDbSymbolTableRecord
100
AcDbLinetypeTableRecord
  2
CENTER
 70
64
  3
____ _ ____ _ ____ _ ____ _ ____ _ ____ _ ____
 72
65
 73
4
 40
0.6
 49
0.375
 74
0
 49
-0.075
 74
0
 49
0.075
 74
0
 49
-0.075
 74
0
  0
LTYPE
  5
1F6
100
AcDbSymbolTableRecord
100
AcDbLinetypeTableRecord
  2
HIDDEN
 70
64
  3
- - - - - - - - - - - - - - - - - - - -
 72
65
 73
2
 40
0.2
 49
0.1
 74
0
 49
-0.1
 74
0
  0
LTYPE
  5
1F7
100
AcDbSymbolTableRecord
100
AcDbLinetypeTableRecord
  2
PHANTOM
 70
64
  3
_____ _ _ _____ _ _ _____ _ _ _____
 72
65
 73
6
 40
0.8
 49
0.45
 74
0
 49
-0.05
 74
0
 49
0.1
 74
0
 49
-0.05
 74
0
 49
0.1
 74
0
 49
-0.05
 74
0
  0
LTYPE
  5
1F8
100
AcDbSymbolTableRecord
100
AcDbLinetypeTableRecord
  2
DOT
 70
64
  3
. . . . . . . . . . . . . . . . . . . .
 72
65
 73
2
 40
0.2
 49
0.1
 74
0
 49
-0.1
 74
0
  0
LTYPE
  5
1F9
100
AcDbSymbolTableRecord
100
AcDbLinetypeTableRecord
  2
DASHED
 70
64
  3
- - - - - - - - - - - - - - - - - - - -
 72
65
 73
2
 40
0.2
 49
0.1
 74
0
 49
-0.1
 74
0
  0
ENDTAB
  0
TABLE
  2
LAYER
  5
2
100
AcDbSymbolTable
 70
36
  0
LAYER
  5
10
100
AcDbSymbolTableRecord
100
AcDbLayerTableRecord
  2
0
 70
0
 62
7
  6
CONTINUOUS
370
-3
390
F
  0
LAYER
  5
1FA
100
AcDbSymbolTableRecord
100
AcDbLayerTableRecord
  2
DEFAULT_1
 70
0
 62
7
  6
CENTER
370
-3
390
F
  0
LAYER
  5
1FB
100
AcDbSymbolTableRecord
100
AcDbLayerTableRecord
  2
DEFAULT_2
 70
0
 62
8
  6
HIDDEN
370
-3
390
F
  0
LAYER
  5
1FC
100
AcDbSymbolTableRecord
100
AcDbLayerTableRecord
  2
DEFAULT_3
 70
0
 62
7
  6
PHANTOM
370
-3
390
F
  0
LAYER
  5
1FD
100
AcDbSymbolTableRecord
100
AcDbLayerTableRecord
  2
DEFAULT_COORDINATE_SYSTEM
 70
0
 62
7
  6
CONTINUOUS
370
-3
390
F
  0
LAYER
  5
1FE
100
AcDbSymbolTableRecord
100
AcDbLayerTableRecord
  2
DEFAULT_DATUM_AXES
 70
0
 62
7
  6
CONTINUOUS
370
-3
390
F
  0
LAYER
  5
1FF
100
AcDbSymbolTableRecord
100
AcDbLayerTableRecord
  2
DEFAULT_DATUM_PLANES
 70
0
 62
7
  6
CONTINUOUS
370
-3
390
F
  0
ENDTAB
  0
TABLE
  2
STYLE
  5
3
100
AcDbSymbolTable
 70
1
  0
STYLE
  5
11
100
AcDbSymbolTableRecord
100
AcDbTextStyleTableRecord
  2
STANDARD
 70
0
 40
0.0
 41
0.8
 50
0.0
 71
0
 42
0.2
  3
txt
  4

  0
STYLE
  5
200
100
AcDbSymbolTableRecord
100
AcDbTextStyleTableRecord
  2
TEXTSTYLE_1
 70
0
 40
0.0
 41
0.8
 50
0.0
 71
0
 42
0.2
  3
gdt
  4

  0
ENDTAB
  0
TABLE
  2
VIEW
  5
6
100
AcDbSymbolTable
 70
0
  0
ENDTAB
  0
TABLE
  2
UCS
  5
7
100
AcDbSymbolTable
 70
0
  0
ENDTAB
  0
TABLE
  2
APPID
  5
9
100
AcDbSymbolTable
 70
1
  0
APPID
  5
201
100
AcDbSymbolTableRecord
100
AcDbRegAppTableRecord
  2
ACAD
 70
0
  0
ENDTAB
  0
TABLE
  2
BLOCK_RECORD
  5
1
100
AcDbSymbolTable
 70
0
  0
BLOCK_RECORD
  5
202
100
AcDbSymbolTableRecord
100
AcDbBlockTableRecord
  2
*Model_Space
  0
BLOCK_RECORD
  5
203
100
AcDbSymbolTableRecord
100
AcDbBlockTableRecord
  2
*Paper_Space
  0
BLOCK_RECORD
  5
204
100
AcDbSymbolTableRecord
100
AcDbBlockTableRecord
  2
_FILLED
  0
ENDTAB
  0
TABLE
  2
DIMSTYLE
  5
A
100
AcDbSymbolTable
 70
1
100
AcDbDimStyleTable
 71
0
  0
DIMSTYLE
105
205
100
AcDbSymbolTableRecord
100
AcDbDimStyleTableRecord
  2
STANDARD
 70
0
  3

  4

 40
1.0
 41
0.1
 42
0.0625
 43
0.38
 44
0.125
 45
0.0
 46
0.0
 47
0.001
 48
0.001
140
0.08
141
0.09
142
0.0
143
25.4
144
1.0
145
0.0
146
1.0
147
0.09
 71
1.0
 72
0.0
 73
1
 74
1
 75
0
 76
0
 77
0
 78
4
 79
1
170
1
171
2
172
0
173
0
174
0
175
0
176
0
177
0
178
0
270
2
179
3
271
3
272
3
273
2
274
2
275
0
280
0
281
0
282
0
283
1
284
4
285
0
286
0
287
3
288
0
340
11
278
46
341
204
342
204
343
204
344
204
  0
ENDTAB
  0
ENDSEC
  0
SECTION
  2
BLOCKS
  0
BLOCK
  5
20
100
AcDbEntity
  8
0
100
AcDbBlockBegin
  2
*Model_Space
 70
0
 10
0.0
 20
0.0
 30
0.0
  3
*Model_Space
  1

  0
ENDBLK
  5
21
100
AcDbEntity
  8
0
100
AcDbBlockEnd
  0
BLOCK
  5
1C
100
AcDbEntity
  8
0
100
AcDbBlockBegin
  2
*Paper_Space
 70
0
 10
0.0
 20
0.0
 30
0.0
  3
*Paper_Space
  1

  0
ENDBLK
  5
1D
100
AcDbEntity
  8
0
100
AcDbBlockEnd
  0
BLOCK
  5
206
100
AcDbEntity
  8
0
100
AcDbBlockBegin
  2
_FILLED
 70
64
 10
0.0
 20
0.0
  3
_FILLED
  1

  0
SOLID
  5
207
100
AcDbEntity
  8
0
  6
BYBLOCK
 62
0
100
AcDbTrace
 10
0.0
 20
0.0
 11
-1.0
 21
0.2
 12
-1.0
 22
-0.2
 13
-1.0
 23
-0.2
  0
ENDBLK
  5
208
100
AcDbEntity
  8
0
  6
BYBLOCK
 62
0
100
AcDbBlockEnd
  0
ENDSEC
  0
SECTION
  2
ENTITIES
  0
MTEXT
  5
209
100
AcDbEntity
  8
0
100
AcDbMText
 62
2
  6
CONTINUOUS
  7
STANDARD
 71
3
 72
1
 10
5.4485344042
 20
0.9694157779
 30
0.0
 11
1.0
 21
0.0
 31
0.0
 73
2
 44
0.9
  1
SCALE 0.500
 40
0.08
 41
0.704
  0
LINE
  5
20A
100
AcDbEntity
  8
0
100
AcDbLine
 62
7
  6
CONTINUOUS
 10
0.0
 20
0.0
 11
0.0
 21
8.5
  0
LINE
  5
20B
100
AcDbEntity
  8
0
100
AcDbLine
 62
7
  6
CONTINUOUS
 10
0.0
 20
0.0
 11
11.0
 21
0.0
  0
LINE
  5
20C
100
AcDbEntity
  8
0
100
AcDbLine
 62
7
  6
CONTINUOUS
 10
0.0
 20
8.5
 11
11.0
 21
8.5
  0
LINE
  5
20D
100
AcDbEntity
  8
0
100
AcDbLine
 62
7
  6
CONTINUOUS
 10
11.0
 20
0.0
 11
11.0
 21
8.5
  0
LINE
  5
20E
100
AcDbEntity
  8
0
100
AcDbLine
 62
7
  6
CONTINUOUS
 10
2.7186715809
 20
1.751484473
 11
2.7186715809
 21
2.471484473
  0
LINE
  5
20F
100
AcDbEntity
  8
0
100
AcDbLine
 62
7
  6
CONTINUOUS
 10
2.7186716265
 20
1.751484473
 11
3.1561715354
 21
1.751484473
  0
LINE
  5
210
100
AcDbEntity
  8
0
100
AcDbLine
 62
7
  6
CONTINUOUS
 10
3.1561715809
 20
1.751484473
 11
3.1561715809
 21
2.471484473
  0
LINE
  5
211
100
AcDbEntity
  8
0
100
AcDbLine
 62
7
  6
CONTINUOUS
 10
2.7186715809
 20
2.471484473
 11
3.1561715809
 21
2.471484473
  0
LINE
  5
212
100
AcDbEntity
  8
0
100
AcDbLine
 62
7
  6
CONTINUOUS
 10
7.5324215809
 20
2.908984473
 11
7.5724215809
 21
2.908984473
  0
LINE
  5
213
100
AcDbEntity
  8
0
100
AcDbLine
 62
7
  6
CONTINUOUS
 10
7.6474215809
 20
2.908984473
 11
7.6874215809
 21
2.908984473
  0
LINE
  5
214
100
AcDbEntity
  8
0
100
AcDbLine
 62
7
  6
CONTINUOUS
 10
7.5724215809
 20
2.933984473
 11
7.6224215809
 21
2.933984473
  0
LINE
  5
215
100
AcDbEntity
  8
0
100
AcDbLine
 62
7
  6
CONTINUOUS
 10
3.9374215809
 20
3.690234473
 11
3.9374215809
 21
3.252734473
  0
LINE
  5
216
100
AcDbEntity
  8
0
100
AcDbLine
 62
7
  6
CONTINUOUS
 10
6.5749215809
 20
3.0965924886
 11
6.6249215809
 21
3.0965924886
  0
LINE
  5
217
100
AcDbEntity
  8
0
100
AcDbLine
 62
7
  6
CONTINUOUS
 10
6.5749215809
 20
3.0968065329
 11
6.6249215809
 21
3.0968065329
  0
LINE
  5
218
100
AcDbEntity
  8
0
100
AcDbLine
 62
7
  6
CONTINUOUS
 10
6.5749215809
 20
3.0979837893
 11
6.6249215809
 21
3.0979837893
  0
LINE
  5
219
100
AcDbEntity
  8
0
100
AcDbLine
 62
7
  6
CONTINUOUS
 10
6.5749215809
 20
3.0986250057
 11
6.6249215809
 21
3.0986250057
  0
LINE
  5
21A
100
AcDbEntity
  8
0
100
AcDbLine
 62
7
  6
CONTINUOUS
 10
6.5749215809
 20
3.1009744772
 11
6.6249215809
 21
3.1009744772
  0
LINE
  5
21B
100
AcDbEntity
  8
0
100
AcDbLine
 62
7
  6
CONTINUOUS
 10
6.5749215809
 20
3.10204012
 11
6.6249215809
 21
3.10204012
  0
LINE
  5
21C
100
AcDbEntity
  8
0
100
AcDbLine
 62
7
  6
CONTINUOUS
 10
6.5749215809
 20
3.1055517458
 11
6.6249215809
 21
3.1055517458
  0
LINE
  5
21D
100
AcDbEntity
  8
0
100
AcDbLine
 62
7
  6
CONTINUOUS
 10
6.5749215809
 20
3.1070372518
 11
6.6249215809
 21
3.1070372518
  0
LINE
  5
21E
100
AcDbEntity
  8
0
100
AcDbLine
 62
7
  6
CONTINUOUS
 10
6.5749215809
 20
3.1116959946
 11
6.6249215809
 21
3.1116959946
  0
LINE
  5
21F
100
AcDbEntity
  8
0
100
AcDbLine
 62
7
  6
CONTINUOUS
 10
6.5749215809
 20
3.1135950025
 11
6.6249215809
 21
3.1135950025
  0
LINE
  5
220
100
AcDbEntity
  8
0
100
AcDbLine
 62
7
  6
CONTINUOUS
 10
6.5749215809
 20
3.1193809128
 11
6.6249215809
 21
3.1193809128
  0
LINE
  5
221
100
AcDbEntity
  8
0
100
AcDbLine
 62
7
  6
CONTINUOUS
 10
6.5749215809
 20
3.1216852908
 11
6.6249215809
 21
3.1216852908
  0
LINE
  5
222
100
AcDbEntity
  8
0
100
AcDbLine
 62
7
  6
CONTINUOUS
 10
6.5749215809
 20
3.1285735926
 11
6.6249215809
 21
3.1285735926
  0
LINE
  5
223
100
AcDbEntity
  8
0
100
AcDbLine
 62
7
  6
CONTINUOUS
 10
6.5749215809
 20
3.1312734729
 11
6.6249215809
 21
3.1312734729
  0
LINE
  5
224
100
AcDbEntity
  8
0
100
AcDbLine
 62
7
  6
CONTINUOUS
 10
6.5749215809
 20
3.1392346694
 11
6.6249215809
 21
3.1392346694
  0
LINE
  5
225
100
AcDbEntity
  8
0
100
AcDbLine
 62
7
  6
CONTINUOUS
 10
6.5749215809
 20
3.1423184908
 11
6.6249215809
 21
3.1423184908
  0
LINE
  5
226
100
AcDbEntity
  8
0
100
AcDbLine
 62
7
  6
CONTINUOUS
 10
6.6249215809
 20
3.143484473
 11
7.4974215809
 21
3.143484473
  0
LINE
  5
227
100
AcDbEntity
  8
0
100
AcDbLine
 62
7
  6
CONTINUOUS
 10
6.5749215809
 20
3.1513184908
 11
6.6249215809
 21
3.1513184908
  0
LINE
  5
228
100
AcDbEntity
  8
0
100
AcDbLine
 62
7
  6
CONTINUOUS
 10
6.5749215809
 20
3.154773048
 11
6.6249215809
 21
3.154773048
  0
LINE
  5
229
100
AcDbEntity
  8
0
100
AcDbLine
 62
7
  6
CONTINUOUS
 10
6.5749215809
 20
3.1647733122
 11
6.6249215809
 21
3.1647733122
  0
LINE
  5
22A
100
AcDbEntity
  8
0
100
AcDbLine
 62
7
  6
CONTINUOUS
 10
6.5749215809
 20
3.1685838121
 11
6.6249215809
 21
3.1685838121
  0
LINE
  5
22B
100
AcDbEntity
  8
0
100
AcDbLine
 62
7
  6
CONTINUOUS
 10
6.5749215809
 20
3.1795415178
 11
6.6249215809
 21
3.1795415178
  0
LINE
  5
22C
100
AcDbEntity
  8
0
100
AcDbLine
 62
7
  6
CONTINUOUS
 10
6.5749215809
 20
3.1836916433
 11
6.6249215809
 21
3.1836916433
  0
LINE
  5
22D
100
AcDbEntity
  8
0
100
AcDbLine
 62
7
  6
CONTINUOUS
 10
6.6249215809
 20
3.1948074239
 11
6.5749215809
 21
3.1948074239
  0
LINE
  5
22E
100
AcDbEntity
  8
0
100
AcDbLine
 62
7
  6
CONTINUOUS
 10
6.5749215809
 20
3.195559868
 11
6.6249215809
 21
3.195559868
  0
LINE
  5
22F
100
AcDbEntity
  8
0
100
AcDbLine
 62
7
  6
CONTINUOUS
 10
6.5749215809
 20
3.2000318476
 11
6.6249215809
 21
3.2000318476
  0
LINE
  5
230
100
AcDbEntity
  8
0
100
AcDbLine
 62
7
  6
CONTINUOUS
 10
6.6249215809
 20
3.2112691775
 11
6.5749215809
 21
3.2112691775
  0
LINE
  5
231
100
AcDbEntity
  8
0
100
AcDbLine
 62
7
  6
CONTINUOUS
 10
6.5749215809
 20
3.2127597696
 11
6.6249215809
 21
3.2127597696
  0
LINE
  5
232
100
AcDbEntity
  8
0
100
AcDbLine
 62
7
  6
CONTINUOUS
 10
6.5749215809
 20
3.2175344537
 11
6.6249215809
 21
3.2175344537
  0
LINE
  5
233
100
AcDbEntity
  8
0
100
AcDbLine
 62
7
  6
CONTINUOUS
 10
6.4524215809
 20
3.221484473
 11
6.4974215809
 21
3.221484473
  0
LINE
  5
234
100
AcDbEntity
  8
0
100
AcDbLine
 62
7
  6
CONTINUOUS
 10
6.6249215809
 20
3.2288452131
 11
6.5749215809
 21
3.2288452131
  0
LINE
  5
235
100
AcDbEntity
  8
0
100
AcDbLine
 62
7
  6
CONTINUOUS
 10
6.5749215809
 20
3.2310675702
 11
6.6249215809
 21
3.2310675702
  0
LINE
  5
236
100
AcDbEntity
  8
0
100
AcDbLine
 62
7
  6
CONTINUOUS
 10
6.5749215809
 20
3.2361245128
 11
6.6249215809
 21
3.2361245128
  0
LINE
  5
237
100
AcDbEntity
  8
0
100
AcDbLine
 62
7
  6
CONTINUOUS
 10
6.6249215809
 20
3.2474602671
 11
6.5749215809
 21
3.2474602671
  0
LINE
  5
238
100
AcDbEntity
  8
0
100
AcDbLine
 62
7
  6
CONTINUOUS
 10
6.5749215809
 20
3.2504048729
 11
6.6249215809
 21
3.2504048729
  0
LINE
  5
239
100
AcDbEntity
  8
0
100
AcDbLine
 62
7
  6
CONTINUOUS
 10
3.9374215809
 20
3.252734473
 11
6.4374215809
 21
3.252734473
  0
LINE
  5
23A
100
AcDbEntity
  8
0
100
AcDbLine
 62
7
  6
CONTINUOUS
 10
6.5749215809
 20
3.2557224194
 11
6.6249215809
 21
3.2557224194
  0
LINE
  5
23B
100
AcDbEntity
  8
0
100
AcDbLine
 62
7
  6
CONTINUOUS
 10
6.6249215809
 20
3.2670346273
 11
6.5749215809
 21
3.2670346273
  0
LINE
  5
23C
100
AcDbEntity
  8
0
100
AcDbLine
 62
7
  6
CONTINUOUS
 10
6.5749215809
 20
3.2706888724
 11
6.6249215809
 21
3.2706888724
  0
LINE
  5
23D
100
AcDbEntity
  8
0
100
AcDbLine
 62
7
  6
CONTINUOUS
 10
6.5749215809
 20
3.2762442522
 11
6.6249215809
 21
3.2762442522
  0
LINE
  5
23E
100
AcDbEntity
  8
0
100
AcDbLine
 62
7
  6
CONTINUOUS
 10
6.6249215809
 20
3.287484473
 11
6.5749215809
 21
3.287484473
  0
LINE
  5
23F
100
AcDbEntity
  8
0
100
AcDbLine
 62
7
  6
CONTINUOUS
 10
6.5749215809
 20
3.2918327094
 11
6.6249215809
 21
3.2918327094
  0
LINE
  5
240
100
AcDbEntity
  8
0
100
AcDbLine
 62
7
  6
CONTINUOUS
 10
6.5749215809
 20
3.2976021336
 11
6.6249215809
 21
3.2976021336
  0
LINE
  5
241
100
AcDbEntity
  8
0
100
AcDbLine
 62
7
  6
CONTINUOUS
 10
6.6249215809
 20
3.308722235
 11
6.5749215809
 21
3.308722235
  0
LINE
  5
242
100
AcDbEntity
  8
0
100
AcDbLine
 62
7
  6
CONTINUOUS
 10
6.5749215809
 20
3.3137458429
 11
6.6249215809
 21
3.3137458429
  0
LINE
  5
243
100
AcDbEntity
  8
0
100
AcDbLine
 62
7
  6
CONTINUOUS
 10
6.5749215809
 20
3.3197046059
 11
6.6249215809
 21
3.3197046059
  0
LINE
  5
244
100
AcDbEntity
  8
0
100
AcDbLine
 62
7
  6
CONTINUOUS
 10
6.6249215809
 20
3.3306569699
 11
6.5749215809
 21
3.3306569699
  0
LINE
  5
245
100
AcDbEntity
  8
0
100
AcDbLine
 62
7
  6
CONTINUOUS
 10
6.5749215809
 20
3.3363344374
 11
6.6249215809
 21
3.3363344374
  0
LINE
  5
246
100
AcDbEntity
  8
0
100
AcDbLine
 62
7
  6
CONTINUOUS
 10
6.5749215809
 20
3.3424570228
 11
6.6249215809
 21
3.3424570228
  0
LINE
  5
247
100
AcDbEntity
  8
0
100
AcDbLine
 62
7
  6
CONTINUOUS
 10
6.6249215809
 20
3.3531947498
 11
6.5749215809
 21
3.3531947498
  0
LINE
  5
248
100
AcDbEntity
  8
0
100
AcDbLine
 62
7
  6
CONTINUOUS
 10
6.5749215809
 20
3.3595017652
 11
6.6249215809
 21
3.3595017652
  0
LINE
  5
249
100
AcDbEntity
  8
0
100
AcDbLine
 62
7
  6
CONTINUOUS
 10
6.5749215809
 20
3.3657619552
 11
6.6249215809
 21
3.3657619552
  0
LINE
  5
24A
100
AcDbEntity
  8
0
100
AcDbLine
 62
7
  6
CONTINUOUS
 10
6.6249215809
 20
3.3762390644
 11
6.5749215809
 21
3.3762390644
  0
LINE
  5
24B
100
AcDbEntity
  8
0
100
AcDbLine
 62
7
  6
CONTINUOUS
 10
6.5749215809
 20
3.38314862
 11
6.6249215809
 21
3.38314862
  0
LINE
  5
24C
100
AcDbEntity
  8
0
100
AcDbLine
 62
7
  6
CONTINUOUS
 10
6.5749215809
 20
3.3895196075
 11
6.6249215809
 21
3.3895196075
  0
LINE
  5
24D
100
AcDbEntity
  8
0
100
AcDbLine
 62
7
  6
CONTINUOUS
 10
6.6249215809
 20
3.3996912345
 11
6.5749215809
 21
3.3996912345
  0
LINE
  5
24E
100
AcDbEntity
  8
0
100
AcDbLine
 62
7
  6
CONTINUOUS
 10
6.5749215809
 20
3.4071737426
 11
6.6249215809
 21
3.4071737426
  0
LINE
  5
24F
100
AcDbEntity
  8
0
100
AcDbLine
 62
7
  6
CONTINUOUS
 10
6.5749215809
 20
3.413628246
 11
6.6249215809
 21
3.413628246
  0
LINE
  5
250
100
AcDbEntity
  8
0
100
AcDbLine
 62
7
  6
CONTINUOUS
 10
6.6249215809
 20
3.4234508343
 11
6.5749215809
 21
3.4234508343
  0
LINE
  5
251
100
AcDbEntity
  8
0
100
AcDbLine
 62
7
  6
CONTINUOUS
 10
6.5749215809
 20
3.4314742536
 11
6.6249215809
 21
3.4314742536
  0
LINE
  5
252
100
AcDbEntity
  8
0
100
AcDbLine
 62
7
  6
CONTINUOUS
 10
6.5749215809
 20
3.4379846338
 11
6.6249215809
 21
3.4379846338
  0
LINE
  5
253
100
AcDbEntity
  8
0
100
AcDbLine
 62
7
  6
CONTINUOUS
 10
6.6249215809
 20
3.4474161215
 11
6.5749215809
 21
3.4474161215
  0
LINE
  5
254
100
AcDbEntity
  8
0
100
AcDbLine
 62
7
  6
CONTINUOUS
 10
6.5749215809
 20
3.4559460944
 11
6.6249215809
 21
3.4559460944
  0
LINE
  5
255
100
AcDbEntity
  8
0
100
AcDbLine
 62
7
  6
CONTINUOUS
 10
6.5749215809
 20
3.462484473
 11
6.6249215809
 21
3.462484473
  0
LINE
  5
256
100
AcDbEntity
  8
0
100
AcDbLine
 62
7
  6
CONTINUOUS
 10
6.6249215809
 20
3.471484473
 11
6.5749215809
 21
3.471484473
  0
LINE
  5
257
100
AcDbEntity
  8
0
100
AcDbLine
 62
7
  6
CONTINUOUS
 10
6.5749215809
 20
3.480484473
 11
6.6249215809
 21
3.480484473
  0
LINE
  5
258
100
AcDbEntity
  8
0
100
AcDbLine
 62
7
  6
CONTINUOUS
 10
6.5749215809
 20
3.4870228516
 11
6.6249215809
 21
3.4870228516
  0
LINE
  5
259
100
AcDbEntity
  8
0
100
AcDbLine
 62
7
  6
CONTINUOUS
 10
6.6249215809
 20
3.4955528246
 11
6.5749215809
 21
3.4955528246
  0
LINE
  5
25A
100
AcDbEntity
  8
0
100
AcDbLine
 62
7
  6
CONTINUOUS
 10
6.5749215809
 20
3.5049843122
 11
6.6249215809
 21
3.5049843122
  0
LINE
  5
25B
100
AcDbEntity
  8
0
100
AcDbLine
 62
7
  6
CONTINUOUS
 10
6.5749215809
 20
3.5114946925
 11
6.6249215809
 21
3.5114946925
  0
LINE
  5
25C
100
AcDbEntity
  8
0
100
AcDbLine
 62
7
  6
CONTINUOUS
 10
6.6249215809
 20
3.5195181118
 11
6.5749215809
 21
3.5195181118
  0
LINE
  5
25D
100
AcDbEntity
  8
0
100
AcDbLine
 62
7
  6
CONTINUOUS
 10
6.5749215809
 20
3.5293407
 11
6.6249215809
 21
3.5293407
  0
LINE
  5
25E
100
AcDbEntity
  8
0
100
AcDbLine
 62
7
  6
CONTINUOUS
 10
6.5749215809
 20
3.5357952035
 11
6.6249215809
 21
3.5357952035
  0
LINE
  5
25F
100
AcDbEntity
  8
0
100
AcDbLine
 62
7
  6
CONTINUOUS
 10
6.6249215809
 20
3.5432777115
 11
6.5749215809
 21
3.5432777115
  0
LINE
  5
260
100
AcDbEntity
  8
0
100
AcDbLine
 62
7
  6
CONTINUOUS
 10
6.5749215809
 20
3.5534493385
 11
6.6249215809
 21
3.5534493385
  0
LINE
  5
261
100
AcDbEntity
  8
0
100
AcDbLine
 62
7
  6
CONTINUOUS
 10
6.5749215809
 20
3.559820326
 11
6.6249215809
 21
3.559820326
  0
LINE
  5
262
100
AcDbEntity
  8
0
100
AcDbLine
 62
7
  6
CONTINUOUS
 10
6.6249215809
 20
3.5667298816
 11
6.5749215809
 21
3.5667298816
  0
LINE
  5
263
100
AcDbEntity
  8
0
100
AcDbLine
 62
7
  6
CONTINUOUS
 10
6.5749215809
 20
3.5772069909
 11
6.6249215809
 21
3.5772069909
  0
LINE
  5
264
100
AcDbEntity
  8
0
100
AcDbLine
 62
7
  6
CONTINUOUS
 10
6.5749215809
 20
3.5834671809
 11
6.6249215809
 21
3.5834671809
  0
LINE
  5
265
100
AcDbEntity
  8
0
100
AcDbLine
 62
7
  6
CONTINUOUS
 10
6.6249215809
 20
3.5897741963
 11
6.5749215809
 21
3.5897741963
  0
LINE
  5
266
100
AcDbEntity
  8
0
100
AcDbLine
 62
7
  6
CONTINUOUS
 10
6.5749215809
 20
3.6005119232
 11
6.6249215809
 21
3.6005119232
  0
LINE
  5
267
100
AcDbEntity
  8
0
100
AcDbLine
 62
7
  6
CONTINUOUS
 10
6.5749215809
 20
3.6066345086
 11
6.6249215809
 21
3.6066345086
  0
LINE
  5
268
100
AcDbEntity
  8
0
100
AcDbLine
 62
7
  6
CONTINUOUS
 10
6.6249215809
 20
3.6123119761
 11
6.5749215809
 21
3.6123119761
  0
LINE
  5
269
100
AcDbEntity
  8
0
100
AcDbLine
 62
7
  6
CONTINUOUS
 10
6.5749215809
 20
3.6232643402
 11
6.6249215809
 21
3.6232643402
  0
LINE
  5
26A
100
AcDbEntity
  8
0
100
AcDbLine
 62
7
  6
CONTINUOUS
 10
6.5749215809
 20
3.6292231031
 11
6.6249215809
 21
3.6292231031
  0
LINE
  5
26B
100
AcDbEntity
  8
0
100
AcDbLine
 62
7
  6
CONTINUOUS
 10
6.6249215809
 20
3.634246711
 11
6.5749215809
 21
3.634246711
  0
LINE
  5
26C
100
AcDbEntity
  8
0
100
AcDbLine
 62
7
  6
CONTINUOUS
 10
6.5749215809
 20
3.6453668125
 11
6.6249215809
 21
3.6453668125
  0
LINE
  5
26D
100
AcDbEntity
  8
0
100
AcDbLine
 62
7
  6
CONTINUOUS
 10
6.5749215809
 20
3.6511362366
 11
6.6249215809
 21
3.6511362366
  0
LINE
  5
26E
100
AcDbEntity
  8
0
100
AcDbLine
 62
7
  6
CONTINUOUS
 10
6.6249215809
 20
3.655484473
 11
6.5749215809
 21
3.655484473
  0
LINE
  5
26F
100
AcDbEntity
  8
0
100
AcDbLine
 62
7
  6
CONTINUOUS
 10
6.5749215809
 20
3.6667246939
 11
6.6249215809
 21
3.6667246939
  0
LINE
  5
270
100
AcDbEntity
  8
0
100
AcDbLine
 62
7
  6
CONTINUOUS
 10
6.5749215809
 20
3.6722800737
 11
6.6249215809
 21
3.6722800737
  0
LINE
  5
271
100
AcDbEntity
  8
0
100
AcDbLine
 62
7
  6
CONTINUOUS
 10
6.6249215809
 20
3.6759343188
 11
6.5749215809
 21
3.6759343188
  0
LINE
  5
272
100
AcDbEntity
  8
0
100
AcDbLine
 62
7
  6
CONTINUOUS
 10
6.5749215809
 20
3.6872465267
 11
6.6249215809
 21
3.6872465267
  0
LINE
  5
273
100
AcDbEntity
  8
0
100
AcDbLine
 62
7
  6
CONTINUOUS
 10
3.9374215809
 20
3.690234473
 11
6.4374215809
 21
3.690234473
  0
LINE
  5
274
100
AcDbEntity
  8
0
100
AcDbLine
 62
7
  6
CONTINUOUS
 10
6.5749215809
 20
3.6925640731
 11
6.6249215809
 21
3.6925640731
  0
LINE
  5
275
100
AcDbEntity
  8
0
100
AcDbLine
 62
7
  6
CONTINUOUS
 10
6.6249215809
 20
3.6955086789
 11
6.5749215809
 21
3.6955086789
  0
LINE
  5
276
100
AcDbEntity
  8
0
100
AcDbLine
 62
7
  6
CONTINUOUS
 10
6.5749215809
 20
3.7068444333
 11
6.6249215809
 21
3.7068444333
  0
LINE
  5
277
100
AcDbEntity
  8
0
100
AcDbLine
 62
7
  6
CONTINUOUS
 10
6.5749215809
 20
3.7119013758
 11
6.6249215809
 21
3.7119013758
  0
LINE
  5
278
100
AcDbEntity
  8
0
100
AcDbLine
 62
7
  6
CONTINUOUS
 10
6.6249215809
 20
3.714123733
 11
6.5749215809
 21
3.714123733
  0
LINE
  5
279
100
AcDbEntity
  8
0
100
AcDbLine
 62
7
  6
CONTINUOUS
 10
6.4524215809
 20
3.721484473
 11
6.4974215809
 21
3.721484473
  0
LINE
  5
27A
100
AcDbEntity
  8
0
100
AcDbLine
 62
7
  6
CONTINUOUS
 10
6.5749215809
 20
3.7254344923
 11
6.6249215809
 21
3.7254344923
  0
LINE
  5
27B
100
AcDbEntity
  8
0
100
AcDbLine
 62
7
  6
CONTINUOUS
 10
6.5749215809
 20
3.7302091764
 11
6.6249215809
 21
3.7302091764
  0
LINE
  5
27C
100
AcDbEntity
  8
0
100
AcDbLine
 62
7
  6
CONTINUOUS
 10
6.6249215809
 20
3.7316997685
 11
6.5749215809
 21
3.7316997685
  0
LINE
  5
27D
100
AcDbEntity
  8
0
100
AcDbLine
 62
7
  6
CONTINUOUS
 10
6.5749215809
 20
3.7429370985
 11
6.6249215809
 21
3.7429370985
  0
LINE
  5
27E
100
AcDbEntity
  8
0
100
AcDbLine
 62
7
  6
CONTINUOUS
 10
6.5749215809
 20
3.7474090781
 11
6.6249215809
 21
3.7474090781
  0
LINE
  5
27F
100
AcDbEntity
  8
0
100
AcDbLine
 62
7
  6
CONTINUOUS
 10
6.6249215809
 20
3.7481615222
 11
6.5749215809
 21
3.7481615222
  0
LINE
  5
280
100
AcDbEntity
  8
0
100
AcDbLine
 62
7
  6
CONTINUOUS
 10
6.5749215809
 20
3.7592773028
 11
6.6249215809
 21
3.7592773028
  0
LINE
  5
281
100
AcDbEntity
  8
0
100
AcDbLine
 62
7
  6
CONTINUOUS
 10
6.5749215809
 20
3.7634274283
 11
6.6249215809
 21
3.7634274283
  0
LINE
  5
282
100
AcDbEntity
  8
0
100
AcDbLine
 62
7
  6
CONTINUOUS
 10
6.5749215809
 20
3.774385134
 11
6.6249215809
 21
3.774385134
  0
LINE
  5
283
100
AcDbEntity
  8
0
100
AcDbLine
 62
7
  6
CONTINUOUS
 10
6.5749215809
 20
3.7781956339
 11
6.6249215809
 21
3.7781956339
  0
LINE
  5
284
100
AcDbEntity
  8
0
100
AcDbLine
 62
7
  6
CONTINUOUS
 10
6.5749215809
 20
3.7881958981
 11
6.6249215809
 21
3.7881958981
  0
LINE
  5
285
100
AcDbEntity
  8
0
100
AcDbLine
 62
7
  6
CONTINUOUS
 10
6.5749215809
 20
3.7916504552
 11
6.6249215809
 21
3.7916504552
  0
LINE
  5
286
100
AcDbEntity
  8
0
100
AcDbLine
 62
7
  6
CONTINUOUS
 10
6.6249215809
 20
3.799484473
 11
7.4974215809
 21
3.799484473
  0
LINE
  5
287
100
AcDbEntity
  8
0
100
AcDbLine
 62
7
  6
CONTINUOUS
 10
6.5749215809
 20
3.8006504552
 11
6.6249215809
 21
3.8006504552
  0
LINE
  5
288
100
AcDbEntity
  8
0
100
AcDbLine
 62
7
  6
CONTINUOUS
 10
6.5749215809
 20
3.8037342767
 11
6.6249215809
 21
3.8037342767
  0
LINE
  5
289
100
AcDbEntity
  8
0
100
AcDbLine
 62
7
  6
CONTINUOUS
 10
6.5749215809
 20
3.8116954731
 11
6.6249215809
 21
3.8116954731
  0
LINE
  5
28A
100
AcDbEntity
  8
0
100
AcDbLine
 62
7
  6
CONTINUOUS
 10
6.5749215809
 20
3.8143953535
 11
6.6249215809
 21
3.8143953535
  0
LINE
  5
28B
100
AcDbEntity
  8
0
100
AcDbLine
 62
7
  6
CONTINUOUS
 10
6.5749215809
 20
3.8212836552
 11
6.6249215809
 21
3.8212836552
  0
LINE
  5
28C
100
AcDbEntity
  8
0
100
AcDbLine
 62
7
  6
CONTINUOUS
 10
6.5749215809
 20
3.8235880332
 11
6.6249215809
 21
3.8235880332
  0
LINE
  5
28D
100
AcDbEntity
  8
0
100
AcDbLine
 62
7
  6
CONTINUOUS
 10
6.5749215809
 20
3.8293739436
 11
6.6249215809
 21
3.8293739436
  0
LINE
  5
28E
100
AcDbEntity
  8
0
100
AcDbLine
 62
7
  6
CONTINUOUS
 10
6.5749215809
 20
3.8312729515
 11
6.6249215809
 21
3.8312729515
  0
LINE
  5
28F
100
AcDbEntity
  8
0
100
AcDbLine
 62
7
  6
CONTINUOUS
 10
6.5749215809
 20
3.8359316943
 11
6.6249215809
 21
3.8359316943
  0
LINE
  5
290
100
AcDbEntity
  8
0
100
AcDbLine
 62
7
  6
CONTINUOUS
 10
6.5749215809
 20
3.8374172002
 11
6.6249215809
 21
3.8374172002
  0
LINE
  5
291
100
AcDbEntity
  8
0
100
AcDbLine
 62
7
  6
CONTINUOUS
 10
6.5749215809
 20
3.840928826
 11
6.6249215809
 21
3.840928826
  0
LINE
  5
292
100
AcDbEntity
  8
0
100
AcDbLine
 62
7
  6
CONTINUOUS
 10
6.5749215809
 20
3.8419944688
 11
6.6249215809
 21
3.8419944688
  0
LINE
  5
293
100
AcDbEntity
  8
0
100
AcDbLine
 62
7
  6
CONTINUOUS
 10
6.5749215809
 20
3.8443439403
 11
6.6249215809
 21
3.8443439403
  0
LINE
  5
294
100
AcDbEntity
  8
0
100
AcDbLine
 62
7
  6
CONTINUOUS
 10
6.5749215809
 20
3.8449851568
 11
6.6249215809
 21
3.8449851568
  0
LINE
  5
295
100
AcDbEntity
  8
0
100
AcDbLine
 62
7
  6
CONTINUOUS
 10
6.5749215809
 20
3.8461624131
 11
6.6249215809
 21
3.8461624131
  0
LINE
  5
296
100
AcDbEntity
  8
0
100
AcDbLine
 62
7
  6
CONTINUOUS
 10
6.5749215809
 20
3.8463764575
 11
6.6249215809
 21
3.8463764575
  0
LINE
  5
297
100
AcDbEntity
  8
0
100
AcDbLine
 62
7
  6
CONTINUOUS
 10
7.5724215809
 20
4.008984473
 11
7.6224215809
 21
4.008984473
  0
LINE
  5
298
100
AcDbEntity
  8
0
100
AcDbLine
 62
7
  6
CONTINUOUS
 10
7.5324215809
 20
4.033984473
 11
7.5724215809
 21
4.033984473
  0
LINE
  5
299
100
AcDbEntity
  8
0
100
AcDbLine
 62
7
  6
CONTINUOUS
 10
7.6474215809
 20
4.033984473
 11
7.6874215809
 21
4.033984473
  0
LINE
  5
29A
100
AcDbEntity
  8
0
100
AcDbLine
 62
7
  6
CONTINUOUS
 10
7.6474215809
 20
6.946484473
 11
7.6224215809
 21
6.921484473
  0
LINE
  5
29B
100
AcDbEntity
  8
0
100
AcDbLine
 62
7
  6
CONTINUOUS
 10
7.6224215809
 20
2.933984473
 11
7.6474215809
 21
2.908984473
  0
LINE
  5
29C
100
AcDbEntity
  8
0
100
AcDbLine
 62
7
  6
CONTINUOUS
 10
6.4374215809
 20
3.236484473
 11
6.4374215809
 21
3.706484473
  0
LINE
  5
29D
100
AcDbEntity
  8
0
100
AcDbLine
 62
7
  6
CONTINUOUS
 10
6.4524215809
 20
3.221484473
 11
6.4524215809
 21
3.721484473
  0
LINE
  5
29E
100
AcDbEntity
  8
0
100
AcDbLine
 62
7
  6
CONTINUOUS
 10
6.4969215809
 20
6.373984473
 11
6.4969215809
 21
6.3943671658
  0
LINE
  5
29F
100
AcDbEntity
  8
0
100
AcDbLine
 62
7
  6
CONTINUOUS
 10
6.4969215809
 20
6.5486017802
 11
6.4969215809
 21
6.568984473
  0
LINE
  5
2A0
100
AcDbEntity
  8
0
100
AcDbLine
 62
7
  6
CONTINUOUS
 10
6.4974215809
 20
3.721484473
 11
6.4974215809
 21
3.221484473
  0
LINE
  5
2A1
100
AcDbEntity
  8
0
100
AcDbLine
 62
7
  6
CONTINUOUS
 10
6.5094215809
 20
6.373984473
 11
6.5094215809
 21
6.4338561684
  0
LINE
  5
2A2
100
AcDbEntity
  8
0
100
AcDbLine
 62
7
  6
CONTINUOUS
 10
6.5094215809
 20
6.5091127776
 11
6.5094215809
 21
6.568984473
  0
LINE
  5
2A3
100
AcDbEntity
  8
0
100
AcDbLine
 62
7
  6
CONTINUOUS
 10
6.5124215809
 20
3.2019793394
 11
6.5124215809
 21
3.7409896067
  0
LINE
  5
2A4
100
AcDbEntity
  8
0
100
AcDbLine
 62
7
  6
CONTINUOUS
 10
6.5194215809
 20
6.6252342381
 11
6.5194215809
 21
6.317734473
  0
LINE
  5
2A5
100
AcDbEntity
  8
0
100
AcDbLine
 62
7
  6
CONTINUOUS
 10
6.5228382476
 20
3.1876965445
 11
6.5228382476
 21
3.7552724016
  0
LINE
  5
2A6
100
AcDbEntity
  8
0
100
AcDbLine
 62
7
  6
CONTINUOUS
 10
6.5749215809
 20
3.0965924886
 11
6.5749215809
 21
3.8463764575
  0
LINE
  5
2A7
100
AcDbEntity
  8
0
100
AcDbLine
 62
7
  6
CONTINUOUS
 10
6.5791862832
 20
6.628984473
 11
6.5791862832
 21
6.313984473
  0
LINE
  5
2A8
100
AcDbEntity
  8
0
100
AcDbLine
 62
7
  6
CONTINUOUS
 10
6.5891078506
 20
6.620234473
 11
6.5891078506
 21
6.322734473
  0
LINE
  5
2A9
100
AcDbEntity
  8
0
100
AcDbLine
 62
7
  6
CONTINUOUS
 10
6.6249215809
 20
3.0965924886
 11
6.6249215809
 21
3.8463764575
  0
LINE
  5
2AA
100
AcDbEntity
  8
0
100
AcDbLine
 62
7
  6
CONTINUOUS
 10
6.6949215809
 20
6.6564842466
 11
6.6949215809
 21
6.2864846995
  0
LINE
  5
2AB
100
AcDbEntity
  8
0
100
AcDbLine
 62
7
  6
CONTINUOUS
 10
6.7099215809
 20
6.671484473
 11
6.7099215809
 21
6.271484473
  0
LINE
  5
2AC
100
AcDbEntity
  8
0
100
AcDbLine
 62
7
  6
CONTINUOUS
 10
6.7549215809
 20
6.271484473
 11
6.7549215809
 21
6.671484473
  0
LINE
  5
2AD
100
AcDbEntity
  8
0
100
AcDbLine
 62
7
  6
CONTINUOUS
 10
6.7699215809
 20
6.7006454103
 11
6.7699215809
 21
6.2423235357
  0
LINE
  5
2AE
100
AcDbEntity
  8
0
100
AcDbLine
 62
7
  6
CONTINUOUS
 10
6.7766180095
 20
6.7131374359
 11
6.7766180095
 21
6.2298315102
  0
LINE
  5
2AF
100
AcDbEntity
  8
0
100
AcDbLine
 62
7
  6
CONTINUOUS
 10
6.8324215809
 20
6.1140000847
 11
6.8324215809
 21
6.7492160347
  0
LINE
  5
2B0
100
AcDbEntity
  8
0
100
AcDbLine
 62
7
  6
CONTINUOUS
 10
6.8324215809
 20
6.7492476061
 11
6.8324215809
 21
6.8289688614
  0
LINE
  5
2B1
100
AcDbEntity
  8
0
100
AcDbLine
 62
7
  6
CONTINUOUS
 10
6.8824215809
 20
6.8289688614
 11
6.8824215809
 21
6.7492476061
  0
LINE
  5
2B2
100
AcDbEntity
  8
0
100
AcDbLine
 62
7
  6
CONTINUOUS
 10
6.8824215809
 20
6.7492160347
 11
6.8824215809
 21
6.1140000847
  0
LINE
  5
2B3
100
AcDbEntity
  8
0
100
AcDbLine
 62
7
  6
CONTINUOUS
 10
7.6874215809
 20
5.996484473
 11
7.6474215809
 21
5.996484473
  0
LINE
  5
2B4
100
AcDbEntity
  8
0
100
AcDbLine
 62
7
  6
CONTINUOUS
 10
7.5724215809
 20
5.9965697438
 11
7.5324215809
 21
5.9965697438
  0
LINE
  5
2B5
100
AcDbEntity
  8
0
100
AcDbLine
 62
7
  6
CONTINUOUS
 10
7.5724215809
 20
5.9967495744
 11
7.5324215809
 21
5.9967495744
  0
LINE
  5
2B6
100
AcDbEntity
  8
0
100
AcDbLine
 62
7
  6
CONTINUOUS
 10
7.5724215809
 20
5.9976916216
 11
7.5324215809
 21
5.9976916216
  0
LINE
  5
2B7
100
AcDbEntity
  8
0
100
AcDbLine
 62
7
  6
CONTINUOUS
 10
7.5724215809
 20
5.9982306202
 11
7.5324215809
 21
5.9982306202
  0
LINE
  5
2B8
100
AcDbEntity
  8
0
100
AcDbLine
 62
7
  6
CONTINUOUS
 10
7.5724215809
 20
6.0001121326
 11
7.5324215809
 21
6.0001121326
  0
LINE
  5
2B9
100
AcDbEntity
  8
0
100
AcDbLine
 62
7
  6
CONTINUOUS
 10
7.5724215809
 20
6.001008822
 11
7.5324215809
 21
6.001008822
  0
LINE
  5
2BA
100
AcDbEntity
  8
0
100
AcDbLine
 62
7
  6
CONTINUOUS
 10
7.5724215809
 20
6.0038246424
 11
7.5324215809
 21
6.0038246424
  0
LINE
  5
2BB
100
AcDbEntity
  8
0
100
AcDbLine
 62
7
  6
CONTINUOUS
 10
7.5724215809
 20
6.0050765649
 11
7.5324215809
 21
6.0050765649
  0
LINE
  5
2BC
100
AcDbEntity
  8
0
100
AcDbLine
 62
7
  6
CONTINUOUS
 10
7.5724215809
 20
6.0088189753
 11
7.5324215809
 21
6.0088189753
  0
LINE
  5
2BD
100
AcDbEntity
  8
0
100
AcDbLine
 62
7
  6
CONTINUOUS
 10
7.5724215809
 20
6.0104226994
 11
7.5324215809
 21
6.0104226994
  0
LINE
  5
2BE
100
AcDbEntity
  8
0
100
AcDbLine
 62
7
  6
CONTINUOUS
 10
7.5724215809
 20
6.0150814422
 11
7.5324215809
 21
6.0150814422
  0
LINE
  5
2BF
100
AcDbEntity
  8
0
100
AcDbLine
 62
7
  6
CONTINUOUS
 10
7.5724215809
 20
6.0170325722
 11
7.5324215809
 21
6.0170325722
  0
LINE
  5
2C0
100
AcDbEntity
  8
0
100
AcDbLine
 62
7
  6
CONTINUOUS
 10
7.6224215809
 20
6.021484473
 11
7.5724215809
 21
6.021484473
  0
LINE
  5
2C1
100
AcDbEntity
  8
0
100
AcDbLine
 62
7
  6
CONTINUOUS
 10
7.5724215809
 20
6.0225948781
 11
7.5324215809
 21
6.0225948781
  0
LINE
  5
2C2
100
AcDbEntity
  8
0
100
AcDbLine
 62
7
  6
CONTINUOUS
 10
7.5724215809
 20
6.0248880661
 11
7.5324215809
 21
6.0248880661
  0
LINE
  5
2C3
100
AcDbEntity
  8
0
100
AcDbLine
 62
7
  6
CONTINUOUS
 10
7.5724215809
 20
6.0313386891
 11
7.5324215809
 21
6.0313386891
  0
LINE
  5
2C4
100
AcDbEntity
  8
0
100
AcDbLine
 62
7
  6
CONTINUOUS
 10
7.5724215809
 20
6.0339676496
 11
7.5324215809
 21
6.0339676496
  0
LINE
  5
2C5
100
AcDbEntity
  8
0
100
AcDbLine
 62
7
  6
CONTINUOUS
 10
7.5724215809
 20
6.0412889092
 11
7.5324215809
 21
6.0412889092
  0
LINE
  5
2C6
100
AcDbEntity
  8
0
100
AcDbLine
 62
7
  6
CONTINUOUS
 10
7.5724215809
 20
6.0442464364
 11
7.5324215809
 21
6.0442464364
  0
LINE
  5
2C7
100
AcDbEntity
  8
0
100
AcDbLine
 62
7
  6
CONTINUOUS
 10
7.5724215809
 20
6.0524182654
 11
7.5324215809
 21
6.0524182654
  0
LINE
  5
2C8
100
AcDbEntity
  8
0
100
AcDbLine
 62
7
  6
CONTINUOUS
 10
7.5724215809
 20
6.0556962529
 11
7.5324215809
 21
6.0556962529
  0
LINE
  5
2C9
100
AcDbEntity
  8
0
100
AcDbLine
 62
7
  6
CONTINUOUS
 10
7.5724215809
 20
6.0646962529
 11
7.5324215809
 21
6.0646962529
  0
LINE
  5
2CA
100
AcDbEntity
  8
0
100
AcDbLine
 62
7
  6
CONTINUOUS
 10
7.5724215809
 20
6.0682857161
 11
7.5324215809
 21
6.0682857161
  0
LINE
  5
2CB
100
AcDbEntity
  8
0
100
AcDbLine
 62
7
  6
CONTINUOUS
 10
7.5724215809
 20
6.0780892187
 11
7.5324215809
 21
6.0780892187
  0
LINE
  5
2CC
100
AcDbEntity
  8
0
100
AcDbLine
 62
7
  6
CONTINUOUS
 10
7.5724215809
 20
6.081980319
 11
7.5324215809
 21
6.081980319
  0
LINE
  5
2CD
100
AcDbEntity
  8
0
100
AcDbLine
 62
7
  6
CONTINUOUS
 10
7.5724215809
 20
6.0925604535
 11
7.5324215809
 21
6.0925604535
  0
LINE
  5
2CE
100
AcDbEntity
  8
0
100
AcDbLine
 62
7
  6
CONTINUOUS
 10
7.5724215809
 20
6.0967425257
 11
7.5324215809
 21
6.0967425257
  0
LINE
  5
2CF
100
AcDbEntity
  8
0
100
AcDbLine
 62
7
  6
CONTINUOUS
 10
7.5324215809
 20
6.1077801631
 11
7.5724215809
 21
6.1077801631
  0
LINE
  5
2D0
100
AcDbEntity
  8
0
100
AcDbLine
 62
7
  6
CONTINUOUS
 10
7.5724215809
 20
6.1080702927
 11
7.5324215809
 21
6.1080702927
  0
LINE
  5
2D1
100
AcDbEntity
  8
0
100
AcDbLine
 62
7
  6
CONTINUOUS
 10
7.5724215809
 20
6.112531874
 11
7.5324215809
 21
6.112531874
  0
LINE
  5
2D2
100
AcDbEntity
  8
0
100
AcDbLine
 62
7
  6
CONTINUOUS
 10
6.8824215809
 20
6.1140000847
 11
6.8324215809
 21
6.1140000847
  0
LINE
  5
2D3
100
AcDbEntity
  8
0
100
AcDbLine
 62
7
  6
CONTINUOUS
 10
6.8824215809
 20
6.1140977777
 11
6.8324215809
 21
6.1140977777
  0
LINE
  5
2D4
100
AcDbEntity
  8
0
100
AcDbLine
 62
7
  6
CONTINUOUS
 10
6.8824215809
 20
6.1143284126
 11
6.8324215809
 21
6.1143284126
  0
LINE
  5
2D5
100
AcDbEntity
  8
0
100
AcDbLine
 62
7
  6
CONTINUOUS
 10
6.8824215809
 20
6.1155702532
 11
6.8324215809
 21
6.1155702532
  0
LINE
  5
2D6
100
AcDbEntity
  8
0
100
AcDbLine
 62
7
  6
CONTINUOUS
 10
6.8824215809
 20
6.1162610587
 11
6.8324215809
 21
6.1162610587
  0
LINE
  5
2D7
100
AcDbEntity
  8
0
100
AcDbLine
 62
7
  6
CONTINUOUS
 10
6.8824215809
 20
6.118738822
 11
6.8324215809
 21
6.118738822
  0
LINE
  5
2D8
100
AcDbEntity
  8
0
100
AcDbLine
 62
7
  6
CONTINUOUS
 10
6.8824215809
 20
6.1198865062
 11
6.8324215809
 21
6.1198865062
  0
LINE
  5
2D9
100
AcDbEntity
  8
0
100
AcDbLine
 62
7
  6
CONTINUOUS
 10
6.8824215809
 20
6.1235883845
 11
6.8324215809
 21
6.1235883845
  0
LINE
  5
2DA
100
AcDbEntity
  8
0
100
AcDbLine
 62
7
  6
CONTINUOUS
 10
7.5324215809
 20
6.1236926947
 11
7.5724215809
 21
6.1236926947
  0
LINE
  5
2DB
100
AcDbEntity
  8
0
100
AcDbLine
 62
7
  6
CONTINUOUS
 10
7.5724215809
 20
6.1245762249
 11
7.5324215809
 21
6.1245762249
  0
LINE
  5
2DC
100
AcDbEntity
  8
0
100
AcDbLine
 62
7
  6
CONTINUOUS
 10
6.8824215809
 20
6.1251874781
 11
6.8324215809
 21
6.1251874781
  0
LINE
  5
2DD
100
AcDbEntity
  8
0
100
AcDbLine
 62
7
  6
CONTINUOUS
 10
7.5724215809
 20
6.1293050865
 11
7.5324215809
 21
6.1293050865
  0
LINE
  5
2DE
100
AcDbEntity
  8
0
100
AcDbLine
 62
7
  6
CONTINUOUS
 10
6.8824215809
 20
6.1300958302
 11
6.8324215809
 21
6.1300958302
  0
LINE
  5
2DF
100
AcDbEntity
  8
0
100
AcDbLine
 62
7
  6
CONTINUOUS
 10
6.8824215809
 20
6.1321387129
 11
6.8324215809
 21
6.1321387129
  0
LINE
  5
2E0
100
AcDbEntity
  8
0
100
AcDbLine
 62
7
  6
CONTINUOUS
 10
6.8824215809
 20
6.1382301484
 11
6.8324215809
 21
6.1382301484
  0
LINE
  5
2E1
100
AcDbEntity
  8
0
100
AcDbLine
 62
7
  6
CONTINUOUS
 10
7.5324215809
 20
6.1405584994
 11
7.5724215809
 21
6.1405584994
  0
LINE
  5
2E2
100
AcDbEntity
  8
0
100
AcDbLine
 62
7
  6
CONTINUOUS
 10
6.8824215809
 20
6.1407070848
 11
6.8324215809
 21
6.1407070848
  0
LINE
  5
2E3
100
AcDbEntity
  8
0
100
AcDbLine
 62
7
  6
CONTINUOUS
 10
7.5724215809
 20
6.1420330086
 11
7.5324215809
 21
6.1420330086
  0
LINE
  5
2E4
100
AcDbEntity
  8
0
100
AcDbLine
 62
7
  6
CONTINUOUS
 10
7.5724215809
 20
6.1470161889
 11
7.5324215809
 21
6.1470161889
  0
LINE
  5
2E5
100
AcDbEntity
  8
0
100
AcDbLine
 62
7
  6
CONTINUOUS
 10
6.8824215809
 20
6.1479525751
 11
6.8324215809
 21
6.1479525751
  0
LINE
  5
2E6
100
AcDbEntity
  8
0
100
AcDbLine
 62
7
  6
CONTINUOUS
 10
6.8824215809
 20
6.1508517616
 11
6.8324215809
 21
6.1508517616
  0
LINE
  5
2E7
100
AcDbEntity
  8
0
100
AcDbLine
 62
7
  6
CONTINUOUS
 10
7.5324215809
 20
6.1583313492
 11
7.5724215809
 21
6.1583313492
  0
LINE
  5
2E8
100
AcDbEntity
  8
0
100
AcDbLine
 62
7
  6
CONTINUOUS
 10
7.4924215809
 20
6.158984473
 11
6.8824215809
 21
6.158984473
  0
LINE
  5
2E9
100
AcDbEntity
  8
0
100
AcDbLine
 62
7
  6
CONTINUOUS
 10
6.8824215809
 20
6.1592167787
 11
6.8324215809
 21
6.1592167787
  0
LINE
  5
2EA
100
AcDbEntity
  8
0
100
AcDbLine
 62
7
  6
CONTINUOUS
 10
7.5724215809
 20
6.1603927957
 11
7.5324215809
 21
6.1603927957
  0
LINE
  5
2EB
100
AcDbEntity
  8
0
100
AcDbLine
 62
7
  6
CONTINUOUS
 10
6.8824215809
 20
6.1625243993
 11
6.8324215809
 21
6.1625243993
  0
LINE
  5
2EC
100
AcDbEntity
  8
0
100
AcDbLine
 62
7
  6
CONTINUOUS
 10
7.5724215809
 20
6.1656166363
 11
7.5324215809
 21
6.1656166363
  0
LINE
  5
2ED
100
AcDbEntity
  8
0
100
AcDbLine
 62
7
  6
CONTINUOUS
 10
7.4974215809
 20
6.171484473
 11
7.4924215809
 21
6.171484473
  0
LINE
  5
2EE
100
AcDbEntity
  8
0
100
AcDbLine
 62
7
  6
CONTINUOUS
 10
6.8824215809
 20
6.17196908
 11
6.8324215809
 21
6.17196908
  0
LINE
  5
2EF
100
AcDbEntity
  8
0
100
AcDbLine
 62
7
  6
CONTINUOUS
 10
6.8824215809
 20
6.1756693724
 11
6.8324215809
 21
6.1756693724
  0
LINE
  5
2F0
100
AcDbEntity
  8
0
100
AcDbLine
 62
7
  6
CONTINUOUS
 10
7.5324215809
 20
6.17696253
 11
7.5724215809
 21
6.17696253
  0
LINE
  5
2F1
100
AcDbEntity
  8
0
100
AcDbLine
 62
7
  6
CONTINUOUS
 10
7.5724215809
 20
6.1796052636
 11
7.5324215809
 21
6.1796052636
  0
LINE
  5
2F2
100
AcDbEntity
  8
0
100
AcDbLine
 62
7
  6
CONTINUOUS
 10
7.5724215809
 20
6.1850554462
 11
7.5324215809
 21
6.1850554462
  0
LINE
  5
2F3
100
AcDbEntity
  8
0
100
AcDbLine
 62
7
  6
CONTINUOUS
 10
6.8824215809
 20
6.1861487086
 11
6.8324215809
 21
6.1861487086
  0
LINE
  5
2F4
100
AcDbEntity
  8
0
100
AcDbLine
 62
7
  6
CONTINUOUS
 10
6.8824215809
 20
6.1902240392
 11
6.8324215809
 21
6.1902240392
  0
LINE
  5
2F5
100
AcDbEntity
  8
0
100
AcDbLine
 62
7
  6
CONTINUOUS
 10
7.5324215809
 20
6.196400975
 11
7.5724215809
 21
6.196400975
  0
LINE
  5
2F6
100
AcDbEntity
  8
0
100
AcDbLine
 62
7
  6
CONTINUOUS
 10
7.5724215809
 20
6.1996177521
 11
7.5324215809
 21
6.1996177521
  0
LINE
  5
2F7
100
AcDbEntity
  8
0
100
AcDbLine
 62
7
  6
CONTINUOUS
 10
6.8324215809
 20
6.2012653853
 11
6.8824215809
 21
6.2012653853
  0
LINE
  5
2F8
100
AcDbEntity
  8
0
100
AcDbLine
 62
7
  6
CONTINUOUS
 10
6.8824215809
 20
6.2016880921
 11
6.8324215809
 21
6.2016880921
  0
LINE
  5
2F9
100
AcDbEntity
  8
0
100
AcDbLine
 62
7
  6
CONTINUOUS
 10
7.5724215809
 20
6.2052793381
 11
7.5324215809
 21
6.2052793381
  0
LINE
  5
2FA
100
AcDbEntity
  8
0
100
AcDbLine
 62
7
  6
CONTINUOUS
 10
6.8824215809
 20
6.20611904
 11
6.8324215809
 21
6.20611904
  0
LINE
  5
2FB
100
AcDbEntity
  8
0
100
AcDbLine
 62
7
  6
CONTINUOUS
 10
7.5324215809
 20
6.2165934046
 11
7.5724215809
 21
6.2165934046
  0
LINE
  5
2FC
100
AcDbEntity
  8
0
100
AcDbLine
 62
7
  6
CONTINUOUS
 10
6.8324215809
 20
6.2173101774
 11
6.8824215809
 21
6.2173101774
  0
LINE
  5
2FD
100
AcDbEntity
  8
0
100
AcDbLine
 62
7
  6
CONTINUOUS
 10
6.8824215809
 20
6.2185131782
 11
6.8324215809
 21
6.2185131782
  0
LINE
  5
2FE
100
AcDbEntity
  8
0
100
AcDbLine
 62
7
  6
CONTINUOUS
 10
7.5724215809
 20
6.2203754083
 11
7.5324215809
 21
6.2203754083
  0
LINE
  5
2FF
100
AcDbEntity
  8
0
100
AcDbLine
 62
7
  6
CONTINUOUS
 10
6.8824215809
 20
6.223278628
 11
6.8324215809
 21
6.223278628
  0
LINE
  5
300
100
AcDbEntity
  8
0
100
AcDbLine
 62
7
  6
CONTINUOUS
 10
7.5724215809
 20
6.2262328798
 11
7.5324215809
 21
6.2262328798
  0
LINE
  5
301
100
AcDbEntity
  8
0
100
AcDbLine
 62
7
  6
CONTINUOUS
 10
6.8324215809
 20
6.2345662258
 11
6.8824215809
 21
6.2345662258
  0
LINE
  5
302
100
AcDbEntity
  8
0
100
AcDbLine
 62
7
  6
CONTINUOUS
 10
6.8824215809
 20
6.2365437877
 11
6.8324215809
 21
6.2365437877
  0
LINE
  5
303
100
AcDbEntity
  8
0
100
AcDbLine
 62
7
  6
CONTINUOUS
 10
7.5324215809
 20
6.237484473
 11
7.5724215809
 21
6.237484473
  0
LINE
  5
304
100
AcDbEntity
  8
0
100
AcDbLine
 62
7
  6
CONTINUOUS
 10
6.8824215809
 20
6.2416210298
 11
6.8324215809
 21
6.2416210298
  0
LINE
  5
305
100
AcDbEntity
  8
0
100
AcDbLine
 62
7
  6
CONTINUOUS
 10
7.5724215809
 20
6.2418213371
 11
7.5324215809
 21
6.2418213371
  0
LINE
  5
306
100
AcDbEntity
  8
0
100
AcDbLine
 62
7
  6
CONTINUOUS
 10
7.5724215809
 20
6.2478586391
 11
7.5324215809
 21
6.2478586391
  0
LINE
  5
307
100
AcDbEntity
  8
0
100
AcDbLine
 62
7
  6
CONTINUOUS
 10
6.8324215809
 20
6.2529512975
 11
6.8824215809
 21
6.2529512975
  0
LINE
  5
308
100
AcDbEntity
  8
0
100
AcDbLine
 62
7
  6
CONTINUOUS
 10
6.8824215809
 20
6.2556939965
 11
6.8324215809
 21
6.2556939965
  0
LINE
  5
309
100
AcDbEntity
  8
0
100
AcDbLine
 62
7
  6
CONTINUOUS
 10
7.5324215809
 20
6.2590169191
 11
7.5724215809
 21
6.2590169191
  0
LINE
  5
30A
100
AcDbEntity
  8
0
100
AcDbLine
 62
7
  6
CONTINUOUS
 10
6.8824215809
 20
6.2610588357
 11
6.8324215809
 21
6.2610588357
  0
LINE
  5
30B
100
AcDbEntity
  8
0
100
AcDbLine
 62
7
  6
CONTINUOUS
 10
7.5724215809
 20
6.2638967565
 11
7.5324215809
 21
6.2638967565
  0
LINE
  5
30C
100
AcDbEntity
  8
0
100
AcDbLine
 62
7
  6
CONTINUOUS
 10
7.5724215809
 20
6.2700973412
 11
7.5324215809
 21
6.2700973412
  0
LINE
  5
30D
100
AcDbEntity
  8
0
100
AcDbLine
 62
7
  6
CONTINUOUS
 10
6.7549215809
 20
6.271484473
 11
6.7099215809
 21
6.271484473
  0
LINE
  5
30E
100
AcDbEntity
  8
0
100
AcDbLine
 62
7
  6
CONTINUOUS
 10
6.8324215809
 20
6.2723777793
 11
6.8824215809
 21
6.2723777793
  0
LINE
  5
30F
100
AcDbEntity
  8
0
100
AcDbLine
 62
7
  6
CONTINUOUS
 10
6.8824215809
 20
6.2758725452
 11
6.8324215809
 21
6.2758725452
  0
LINE
  5
310
100
AcDbEntity
  8
0
100
AcDbLine
 62
7
  6
CONTINUOUS
 10
7.5324215809
 20
6.2811317241
 11
7.5724215809
 21
6.2811317241
  0
LINE
  5
311
100
AcDbEntity
  8
0
100
AcDbLine
 62
7
  6
CONTINUOUS
 10
6.8824215809
 20
6.2814994155
 11
6.8324215809
 21
6.2814994155
  0
LINE
  5
312
100
AcDbEntity
  8
0
100
AcDbLine
 62
7
  6
CONTINUOUS
 10
7.5724215809
 20
6.2865411594
 11
7.5324215809
 21
6.2865411594
  0
LINE
  5
313
100
AcDbEntity
  8
0
100
AcDbLine
 62
7
  6
CONTINUOUS
 10
6.8324215809
 20
6.2927530952
 11
6.8824215809
 21
6.2927530952
  0
LINE
  5
314
100
AcDbEntity
  8
0
100
AcDbLine
 62
7
  6
CONTINUOUS
 10
7.5724215809
 20
6.2928880315
 11
7.5324215809
 21
6.2928880315
  0
LINE
  5
315
100
AcDbEntity
  8
0
100
AcDbLine
 62
7
  6
CONTINUOUS
 10
6.8824215809
 20
6.2969832739
 11
6.8324215809
 21
6.2969832739
  0
LINE
  5
316
100
AcDbEntity
  8
0
100
AcDbLine
 62
7
  6
CONTINUOUS
 10
7.6224215809
 20
4.008984473
 11
7.6474215809
 21
4.033984473
  0
LINE
  5
317
100
AcDbEntity
  8
0
100
AcDbLine
 62
7
  6
CONTINUOUS
 10
6.8824215809
 20
6.3028453606
 11
6.8324215809
 21
6.3028453606
  0
LINE
  5
318
100
AcDbEntity
  8
0
100
AcDbLine
 62
7
  6
CONTINUOUS
 10
7.5324215809
 20
6.3037682726
 11
7.5724215809
 21
6.3037682726
  0
LINE
  5
319
100
AcDbEntity
  8
0
100
AcDbLine
 62
7
  6
CONTINUOUS
 10
7.5724215809
 20
6.3096924792
 11
7.5324215809
 21
6.3096924792
  0
LINE
  5
31A
100
AcDbEntity
  8
0
100
AcDbLine
 62
7
  6
CONTINUOUS
 10
6.8324215809
 20
6.3139801475
 11
6.8824215809
 21
6.3139801475
  0
LINE
  5
31B
100
AcDbEntity
  8
0
100
AcDbLine
 62
7
  6
CONTINUOUS
 10
7.5724215809
 20
6.3161682422
 11
7.5324215809
 21
6.3161682422
  0
LINE
  5
31C
100
AcDbEntity
  8
0
100
AcDbLine
 62
7
  6
CONTINUOUS
 10
6.8824215809
 20
6.3189255802
 11
6.8324215809
 21
6.3189255802
  0
LINE
  5
31D
100
AcDbEntity
  8
0
100
AcDbLine
 62
7
  6
CONTINUOUS
 10
6.5891078506
 20
6.322734473
 11
6.6949215809
 21
6.322734473
  0
LINE
  5
31E
100
AcDbEntity
  8
0
100
AcDbLine
 62
7
  6
CONTINUOUS
 10
6.8824215809
 20
6.324994948
 11
6.8324215809
 21
6.324994948
  0
LINE
  5
31F
100
AcDbEntity
  8
0
100
AcDbLine
 62
7
  6
CONTINUOUS
 10
7.5324215809
 20
6.3268645197
 11
7.5724215809
 21
6.3268645197
  0
LINE
  5
320
100
AcDbEntity
  8
0
100
AcDbLine
 62
7
  6
CONTINUOUS
 10
7.5724215809
 20
6.3332872595
 11
7.5324215809
 21
6.3332872595
  0
LINE
  5
321
100
AcDbEntity
  8
0
100
AcDbLine
 62
7
  6
CONTINUOUS
 10
6.8324215809
 20
6.3359577796
 11
6.8824215809
 21
6.3359577796
  0
LINE
  5
322
100
AcDbEntity
  8
0
100
AcDbLine
 62
7
  6
CONTINUOUS
 10
7.5724215809
 20
6.3398741639
 11
7.5324215809
 21
6.3398741639
  0
LINE
  5
323
100
AcDbEntity
  8
0
100
AcDbLine
 62
7
  6
CONTINUOUS
 10
6.8824215809
 20
6.3415948992
 11
6.8324215809
 21
6.3415948992
  0
LINE
  5
324
100
AcDbEntity
  8
0
100
AcDbLine
 62
7
  6
CONTINUOUS
 10
6.8824215809
 20
6.3478426246
 11
6.8324215809
 21
6.3478426246
  0
LINE
  5
325
100
AcDbEntity
  8
0
100
AcDbLine
 62
7
  6
CONTINUOUS
 10
7.5324215809
 20
6.3503571599
 11
7.5724215809
 21
6.3503571599
  0
LINE
  5
326
100
AcDbEntity
  8
0
100
AcDbLine
 62
7
  6
CONTINUOUS
 10
7.5724215809
 20
6.3572608287
 11
7.5324215809
 21
6.3572608287
  0
LINE
  5
327
100
AcDbEntity
  8
0
100
AcDbLine
 62
7
  6
CONTINUOUS
 10
6.8324215809
 20
6.3585812582
 11
6.8824215809
 21
6.3585812582
  0
LINE
  5
328
100
AcDbEntity
  8
0
100
AcDbLine
 62
7
  6
CONTINUOUS
 10
7.5724215809
 20
6.3639408203
 11
7.5324215809
 21
6.3639408203
  0
LINE
  5
329
100
AcDbEntity
  8
0
100
AcDbLine
 62
7
  6
CONTINUOUS
 10
6.8824215809
 20
6.3648832011
 11
6.8324215809
 21
6.3648832011
  0
LINE
  5
32A
100
AcDbEntity
  8
0
100
AcDbLine
 62
7
  6
CONTINUOUS
 10
6.8824215809
 20
6.3712795109
 11
6.8324215809
 21
6.3712795109
  0
LINE
  5
32B
100
AcDbEntity
  8
0
100
AcDbLine
 62
7
  6
CONTINUOUS
 10
6.5094215809
 20
6.373984473
 11
6.4864483997
 21
6.373984473
  0
LINE
  5
32C
100
AcDbEntity
  8
0
100
AcDbLine
 62
7
  6
CONTINUOUS
 10
7.5324215809
 20
6.3741818017
 11
7.5724215809
 21
6.3741818017
  0
LINE
  5
32D
100
AcDbEntity
  8
0
100
AcDbLine
 62
7
  6
CONTINUOUS
 10
7.5724215809
 20
6.3815474771
 11
7.5324215809
 21
6.3815474771
  0
LINE
  5
32E
100
AcDbEntity
  8
0
100
AcDbLine
 62
7
  6
CONTINUOUS
 10
6.8324215809
 20
6.381742772
 11
6.8824215809
 21
6.381742772
  0
LINE
  5
32F
100
AcDbEntity
  8
0
100
AcDbLine
 62
7
  6
CONTINUOUS
 10
7.5724215809
 20
6.3883022464
 11
7.5324215809
 21
6.3883022464
  0
LINE
  5
330
100
AcDbEntity
  8
0
100
AcDbLine
 62
7
  6
CONTINUOUS
 10
6.8824215809
 20
6.3886795066
 11
6.8324215809
 21
6.3886795066
  0
LINE
  5
331
100
AcDbEntity
  8
0
100
AcDbLine
 62
7
  6
CONTINUOUS
 10
6.8824215809
 20
6.3951939195
 11
6.8324215809
 21
6.3951939195
  0
LINE
  5
332
100
AcDbEntity
  8
0
100
AcDbLine
 62
7
  6
CONTINUOUS
 10
7.5324215809
 20
6.3982731434
 11
7.5724215809
 21
6.3982731434
  0
LINE
  5
333
100
AcDbEntity
  8
0
100
AcDbLine
 62
7
  6
CONTINUOUS
 10
6.8324215809
 20
6.4053319458
 11
6.8824215809
 21
6.4053319458
  0
LINE
  5
334
100
AcDbEntity
  8
0
100
AcDbLine
 62
7
  6
CONTINUOUS
 10
7.5724215809
 20
6.4060806365
 11
7.5324215809
 21
6.4060806365
  0
LINE
  5
335
100
AcDbEntity
  8
0
100
AcDbLine
 62
7
  6
CONTINUOUS
 10
6.8824215809
 20
6.4128704155
 11
6.8324215809
 21
6.4128704155
  0
LINE
  5
336
100
AcDbEntity
  8
0
100
AcDbLine
 62
7
  6
CONTINUOUS
 10
7.5724215809
 20
6.4128916691
 11
7.5324215809
 21
6.4128916691
  0
LINE
  5
337
100
AcDbEntity
  8
0
100
AcDbLine
 62
7
  6
CONTINUOUS
 10
6.8824215809
 20
6.4194718873
 11
6.8324215809
 21
6.4194718873
  0
LINE
  5
338
100
AcDbEntity
  8
0
100
AcDbLine
 62
7
  6
CONTINUOUS
 10
7.5324215809
 20
6.4225651522
 11
7.5724215809
 21
6.4225651522
  0
LINE
  5
339
100
AcDbEntity
  8
0
100
AcDbLine
 62
7
  6
CONTINUOUS
 10
6.8324215809
 20
6.4292363666
 11
6.8824215809
 21
6.4292363666
  0
LINE
  5
33A
100
AcDbEntity
  8
0
100
AcDbLine
 62
7
  6
CONTINUOUS
 10
7.5724215809
 20
6.4307930633
 11
7.5324215809
 21
6.4307930633
  0
LINE
  5
33B
100
AcDbEntity
  8
0
100
AcDbLine
 62
7
  6
CONTINUOUS
 10
6.8824215809
 20
6.4373406471
 11
6.8324215809
 21
6.4373406471
  0
LINE
  5
33C
100
AcDbEntity
  8
0
100
AcDbLine
 62
7
  6
CONTINUOUS
 10
7.5724215809
 20
6.4376416907
 11
7.5324215809
 21
6.4376416907
  0
LINE
  5
33D
100
AcDbEntity
  8
0
100
AcDbLine
 62
7
  6
CONTINUOUS
 10
6.8824215809
 20
6.4439977188
 11
6.8324215809
 21
6.4439977188
  0
LINE
  5
33E
100
AcDbEntity
  8
0
100
AcDbLine
 62
7
  6
CONTINUOUS
 10
7.5324215809
 20
6.4469912455
 11
7.5724215809
 21
6.4469912455
  0
LINE
  5
33F
100
AcDbEntity
  8
0
100
AcDbLine
 62
7
  6
CONTINUOUS
 10
6.8324215809
 20
6.4533421188
 11
6.8824215809
 21
6.4533421188
  0
LINE
  5
340
100
AcDbEntity
  8
0
100
AcDbLine
 62
7
  6
CONTINUOUS
 10
7.5724215809
 20
6.4556170224
 11
7.5324215809
 21
6.4556170224
  0
LINE
  5
341
100
AcDbEntity
  8
0
100
AcDbLine
 62
7
  6
CONTINUOUS
 10
6.8824215809
 20
6.4619735895
 11
6.8324215809
 21
6.4619735895
  0
LINE
  5
342
100
AcDbEntity
  8
0
100
AcDbLine
 62
7
  6
CONTINUOUS
 10
7.5724215809
 20
6.462484473
 11
7.5324215809
 21
6.462484473
  0
LINE
  5
343
100
AcDbEntity
  8
0
100
AcDbLine
 62
7
  6
CONTINUOUS
 10
6.8824215809
 20
6.4686545372
 11
6.8324215809
 21
6.4686545372
  0
LINE
  5
344
100
AcDbEntity
  8
0
100
AcDbLine
 62
7
  6
CONTINUOUS
 10
7.5324215809
 20
6.471484473
 11
7.5724215809
 21
6.471484473
  0
LINE
  5
345
100
AcDbEntity
  8
0
100
AcDbLine
 62
7
  6
CONTINUOUS
 10
6.8324215809
 20
6.4775343277
 11
6.8824215809
 21
6.4775343277
  0
LINE
  5
346
100
AcDbEntity
  8
0
100
AcDbLine
 62
7
  6
CONTINUOUS
 10
7.5724215809
 20
6.480484473
 11
7.5324215809
 21
6.480484473
  0
LINE
  5
347
100
AcDbEntity
  8
0
100
AcDbLine
 62
7
  6
CONTINUOUS
 10
6.8824215809
 20
6.4866518557
 11
6.8324215809
 21
6.4866518557
  0
LINE
  5
348
100
AcDbEntity
  8
0
100
AcDbLine
 62
7
  6
CONTINUOUS
 10
7.5724215809
 20
6.4873519237
 11
7.5324215809
 21
6.4873519237
  0
LINE
  5
349
100
AcDbEntity
  8
0
100
AcDbLine
 62
7
  6
CONTINUOUS
 10
6.8824215809
 20
6.4933248415
 11
6.8324215809
 21
6.4933248415
  0
LINE
  5
34A
100
AcDbEntity
  8
0
100
AcDbLine
 62
7
  6
CONTINUOUS
 10
7.5324215809
 20
6.4959777005
 11
7.5724215809
 21
6.4959777005
  0
LINE
  5
34B
100
AcDbEntity
  8
0
100
AcDbLine
 62
7
  6
CONTINUOUS
 10
6.8324215809
 20
6.5016977062
 11
6.8824215809
 21
6.5016977062
  0
LINE
  5
34C
100
AcDbEntity
  8
0
100
AcDbLine
 62
7
  6
CONTINUOUS
 10
7.5724215809
 20
6.5053272553
 11
7.5324215809
 21
6.5053272553
  0
LINE
  5
34D
100
AcDbEntity
  8
0
100
AcDbLine
 62
7
  6
CONTINUOUS
 10
6.8824215809
 20
6.5112578423
 11
6.8324215809
 21
6.5112578423
  0
LINE
  5
34E
100
AcDbEntity
  8
0
100
AcDbLine
 62
7
  6
CONTINUOUS
 10
7.5724215809
 20
6.5121758828
 11
7.5324215809
 21
6.5121758828
  0
LINE
  5
34F
100
AcDbEntity
  8
0
100
AcDbLine
 62
7
  6
CONTINUOUS
 10
6.8824215809
 20
6.5178910666
 11
6.8324215809
 21
6.5178910666
  0
LINE
  5
350
100
AcDbEntity
  8
0
100
AcDbLine
 62
7
  6
CONTINUOUS
 10
7.5324215809
 20
6.5204037938
 11
7.5724215809
 21
6.5204037938
  0
LINE
  5
351
100
AcDbEntity
  8
0
100
AcDbLine
 62
7
  6
CONTINUOUS
 10
6.8324215809
 20
6.5257171049
 11
6.8824215809
 21
6.5257171049
  0
LINE
  5
352
100
AcDbEntity
  8
0
100
AcDbLine
 62
7
  6
CONTINUOUS
 10
7.5724215809
 20
6.5300772769
 11
7.5324215809
 21
6.5300772769
  0
LINE
  5
353
100
AcDbEntity
  8
0
100
AcDbLine
 62
7
  6
CONTINUOUS
 10
6.8824215809
 20
6.5356742907
 11
6.8324215809
 21
6.5356742907
  0
LINE
  5
354
100
AcDbEntity
  8
0
100
AcDbLine
 62
7
  6
CONTINUOUS
 10
7.5724215809
 20
6.5368883096
 11
7.5324215809
 21
6.5368883096
  0
LINE
  5
355
100
AcDbEntity
  8
0
100
AcDbLine
 62
7
  6
CONTINUOUS
 10
7.4924215809
 20
6.1589849601
 11
7.4924215809
 21
6.783983986
  0
LINE
  5
356
100
AcDbEntity
  8
0
100
AcDbLine
 62
7
  6
CONTINUOUS
 10
7.4974215809
 20
6.8400372671
 11
7.4974215809
 21
6.1029316789
  0
LINE
  5
357
100
AcDbEntity
  8
0
100
AcDbLine
 62
7
  6
CONTINUOUS
 10
7.4974215809
 20
3.9302686201
 11
7.4974215809
 21
3.0127003259
  0
LINE
  5
358
100
AcDbEntity
  8
0
100
AcDbLine
 62
7
  6
CONTINUOUS
 10
7.505498504
 20
2.9993935229
 11
7.505498504
 21
3.9435754231
  0
LINE
  5
359
100
AcDbEntity
  8
0
100
AcDbLine
 62
7
  6
CONTINUOUS
 10
7.5079215809
 20
6.854346601
 11
7.5079215809
 21
6.0886223451
  0
LINE
  5
35A
100
AcDbEntity
  8
0
100
AcDbLine
 62
7
  6
CONTINUOUS
 10
7.5324215809
 20
2.908984473
 11
7.5324215809
 21
4.033984473
  0
LINE
  5
35B
100
AcDbEntity
  8
0
100
AcDbLine
 62
7
  6
CONTINUOUS
 10
7.5324215809
 20
5.9965697438
 11
7.5324215809
 21
6.9463992022
  0
LINE
  5
35C
100
AcDbEntity
  8
0
100
AcDbLine
 62
7
  6
CONTINUOUS
 10
7.5724215809
 20
6.9463992022
 11
7.5724215809
 21
5.9965697438
  0
LINE
  5
35D
100
AcDbEntity
  8
0
100
AcDbLine
 62
7
  6
CONTINUOUS
 10
7.5724215809
 20
2.908984473
 11
7.5724215809
 21
4.033984473
  0
LINE
  5
35E
100
AcDbEntity
  8
0
100
AcDbLine
 62
7
  6
CONTINUOUS
 10
7.6224215809
 20
2.933984473
 11
7.6224215809
 21
4.008984473
  0
LINE
  5
35F
100
AcDbEntity
  8
0
100
AcDbLine
 62
7
  6
CONTINUOUS
 10
7.6224215809
 20
6.021484473
 11
7.6224215809
 21
6.921484473
  0
LINE
  5
360
100
AcDbEntity
  8
0
100
AcDbLine
 62
7
  6
CONTINUOUS
 10
6.8824215809
 20
6.542236143
 11
6.8324215809
 21
6.542236143
  0
LINE
  5
361
100
AcDbEntity
  8
0
100
AcDbLine
 62
7
  6
CONTINUOUS
 10
7.5324215809
 20
6.5446958027
 11
7.5724215809
 21
6.5446958027
  0
LINE
  5
362
100
AcDbEntity
  8
0
100
AcDbLine
 62
7
  6
CONTINUOUS
 10
6.8324215809
 20
6.5494780604
 11
6.8824215809
 21
6.5494780604
  0
LINE
  5
363
100
AcDbEntity
  8
0
100
AcDbLine
 62
7
  6
CONTINUOUS
 10
7.5724215809
 20
6.5546666997
 11
7.5324215809
 21
6.5546666997
  0
LINE
  5
364
100
AcDbEntity
  8
0
100
AcDbLine
 62
7
  6
CONTINUOUS
 10
6.8824215809
 20
6.5597848455
 11
6.8324215809
 21
6.5597848455
  0
LINE
  5
365
100
AcDbEntity
  8
0
100
AcDbLine
 62
7
  6
CONTINUOUS
 10
7.5724215809
 20
6.561421469
 11
7.5324215809
 21
6.561421469
  0
LINE
  5
366
100
AcDbEntity
  8
0
100
AcDbLine
 62
7
  6
CONTINUOUS
 10
6.8824215809
 20
6.5662440556
 11
6.8324215809
 21
6.5662440556
  0
LINE
  5
367
100
AcDbEntity
  8
0
100
AcDbLine
 62
7
  6
CONTINUOUS
 10
7.5324215809
 20
6.5687871443
 11
7.5724215809
 21
6.5687871443
  0
LINE
  5
368
100
AcDbEntity
  8
0
100
AcDbLine
 62
7
  6
CONTINUOUS
 10
6.5094215809
 20
6.568984473
 11
6.4864483997
 21
6.568984473
  0
LINE
  5
369
100
AcDbEntity
  8
0
100
AcDbLine
 62
7
  6
CONTINUOUS
 10
6.8324215809
 20
6.5728673409
 11
6.8824215809
 21
6.5728673409
  0
LINE
  5
36A
100
AcDbEntity
  8
0
100
AcDbLine
 62
7
  6
CONTINUOUS
 10
7.5724215809
 20
6.5790281258
 11
7.5324215809
 21
6.5790281258
  0
LINE
  5
36B
100
AcDbEntity
  8
0
100
AcDbLine
 62
7
  6
CONTINUOUS
 10
6.8824215809
 20
6.5834746087
 11
6.8324215809
 21
6.5834746087
  0
LINE
  5
36C
100
AcDbEntity
  8
0
100
AcDbLine
 62
7
  6
CONTINUOUS
 10
7.5724215809
 20
6.5857081173
 11
7.5324215809
 21
6.5857081173
  0
LINE
  5
36D
100
AcDbEntity
  8
0
100
AcDbLine
 62
7
  6
CONTINUOUS
 10
6.8824215809
 20
6.5898003956
 11
6.8324215809
 21
6.5898003956
  0
LINE
  5
36E
100
AcDbEntity
  8
0
100
AcDbLine
 62
7
  6
CONTINUOUS
 10
7.5324215809
 20
6.5926117861
 11
7.5724215809
 21
6.5926117861
  0
LINE
  5
36F
100
AcDbEntity
  8
0
100
AcDbLine
 62
7
  6
CONTINUOUS
 10
6.8324215809
 20
6.5957734859
 11
6.8824215809
 21
6.5957734859
  0
LINE
  5
370
100
AcDbEntity
  8
0
100
AcDbLine
 62
7
  6
CONTINUOUS
 10
7.5724215809
 20
6.6030947822
 11
7.5324215809
 21
6.6030947822
  0
LINE
  5
371
100
AcDbEntity
  8
0
100
AcDbLine
 62
7
  6
CONTINUOUS
 10
6.8824215809
 20
6.6066306879
 11
6.8324215809
 21
6.6066306879
  0
LINE
  5
372
100
AcDbEntity
  8
0
100
AcDbLine
 62
7
  6
CONTINUOUS
 10
7.5724215809
 20
6.6096816866
 11
7.5324215809
 21
6.6096816866
  0
LINE
  5
373
100
AcDbEntity
  8
0
100
AcDbLine
 62
7
  6
CONTINUOUS
 10
6.8824215809
 20
6.6127929063
 11
6.8324215809
 21
6.6127929063
  0
LINE
  5
374
100
AcDbEntity
  8
0
100
AcDbLine
 62
7
  6
CONTINUOUS
 10
7.5324215809
 20
6.6161044264
 11
7.5724215809
 21
6.6161044264
  0
LINE
  5
375
100
AcDbEntity
  8
0
100
AcDbLine
 62
7
  6
CONTINUOUS
 10
6.8324215809
 20
6.6180873372
 11
6.8824215809
 21
6.6180873372
  0
LINE
  5
376
100
AcDbEntity
  8
0
100
AcDbLine
 62
7
  6
CONTINUOUS
 10
6.5891078506
 20
6.620234473
 11
6.6949215809
 21
6.620234473
  0
LINE
  5
377
100
AcDbEntity
  8
0
100
AcDbLine
 62
7
  6
CONTINUOUS
 10
7.5724215809
 20
6.6268007039
 11
7.5324215809
 21
6.6268007039
  0
LINE
  5
378
100
AcDbEntity
  8
0
100
AcDbLine
 62
7
  6
CONTINUOUS
 10
6.8824215809
 20
6.6291427339
 11
6.8324215809
 21
6.6291427339
  0
LINE
  5
379
100
AcDbEntity
  8
0
100
AcDbLine
 62
7
  6
CONTINUOUS
 10
7.5724215809
 20
6.6332764669
 11
7.5324215809
 21
6.6332764669
  0
LINE
  5
37A
100
AcDbEntity
  8
0
100
AcDbLine
 62
7
  6
CONTINUOUS
 10
6.8824215809
 20
6.635112018
 11
6.8324215809
 21
6.635112018
  0
LINE
  5
37B
100
AcDbEntity
  8
0
100
AcDbLine
 62
7
  6
CONTINUOUS
 10
7.5324215809
 20
6.6392006734
 11
7.5724215809
 21
6.6392006734
  0
LINE
  5
37C
100
AcDbEntity
  8
0
100
AcDbLine
 62
7
  6
CONTINUOUS
 10
6.8324215809
 20
6.639702559
 11
6.8824215809
 21
6.639702559
  0
LINE
  5
37D
100
AcDbEntity
  8
0
100
AcDbLine
 62
7
  6
CONTINUOUS
 10
7.5724215809
 20
6.6500809146
 11
7.5324215809
 21
6.6500809146
  0
LINE
  5
37E
100
AcDbEntity
  8
0
100
AcDbLine
 62
7
  6
CONTINUOUS
 10
6.8824215809
 20
6.6509034665
 11
6.8324215809
 21
6.6509034665
  0
LINE
  5
37F
100
AcDbEntity
  8
0
100
AcDbLine
 62
7
  6
CONTINUOUS
 10
7.5724215809
 20
6.6564277866
 11
7.5324215809
 21
6.6564277866
  0
LINE
  5
380
100
AcDbEntity
  8
0
100
AcDbLine
 62
7
  6
CONTINUOUS
 10
6.8824215809
 20
6.6566513699
 11
6.8324215809
 21
6.6566513699
  0
LINE
  5
381
100
AcDbEntity
  8
0
100
AcDbLine
 62
7
  6
CONTINUOUS
 10
6.8324215809
 20
6.6605161451
 11
6.8824215809
 21
6.6605161451
  0
LINE
  5
382
100
AcDbEntity
  8
0
100
AcDbLine
 62
7
  6
CONTINUOUS
 10
7.5324215809
 20
6.661837222
 11
7.5724215809
 21
6.661837222
  0
LINE
  5
383
100
AcDbEntity
  8
0
100
AcDbLine
 62
7
  6
CONTINUOUS
 10
6.7549215809
 20
6.671484473
 11
6.7099215809
 21
6.671484473
  0
LINE
  5
384
100
AcDbEntity
  8
0
100
AcDbLine
 62
7
  6
CONTINUOUS
 10
6.8824215809
 20
6.6718091858
 11
6.8324215809
 21
6.6718091858
  0
LINE
  5
385
100
AcDbEntity
  8
0
100
AcDbLine
 62
7
  6
CONTINUOUS
 10
7.5724215809
 20
6.6728716048
 11
7.5324215809
 21
6.6728716048
  0
LINE
  5
386
100
AcDbEntity
  8
0
100
AcDbLine
 62
7
  6
CONTINUOUS
 10
6.8824215809
 20
6.6773083173
 11
6.8324215809
 21
6.6773083173
  0
LINE
  5
387
100
AcDbEntity
  8
0
100
AcDbLine
 62
7
  6
CONTINUOUS
 10
7.5724215809
 20
6.6790721895
 11
7.5324215809
 21
6.6790721895
  0
LINE
  5
388
100
AcDbEntity
  8
0
100
AcDbLine
 62
7
  6
CONTINUOUS
 10
6.8324215809
 20
6.6804289092
 11
6.8824215809
 21
6.6804289092
  0
LINE
  5
389
100
AcDbEntity
  8
0
100
AcDbLine
 62
7
  6
CONTINUOUS
 10
7.5324215809
 20
6.6839520269
 11
7.5724215809
 21
6.6839520269
  0
LINE
  5
38A
100
AcDbEntity
  8
0
100
AcDbLine
 62
7
  6
CONTINUOUS
 10
6.8824215809
 20
6.6917602667
 11
6.8324215809
 21
6.6917602667
  0
LINE
  5
38B
100
AcDbEntity
  8
0
100
AcDbLine
 62
7
  6
CONTINUOUS
 10
7.5724215809
 20
6.695110307
 11
7.5324215809
 21
6.695110307
  0
LINE
  5
38C
100
AcDbEntity
  8
0
100
AcDbLine
 62
7
  6
CONTINUOUS
 10
6.8824215809
 20
6.6969844202
 11
6.8324215809
 21
6.6969844202
  0
LINE
  5
38D
100
AcDbEntity
  8
0
100
AcDbLine
 62
7
  6
CONTINUOUS
 10
6.8324215809
 20
6.6993459579
 11
6.8824215809
 21
6.6993459579
  0
LINE
  5
38E
100
AcDbEntity
  8
0
100
AcDbLine
 62
7
  6
CONTINUOUS
 10
7.5724215809
 20
6.701147609
 11
7.5324215809
 21
6.701147609
  0
LINE
  5
38F
100
AcDbEntity
  8
0
100
AcDbLine
 62
7
  6
CONTINUOUS
 10
7.5324215809
 20
6.705484473
 11
7.5724215809
 21
6.705484473
  0
LINE
  5
390
100
AcDbEntity
  8
0
100
AcDbLine
 62
7
  6
CONTINUOUS
 10
6.8824215809
 20
6.7106616331
 11
6.8324215809
 21
6.7106616331
  0
LINE
  5
391
100
AcDbEntity
  8
0
100
AcDbLine
 62
7
  6
CONTINUOUS
 10
6.8824215809
 20
6.7155859133
 11
6.8324215809
 21
6.7155859133
  0
LINE
  5
392
100
AcDbEntity
  8
0
100
AcDbLine
 62
7
  6
CONTINUOUS
 10
7.5724215809
 20
6.7167360663
 11
7.5324215809
 21
6.7167360663
  0
LINE
  5
393
100
AcDbEntity
  8
0
100
AcDbLine
 62
7
  6
CONTINUOUS
 10
6.8324215809
 20
6.7171771428
 11
6.8824215809
 21
6.7171771428
  0
LINE
  5
394
100
AcDbEntity
  8
0
100
AcDbLine
 62
7
  6
CONTINUOUS
 10
7.5724215809
 20
6.7225935377
 11
7.5324215809
 21
6.7225935377
  0
LINE
  5
395
100
AcDbEntity
  8
0
100
AcDbLine
 62
7
  6
CONTINUOUS
 10
7.5324215809
 20
6.7263755414
 11
7.5724215809
 21
6.7263755414
  0
LINE
  5
396
100
AcDbEntity
  8
0
100
AcDbLine
 62
7
  6
CONTINUOUS
 10
6.8824215809
 20
6.7284232114
 11
6.8324215809
 21
6.7284232114
  0
LINE
  5
397
100
AcDbEntity
  8
0
100
AcDbLine
 62
7
  6
CONTINUOUS
 10
6.8824215809
 20
6.7330241518
 11
6.8324215809
 21
6.7330241518
  0
LINE
  5
398
100
AcDbEntity
  8
0
100
AcDbLine
 62
7
  6
CONTINUOUS
 10
6.8324215809
 20
6.7338374903
 11
6.8824215809
 21
6.7338374903
  0
LINE
  5
399
100
AcDbEntity
  8
0
100
AcDbLine
 62
7
  6
CONTINUOUS
 10
7.5724215809
 20
6.737689608
 11
7.5324215809
 21
6.737689608
  0
LINE
  5
39A
100
AcDbEntity
  8
0
100
AcDbLine
 62
7
  6
CONTINUOUS
 10
7.5724215809
 20
6.743351194
 11
7.5324215809
 21
6.743351194
  0
LINE
  5
39B
100
AcDbEntity
  8
0
100
AcDbLine
 62
7
  6
CONTINUOUS
 10
6.8824215809
 20
6.7449603597
 11
6.8324215809
 21
6.7449603597
  0
LINE
  5
39C
100
AcDbEntity
  8
0
100
AcDbLine
 62
7
  6
CONTINUOUS
 10
7.5324215809
 20
6.7465679711
 11
7.5724215809
 21
6.7465679711
  0
LINE
  5
39D
100
AcDbEntity
  8
0
100
AcDbLine
 62
7
  6
CONTINUOUS
 10
6.8824215809
 20
6.7492160347
 11
6.8324215809
 21
6.7492160347
  0
LINE
  5
39E
100
AcDbEntity
  8
0
100
AcDbLine
 62
7
  6
CONTINUOUS
 10
7.5724215809
 20
6.7579134999
 11
7.5324215809
 21
6.7579134999
  0
LINE
  5
39F
100
AcDbEntity
  8
0
100
AcDbLine
 62
7
  6
CONTINUOUS
 10
6.8824215809
 20
6.7601942707
 11
6.8324215809
 21
6.7601942707
  0
LINE
  5
3A0
100
AcDbEntity
  8
0
100
AcDbLine
 62
7
  6
CONTINUOUS
 10
7.5724215809
 20
6.7633636825
 11
7.5324215809
 21
6.7633636825
  0
LINE
  5
3A1
100
AcDbEntity
  8
0
100
AcDbLine
 62
7
  6
CONTINUOUS
 10
6.8824215809
 20
6.7640844001
 11
6.8324215809
 21
6.7640844001
  0
LINE
  5
3A2
100
AcDbEntity
  8
0
100
AcDbLine
 62
7
  6
CONTINUOUS
 10
7.5324215809
 20
6.766006416
 11
7.5724215809
 21
6.766006416
  0
LINE
  5
3A3
100
AcDbEntity
  8
0
100
AcDbLine
 62
7
  6
CONTINUOUS
 10
7.4974215809
 20
6.771484473
 11
7.4924215809
 21
6.771484473
  0
LINE
  5
3A4
100
AcDbEntity
  8
0
100
AcDbLine
 62
7
  6
CONTINUOUS
 10
6.8824215809
 20
6.7740523481
 11
6.8324215809
 21
6.7740523481
  0
LINE
  5
3A5
100
AcDbEntity
  8
0
100
AcDbLine
 62
7
  6
CONTINUOUS
 10
7.6474215809
 20
2.908984473
 11
7.6474215809
 21
4.033984473
  0
LINE
  5
3A6
100
AcDbEntity
  8
0
100
AcDbLine
 62
7
  6
CONTINUOUS
 10
7.6474215809
 20
5.996484473
 11
7.6474215809
 21
6.946484473
  0
LINE
  5
3A7
100
AcDbEntity
  8
0
100
AcDbLine
 62
7
  6
CONTINUOUS
 10
7.6874215809
 20
2.908984473
 11
7.6874215809
 21
4.033984473
  0
LINE
  5
3A8
100
AcDbEntity
  8
0
100
AcDbLine
 62
7
  6
CONTINUOUS
 10
7.6874215809
 20
5.996484473
 11
7.6874215809
 21
6.946484473
  0
LINE
  5
3A9
100
AcDbEntity
  8
0
100
AcDbLine
 62
7
  6
CONTINUOUS
 10
7.5724215809
 20
6.7773523098
 11
7.5324215809
 21
6.7773523098
  0
LINE
  5
3AA
100
AcDbEntity
  8
0
100
AcDbLine
 62
7
  6
CONTINUOUS
 10
6.8824215809
 20
6.7775583937
 11
6.8324215809
 21
6.7775583937
  0
LINE
  5
3AB
100
AcDbEntity
  8
0
100
AcDbLine
 62
7
  6
CONTINUOUS
 10
7.5724215809
 20
6.7825761503
 11
7.5324215809
 21
6.7825761503
  0
LINE
  5
3AC
100
AcDbEntity
  8
0
100
AcDbLine
 62
7
  6
CONTINUOUS
 10
7.4924215809
 20
6.783984473
 11
6.8824215809
 21
6.783984473
  0
LINE
  5
3AD
100
AcDbEntity
  8
0
100
AcDbLine
 62
7
  6
CONTINUOUS
 10
7.5324215809
 20
6.7846375968
 11
7.5724215809
 21
6.7846375968
  0
LINE
  5
3AE
100
AcDbEntity
  8
0
100
AcDbLine
 62
7
  6
CONTINUOUS
 10
6.8824215809
 20
6.7864685519
 11
6.8324215809
 21
6.7864685519
  0
LINE
  5
3AF
100
AcDbEntity
  8
0
100
AcDbLine
 62
7
  6
CONTINUOUS
 10
6.8824215809
 20
6.7895738057
 11
6.8324215809
 21
6.7895738057
  0
LINE
  5
3B0
100
AcDbEntity
  8
0
100
AcDbLine
 62
7
  6
CONTINUOUS
 10
7.5724215809
 20
6.7959527572
 11
7.5324215809
 21
6.7959527572
  0
LINE
  5
3B1
100
AcDbEntity
  8
0
100
AcDbLine
 62
7
  6
CONTINUOUS
 10
6.8824215809
 20
6.797383713
 11
6.8324215809
 21
6.797383713
  0
LINE
  5
3B2
100
AcDbEntity
  8
0
100
AcDbLine
 62
7
  6
CONTINUOUS
 10
6.8824215809
 20
6.8000733771
 11
6.8324215809
 21
6.8000733771
  0
LINE
  5
3B3
100
AcDbEntity
  8
0
100
AcDbLine
 62
7
  6
CONTINUOUS
 10
7.5724215809
 20
6.8009359375
 11
7.5324215809
 21
6.8009359375
  0
LINE
  5
3B4
100
AcDbEntity
  8
0
100
AcDbLine
 62
7
  6
CONTINUOUS
 10
7.5324215809
 20
6.8024104466
 11
7.5724215809
 21
6.8024104466
  0
LINE
  5
3B5
100
AcDbEntity
  8
0
100
AcDbLine
 62
7
  6
CONTINUOUS
 10
6.8824215809
 20
6.8067458158
 11
6.8324215809
 21
6.8067458158
  0
LINE
  5
3B6
100
AcDbEntity
  8
0
100
AcDbLine
 62
7
  6
CONTINUOUS
 10
6.8824215809
 20
6.8090070728
 11
6.8324215809
 21
6.8090070728
  0
LINE
  5
3B7
100
AcDbEntity
  8
0
100
AcDbLine
 62
7
  6
CONTINUOUS
 10
7.5724215809
 20
6.8136638595
 11
7.5324215809
 21
6.8136638595
  0
LINE
  5
3B8
100
AcDbEntity
  8
0
100
AcDbLine
 62
7
  6
CONTINUOUS
 10
6.8824215809
 20
6.8145102457
 11
6.8324215809
 21
6.8145102457
  0
LINE
  5
3B9
100
AcDbEntity
  8
0
100
AcDbLine
 62
7
  6
CONTINUOUS
 10
6.8824215809
 20
6.8163323195
 11
6.8324215809
 21
6.8163323195
  0
LINE
  5
3BA
100
AcDbEntity
  8
0
100
AcDbLine
 62
7
  6
CONTINUOUS
 10
7.5724215809
 20
6.8183927211
 11
7.5324215809
 21
6.8183927211
  0
LINE
  5
3BB
100
AcDbEntity
  8
0
100
AcDbLine
 62
7
  6
CONTINUOUS
 10
7.5324215809
 20
6.8192762513
 11
7.5724215809
 21
6.8192762513
  0
LINE
  5
3BC
100
AcDbEntity
  8
0
100
AcDbLine
 62
7
  6
CONTINUOUS
 10
6.8824215809
 20
6.8206400015
 11
6.8324215809
 21
6.8206400015
  0
LINE
  5
3BD
100
AcDbEntity
  8
0
100
AcDbLine
 62
7
  6
CONTINUOUS
 10
6.8824215809
 20
6.8220142093
 11
6.8324215809
 21
6.8220142093
  0
LINE
  5
3BE
100
AcDbEntity
  8
0
100
AcDbLine
 62
7
  6
CONTINUOUS
 10
6.8824215809
 20
6.8251058722
 11
6.8324215809
 21
6.8251058722
  0
LINE
  5
3BF
100
AcDbEntity
  8
0
100
AcDbLine
 62
7
  6
CONTINUOUS
 10
6.8824215809
 20
6.8260256652
 11
6.8324215809
 21
6.8260256652
  0
LINE
  5
3C0
100
AcDbEntity
  8
0
100
AcDbLine
 62
7
  6
CONTINUOUS
 10
6.8824215809
 20
6.827886576
 11
6.8324215809
 21
6.827886576
  0
LINE
  5
3C1
100
AcDbEntity
  8
0
100
AcDbLine
 62
7
  6
CONTINUOUS
 10
6.8824215809
 20
6.8283475709
 11
6.8324215809
 21
6.8283475709
  0
LINE
  5
3C2
100
AcDbEntity
  8
0
100
AcDbLine
 62
7
  6
CONTINUOUS
 10
6.8824215809
 20
6.8289688614
 11
6.8324215809
 21
6.8289688614
  0
LINE
  5
3C3
100
AcDbEntity
  8
0
100
AcDbLine
 62
7
  6
CONTINUOUS
 10
7.5724215809
 20
6.830437072
 11
7.5324215809
 21
6.830437072
  0
LINE
  5
3C4
100
AcDbEntity
  8
0
100
AcDbLine
 62
7
  6
CONTINUOUS
 10
7.5724215809
 20
6.8348986533
 11
7.5324215809
 21
6.8348986533
  0
LINE
  5
3C5
100
AcDbEntity
  8
0
100
AcDbLine
 62
7
  6
CONTINUOUS
 10
7.5324215809
 20
6.835188783
 11
7.5724215809
 21
6.835188783
  0
LINE
  5
3C6
100
AcDbEntity
  8
0
100
AcDbLine
 62
7
  6
CONTINUOUS
 10
7.5724215809
 20
6.8462264204
 11
7.5324215809
 21
6.8462264204
  0
LINE
  5
3C7
100
AcDbEntity
  8
0
100
AcDbLine
 62
7
  6
CONTINUOUS
 10
7.5724215809
 20
6.8504084925
 11
7.5324215809
 21
6.8504084925
  0
LINE
  5
3C8
100
AcDbEntity
  8
0
100
AcDbLine
 62
7
  6
CONTINUOUS
 10
7.5724215809
 20
6.8609886271
 11
7.5324215809
 21
6.8609886271
  0
LINE
  5
3C9
100
AcDbEntity
  8
0
100
AcDbLine
 62
7
  6
CONTINUOUS
 10
7.5724215809
 20
6.8648797274
 11
7.5324215809
 21
6.8648797274
  0
LINE
  5
3CA
100
AcDbEntity
  8
0
100
AcDbLine
 62
7
  6
CONTINUOUS
 10
7.5724215809
 20
6.87468323
 11
7.5324215809
 21
6.87468323
  0
LINE
  5
3CB
100
AcDbEntity
  8
0
100
AcDbLine
 62
7
  6
CONTINUOUS
 10
7.5724215809
 20
6.8782726931
 11
7.5324215809
 21
6.8782726931
  0
LINE
  5
3CC
100
AcDbEntity
  8
0
100
AcDbLine
 62
7
  6
CONTINUOUS
 10
7.5724215809
 20
6.8872726931
 11
7.5324215809
 21
6.8872726931
  0
LINE
  5
3CD
100
AcDbEntity
  8
0
100
AcDbLine
 62
7
  6
CONTINUOUS
 10
7.5724215809
 20
6.8905506807
 11
7.5324215809
 21
6.8905506807
  0
LINE
  5
3CE
100
AcDbEntity
  8
0
100
AcDbLine
 62
7
  6
CONTINUOUS
 10
7.5724215809
 20
6.8987225097
 11
7.5324215809
 21
6.8987225097
  0
LINE
  5
3CF
100
AcDbEntity
  8
0
100
AcDbLine
 62
7
  6
CONTINUOUS
 10
7.5724215809
 20
6.9016800369
 11
7.5324215809
 21
6.9016800369
  0
LINE
  5
3D0
100
AcDbEntity
  8
0
100
AcDbLine
 62
7
  6
CONTINUOUS
 10
7.5724215809
 20
6.9090012964
 11
7.5324215809
 21
6.9090012964
  0
LINE
  5
3D1
100
AcDbEntity
  8
0
100
AcDbLine
 62
7
  6
CONTINUOUS
 10
7.5724215809
 20
6.9116302569
 11
7.5324215809
 21
6.9116302569
  0
LINE
  5
3D2
100
AcDbEntity
  8
0
100
AcDbLine
 62
7
  6
CONTINUOUS
 10
7.5724215809
 20
6.91808088
 11
7.5324215809
 21
6.91808088
  0
LINE
  5
3D3
100
AcDbEntity
  8
0
100
AcDbLine
 62
7
  6
CONTINUOUS
 10
7.5724215809
 20
6.920374068
 11
7.5324215809
 21
6.920374068
  0
LINE
  5
3D4
100
AcDbEntity
  8
0
100
AcDbLine
 62
7
  6
CONTINUOUS
 10
7.6224215809
 20
6.921484473
 11
7.5724215809
 21
6.921484473
  0
LINE
  5
3D5
100
AcDbEntity
  8
0
100
AcDbLine
 62
7
  6
CONTINUOUS
 10
7.5724215809
 20
6.9259363739
 11
7.5324215809
 21
6.9259363739
  0
LINE
  5
3D6
100
AcDbEntity
  8
0
100
AcDbLine
 62
7
  6
CONTINUOUS
 10
7.5724215809
 20
6.9278875038
 11
7.5324215809
 21
6.9278875038
  0
LINE
  5
3D7
100
AcDbEntity
  8
0
100
AcDbLine
 62
7
  6
CONTINUOUS
 10
7.5724215809
 20
6.9325462466
 11
7.5324215809
 21
6.9325462466
  0
LINE
  5
3D8
100
AcDbEntity
  8
0
100
AcDbLine
 62
7
  6
CONTINUOUS
 10
7.5724215809
 20
6.9341499707
 11
7.5324215809
 21
6.9341499707
  0
LINE
  5
3D9
100
AcDbEntity
  8
0
100
AcDbLine
 62
7
  6
CONTINUOUS
 10
7.5724215809
 20
6.9378923811
 11
7.5324215809
 21
6.9378923811
  0
LINE
  5
3DA
100
AcDbEntity
  8
0
100
AcDbLine
 62
7
  6
CONTINUOUS
 10
7.5724215809
 20
6.9391443036
 11
7.5324215809
 21
6.9391443036
  0
LINE
  5
3DB
100
AcDbEntity
  8
0
100
AcDbLine
 62
7
  6
CONTINUOUS
 10
7.5724215809
 20
6.941960124
 11
7.5324215809
 21
6.941960124
  0
LINE
  5
3DC
100
AcDbEntity
  8
0
100
AcDbLine
 62
7
  6
CONTINUOUS
 10
7.5724215809
 20
6.9428568135
 11
7.5324215809
 21
6.9428568135
  0
LINE
  5
3DD
100
AcDbEntity
  8
0
100
AcDbLine
 62
7
  6
CONTINUOUS
 10
7.5724215809
 20
6.9447383258
 11
7.5324215809
 21
6.9447383258
  0
LINE
  5
3DE
100
AcDbEntity
  8
0
100
AcDbLine
 62
7
  6
CONTINUOUS
 10
7.5724215809
 20
6.9452773245
 11
7.5324215809
 21
6.9452773245
  0
LINE
  5
3DF
100
AcDbEntity
  8
0
100
AcDbLine
 62
7
  6
CONTINUOUS
 10
7.5724215809
 20
6.9462193717
 11
7.5324215809
 21
6.9462193717
  0
LINE
  5
3E0
100
AcDbEntity
  8
0
100
AcDbLine
 62
7
  6
CONTINUOUS
 10
7.5724215809
 20
6.9463992022
 11
7.5324215809
 21
6.9463992022
  0
LINE
  5
3E1
100
AcDbEntity
  8
0
100
AcDbLine
 62
7
  6
CONTINUOUS
 10
7.6874215809
 20
6.946484473
 11
7.6474215809
 21
6.946484473
  0
LINE
  5
3E2
100
AcDbEntity
  8
0
100
AcDbLine
 62
7
  6
CONTINUOUS
 10
7.6474215809
 20
5.996484473
 11
7.6224215809
 21
6.021484473
  0
ARC
  5
3E3
100
AcDbEntity
  8
0
100
AcDbCircle
 62
7
  6
CONTINUOUS
 10
3.9374215809
 20
2.471484473
 40
1.21875
100
AcDbArc
 50
90.0
 51
180.0
  0
ARC
  5
3E4
100
AcDbEntity
  8
0
100
AcDbCircle
 62
7
  6
CONTINUOUS
 10
3.9374215809
 20
2.471484473
 40
0.78125
100
AcDbArc
 50
90.0
 51
180.0
  0
ARC
  5
3E5
100
AcDbEntity
  8
0
100
AcDbCircle
 62
7
  6
CONTINUOUS
 10
6.4999215809
 20
3.1162834757
 40
0.075
100
AcDbArc
 50
2.3645578217
 51
72.208409427
  0
ARC
  5
3E6
100
AcDbEntity
  8
0
100
AcDbCircle
 62
7
  6
CONTINUOUS
 10
6.4999215809
 20
3.8266854703
 40
0.075
100
AcDbArc
 50
287.791590573
 51
357.6354421783
  0
ARC
  5
3E7
100
AcDbEntity
  8
0
100
AcDbCircle
 62
7
  6
CONTINUOUS
 10
7.4824215809
 20
2.955037513
 40
0.05
100
AcDbArc
 50
0.0
 51
62.5135737496
  0
ARC
  5
3E8
100
AcDbEntity
  8
0
100
AcDbCircle
 62
7
  6
CONTINUOUS
 10
7.4824215809
 20
3.9879314331
 40
0.05
100
AcDbArc
 50
297.4864262504
 51
360.0
  0
ARC
  5
3E9
100
AcDbEntity
  8
0
100
AcDbCircle
 62
7
  6
CONTINUOUS
 10
7.5124215809
 20
3.0127003259
 40
0.015
100
AcDbArc
 50
180.0
 51
242.5135737496
  0
ARC
  5
3EA
100
AcDbEntity
  8
0
100
AcDbCircle
 62
7
  6
CONTINUOUS
 10
7.5124215809
 20
3.9302686201
 40
0.015
100
AcDbArc
 50
117.4864262504
 51
180.0
  0
ARC
  5
3EB
100
AcDbEntity
  8
0
100
AcDbCircle
 62
7
  6
CONTINUOUS
 10
6.5274215809
 20
3.2019791582
 40
0.015
100
AcDbArc
 50
180.0
 51
252.208409427
  0
ARC
  5
3EC
100
AcDbEntity
  8
0
100
AcDbCircle
 62
7
  6
CONTINUOUS
 10
6.5274215809
 20
3.7409897878
 40
0.015
100
AcDbArc
 50
107.791590573
 51
180.0
  0
ARC
  5
3ED
100
AcDbEntity
  8
0
100
AcDbCircle
 62
7
  6
CONTINUOUS
 10
6.4974215809
 20
3.206484473
 40
0.015
100
AcDbArc
 50
0.0
 51
90.0
  0
ARC
  5
3EE
100
AcDbEntity
  8
0
100
AcDbCircle
 62
7
  6
CONTINUOUS
 10
6.4974215809
 20
3.736484473
 40
0.015
100
AcDbArc
 50
270.0
 51
360.0
  0
ARC
  5
3EF
100
AcDbEntity
  8
0
100
AcDbCircle
 62
7
  6
CONTINUOUS
 10
6.4524215809
 20
3.236484473
 40
0.015
100
AcDbArc
 50
180.0
 51
270.0
  0
ARC
  5
3F0
100
AcDbEntity
  8
0
100
AcDbCircle
 62
7
  6
CONTINUOUS
 10
6.4524215809
 20
3.706484473
 40
0.015
100
AcDbArc
 50
90.0
 51
180.0
  0
CIRCLE
  5
3F1
100
AcDbEntity
  8
0
100
AcDbCircle
 62
7
  6
CONTINUOUS
 10
6.3219215809
 20
6.471484473
 40
0.19125
  0
CIRCLE
  5
3F2
100
AcDbEntity
  8
0
100
AcDbCircle
 62
7
  6
CONTINUOUS
 10
6.3219215809
 20
6.471484473
 40
0.16125
  0
ARC
  5
3F3
100
AcDbEntity
  8
0
100
AcDbCircle
 62
7
  6
CONTINUOUS
 10
6.7074215809
 20
6.8172376485
 40
0.125
100
AcDbArc
 50
303.6123745985
 51
358.4336770722
  0
ARC
  5
3F4
100
AcDbEntity
  8
0
100
AcDbCircle
 62
7
  6
CONTINUOUS
 10
6.7074215809
 20
6.1257312976
 40
0.125
100
AcDbArc
 50
1.9995201783
 51
56.3876254015
  0
ARC
  5
3F5
100
AcDbEntity
  8
0
100
AcDbCircle
 62
7
  6
CONTINUOUS
 10
7.4974215809
 20
6.055234473
 40
0.035
100
AcDbArc
 50
2.1982544508
 51
72.5423968763
  0
ARC
  5
3F6
100
AcDbEntity
  8
0
100
AcDbCircle
 62
7
  6
CONTINUOUS
 10
7.4974215809
 20
6.887734473
 40
0.035
100
AcDbArc
 50
287.4576031237
 51
357.8017455492
  0
ARC
  5
3F7
100
AcDbEntity
  8
0
100
AcDbCircle
 62
7
  6
CONTINUOUS
 10
6.5494215809
 20
6.317734473
 40
0.03
100
AcDbArc
 50
180.0
 51
352.8192442185
  0
ARC
  5
3F8
100
AcDbEntity
  8
0
100
AcDbCircle
 62
7
  6
CONTINUOUS
 10
6.5494215809
 20
6.625234473
 40
0.03
100
AcDbArc
 50
7.1807557815
 51
180.0
  0
ARC
  5
3F9
100
AcDbEntity
  8
0
100
AcDbCircle
 62
7
  6
CONTINUOUS
 10
6.7849215809
 20
6.7006454103
 40
0.015
100
AcDbArc
 50
123.6123745985
 51
180.0
  0
ARC
  5
3FA
100
AcDbEntity
  8
0
100
AcDbCircle
 62
7
  6
CONTINUOUS
 10
6.7849215809
 20
6.2423235357
 40
0.015
100
AcDbArc
 50
180.0
 51
236.3876254015
  0
ARC
  5
3FB
100
AcDbEntity
  8
0
100
AcDbCircle
 62
7
  6
CONTINUOUS
 10
6.7549215809
 20
6.686484473
 40
0.015
100
AcDbArc
 50
270.0
 51
360.0
  0
ARC
  5
3FC
100
AcDbEntity
  8
0
100
AcDbCircle
 62
7
  6
CONTINUOUS
 10
6.7549215809
 20
6.256484473
 40
0.015
100
AcDbArc
 50
0.0
 51
90.0
  0
ARC
  5
3FD
100
AcDbEntity
  8
0
100
AcDbCircle
 62
7
  6
CONTINUOUS
 10
6.7099215809
 20
6.656484473
 40
0.015
100
AcDbArc
 50
90.0
 51
180.0
  0
ARC
  5
3FE
100
AcDbEntity
  8
0
100
AcDbCircle
 62
7
  6
CONTINUOUS
 10
6.7099215809
 20
6.286484473
 40
0.015
100
AcDbArc
 50
180.0
 51
270.0
  0
ARC
  5
3FF
100
AcDbEntity
  8
0
100
AcDbCircle
 62
7
  6
CONTINUOUS
 10
7.5124215809
 20
6.840037513
 40
0.015
100
AcDbArc
 50
107.4576031237
 51
180.0
  0
ARC
  5
400
100
AcDbEntity
  8
0
100
AcDbCircle
 62
7
  6
CONTINUOUS
 10
7.5124215809
 20
6.1029314331
 40
0.015
100
AcDbArc
 50
180.0
 51
252.5423968763
  0
ARC
  5
401
100
AcDbEntity
  8
0
100
AcDbCircle
 62
7
  6
CONTINUOUS
 10
6.5094215809
 20
6.363984473
 40
0.01
100
AcDbArc
 50
0.0
 51
90.0
  0
ARC
  5
402
100
AcDbEntity
  8
0
100
AcDbCircle
 62
7
  6
CONTINUOUS
 10
6.5094215809
 20
6.578984473
 40
0.01
100
AcDbArc
 50
270.0
 51
360.0
  0
ARC
  5
403
100
AcDbEntity
  8
0
100
AcDbCircle
 62
7
  6
CONTINUOUS
 10
6.5891078506
 20
6.312734473
 40
0.01
100
AcDbArc
 50
90.0
 51
172.8192442185
  0
ARC
  5
404
100
AcDbEntity
  8
0
100
AcDbCircle
 62
7
  6
CONTINUOUS
 10
6.5891078506
 20
6.630234473
 40
0.01
100
AcDbArc
 50
187.1807557814
 51
270.0
  0
ENDSEC
  0
SECTION
  2
OBJECTS
  0
DICTIONARY
  5
C
100
AcDbDictionary
280
0
281
1
  3
ACAD_GROUP
350
D
  3
ACAD_MLINESTYLE
350
17
  3
ACAD_LAYOUT
350
1A
  3
ACAD_PLOTSETTINGS
350
19
  3
ACAD_PLOTSTYLENAME
350
E
  0
DICTIONARY
  5
D
102
{ACAD_REACTORS
330
C
102
}
100
AcDbDictionary
280
0
281
1
  0
ACDBDICTIONARYWDFLT
  5
E
102
{ACAD_REACTORS
330
C
102
}
100
AcDbDictionary
281
1
  3
Normal
350
F
100
AcDbDictionaryWithDefault
340
F
  0
DICTIONARY
  5
17
102
{ACAD_REACTORS
330
C
102
}
100
AcDbDictionary
280
0
281
1
  3
Standard
350
18
  0
DICTIONARY
  5
19
102
{ACAD_REACTORS
330
C
102
}
100
AcDbDictionary
281
1
  0
DICTIONARY
  5
1A
102
{ACAD_REACTORS
330
C
102
}
100
AcDbDictionary
281
1
  3
Model
350
405
  3
Layout1
350
406
  0
ACDBPLACEHOLDER
  5
F
102
{ACAD_REACTORS
330
E
102
}
  0
MLINESTYLE
  5
18
102
{ACAD_REACTORS
330
17
102
}
100
AcDbMlineStyle
  2
STANDARD
 70
0
  3

 62
256
 51
90.0
 52
90.0
 71
2
 49
0.5
 62
256
  6
BYLAYER
 49
-0.5
 62
256
  6
BYLAYER
  0
LAYOUT
  5
405
102
{ACAD_REACTORS
330
1A
102
}
100
AcDbPlotSettings
  1

  2
none_device
  4
ANSI_A_(11.00_x_8.50_Inches)
  6

 40
0.0
 41
0.0
 42
0.0
 43
0.0
 44
279.4
 45
215.9
 46
0.0
 47
0.0
 48
0.0
 49
0.0
140
0.0
141
0.0
142
1.0
143
1.0
 70
1024
 72
0
 73
0
 74
0
  7

 75
0
147
1.0
148
0.0
149
0.0
100
AcDbLayout
  1
Model
 70
0
 71
0
 10
0.0
 20
0.0
 11
11.0
 21
8.5
 12
0.0
 22
0.0
 32
0.0
 14
0.0
 24
0.0
 34
0.0
 15
0.0
 25
0.0
 35
0.0
146
0.0
 13
0.0
 23
0.0
 33
0.0
 16
1.0
 26
0.0
 36
0.0
 17
0.0
 27
1.0
 37
0.0
 76
0
330
202
345
0
346
0
  0
LAYOUT
  5
406
102
{ACAD_REACTORS
330
1A
102
}
100
AcDbPlotSettings
  1

  2
none_device
  4
ANSI_A_(11.00_x_8.50_Inches)
  6

 40
0.0
 41
0.0
 42
0.0
 43
0.0
 44
279.4
 45
215.9
 46
0.0
 47
0.0
 48
0.0
 49
0.0
140
0.0
141
0.0
142
1.0
143
1.0
 70
0
 72
0
 73
0
 74
0
  7

 75
0
147
1.0
148
0.0
149
0.0
100
AcDbLayout
  1
Layout1
 70
0
 71
1
 10
0.0
 20
0.0
 11
11.0
 21
8.5
 12
0.0
 22
0.0
 32
0.0
 14
0.0
 24
0.0
 34
0.0
 15
0.0
 25
0.0
 35
0.0
146
0.0
 13
0.0
 23
0.0
 33
0.0
 16
1.0
 26
0.0
 36
0.0
 17
0.0
 27
1.0
 37
0.0
 76
0
330
203
345
0
346
0
  0
ENDSEC
  0
EOF
