999
DXF file: 3-2945_top.dxf
999
Pro/ENGINEER 2019352 by Parametric Technology Corporation
  0
SECTION
  2
HEADER
  9
$ACADVER
  1
AC1032
  9
$DWGCODEPAGE
  3
ANSI_1252
  9
$EXTMAX
 10
11.0
 20
8.5
 30
0.0
  9
$EXTMIN
 10
0.0
 20
0.0
 30
0.0
  9
$LIMMIN
 10
0.0
 20
0.0
  9
$LIMMAX
 10
11.0
 20
8.5
  9
$VIEWCTR
 10
5.5
 20
4.25
  9
$VIEWSIZE
 40
8.5
  9
$CLAYER
  8
0
  9
$LTSCALE
 40
0.605
  9
$CELTYPE
  6
BYLAYER
  9
$DIMSCALE
 40
1.0
  9
$DIMASZ
 40
0.1
  9
$DIMEXO
 40
0.0625
  9
$DIMDLI
 40
0.418
  9
$DIMEXE
 40
0.125
  9
$DIMCEN
 40
0.099
  9
$DIMLFAC
 40
1.0
  9
$DIMBLK
  1
_FILLED
  9
$DIMALT
 70
1
  9
$DIMALTD
 70
2
  9
$DIMALTTD
 70
2
  9
$DIMALTF
 40
25.4
  9
$DIMTXT
 40
0.08
  9
$DIMTOL
 70
1
  9
$DIMLIM
 70
0
  9
$DIMTFAC
 40
1.0
  9
$DIMTP
 40
0.001
  9
$DIMTM
 40
0.001
  9
$DIMGAP
 40
0.09
  9
$DIMDSEP
 70
46
  9
$AUNITS
 70
0
  9
$PDMODE
 70
3
  9
$PDSIZE
 40
0.3125
  9
$HANDSEED
  5
568
  9
$TILEMODE
 70
1
  9
$MEASUREMENT
 70
0
  9
$INSUNITS
 70
1
  0
ENDSEC
  0
SECTION
  2
CLASSES
  0
CLASS
  1
ACDBDICTIONARYWDFLT
  2
AcDbDictionaryWithDefault
  3
AutoCAD 2000
 90
0
 91
1
280
0
281
0
  0
CLASS
  1
ACDBPLACEHOLDER
  2
AcDbPlaceHolder
  3
AutoCAD 2000
 90
0
 91
1
280
0
281
0
  0
CLASS
  1
LAYOUT
  2
AcDbLayout
  3
AutoCAD 2000
 90
0
 91
0
280
0
281
0
  0
ENDSEC
  0
SECTION
  2
TABLES
  0
TABLE
  2
VPORT
  5
8
100
AcDbSymbolTable
 70
2
  0
VPORT
  5
1F4
100
AcDbSymbolTableRecord
100
AcDbViewportTableRecord
  2
*ACTIVE
 70
0
 10
0.0
 20
0.0
 11
1.0
 21
1.0
 12
5.5
 22
4.25
 13
0.0
 23
0.0
 14
1.0
 24
1.0
 15
0.0
 25
0.0
 16
0.0
 26
0.0
 36
1.0
 17
0.0
 27
0.0
 37
0.0
 40
8.5
 41
1.2941176471
 42
50.0
 43
0.0
 44
0.0
 50
0.0
 51
0.0
 71
0
 72
100
 73
1
 74
1
 75
0
 76
0
 77
0
 78
0
  0
ENDTAB
  0
TABLE
  2
LTYPE
  5
5
100
AcDbSymbolTable
 70
6
  0
LTYPE
  5
14
100
AcDbSymbolTableRecord
100
AcDbLinetypeTableRecord
  2
BYBLOCK
 70
0
  3

 72
65
 73
0
 40
0.0
  0
LTYPE
  5
15
100
AcDbSymbolTableRecord
100
AcDbLinetypeTableRecord
  2
BYLAYER
 70
0
  3

 72
65
 73
0
 40
0.0
  0
LTYPE
  5
16
100
AcDbSymbolTableRecord
100
AcDbLinetypeTableRecord
  2
CONTINUOUS
 70
64
  3
Solid line
 72
65
 73
0
 40
0.0
  0
LTYPE
  5
1F5
100
AcDbSymbolTableRecord
100
AcDbLinetypeTableRecord
  2
CENTER
 70
64
  3
____ _ ____ _ ____ _ ____ _ ____ _ ____ _ ____
 72
65
 73
4
 40
0.6
 49
0.375
 74
0
 49
-0.075
 74
0
 49
0.075
 74
0
 49
-0.075
 74
0
  0
LTYPE
  5
1F6
100
AcDbSymbolTableRecord
100
AcDbLinetypeTableRecord
  2
HIDDEN
 70
64
  3
- - - - - - - - - - - - - - - - - - - -
 72
65
 73
2
 40
0.2
 49
0.1
 74
0
 49
-0.1
 74
0
  0
LTYPE
  5
1F7
100
AcDbSymbolTableRecord
100
AcDbLinetypeTableRecord
  2
PHANTOM
 70
64
  3
_____ _ _ _____ _ _ _____ _ _ _____
 72
65
 73
6
 40
0.8
 49
0.45
 74
0
 49
-0.05
 74
0
 49
0.1
 74
0
 49
-0.05
 74
0
 49
0.1
 74
0
 49
-0.05
 74
0
  0
LTYPE
  5
1F8
100
AcDbSymbolTableRecord
100
AcDbLinetypeTableRecord
  2
DOT
 70
64
  3
. . . . . . . . . . . . . . . . . . . .
 72
65
 73
2
 40
0.2
 49
0.1
 74
0
 49
-0.1
 74
0
  0
LTYPE
  5
1F9
100
AcDbSymbolTableRecord
100
AcDbLinetypeTableRecord
  2
DASHED
 70
64
  3
- - - - - - - - - - - - - - - - - - - -
 72
65
 73
2
 40
0.2
 49
0.1
 74
0
 49
-0.1
 74
0
  0
ENDTAB
  0
TABLE
  2
LAYER
  5
2
100
AcDbSymbolTable
 70
36
  0
LAYER
  5
10
100
AcDbSymbolTableRecord
100
AcDbLayerTableRecord
  2
0
 70
0
 62
7
  6
CONTINUOUS
370
-3
390
F
  0
LAYER
  5
1FA
100
AcDbSymbolTableRecord
100
AcDbLayerTableRecord
  2
DEFAULT_1
 70
0
 62
7
  6
CENTER
370
-3
390
F
  0
LAYER
  5
1FB
100
AcDbSymbolTableRecord
100
AcDbLayerTableRecord
  2
DEFAULT_2
 70
0
 62
8
  6
HIDDEN
370
-3
390
F
  0
LAYER
  5
1FC
100
AcDbSymbolTableRecord
100
AcDbLayerTableRecord
  2
DEFAULT_3
 70
0
 62
7
  6
PHANTOM
370
-3
390
F
  0
LAYER
  5
1FD
100
AcDbSymbolTableRecord
100
AcDbLayerTableRecord
  2
DEFAULT_COORDINATE_SYSTEM
 70
0
 62
7
  6
CONTINUOUS
370
-3
390
F
  0
LAYER
  5
1FE
100
AcDbSymbolTableRecord
100
AcDbLayerTableRecord
  2
DEFAULT_DATUM_AXES
 70
0
 62
7
  6
CONTINUOUS
370
-3
390
F
  0
LAYER
  5
1FF
100
AcDbSymbolTableRecord
100
AcDbLayerTableRecord
  2
DEFAULT_DATUM_PLANES
 70
0
 62
7
  6
CONTINUOUS
370
-3
390
F
  0
ENDTAB
  0
TABLE
  2
STYLE
  5
3
100
AcDbSymbolTable
 70
1
  0
STYLE
  5
11
100
AcDbSymbolTableRecord
100
AcDbTextStyleTableRecord
  2
STANDARD
 70
0
 40
0.0
 41
0.8
 50
0.0
 71
0
 42
0.2
  3
txt
  4

  0
STYLE
  5
200
100
AcDbSymbolTableRecord
100
AcDbTextStyleTableRecord
  2
TEXTSTYLE_1
 70
0
 40
0.0
 41
0.8
 50
0.0
 71
0
 42
0.2
  3
gdt
  4

  0
ENDTAB
  0
TABLE
  2
VIEW
  5
6
100
AcDbSymbolTable
 70
0
  0
ENDTAB
  0
TABLE
  2
UCS
  5
7
100
AcDbSymbolTable
 70
0
  0
ENDTAB
  0
TABLE
  2
APPID
  5
9
100
AcDbSymbolTable
 70
1
  0
APPID
  5
201
100
AcDbSymbolTableRecord
100
AcDbRegAppTableRecord
  2
ACAD
 70
0
  0
ENDTAB
  0
TABLE
  2
BLOCK_RECORD
  5
1
100
AcDbSymbolTable
 70
0
  0
BLOCK_RECORD
  5
202
100
AcDbSymbolTableRecord
100
AcDbBlockTableRecord
  2
*Model_Space
  0
BLOCK_RECORD
  5
203
100
AcDbSymbolTableRecord
100
AcDbBlockTableRecord
  2
*Paper_Space
  0
BLOCK_RECORD
  5
204
100
AcDbSymbolTableRecord
100
AcDbBlockTableRecord
  2
_FILLED
  0
ENDTAB
  0
TABLE
  2
DIMSTYLE
  5
A
100
AcDbSymbolTable
 70
1
100
AcDbDimStyleTable
 71
0
  0
DIMSTYLE
105
205
100
AcDbSymbolTableRecord
100
AcDbDimStyleTableRecord
  2
STANDARD
 70
0
  3

  4

 40
1.0
 41
0.1
 42
0.0625
 43
0.38
 44
0.125
 45
0.0
 46
0.0
 47
0.001
 48
0.001
140
0.08
141
0.09
142
0.0
143
25.4
144
1.0
145
0.0
146
1.0
147
0.09
 71
1.0
 72
0.0
 73
1
 74
1
 75
0
 76
0
 77
0
 78
4
 79
1
170
1
171
2
172
0
173
0
174
0
175
0
176
0
177
0
178
0
270
2
179
3
271
3
272
3
273
2
274
2
275
0
280
0
281
0
282
0
283
1
284
4
285
0
286
0
287
3
288
0
340
11
278
46
341
204
342
204
343
204
344
204
  0
ENDTAB
  0
ENDSEC
  0
SECTION
  2
BLOCKS
  0
BLOCK
  5
20
100
AcDbEntity
  8
0
100
AcDbBlockBegin
  2
*Model_Space
 70
0
 10
0.0
 20
0.0
 30
0.0
  3
*Model_Space
  1

  0
ENDBLK
  5
21
100
AcDbEntity
  8
0
100
AcDbBlockEnd
  0
BLOCK
  5
1C
100
AcDbEntity
  8
0
100
AcDbBlockBegin
  2
*Paper_Space
 70
0
 10
0.0
 20
0.0
 30
0.0
  3
*Paper_Space
  1

  0
ENDBLK
  5
1D
100
AcDbEntity
  8
0
100
AcDbBlockEnd
  0
BLOCK
  5
206
100
AcDbEntity
  8
0
100
AcDbBlockBegin
  2
_FILLED
 70
64
 10
0.0
 20
0.0
  3
_FILLED
  1

  0
SOLID
  5
207
100
AcDbEntity
  8
0
  6
BYBLOCK
 62
0
100
AcDbTrace
 10
0.0
 20
0.0
 11
-1.0
 21
0.2
 12
-1.0
 22
-0.2
 13
-1.0
 23
-0.2
  0
ENDBLK
  5
208
100
AcDbEntity
  8
0
  6
BYBLOCK
 62
0
100
AcDbBlockEnd
  0
ENDSEC
  0
SECTION
  2
ENTITIES
  0
MTEXT
  5
209
100
AcDbEntity
  8
0
100
AcDbMText
 62
2
  6
CONTINUOUS
  7
STANDARD
 71
3
 72
1
 10
5.5756940088
 20
1.0825407779
 30
0.0
 11
1.0
 21
0.0
 31
0.0
 73
2
 44
0.9
  1
SCALE 0.500
 40
0.08
 41
0.704
  0
LINE
  5
20A
100
AcDbEntity
  8
0
100
AcDbLine
 62
7
  6
CONTINUOUS
 10
0.0
 20
0.0
 11
0.0
 21
8.5
  0
LINE
  5
20B
100
AcDbEntity
  8
0
100
AcDbLine
 62
7
  6
CONTINUOUS
 10
0.0
 20
0.0
 11
11.0
 21
0.0
  0
LINE
  5
20C
100
AcDbEntity
  8
0
100
AcDbLine
 62
7
  6
CONTINUOUS
 10
0.0
 20
8.5
 11
11.0
 21
8.5
  0
LINE
  5
20D
100
AcDbEntity
  8
0
100
AcDbLine
 62
7
  6
CONTINUOUS
 10
11.0
 20
0.0
 11
11.0
 21
8.5
  0
LINE
  5
20E
100
AcDbEntity
  8
0
100
AcDbLine
 62
7
  6
CONTINUOUS
 10
1.4317965809
 20
5.306609473
 11
1.4317965809
 21
5.629109473
  0
LINE
  5
20F
100
AcDbEntity
  8
0
100
AcDbLine
 62
7
  6
CONTINUOUS
 10
1.4917965809
 20
5.306609473
 11
1.4917965809
 21
5.629109473
  0
LINE
  5
210
100
AcDbEntity
  8
0
100
AcDbLine
 62
7
  6
CONTINUOUS
 10
3.6842965809
 20
6.768359473
 11
3.7092965809
 21
6.793359473
  0
LINE
  5
211
100
AcDbEntity
  8
0
100
AcDbLine
 62
7
  6
CONTINUOUS
 10
2.7592965809
 20
6.793359473
 11
2.7592965809
 21
6.833359473
  0
LINE
  5
212
100
AcDbEntity
  8
0
100
AcDbLine
 62
7
  6
CONTINUOUS
 10
2.7593818517
 20
6.718359473
 11
2.7593818517
 21
6.678359473
  0
LINE
  5
213
100
AcDbEntity
  8
0
100
AcDbLine
 62
7
  6
CONTINUOUS
 10
2.7595616823
 20
6.718359473
 11
2.7595616823
 21
6.678359473
  0
LINE
  5
214
100
AcDbEntity
  8
0
100
AcDbLine
 62
7
  6
CONTINUOUS
 10
2.7605037295
 20
6.718359473
 11
2.7605037295
 21
6.678359473
  0
LINE
  5
215
100
AcDbEntity
  8
0
100
AcDbLine
 62
7
  6
CONTINUOUS
 10
2.7610427281
 20
6.718359473
 11
2.7610427281
 21
6.678359473
  0
LINE
  5
216
100
AcDbEntity
  8
0
100
AcDbLine
 62
7
  6
CONTINUOUS
 10
2.7629242405
 20
6.718359473
 11
2.7629242405
 21
6.678359473
  0
LINE
  5
217
100
AcDbEntity
  8
0
100
AcDbLine
 62
7
  6
CONTINUOUS
 10
2.7638209299
 20
6.718359473
 11
2.7638209299
 21
6.678359473
  0
LINE
  5
218
100
AcDbEntity
  8
0
100
AcDbLine
 62
7
  6
CONTINUOUS
 10
2.7666367503
 20
6.718359473
 11
2.7666367503
 21
6.678359473
  0
LINE
  5
219
100
AcDbEntity
  8
0
100
AcDbLine
 62
7
  6
CONTINUOUS
 10
2.7678886728
 20
6.718359473
 11
2.7678886728
 21
6.678359473
  0
LINE
  5
21A
100
AcDbEntity
  8
0
100
AcDbLine
 62
7
  6
CONTINUOUS
 10
2.7716310832
 20
6.718359473
 11
2.7716310832
 21
6.678359473
  0
LINE
  5
21B
100
AcDbEntity
  8
0
100
AcDbLine
 62
7
  6
CONTINUOUS
 10
2.7732348073
 20
6.718359473
 11
2.7732348073
 21
6.678359473
  0
LINE
  5
21C
100
AcDbEntity
  8
0
100
AcDbLine
 62
7
  6
CONTINUOUS
 10
2.7778935501
 20
6.718359473
 11
2.7778935501
 21
6.678359473
  0
LINE
  5
21D
100
AcDbEntity
  8
0
100
AcDbLine
 62
7
  6
CONTINUOUS
 10
2.7798446801
 20
6.718359473
 11
2.7798446801
 21
6.678359473
  0
LINE
  5
21E
100
AcDbEntity
  8
0
100
AcDbLine
 62
7
  6
CONTINUOUS
 10
2.7817965809
 20
5.317859473
 11
2.7817965809
 21
5.617859473
  0
LINE
  5
21F
100
AcDbEntity
  8
0
100
AcDbLine
 62
7
  6
CONTINUOUS
 10
2.7842965809
 20
6.718359473
 11
2.7842965809
 21
6.768359473
  0
LINE
  5
220
100
AcDbEntity
  8
0
100
AcDbLine
 62
7
  6
CONTINUOUS
 10
2.785406986
 20
6.718359473
 11
2.785406986
 21
6.678359473
  0
LINE
  5
221
100
AcDbEntity
  8
0
100
AcDbLine
 62
7
  6
CONTINUOUS
 10
2.787700174
 20
6.718359473
 11
2.787700174
 21
6.678359473
  0
LINE
  5
222
100
AcDbEntity
  8
0
100
AcDbLine
 62
7
  6
CONTINUOUS
 10
2.794150797
 20
6.718359473
 11
2.794150797
 21
6.678359473
  0
LINE
  5
223
100
AcDbEntity
  8
0
100
AcDbLine
 62
7
  6
CONTINUOUS
 10
2.7967797575
 20
6.718359473
 11
2.7967797575
 21
6.678359473
  0
LINE
  5
224
100
AcDbEntity
  8
0
100
AcDbLine
 62
7
  6
CONTINUOUS
 10
2.8041010171
 20
6.718359473
 11
2.8041010171
 21
6.678359473
  0
LINE
  5
225
100
AcDbEntity
  8
0
100
AcDbLine
 62
7
  6
CONTINUOUS
 10
2.8070585443
 20
6.718359473
 11
2.8070585443
 21
6.678359473
  0
LINE
  5
226
100
AcDbEntity
  8
0
100
AcDbLine
 62
7
  6
CONTINUOUS
 10
2.8152303733
 20
6.718359473
 11
2.8152303733
 21
6.678359473
  0
LINE
  5
227
100
AcDbEntity
  8
0
100
AcDbLine
 62
7
  6
CONTINUOUS
 10
2.8185083608
 20
6.718359473
 11
2.8185083608
 21
6.678359473
  0
LINE
  5
228
100
AcDbEntity
  8
0
100
AcDbLine
 62
7
  6
CONTINUOUS
 10
2.8275083608
 20
6.718359473
 11
2.8275083608
 21
6.678359473
  0
LINE
  5
229
100
AcDbEntity
  8
0
100
AcDbLine
 62
7
  6
CONTINUOUS
 10
2.831097824
 20
6.718359473
 11
2.831097824
 21
6.678359473
  0
LINE
  5
22A
100
AcDbEntity
  8
0
100
AcDbLine
 62
7
  6
CONTINUOUS
 10
2.8409013266
 20
6.718359473
 11
2.8409013266
 21
6.678359473
  0
LINE
  5
22B
100
AcDbEntity
  8
0
100
AcDbLine
 62
7
  6
CONTINUOUS
 10
2.8442965809
 20
5.317859473
 11
2.8442965809
 21
5.617859473
  0
LINE
  5
22C
100
AcDbEntity
  8
0
100
AcDbLine
 62
7
  6
CONTINUOUS
 10
2.8447924269
 20
6.718359473
 11
2.8447924269
 21
6.678359473
  0
LINE
  5
22D
100
AcDbEntity
  8
0
100
AcDbLine
 62
7
  6
CONTINUOUS
 10
2.8553725614
 20
6.718359473
 11
2.8553725614
 21
6.678359473
  0
LINE
  5
22E
100
AcDbEntity
  8
0
100
AcDbLine
 62
7
  6
CONTINUOUS
 10
2.8595546336
 20
6.718359473
 11
2.8595546336
 21
6.678359473
  0
LINE
  5
22F
100
AcDbEntity
  8
0
100
AcDbLine
 62
7
  6
CONTINUOUS
 10
2.870592271
 20
6.678359473
 11
2.870592271
 21
6.718359473
  0
LINE
  5
230
100
AcDbEntity
  8
0
100
AcDbLine
 62
7
  6
CONTINUOUS
 10
2.8708824006
 20
6.718359473
 11
2.8708824006
 21
6.678359473
  0
LINE
  5
231
100
AcDbEntity
  8
0
100
AcDbLine
 62
7
  6
CONTINUOUS
 10
2.8753439819
 20
6.718359473
 11
2.8753439819
 21
6.678359473
  0
LINE
  5
232
100
AcDbEntity
  8
0
100
AcDbLine
 62
7
  6
CONTINUOUS
 10
2.8768077819
 20
6.028359473
 11
2.8768077819
 21
5.978359473
  0
LINE
  5
233
100
AcDbEntity
  8
0
100
AcDbLine
 62
7
  6
CONTINUOUS
 10
2.8769231165
 20
6.028359473
 11
2.8769231165
 21
5.978359473
  0
LINE
  5
234
100
AcDbEntity
  8
0
100
AcDbLine
 62
7
  6
CONTINUOUS
 10
2.8778548208
 20
6.028359473
 11
2.8778548208
 21
5.978359473
  0
LINE
  5
235
100
AcDbEntity
  8
0
100
AcDbLine
 62
7
  6
CONTINUOUS
 10
2.8784308069
 20
6.028359473
 11
2.8784308069
 21
5.978359473
  0
LINE
  5
236
100
AcDbEntity
  8
0
100
AcDbLine
 62
7
  6
CONTINUOUS
 10
2.8806004671
 20
6.028359473
 11
2.8806004671
 21
5.978359473
  0
LINE
  5
237
100
AcDbEntity
  8
0
100
AcDbLine
 62
7
  6
CONTINUOUS
 10
2.8816343597
 20
6.028359473
 11
2.8816343597
 21
5.978359473
  0
LINE
  5
238
100
AcDbEntity
  8
0
100
AcDbLine
 62
7
  6
CONTINUOUS
 10
2.8817965809
 20
5.350859473
 11
2.8817965809
 21
5.584859473
  0
LINE
  5
239
100
AcDbEntity
  8
0
100
AcDbLine
 62
7
  6
CONTINUOUS
 10
2.8850316364
 20
6.028359473
 11
2.8850316364
 21
5.978359473
  0
LINE
  5
23A
100
AcDbEntity
  8
0
100
AcDbLine
 62
7
  6
CONTINUOUS
 10
2.8865048026
 20
6.678359473
 11
2.8865048026
 21
6.718359473
  0
LINE
  5
23B
100
AcDbEntity
  8
0
100
AcDbLine
 62
7
  6
CONTINUOUS
 10
2.8865185087
 20
6.028359473
 11
2.8865185087
 21
5.978359473
  0
LINE
  5
23C
100
AcDbEntity
  8
0
100
AcDbLine
 62
7
  6
CONTINUOUS
 10
2.8873883328
 20
6.718359473
 11
2.8873883328
 21
6.678359473
  0
LINE
  5
23D
100
AcDbEntity
  8
0
100
AcDbLine
 62
7
  6
CONTINUOUS
 10
2.8911272123
 20
6.028359473
 11
2.8911272123
 21
5.978359473
  0
LINE
  5
23E
100
AcDbEntity
  8
0
100
AcDbLine
 62
7
  6
CONTINUOUS
 10
2.8921171944
 20
6.718359473
 11
2.8921171944
 21
6.678359473
  0
LINE
  5
23F
100
AcDbEntity
  8
0
100
AcDbLine
 62
7
  6
CONTINUOUS
 10
2.8930599785
 20
6.028359473
 11
2.8930599785
 21
5.978359473
  0
LINE
  5
240
100
AcDbEntity
  8
0
100
AcDbLine
 62
7
  6
CONTINUOUS
 10
2.8988581465
 20
6.028359473
 11
2.8988581465
 21
5.978359473
  0
LINE
  5
241
100
AcDbEntity
  8
0
100
AcDbLine
 62
7
  6
CONTINUOUS
 10
2.9012275962
 20
6.028359473
 11
2.9012275962
 21
5.978359473
  0
LINE
  5
242
100
AcDbEntity
  8
0
100
AcDbLine
 62
7
  6
CONTINUOUS
 10
2.9033706073
 20
6.678359473
 11
2.9033706073
 21
6.718359473
  0
LINE
  5
243
100
AcDbEntity
  8
0
100
AcDbLine
 62
7
  6
CONTINUOUS
 10
2.9048451165
 20
6.718359473
 11
2.9048451165
 21
6.678359473
  0
LINE
  5
244
100
AcDbEntity
  8
0
100
AcDbLine
 62
7
  6
CONTINUOUS
 10
2.9081875975
 20
6.028359473
 11
2.9081875975
 21
5.978359473
  0
LINE
  5
245
100
AcDbEntity
  8
0
100
AcDbLine
 62
7
  6
CONTINUOUS
 10
2.9098282968
 20
6.718359473
 11
2.9098282968
 21
6.678359473
  0
LINE
  5
246
100
AcDbEntity
  8
0
100
AcDbLine
 62
7
  6
CONTINUOUS
 10
2.9109824392
 20
6.028359473
 11
2.9109824392
 21
5.978359473
  0
LINE
  5
247
100
AcDbEntity
  8
0
100
AcDbLine
 62
7
  6
CONTINUOUS
 10
2.9190711064
 20
6.028359473
 11
2.9190711064
 21
5.978359473
  0
LINE
  5
248
100
AcDbEntity
  8
0
100
AcDbLine
 62
7
  6
CONTINUOUS
 10
2.9211434572
 20
6.678359473
 11
2.9211434572
 21
6.718359473
  0
LINE
  5
249
100
AcDbEntity
  8
0
100
AcDbLine
 62
7
  6
CONTINUOUS
 10
2.9217965809
 20
6.028359473
 11
2.9217965809
 21
6.638359473
  0
LINE
  5
24A
100
AcDbEntity
  8
0
100
AcDbLine
 62
7
  6
CONTINUOUS
 10
2.9222780214
 20
6.028359473
 11
2.9222780214
 21
5.978359473
  0
LINE
  5
24B
100
AcDbEntity
  8
0
100
AcDbLine
 62
7
  6
CONTINUOUS
 10
2.9232049036
 20
6.718359473
 11
2.9232049036
 21
6.678359473
  0
LINE
  5
24C
100
AcDbEntity
  8
0
100
AcDbLine
 62
7
  6
CONTINUOUS
 10
2.9284287442
 20
6.718359473
 11
2.9284287442
 21
6.678359473
  0
LINE
  5
24D
100
AcDbEntity
  8
0
100
AcDbLine
 62
7
  6
CONTINUOUS
 10
2.9314568083
 20
6.028359473
 11
2.9314568083
 21
5.978359473
  0
LINE
  5
24E
100
AcDbEntity
  8
0
100
AcDbLine
 62
7
  6
CONTINUOUS
 10
2.9342965809
 20
6.638359473
 11
2.9342965809
 21
6.643359473
  0
LINE
  5
24F
100
AcDbEntity
  8
0
100
AcDbLine
 62
7
  6
CONTINUOUS
 10
2.9350605141
 20
6.028359473
 11
2.9350605141
 21
5.978359473
  0
LINE
  5
250
100
AcDbEntity
  8
0
100
AcDbLine
 62
7
  6
CONTINUOUS
 10
2.9397746379
 20
6.678359473
 11
2.9397746379
 21
6.718359473
  0
LINE
  5
251
100
AcDbEntity
  8
0
100
AcDbLine
 62
7
  6
CONTINUOUS
 10
2.9424173715
 20
6.718359473
 11
2.9424173715
 21
6.678359473
  0
LINE
  5
252
100
AcDbEntity
  8
0
100
AcDbLine
 62
7
  6
CONTINUOUS
 10
2.9452856795
 20
6.028359473
 11
2.9452856795
 21
5.978359473
  0
LINE
  5
253
100
AcDbEntity
  8
0
100
AcDbLine
 62
7
  6
CONTINUOUS
 10
2.9478675541
 20
6.718359473
 11
2.9478675541
 21
6.678359473
  0
LINE
  5
254
100
AcDbEntity
  8
0
100
AcDbLine
 62
7
  6
CONTINUOUS
 10
2.9492690029
 20
6.028359473
 11
2.9492690029
 21
5.978359473
  0
LINE
  5
255
100
AcDbEntity
  8
0
100
AcDbLine
 62
7
  6
CONTINUOUS
 10
2.9592130829
 20
6.678359473
 11
2.9592130829
 21
6.718359473
  0
LINE
  5
256
100
AcDbEntity
  8
0
100
AcDbLine
 62
7
  6
CONTINUOUS
 10
2.9602646463
 20
5.978359473
 11
2.9602646463
 21
6.028359473
  0
LINE
  5
257
100
AcDbEntity
  8
0
100
AcDbLine
 62
7
  6
CONTINUOUS
 10
2.9604918193
 20
6.028359473
 11
2.9604918193
 21
5.978359473
  0
LINE
  5
258
100
AcDbEntity
  8
0
100
AcDbLine
 62
7
  6
CONTINUOUS
 10
2.96242986
 20
6.718359473
 11
2.96242986
 21
6.678359473
  0
LINE
  5
259
100
AcDbEntity
  8
0
100
AcDbLine
 62
7
  6
CONTINUOUS
 10
2.9648357779
 20
6.028359473
 11
2.9648357779
 21
5.978359473
  0
LINE
  5
25A
100
AcDbEntity
  8
0
100
AcDbLine
 62
7
  6
CONTINUOUS
 10
2.968091446
 20
6.718359473
 11
2.968091446
 21
6.678359473
  0
LINE
  5
25B
100
AcDbEntity
  8
0
100
AcDbLine
 62
7
  6
CONTINUOUS
 10
2.9759944437
 20
5.978359473
 11
2.9759944437
 21
6.028359473
  0
LINE
  5
25C
100
AcDbEntity
  8
0
100
AcDbLine
 62
7
  6
CONTINUOUS
 10
2.9770027635
 20
6.028359473
 11
2.9770027635
 21
5.978359473
  0
LINE
  5
25D
100
AcDbEntity
  8
0
100
AcDbLine
 62
7
  6
CONTINUOUS
 10
2.9794055125
 20
6.678359473
 11
2.9794055125
 21
6.718359473
  0
LINE
  5
25E
100
AcDbEntity
  8
0
100
AcDbLine
 62
7
  6
CONTINUOUS
 10
2.9816866564
 20
6.028359473
 11
2.9816866564
 21
5.978359473
  0
LINE
  5
25F
100
AcDbEntity
  8
0
100
AcDbLine
 62
7
  6
CONTINUOUS
 10
2.9831875162
 20
6.718359473
 11
2.9831875162
 21
6.678359473
  0
LINE
  5
260
100
AcDbEntity
  8
0
100
AcDbLine
 62
7
  6
CONTINUOUS
 10
2.9890449877
 20
6.718359473
 11
2.9890449877
 21
6.678359473
  0
LINE
  5
261
100
AcDbEntity
  8
0
100
AcDbLine
 62
7
  6
CONTINUOUS
 10
2.9929551683
 20
5.978359473
 11
2.9929551683
 21
6.028359473
  0
LINE
  5
262
100
AcDbEntity
  8
0
100
AcDbLine
 62
7
  6
CONTINUOUS
 10
2.9947398299
 20
6.028359473
 11
2.9947398299
 21
5.978359473
  0
LINE
  5
263
100
AcDbEntity
  8
0
100
AcDbLine
 62
7
  6
CONTINUOUS
 10
2.9997413362
 20
6.028359473
 11
2.9997413362
 21
5.978359473
  0
LINE
  5
264
100
AcDbEntity
  8
0
100
AcDbLine
 62
7
  6
CONTINUOUS
 10
3.0002965809
 20
6.678359473
 11
3.0002965809
 21
6.718359473
  0
LINE
  5
265
100
AcDbEntity
  8
0
100
AcDbLine
 62
7
  6
CONTINUOUS
 10
3.004633445
 20
6.718359473
 11
3.004633445
 21
6.678359473
  0
LINE
  5
266
100
AcDbEntity
  8
0
100
AcDbLine
 62
7
  6
CONTINUOUS
 10
3.010670747
 20
6.718359473
 11
3.010670747
 21
6.678359473
  0
LINE
  5
267
100
AcDbEntity
  8
0
100
AcDbLine
 62
7
  6
CONTINUOUS
 10
3.0110659947
 20
5.978359473
 11
3.0110659947
 21
6.028359473
  0
LINE
  5
268
100
AcDbEntity
  8
0
100
AcDbLine
 62
7
  6
CONTINUOUS
 10
3.0136184933
 20
6.028359473
 11
3.0136184933
 21
5.978359473
  0
LINE
  5
269
100
AcDbEntity
  8
0
100
AcDbLine
 62
7
  6
CONTINUOUS
 10
3.0189137785
 20
6.028359473
 11
3.0189137785
 21
5.978359473
  0
LINE
  5
26A
100
AcDbEntity
  8
0
100
AcDbLine
 62
7
  6
CONTINUOUS
 10
3.0218290271
 20
6.678359473
 11
3.0218290271
 21
6.718359473
  0
LINE
  5
26B
100
AcDbEntity
  8
0
100
AcDbLine
 62
7
  6
CONTINUOUS
 10
3.0267088644
 20
6.718359473
 11
3.0267088644
 21
6.678359473
  0
LINE
  5
26C
100
AcDbEntity
  8
0
100
AcDbLine
 62
7
  6
CONTINUOUS
 10
3.0302406166
 20
5.978359473
 11
3.0302406166
 21
6.028359473
  0
LINE
  5
26D
100
AcDbEntity
  8
0
100
AcDbLine
 62
7
  6
CONTINUOUS
 10
3.0329094491
 20
6.718359473
 11
3.0329094491
 21
6.678359473
  0
LINE
  5
26E
100
AcDbEntity
  8
0
100
AcDbLine
 62
7
  6
CONTINUOUS
 10
3.0335487883
 20
6.028359473
 11
3.0335487883
 21
5.978359473
  0
LINE
  5
26F
100
AcDbEntity
  8
0
100
AcDbLine
 62
7
  6
CONTINUOUS
 10
3.0342965809
 20
5.855859473
 11
3.0342965809
 21
5.900859473
  0
LINE
  5
270
100
AcDbEntity
  8
0
100
AcDbLine
 62
7
  6
CONTINUOUS
 10
3.039112618
 20
6.028359473
 11
3.039112618
 21
5.978359473
  0
LINE
  5
271
100
AcDbEntity
  8
0
100
AcDbLine
 62
7
  6
CONTINUOUS
 10
3.043943832
 20
6.678359473
 11
3.043943832
 21
6.718359473
  0
LINE
  5
272
100
AcDbEntity
  8
0
100
AcDbLine
 62
7
  6
CONTINUOUS
 10
3.0493532673
 20
6.718359473
 11
3.0493532673
 21
6.678359473
  0
LINE
  5
273
100
AcDbEntity
  8
0
100
AcDbLine
 62
7
  6
CONTINUOUS
 10
3.050387658
 20
5.978359473
 11
3.050387658
 21
6.028359473
  0
LINE
  5
274
100
AcDbEntity
  8
0
100
AcDbLine
 62
7
  6
CONTINUOUS
 10
3.054435738
 20
6.028359473
 11
3.054435738
 21
5.978359473
  0
LINE
  5
275
100
AcDbEntity
  8
0
100
AcDbLine
 62
7
  6
CONTINUOUS
 10
3.0557001394
 20
6.718359473
 11
3.0557001394
 21
6.678359473
  0
LINE
  5
276
100
AcDbEntity
  8
0
100
AcDbLine
 62
7
  6
CONTINUOUS
 10
3.0592965809
 20
5.370359473
 11
3.0592965809
 21
5.565359473
  0
LINE
  5
277
100
AcDbEntity
  8
0
100
AcDbLine
 62
7
  6
CONTINUOUS
 10
3.060241598
 20
6.028359473
 11
3.060241598
 21
5.978359473
  0
LINE
  5
278
100
AcDbEntity
  8
0
100
AcDbLine
 62
7
  6
CONTINUOUS
 10
3.0665803805
 20
6.678359473
 11
3.0665803805
 21
6.718359473
  0
LINE
  5
279
100
AcDbEntity
  8
0
100
AcDbLine
 62
7
  6
CONTINUOUS
 10
3.0714111091
 20
5.978359473
 11
3.0714111091
 21
6.028359473
  0
LINE
  5
27A
100
AcDbEntity
  8
0
100
AcDbLine
 62
7
  6
CONTINUOUS
 10
3.0725045871
 20
6.718359473
 11
3.0725045871
 21
6.678359473
  0
LINE
  5
27B
100
AcDbEntity
  8
0
100
AcDbLine
 62
7
  6
CONTINUOUS
 10
3.0761798065
 20
6.028359473
 11
3.0761798065
 21
5.978359473
  0
LINE
  5
27C
100
AcDbEntity
  8
0
100
AcDbLine
 62
7
  6
CONTINUOUS
 10
3.0789803501
 20
6.718359473
 11
3.0789803501
 21
6.678359473
  0
LINE
  5
27D
100
AcDbEntity
  8
0
100
AcDbLine
 62
7
  6
CONTINUOUS
 10
3.0822000292
 20
6.028359473
 11
3.0822000292
 21
5.978359473
  0
LINE
  5
27E
100
AcDbEntity
  8
0
100
AcDbLine
 62
7
  6
CONTINUOUS
 10
3.0855465809
 20
5.840859473
 11
3.0855465809
 21
5.7350457427
  0
LINE
  5
27F
100
AcDbEntity
  8
0
100
AcDbLine
 62
7
  6
CONTINUOUS
 10
3.0896766276
 20
6.678359473
 11
3.0896766276
 21
6.718359473
  0
LINE
  5
280
100
AcDbEntity
  8
0
100
AcDbLine
 62
7
  6
CONTINUOUS
 10
3.0932107838
 20
5.978359473
 11
3.0932107838
 21
6.028359473
  0
LINE
  5
281
100
AcDbEntity
  8
0
100
AcDbLine
 62
7
  6
CONTINUOUS
 10
3.0960993674
 20
6.718359473
 11
3.0960993674
 21
6.678359473
  0
LINE
  5
282
100
AcDbEntity
  8
0
100
AcDbLine
 62
7
  6
CONTINUOUS
 10
3.0986773734
 20
6.028359473
 11
3.0986773734
 21
5.978359473
  0
LINE
  5
283
100
AcDbEntity
  8
0
100
AcDbLine
 62
7
  6
CONTINUOUS
 10
3.1026862718
 20
6.718359473
 11
3.1026862718
 21
6.678359473
  0
LINE
  5
284
100
AcDbEntity
  8
0
100
AcDbLine
 62
7
  6
CONTINUOUS
 10
3.1048832698
 20
6.028359473
 11
3.1048832698
 21
5.978359473
  0
LINE
  5
285
100
AcDbEntity
  8
0
100
AcDbLine
 62
7
  6
CONTINUOUS
 10
3.1131692678
 20
6.678359473
 11
3.1131692678
 21
6.718359473
  0
LINE
  5
286
100
AcDbEntity
  8
0
100
AcDbLine
 62
7
  6
CONTINUOUS
 10
3.1156827964
 20
5.978359473
 11
3.1156827964
 21
6.028359473
  0
LINE
  5
287
100
AcDbEntity
  8
0
100
AcDbLine
 62
7
  6
CONTINUOUS
 10
3.1200729367
 20
6.718359473
 11
3.1200729367
 21
6.678359473
  0
LINE
  5
288
100
AcDbEntity
  8
0
100
AcDbLine
 62
7
  6
CONTINUOUS
 10
3.1218212276
 20
6.028359473
 11
3.1218212276
 21
5.978359473
  0
LINE
  5
289
100
AcDbEntity
  8
0
100
AcDbLine
 62
7
  6
CONTINUOUS
 10
3.1267529282
 20
6.718359473
 11
3.1267529282
 21
6.678359473
  0
LINE
  5
28A
100
AcDbEntity
  8
0
100
AcDbLine
 62
7
  6
CONTINUOUS
 10
3.1281832237
 20
6.028359473
 11
3.1281832237
 21
5.978359473
  0
LINE
  5
28B
100
AcDbEntity
  8
0
100
AcDbLine
 62
7
  6
CONTINUOUS
 10
3.1367965809
 20
5.655359473
 11
3.1367965809
 21
5.642859473
  0
LINE
  5
28C
100
AcDbEntity
  8
0
100
AcDbLine
 62
7
  6
CONTINUOUS
 10
3.1369939096
 20
6.678359473
 11
3.1369939096
 21
6.718359473
  0
LINE
  5
28D
100
AcDbEntity
  8
0
100
AcDbLine
 62
7
  6
CONTINUOUS
 10
3.1387200578
 20
5.978359473
 11
3.1387200578
 21
6.028359473
  0
LINE
  5
28E
100
AcDbEntity
  8
0
100
AcDbLine
 62
7
  6
CONTINUOUS
 10
3.144359585
 20
6.718359473
 11
3.144359585
 21
6.678359473
  0
LINE
  5
28F
100
AcDbEntity
  8
0
100
AcDbLine
 62
7
  6
CONTINUOUS
 10
3.145501078
 20
6.028359473
 11
3.145501078
 21
5.978359473
  0
LINE
  5
290
100
AcDbEntity
  8
0
100
AcDbLine
 62
7
  6
CONTINUOUS
 10
3.1511143543
 20
6.718359473
 11
3.1511143543
 21
6.678359473
  0
LINE
  5
291
100
AcDbEntity
  8
0
100
AcDbLine
 62
7
  6
CONTINUOUS
 10
3.1519888561
 20
6.028359473
 11
3.1519888561
 21
5.978359473
  0
LINE
  5
292
100
AcDbEntity
  8
0
100
AcDbLine
 62
7
  6
CONTINUOUS
 10
3.1610852513
 20
6.678359473
 11
3.1610852513
 21
6.718359473
  0
LINE
  5
293
100
AcDbEntity
  8
0
100
AcDbLine
 62
7
  6
CONTINUOUS
 10
3.1622127849
 20
5.978359473
 11
3.1622127849
 21
6.028359473
  0
LINE
  5
294
100
AcDbEntity
  8
0
100
AcDbLine
 62
7
  6
CONTINUOUS
 10
3.1688927444
 20
6.718359473
 11
3.1688927444
 21
6.678359473
  0
LINE
  5
295
100
AcDbEntity
  8
0
100
AcDbLine
 62
7
  6
CONTINUOUS
 10
3.1696040795
 20
6.028359473
 11
3.1696040795
 21
5.978359473
  0
LINE
  5
296
100
AcDbEntity
  8
0
100
AcDbLine
 62
7
  6
CONTINUOUS
 10
3.175703777
 20
6.718359473
 11
3.175703777
 21
6.678359473
  0
LINE
  5
297
100
AcDbEntity
  8
0
100
AcDbLine
 62
7
  6
CONTINUOUS
 10
3.1761867223
 20
6.028359473
 11
3.1761867223
 21
5.978359473
  0
LINE
  5
298
100
AcDbEntity
  8
0
100
AcDbLine
 62
7
  6
CONTINUOUS
 10
3.1853772601
 20
6.678359473
 11
3.1853772601
 21
6.718359473
  0
LINE
  5
299
100
AcDbEntity
  8
0
100
AcDbLine
 62
7
  6
CONTINUOUS
 10
3.1860490241
 20
5.978359473
 11
3.1860490241
 21
6.028359473
  0
LINE
  5
29A
100
AcDbEntity
  8
0
100
AcDbLine
 62
7
  6
CONTINUOUS
 10
3.1936051712
 20
6.718359473
 11
3.1936051712
 21
6.678359473
  0
LINE
  5
29B
100
AcDbEntity
  8
0
100
AcDbLine
 62
7
  6
CONTINUOUS
 10
3.1940153702
 20
6.028359473
 11
3.1940153702
 21
5.978359473
  0
LINE
  5
29C
100
AcDbEntity
  8
0
100
AcDbLine
 62
7
  6
CONTINUOUS
 10
3.2004537986
 20
6.718359473
 11
3.2004537986
 21
6.678359473
  0
LINE
  5
29D
100
AcDbEntity
  8
0
100
AcDbLine
 62
7
  6
CONTINUOUS
 10
3.2006615084
 20
6.028359473
 11
3.2006615084
 21
5.978359473
  0
LINE
  5
29E
100
AcDbEntity
  8
0
100
AcDbLine
 62
7
  6
CONTINUOUS
 10
3.2098033534
 20
6.678359473
 11
3.2098033534
 21
6.718359473
  0
LINE
  5
29F
100
AcDbEntity
  8
0
100
AcDbLine
 62
7
  6
CONTINUOUS
 10
3.2101151848
 20
5.978359473
 11
3.2101151848
 21
6.028359473
  0
LINE
  5
2A0
100
AcDbEntity
  8
0
100
AcDbLine
 62
7
  6
CONTINUOUS
 10
3.2184291303
 20
6.718359473
 11
3.2184291303
 21
6.678359473
  0
LINE
  5
2A1
100
AcDbEntity
  8
0
100
AcDbLine
 62
7
  6
CONTINUOUS
 10
3.2186186193
 20
6.028359473
 11
3.2186186193
 21
5.978359473
  0
LINE
  5
2A2
100
AcDbEntity
  8
0
100
AcDbLine
 62
7
  6
CONTINUOUS
 10
3.2252965809
 20
6.718359473
 11
3.2252965809
 21
6.678359473
  0
LINE
  5
2A3
100
AcDbEntity
  8
0
100
AcDbLine
 62
7
  6
CONTINUOUS
 10
3.2252965809
 20
6.028359473
 11
3.2252965809
 21
5.978359473
  0
LINE
  5
2A4
100
AcDbEntity
  8
0
100
AcDbLine
 62
7
  6
CONTINUOUS
 10
3.2342965809
 20
5.978359473
 11
3.2342965809
 21
6.028359473
  0
LINE
  5
2A5
100
AcDbEntity
  8
0
100
AcDbLine
 62
7
  6
CONTINUOUS
 10
3.2342965809
 20
6.678359473
 11
3.2342965809
 21
6.718359473
  0
LINE
  5
2A6
100
AcDbEntity
  8
0
100
AcDbLine
 62
7
  6
CONTINUOUS
 10
3.2432965809
 20
6.718359473
 11
3.2432965809
 21
6.678359473
  0
LINE
  5
2A7
100
AcDbEntity
  8
0
100
AcDbLine
 62
7
  6
CONTINUOUS
 10
3.2432965809
 20
6.028359473
 11
3.2432965809
 21
5.978359473
  0
LINE
  5
2A8
100
AcDbEntity
  8
0
100
AcDbLine
 62
7
  6
CONTINUOUS
 10
3.2499745426
 20
6.028359473
 11
3.2499745426
 21
5.978359473
  0
LINE
  5
2A9
100
AcDbEntity
  8
0
100
AcDbLine
 62
7
  6
CONTINUOUS
 10
3.2501640316
 20
6.718359473
 11
3.2501640316
 21
6.678359473
  0
LINE
  5
2AA
100
AcDbEntity
  8
0
100
AcDbLine
 62
7
  6
CONTINUOUS
 10
3.258477977
 20
5.978359473
 11
3.258477977
 21
6.028359473
  0
LINE
  5
2AB
100
AcDbEntity
  8
0
100
AcDbLine
 62
7
  6
CONTINUOUS
 10
3.2587898085
 20
6.678359473
 11
3.2587898085
 21
6.718359473
  0
LINE
  5
2AC
100
AcDbEntity
  8
0
100
AcDbLine
 62
7
  6
CONTINUOUS
 10
3.2679316535
 20
6.028359473
 11
3.2679316535
 21
5.978359473
  0
LINE
  5
2AD
100
AcDbEntity
  8
0
100
AcDbLine
 62
7
  6
CONTINUOUS
 10
3.2681393632
 20
6.718359473
 11
3.2681393632
 21
6.678359473
  0
LINE
  5
2AE
100
AcDbEntity
  8
0
100
AcDbLine
 62
7
  6
CONTINUOUS
 10
3.2745777916
 20
6.028359473
 11
3.2745777916
 21
5.978359473
  0
LINE
  5
2AF
100
AcDbEntity
  8
0
100
AcDbLine
 62
7
  6
CONTINUOUS
 10
3.2749879907
 20
6.718359473
 11
3.2749879907
 21
6.678359473
  0
LINE
  5
2B0
100
AcDbEntity
  8
0
100
AcDbLine
 62
7
  6
CONTINUOUS
 10
3.2825441378
 20
5.978359473
 11
3.2825441378
 21
6.028359473
  0
LINE
  5
2B1
100
AcDbEntity
  8
0
100
AcDbLine
 62
7
  6
CONTINUOUS
 10
3.2832159017
 20
6.678359473
 11
3.2832159017
 21
6.718359473
  0
LINE
  5
2B2
100
AcDbEntity
  8
0
100
AcDbLine
 62
7
  6
CONTINUOUS
 10
3.2924064396
 20
6.028359473
 11
3.2924064396
 21
5.978359473
  0
LINE
  5
2B3
100
AcDbEntity
  8
0
100
AcDbLine
 62
7
  6
CONTINUOUS
 10
3.2928893848
 20
6.718359473
 11
3.2928893848
 21
6.678359473
  0
LINE
  5
2B4
100
AcDbEntity
  8
0
100
AcDbLine
 62
7
  6
CONTINUOUS
 10
3.2989890823
 20
6.028359473
 11
3.2989890823
 21
5.978359473
  0
LINE
  5
2B5
100
AcDbEntity
  8
0
100
AcDbLine
 62
7
  6
CONTINUOUS
 10
3.2997004175
 20
6.718359473
 11
3.2997004175
 21
6.678359473
  0
LINE
  5
2B6
100
AcDbEntity
  8
0
100
AcDbLine
 62
7
  6
CONTINUOUS
 10
3.306380377
 20
5.978359473
 11
3.306380377
 21
6.028359473
  0
LINE
  5
2B7
100
AcDbEntity
  8
0
100
AcDbLine
 62
7
  6
CONTINUOUS
 10
3.3075079106
 20
6.678359473
 11
3.3075079106
 21
6.718359473
  0
LINE
  5
2B8
100
AcDbEntity
  8
0
100
AcDbLine
 62
7
  6
CONTINUOUS
 10
3.3166043058
 20
6.028359473
 11
3.3166043058
 21
5.978359473
  0
LINE
  5
2B9
100
AcDbEntity
  8
0
100
AcDbLine
 62
7
  6
CONTINUOUS
 10
3.3174788076
 20
6.718359473
 11
3.3174788076
 21
6.678359473
  0
LINE
  5
2BA
100
AcDbEntity
  8
0
100
AcDbLine
 62
7
  6
CONTINUOUS
 10
3.3230920838
 20
6.028359473
 11
3.3230920838
 21
5.978359473
  0
LINE
  5
2BB
100
AcDbEntity
  8
0
100
AcDbLine
 62
7
  6
CONTINUOUS
 10
3.3242335769
 20
6.718359473
 11
3.3242335769
 21
6.678359473
  0
LINE
  5
2BC
100
AcDbEntity
  8
0
100
AcDbLine
 62
7
  6
CONTINUOUS
 10
3.329873104
 20
5.978359473
 11
3.329873104
 21
6.028359473
  0
LINE
  5
2BD
100
AcDbEntity
  8
0
100
AcDbLine
 62
7
  6
CONTINUOUS
 10
3.3315992522
 20
6.678359473
 11
3.3315992522
 21
6.718359473
  0
LINE
  5
2BE
100
AcDbEntity
  8
0
100
AcDbLine
 62
7
  6
CONTINUOUS
 10
3.3317965809
 20
5.655359473
 11
3.3317965809
 21
5.642859473
  0
LINE
  5
2BF
100
AcDbEntity
  8
0
100
AcDbLine
 62
7
  6
CONTINUOUS
 10
3.3404099382
 20
6.028359473
 11
3.3404099382
 21
5.978359473
  0
LINE
  5
2C0
100
AcDbEntity
  8
0
100
AcDbLine
 62
7
  6
CONTINUOUS
 10
3.3418402337
 20
6.718359473
 11
3.3418402337
 21
6.678359473
  0
LINE
  5
2C1
100
AcDbEntity
  8
0
100
AcDbLine
 62
7
  6
CONTINUOUS
 10
3.3467719343
 20
6.028359473
 11
3.3467719343
 21
5.978359473
  0
LINE
  5
2C2
100
AcDbEntity
  8
0
100
AcDbLine
 62
7
  6
CONTINUOUS
 10
3.3485202252
 20
6.718359473
 11
3.3485202252
 21
6.678359473
  0
LINE
  5
2C3
100
AcDbEntity
  8
0
100
AcDbLine
 62
7
  6
CONTINUOUS
 10
3.3529103654
 20
5.978359473
 11
3.3529103654
 21
6.028359473
  0
LINE
  5
2C4
100
AcDbEntity
  8
0
100
AcDbLine
 62
7
  6
CONTINUOUS
 10
3.355423894
 20
6.678359473
 11
3.355423894
 21
6.718359473
  0
LINE
  5
2C5
100
AcDbEntity
  8
0
100
AcDbLine
 62
7
  6
CONTINUOUS
 10
3.3637098921
 20
6.028359473
 11
3.3637098921
 21
5.978359473
  0
LINE
  5
2C6
100
AcDbEntity
  8
0
100
AcDbLine
 62
7
  6
CONTINUOUS
 10
3.3659068901
 20
6.718359473
 11
3.3659068901
 21
6.678359473
  0
LINE
  5
2C7
100
AcDbEntity
  8
0
100
AcDbLine
 62
7
  6
CONTINUOUS
 10
3.3699157885
 20
6.028359473
 11
3.3699157885
 21
5.978359473
  0
LINE
  5
2C8
100
AcDbEntity
  8
0
100
AcDbLine
 62
7
  6
CONTINUOUS
 10
3.3724937945
 20
6.718359473
 11
3.3724937945
 21
6.678359473
  0
LINE
  5
2C9
100
AcDbEntity
  8
0
100
AcDbLine
 62
7
  6
CONTINUOUS
 10
3.3753823781
 20
5.978359473
 11
3.3753823781
 21
6.028359473
  0
LINE
  5
2CA
100
AcDbEntity
  8
0
100
AcDbLine
 62
7
  6
CONTINUOUS
 10
3.3789165343
 20
6.678359473
 11
3.3789165343
 21
6.718359473
  0
LINE
  5
2CB
100
AcDbEntity
  8
0
100
AcDbLine
 62
7
  6
CONTINUOUS
 10
3.3830465809
 20
5.840859473
 11
3.3830465809
 21
5.7350457427
  0
LINE
  5
2CC
100
AcDbEntity
  8
0
100
AcDbLine
 62
7
  6
CONTINUOUS
 10
3.3863931326
 20
6.028359473
 11
3.3863931326
 21
5.978359473
  0
LINE
  5
2CD
100
AcDbEntity
  8
0
100
AcDbLine
 62
7
  6
CONTINUOUS
 10
3.3896128118
 20
6.718359473
 11
3.3896128118
 21
6.678359473
  0
LINE
  5
2CE
100
AcDbEntity
  8
0
100
AcDbLine
 62
7
  6
CONTINUOUS
 10
3.3924133554
 20
6.028359473
 11
3.3924133554
 21
5.978359473
  0
LINE
  5
2CF
100
AcDbEntity
  8
0
100
AcDbLine
 62
7
  6
CONTINUOUS
 10
3.3960885748
 20
6.718359473
 11
3.3960885748
 21
6.678359473
  0
LINE
  5
2D0
100
AcDbEntity
  8
0
100
AcDbLine
 62
7
  6
CONTINUOUS
 10
3.3971820527
 20
5.978359473
 11
3.3971820527
 21
6.028359473
  0
LINE
  5
2D1
100
AcDbEntity
  8
0
100
AcDbLine
 62
7
  6
CONTINUOUS
 10
3.4020127813
 20
6.678359473
 11
3.4020127813
 21
6.718359473
  0
LINE
  5
2D2
100
AcDbEntity
  8
0
100
AcDbLine
 62
7
  6
CONTINUOUS
 10
3.4083515639
 20
6.028359473
 11
3.4083515639
 21
5.978359473
  0
LINE
  5
2D3
100
AcDbEntity
  8
0
100
AcDbLine
 62
7
  6
CONTINUOUS
 10
3.4128930225
 20
6.718359473
 11
3.4128930225
 21
6.678359473
  0
LINE
  5
2D4
100
AcDbEntity
  8
0
100
AcDbLine
 62
7
  6
CONTINUOUS
 10
3.4141574239
 20
6.028359473
 11
3.4141574239
 21
5.978359473
  0
LINE
  5
2D5
100
AcDbEntity
  8
0
100
AcDbLine
 62
7
  6
CONTINUOUS
 10
3.4182055039
 20
5.978359473
 11
3.4182055039
 21
6.028359473
  0
LINE
  5
2D6
100
AcDbEntity
  8
0
100
AcDbLine
 62
7
  6
CONTINUOUS
 10
3.4192398945
 20
6.718359473
 11
3.4192398945
 21
6.678359473
  0
LINE
  5
2D7
100
AcDbEntity
  8
0
100
AcDbLine
 62
7
  6
CONTINUOUS
 10
3.4246493299
 20
6.678359473
 11
3.4246493299
 21
6.718359473
  0
LINE
  5
2D8
100
AcDbEntity
  8
0
100
AcDbLine
 62
7
  6
CONTINUOUS
 10
3.4294805438
 20
6.028359473
 11
3.4294805438
 21
5.978359473
  0
LINE
  5
2D9
100
AcDbEntity
  8
0
100
AcDbLine
 62
7
  6
CONTINUOUS
 10
3.4342965809
 20
5.855859473
 11
3.4342965809
 21
5.900859473
  0
LINE
  5
2DA
100
AcDbEntity
  8
0
100
AcDbLine
 62
7
  6
CONTINUOUS
 10
3.4350443735
 20
6.028359473
 11
3.4350443735
 21
5.978359473
  0
LINE
  5
2DB
100
AcDbEntity
  8
0
100
AcDbLine
 62
7
  6
CONTINUOUS
 10
3.4356837127
 20
6.718359473
 11
3.4356837127
 21
6.678359473
  0
LINE
  5
2DC
100
AcDbEntity
  8
0
100
AcDbLine
 62
7
  6
CONTINUOUS
 10
3.4383525453
 20
5.978359473
 11
3.4383525453
 21
6.028359473
  0
LINE
  5
2DD
100
AcDbEntity
  8
0
100
AcDbLine
 62
7
  6
CONTINUOUS
 10
3.4418842974
 20
6.718359473
 11
3.4418842974
 21
6.678359473
  0
LINE
  5
2DE
100
AcDbEntity
  8
0
100
AcDbLine
 62
7
  6
CONTINUOUS
 10
3.4467641348
 20
6.678359473
 11
3.4467641348
 21
6.718359473
  0
LINE
  5
2DF
100
AcDbEntity
  8
0
100
AcDbLine
 62
7
  6
CONTINUOUS
 10
3.4496793833
 20
6.028359473
 11
3.4496793833
 21
5.978359473
  0
LINE
  5
2E0
100
AcDbEntity
  8
0
100
AcDbLine
 62
7
  6
CONTINUOUS
 10
3.4549746685
 20
6.028359473
 11
3.4549746685
 21
5.978359473
  0
LINE
  5
2E1
100
AcDbEntity
  8
0
100
AcDbLine
 62
7
  6
CONTINUOUS
 10
3.4575271671
 20
5.978359473
 11
3.4575271671
 21
6.028359473
  0
LINE
  5
2E2
100
AcDbEntity
  8
0
100
AcDbLine
 62
7
  6
CONTINUOUS
 10
3.4579224149
 20
6.718359473
 11
3.4579224149
 21
6.678359473
  0
LINE
  5
2E3
100
AcDbEntity
  8
0
100
AcDbLine
 62
7
  6
CONTINUOUS
 10
3.4639597169
 20
6.718359473
 11
3.4639597169
 21
6.678359473
  0
LINE
  5
2E4
100
AcDbEntity
  8
0
100
AcDbLine
 62
7
  6
CONTINUOUS
 10
3.4682965809
 20
6.678359473
 11
3.4682965809
 21
6.718359473
  0
LINE
  5
2E5
100
AcDbEntity
  8
0
100
AcDbLine
 62
7
  6
CONTINUOUS
 10
3.4688518257
 20
6.028359473
 11
3.4688518257
 21
5.978359473
  0
LINE
  5
2E6
100
AcDbEntity
  8
0
100
AcDbLine
 62
7
  6
CONTINUOUS
 10
3.4738533319
 20
6.028359473
 11
3.4738533319
 21
5.978359473
  0
LINE
  5
2E7
100
AcDbEntity
  8
0
100
AcDbLine
 62
7
  6
CONTINUOUS
 10
3.4756379935
 20
5.978359473
 11
3.4756379935
 21
6.028359473
  0
LINE
  5
2E8
100
AcDbEntity
  8
0
100
AcDbLine
 62
7
  6
CONTINUOUS
 10
3.4795481742
 20
6.718359473
 11
3.4795481742
 21
6.678359473
  0
LINE
  5
2E9
100
AcDbEntity
  8
0
100
AcDbLine
 62
7
  6
CONTINUOUS
 10
3.4854056456
 20
6.718359473
 11
3.4854056456
 21
6.678359473
  0
LINE
  5
2EA
100
AcDbEntity
  8
0
100
AcDbLine
 62
7
  6
CONTINUOUS
 10
3.4869065055
 20
6.028359473
 11
3.4869065055
 21
5.978359473
  0
LINE
  5
2EB
100
AcDbEntity
  8
0
100
AcDbLine
 62
7
  6
CONTINUOUS
 10
3.4891876493
 20
6.678359473
 11
3.4891876493
 21
6.718359473
  0
LINE
  5
2EC
100
AcDbEntity
  8
0
100
AcDbLine
 62
7
  6
CONTINUOUS
 10
3.4915903983
 20
6.028359473
 11
3.4915903983
 21
5.978359473
  0
LINE
  5
2ED
100
AcDbEntity
  8
0
100
AcDbLine
 62
7
  6
CONTINUOUS
 10
3.4925987182
 20
5.978359473
 11
3.4925987182
 21
6.028359473
  0
LINE
  5
2EE
100
AcDbEntity
  8
0
100
AcDbLine
 62
7
  6
CONTINUOUS
 10
3.5005017159
 20
6.718359473
 11
3.5005017159
 21
6.678359473
  0
LINE
  5
2EF
100
AcDbEntity
  8
0
100
AcDbLine
 62
7
  6
CONTINUOUS
 10
3.5037573839
 20
6.028359473
 11
3.5037573839
 21
5.978359473
  0
LINE
  5
2F0
100
AcDbEntity
  8
0
100
AcDbLine
 62
7
  6
CONTINUOUS
 10
3.5061633019
 20
6.718359473
 11
3.5061633019
 21
6.678359473
  0
LINE
  5
2F1
100
AcDbEntity
  8
0
100
AcDbLine
 62
7
  6
CONTINUOUS
 10
3.5081013425
 20
6.028359473
 11
3.5081013425
 21
5.978359473
  0
LINE
  5
2F2
100
AcDbEntity
  8
0
100
AcDbLine
 62
7
  6
CONTINUOUS
 10
3.5083285155
 20
5.978359473
 11
3.5083285155
 21
6.028359473
  0
LINE
  5
2F3
100
AcDbEntity
  8
0
100
AcDbLine
 62
7
  6
CONTINUOUS
 10
3.509380079
 20
6.678359473
 11
3.509380079
 21
6.718359473
  0
LINE
  5
2F4
100
AcDbEntity
  8
0
100
AcDbLine
 62
7
  6
CONTINUOUS
 10
3.519324159
 20
6.028359473
 11
3.519324159
 21
5.978359473
  0
LINE
  5
2F5
100
AcDbEntity
  8
0
100
AcDbLine
 62
7
  6
CONTINUOUS
 10
3.5207256078
 20
6.718359473
 11
3.5207256078
 21
6.678359473
  0
LINE
  5
2F6
100
AcDbEntity
  8
0
100
AcDbLine
 62
7
  6
CONTINUOUS
 10
3.5233074824
 20
6.028359473
 11
3.5233074824
 21
5.978359473
  0
LINE
  5
2F7
100
AcDbEntity
  8
0
100
AcDbLine
 62
7
  6
CONTINUOUS
 10
3.5261757904
 20
6.718359473
 11
3.5261757904
 21
6.678359473
  0
LINE
  5
2F8
100
AcDbEntity
  8
0
100
AcDbLine
 62
7
  6
CONTINUOUS
 10
3.5288185239
 20
6.678359473
 11
3.5288185239
 21
6.718359473
  0
LINE
  5
2F9
100
AcDbEntity
  8
0
100
AcDbLine
 62
7
  6
CONTINUOUS
 10
3.5335326478
 20
6.028359473
 11
3.5335326478
 21
5.978359473
  0
LINE
  5
2FA
100
AcDbEntity
  8
0
100
AcDbLine
 62
7
  6
CONTINUOUS
 10
3.5342965809
 20
6.638359473
 11
3.5342965809
 21
6.643359473
  0
LINE
  5
2FB
100
AcDbEntity
  8
0
100
AcDbLine
 62
7
  6
CONTINUOUS
 10
3.5371363536
 20
6.028359473
 11
3.5371363536
 21
5.978359473
  0
LINE
  5
2FC
100
AcDbEntity
  8
0
100
AcDbLine
 62
7
  6
CONTINUOUS
 10
3.5401644177
 20
6.718359473
 11
3.5401644177
 21
6.678359473
  0
LINE
  5
2FD
100
AcDbEntity
  8
0
100
AcDbLine
 62
7
  6
CONTINUOUS
 10
3.5453882582
 20
6.718359473
 11
3.5453882582
 21
6.678359473
  0
LINE
  5
2FE
100
AcDbEntity
  8
0
100
AcDbLine
 62
7
  6
CONTINUOUS
 10
3.5463151405
 20
6.028359473
 11
3.5463151405
 21
5.978359473
  0
LINE
  5
2FF
100
AcDbEntity
  8
0
100
AcDbLine
 62
7
  6
CONTINUOUS
 10
3.5467965809
 20
6.028359473
 11
3.5467965809
 21
6.638359473
  0
LINE
  5
300
100
AcDbEntity
  8
0
100
AcDbLine
 62
7
  6
CONTINUOUS
 10
3.5474497047
 20
6.678359473
 11
3.5474497047
 21
6.718359473
  0
LINE
  5
301
100
AcDbEntity
  8
0
100
AcDbLine
 62
7
  6
CONTINUOUS
 10
3.5495220554
 20
6.028359473
 11
3.5495220554
 21
5.978359473
  0
LINE
  5
302
100
AcDbEntity
  8
0
100
AcDbLine
 62
7
  6
CONTINUOUS
 10
3.5576107226
 20
6.028359473
 11
3.5576107226
 21
5.978359473
  0
LINE
  5
303
100
AcDbEntity
  8
0
100
AcDbLine
 62
7
  6
CONTINUOUS
 10
3.5587648651
 20
6.718359473
 11
3.5587648651
 21
6.678359473
  0
LINE
  5
304
100
AcDbEntity
  8
0
100
AcDbLine
 62
7
  6
CONTINUOUS
 10
3.5604055643
 20
6.028359473
 11
3.5604055643
 21
5.978359473
  0
LINE
  5
305
100
AcDbEntity
  8
0
100
AcDbLine
 62
7
  6
CONTINUOUS
 10
3.5637480454
 20
6.718359473
 11
3.5637480454
 21
6.678359473
  0
LINE
  5
306
100
AcDbEntity
  8
0
100
AcDbLine
 62
7
  6
CONTINUOUS
 10
3.5652225545
 20
6.678359473
 11
3.5652225545
 21
6.718359473
  0
LINE
  5
307
100
AcDbEntity
  8
0
100
AcDbLine
 62
7
  6
CONTINUOUS
 10
3.5673655657
 20
6.028359473
 11
3.5673655657
 21
5.978359473
  0
LINE
  5
308
100
AcDbEntity
  8
0
100
AcDbLine
 62
7
  6
CONTINUOUS
 10
3.5697350154
 20
6.028359473
 11
3.5697350154
 21
5.978359473
  0
LINE
  5
309
100
AcDbEntity
  8
0
100
AcDbLine
 62
7
  6
CONTINUOUS
 10
3.5755331833
 20
6.028359473
 11
3.5755331833
 21
5.978359473
  0
LINE
  5
30A
100
AcDbEntity
  8
0
100
AcDbLine
 62
7
  6
CONTINUOUS
 10
3.5764759675
 20
6.718359473
 11
3.5764759675
 21
6.678359473
  0
LINE
  5
30B
100
AcDbEntity
  8
0
100
AcDbLine
 62
7
  6
CONTINUOUS
 10
3.5774659496
 20
6.028359473
 11
3.5774659496
 21
5.978359473
  0
LINE
  5
30C
100
AcDbEntity
  8
0
100
AcDbLine
 62
7
  6
CONTINUOUS
 10
3.581204829
 20
6.718359473
 11
3.581204829
 21
6.678359473
  0
LINE
  5
30D
100
AcDbEntity
  8
0
100
AcDbLine
 62
7
  6
CONTINUOUS
 10
3.5820746532
 20
6.028359473
 11
3.5820746532
 21
5.978359473
  0
LINE
  5
30E
100
AcDbEntity
  8
0
100
AcDbLine
 62
7
  6
CONTINUOUS
 10
3.5820883593
 20
6.678359473
 11
3.5820883593
 21
6.718359473
  0
LINE
  5
30F
100
AcDbEntity
  8
0
100
AcDbLine
 62
7
  6
CONTINUOUS
 10
3.5835615254
 20
6.028359473
 11
3.5835615254
 21
5.978359473
  0
LINE
  5
310
100
AcDbEntity
  8
0
100
AcDbLine
 62
7
  6
CONTINUOUS
 10
3.5869588021
 20
6.028359473
 11
3.5869588021
 21
5.978359473
  0
LINE
  5
311
100
AcDbEntity
  8
0
100
AcDbLine
 62
7
  6
CONTINUOUS
 10
3.5879926947
 20
6.028359473
 11
3.5879926947
 21
5.978359473
  0
LINE
  5
312
100
AcDbEntity
  8
0
100
AcDbLine
 62
7
  6
CONTINUOUS
 10
3.590162355
 20
6.028359473
 11
3.590162355
 21
5.978359473
  0
LINE
  5
313
100
AcDbEntity
  8
0
100
AcDbLine
 62
7
  6
CONTINUOUS
 10
3.590738341
 20
6.028359473
 11
3.590738341
 21
5.978359473
  0
LINE
  5
314
100
AcDbEntity
  8
0
100
AcDbLine
 62
7
  6
CONTINUOUS
 10
3.5916700454
 20
6.028359473
 11
3.5916700454
 21
5.978359473
  0
LINE
  5
315
100
AcDbEntity
  8
0
100
AcDbLine
 62
7
  6
CONTINUOUS
 10
3.59178538
 20
6.028359473
 11
3.59178538
 21
5.978359473
  0
LINE
  5
316
100
AcDbEntity
  8
0
100
AcDbLine
 62
7
  6
CONTINUOUS
 10
3.5932491799
 20
6.718359473
 11
3.5932491799
 21
6.678359473
  0
LINE
  5
317
100
AcDbEntity
  8
0
100
AcDbLine
 62
7
  6
CONTINUOUS
 10
3.5977107612
 20
6.718359473
 11
3.5977107612
 21
6.678359473
  0
LINE
  5
318
100
AcDbEntity
  8
0
100
AcDbLine
 62
7
  6
CONTINUOUS
 10
3.5980008909
 20
6.678359473
 11
3.5980008909
 21
6.718359473
  0
LINE
  5
319
100
AcDbEntity
  8
0
100
AcDbLine
 62
7
  6
CONTINUOUS
 10
3.6090385283
 20
6.718359473
 11
3.6090385283
 21
6.678359473
  0
LINE
  5
31A
100
AcDbEntity
  8
0
100
AcDbLine
 62
7
  6
CONTINUOUS
 10
3.6132206005
 20
6.718359473
 11
3.6132206005
 21
6.678359473
  0
LINE
  5
31B
100
AcDbEntity
  8
0
100
AcDbLine
 62
7
  6
CONTINUOUS
 10
3.623800735
 20
6.718359473
 11
3.623800735
 21
6.678359473
  0
LINE
  5
31C
100
AcDbEntity
  8
0
100
AcDbLine
 62
7
  6
CONTINUOUS
 10
3.6276918353
 20
6.718359473
 11
3.6276918353
 21
6.678359473
  0
LINE
  5
31D
100
AcDbEntity
  8
0
100
AcDbLine
 62
7
  6
CONTINUOUS
 10
3.6374953379
 20
6.718359473
 11
3.6374953379
 21
6.678359473
  0
LINE
  5
31E
100
AcDbEntity
  8
0
100
AcDbLine
 62
7
  6
CONTINUOUS
 10
3.641084801
 20
6.718359473
 11
3.641084801
 21
6.678359473
  0
LINE
  5
31F
100
AcDbEntity
  8
0
100
AcDbLine
 62
7
  6
CONTINUOUS
 10
3.650084801
 20
6.718359473
 11
3.650084801
 21
6.678359473
  0
LINE
  5
320
100
AcDbEntity
  8
0
100
AcDbLine
 62
7
  6
CONTINUOUS
 10
3.6533627886
 20
6.718359473
 11
3.6533627886
 21
6.678359473
  0
LINE
  5
321
100
AcDbEntity
  8
0
100
AcDbLine
 62
7
  6
CONTINUOUS
 10
3.6615346176
 20
6.718359473
 11
3.6615346176
 21
6.678359473
  0
LINE
  5
322
100
AcDbEntity
  8
0
100
AcDbLine
 62
7
  6
CONTINUOUS
 10
3.6644921448
 20
6.718359473
 11
3.6644921448
 21
6.678359473
  0
LINE
  5
323
100
AcDbEntity
  8
0
100
AcDbLine
 62
7
  6
CONTINUOUS
 10
3.6718134043
 20
6.718359473
 11
3.6718134043
 21
6.678359473
  0
LINE
  5
324
100
AcDbEntity
  8
0
100
AcDbLine
 62
7
  6
CONTINUOUS
 10
3.6744423648
 20
6.718359473
 11
3.6744423648
 21
6.678359473
  0
LINE
  5
325
100
AcDbEntity
  8
0
100
AcDbLine
 62
7
  6
CONTINUOUS
 10
3.6808929879
 20
6.718359473
 11
3.6808929879
 21
6.678359473
  0
LINE
  5
326
100
AcDbEntity
  8
0
100
AcDbLine
 62
7
  6
CONTINUOUS
 10
3.6831861759
 20
6.718359473
 11
3.6831861759
 21
6.678359473
  0
LINE
  5
327
100
AcDbEntity
  8
0
100
AcDbLine
 62
7
  6
CONTINUOUS
 10
3.6842965809
 20
6.718359473
 11
3.6842965809
 21
6.768359473
  0
LINE
  5
328
100
AcDbEntity
  8
0
100
AcDbLine
 62
7
  6
CONTINUOUS
 10
3.6887484818
 20
6.718359473
 11
3.6887484818
 21
6.678359473
  0
LINE
  5
329
100
AcDbEntity
  8
0
100
AcDbLine
 62
7
  6
CONTINUOUS
 10
3.6906996117
 20
6.718359473
 11
3.6906996117
 21
6.678359473
  0
LINE
  5
32A
100
AcDbEntity
  8
0
100
AcDbLine
 62
7
  6
CONTINUOUS
 10
3.6953583545
 20
6.718359473
 11
3.6953583545
 21
6.678359473
  0
LINE
  5
32B
100
AcDbEntity
  8
0
100
AcDbLine
 62
7
  6
CONTINUOUS
 10
3.6969620786
 20
6.718359473
 11
3.6969620786
 21
6.678359473
  0
LINE
  5
32C
100
AcDbEntity
  8
0
100
AcDbLine
 62
7
  6
CONTINUOUS
 10
3.7007044891
 20
6.718359473
 11
3.7007044891
 21
6.678359473
  0
LINE
  5
32D
100
AcDbEntity
  8
0
100
AcDbLine
 62
7
  6
CONTINUOUS
 10
3.7019564115
 20
6.718359473
 11
3.7019564115
 21
6.678359473
  0
LINE
  5
32E
100
AcDbEntity
  8
0
100
AcDbLine
 62
7
  6
CONTINUOUS
 10
3.7047722319
 20
6.718359473
 11
3.7047722319
 21
6.678359473
  0
LINE
  5
32F
100
AcDbEntity
  8
0
100
AcDbLine
 62
7
  6
CONTINUOUS
 10
3.7056689214
 20
6.718359473
 11
3.7056689214
 21
6.678359473
  0
LINE
  5
330
100
AcDbEntity
  8
0
100
AcDbLine
 62
7
  6
CONTINUOUS
 10
3.7075504337
 20
6.718359473
 11
3.7075504337
 21
6.678359473
  0
LINE
  5
331
100
AcDbEntity
  8
0
100
AcDbLine
 62
7
  6
CONTINUOUS
 10
3.7080894324
 20
6.718359473
 11
3.7080894324
 21
6.678359473
  0
LINE
  5
332
100
AcDbEntity
  8
0
100
AcDbLine
 62
7
  6
CONTINUOUS
 10
3.7090314796
 20
6.718359473
 11
3.7090314796
 21
6.678359473
  0
LINE
  5
333
100
AcDbEntity
  8
0
100
AcDbLine
 62
7
  6
CONTINUOUS
 10
3.7092113101
 20
6.718359473
 11
3.7092113101
 21
6.678359473
  0
LINE
  5
334
100
AcDbEntity
  8
0
100
AcDbLine
 62
7
  6
CONTINUOUS
 10
3.7092965809
 20
6.793359473
 11
3.7092965809
 21
6.833359473
  0
LINE
  5
335
100
AcDbEntity
  8
0
100
AcDbLine
 62
7
  6
CONTINUOUS
 10
5.7642965809
 20
6.793359473
 11
5.7392965809
 21
6.768359473
  0
LINE
  5
336
100
AcDbEntity
  8
0
100
AcDbLine
 62
7
  6
CONTINUOUS
 10
4.9830465809
 20
3.083359473
 11
5.4205465809
 21
3.083359473
  0
LINE
  5
337
100
AcDbEntity
  8
0
100
AcDbLine
 62
7
  6
CONTINUOUS
 10
4.6392965809
 20
6.833359473
 11
4.6392965809
 21
6.793359473
  0
LINE
  5
338
100
AcDbEntity
  8
0
100
AcDbLine
 62
7
  6
CONTINUOUS
 10
4.6392965809
 20
6.718359473
 11
4.6392965809
 21
6.678359473
  0
LINE
  5
339
100
AcDbEntity
  8
0
100
AcDbLine
 62
7
  6
CONTINUOUS
 10
4.6642965809
 20
6.768359473
 11
4.6642965809
 21
6.718359473
  0
LINE
  5
33A
100
AcDbEntity
  8
0
100
AcDbLine
 62
7
  6
CONTINUOUS
 10
4.8269045965
 20
5.720859473
 11
4.8269045965
 21
5.770859473
  0
LINE
  5
33B
100
AcDbEntity
  8
0
100
AcDbLine
 62
7
  6
CONTINUOUS
 10
4.8271186408
 20
5.720859473
 11
4.8271186408
 21
5.770859473
  0
LINE
  5
33C
100
AcDbEntity
  8
0
100
AcDbLine
 62
7
  6
CONTINUOUS
 10
4.8282958972
 20
5.720859473
 11
4.8282958972
 21
5.770859473
  0
LINE
  5
33D
100
AcDbEntity
  8
0
100
AcDbLine
 62
7
  6
CONTINUOUS
 10
4.8289371137
 20
5.720859473
 11
4.8289371137
 21
5.770859473
  0
LINE
  5
33E
100
AcDbEntity
  8
0
100
AcDbLine
 62
7
  6
CONTINUOUS
 10
4.8312865851
 20
5.720859473
 11
4.8312865851
 21
5.770859473
  0
LINE
  5
33F
100
AcDbEntity
  8
0
100
AcDbLine
 62
7
  6
CONTINUOUS
 10
4.8323522279
 20
5.720859473
 11
4.8323522279
 21
5.770859473
  0
LINE
  5
340
100
AcDbEntity
  8
0
100
AcDbLine
 62
7
  6
CONTINUOUS
 10
4.8358638537
 20
5.720859473
 11
4.8358638537
 21
5.770859473
  0
LINE
  5
341
100
AcDbEntity
  8
0
100
AcDbLine
 62
7
  6
CONTINUOUS
 10
4.8373493597
 20
5.720859473
 11
4.8373493597
 21
5.770859473
  0
LINE
  5
342
100
AcDbEntity
  8
0
100
AcDbLine
 62
7
  6
CONTINUOUS
 10
4.8420081025
 20
5.720859473
 11
4.8420081025
 21
5.770859473
  0
LINE
  5
343
100
AcDbEntity
  8
0
100
AcDbLine
 62
7
  6
CONTINUOUS
 10
4.8439071104
 20
5.720859473
 11
4.8439071104
 21
5.770859473
  0
LINE
  5
344
100
AcDbEntity
  8
0
100
AcDbLine
 62
7
  6
CONTINUOUS
 10
4.8496930207
 20
5.720859473
 11
4.8496930207
 21
5.770859473
  0
LINE
  5
345
100
AcDbEntity
  8
0
100
AcDbLine
 62
7
  6
CONTINUOUS
 10
4.8519973987
 20
5.720859473
 11
4.8519973987
 21
5.770859473
  0
LINE
  5
346
100
AcDbEntity
  8
0
100
AcDbLine
 62
7
  6
CONTINUOUS
 10
4.8588857005
 20
5.720859473
 11
4.8588857005
 21
5.770859473
  0
LINE
  5
347
100
AcDbEntity
  8
0
100
AcDbLine
 62
7
  6
CONTINUOUS
 10
4.8615855809
 20
5.720859473
 11
4.8615855809
 21
5.770859473
  0
LINE
  5
348
100
AcDbEntity
  8
0
100
AcDbLine
 62
7
  6
CONTINUOUS
 10
4.8695467773
 20
5.720859473
 11
4.8695467773
 21
5.770859473
  0
LINE
  5
349
100
AcDbEntity
  8
0
100
AcDbLine
 62
7
  6
CONTINUOUS
 10
4.8726305987
 20
5.720859473
 11
4.8726305987
 21
5.770859473
  0
LINE
  5
34A
100
AcDbEntity
  8
0
100
AcDbLine
 62
7
  6
CONTINUOUS
 10
4.8737965809
 20
6.643359473
 11
4.8737965809
 21
5.770859473
  0
LINE
  5
34B
100
AcDbEntity
  8
0
100
AcDbLine
 62
7
  6
CONTINUOUS
 10
4.8816305987
 20
5.720859473
 11
4.8816305987
 21
5.770859473
  0
LINE
  5
34C
100
AcDbEntity
  8
0
100
AcDbLine
 62
7
  6
CONTINUOUS
 10
4.8850851559
 20
5.720859473
 11
4.8850851559
 21
5.770859473
  0
LINE
  5
34D
100
AcDbEntity
  8
0
100
AcDbLine
 62
7
  6
CONTINUOUS
 10
4.8950854201
 20
5.720859473
 11
4.8950854201
 21
5.770859473
  0
LINE
  5
34E
100
AcDbEntity
  8
0
100
AcDbLine
 62
7
  6
CONTINUOUS
 10
4.89889592
 20
5.720859473
 11
4.89889592
 21
5.770859473
  0
LINE
  5
34F
100
AcDbEntity
  8
0
100
AcDbLine
 62
7
  6
CONTINUOUS
 10
4.9098536257
 20
5.720859473
 11
4.9098536257
 21
5.770859473
  0
LINE
  5
350
100
AcDbEntity
  8
0
100
AcDbLine
 62
7
  6
CONTINUOUS
 10
4.9140037512
 20
5.720859473
 11
4.9140037512
 21
5.770859473
  0
LINE
  5
351
100
AcDbEntity
  8
0
100
AcDbLine
 62
7
  6
CONTINUOUS
 10
4.9251195318
 20
5.770859473
 11
4.9251195318
 21
5.720859473
  0
LINE
  5
352
100
AcDbEntity
  8
0
100
AcDbLine
 62
7
  6
CONTINUOUS
 10
4.9258719759
 20
5.720859473
 11
4.9258719759
 21
5.770859473
  0
LINE
  5
353
100
AcDbEntity
  8
0
100
AcDbLine
 62
7
  6
CONTINUOUS
 10
4.9303439555
 20
5.720859473
 11
4.9303439555
 21
5.770859473
  0
LINE
  5
354
100
AcDbEntity
  8
0
100
AcDbLine
 62
7
  6
CONTINUOUS
 10
4.9415812855
 20
5.770859473
 11
4.9415812855
 21
5.720859473
  0
LINE
  5
355
100
AcDbEntity
  8
0
100
AcDbLine
 62
7
  6
CONTINUOUS
 10
4.9430718775
 20
5.720859473
 11
4.9430718775
 21
5.770859473
  0
LINE
  5
356
100
AcDbEntity
  8
0
100
AcDbLine
 62
7
  6
CONTINUOUS
 10
4.9478465616
 20
5.720859473
 11
4.9478465616
 21
5.770859473
  0
LINE
  5
357
100
AcDbEntity
  8
0
100
AcDbLine
 62
7
  6
CONTINUOUS
 10
4.9517965809
 20
5.643359473
 11
4.9517965809
 21
5.598359473
  0
LINE
  5
358
100
AcDbEntity
  8
0
100
AcDbLine
 62
7
  6
CONTINUOUS
 10
4.959157321
 20
5.770859473
 11
4.959157321
 21
5.720859473
  0
LINE
  5
359
100
AcDbEntity
  8
0
100
AcDbLine
 62
7
  6
CONTINUOUS
 10
4.9613796781
 20
5.720859473
 11
4.9613796781
 21
5.770859473
  0
LINE
  5
35A
100
AcDbEntity
  8
0
100
AcDbLine
 62
7
  6
CONTINUOUS
 10
4.9664366207
 20
5.720859473
 11
4.9664366207
 21
5.770859473
  0
LINE
  5
35B
100
AcDbEntity
  8
0
100
AcDbLine
 62
7
  6
CONTINUOUS
 10
4.9777723751
 20
5.770859473
 11
4.9777723751
 21
5.720859473
  0
LINE
  5
35C
100
AcDbEntity
  8
0
100
AcDbLine
 62
7
  6
CONTINUOUS
 10
4.9807169808
 20
5.720859473
 11
4.9807169808
 21
5.770859473
  0
LINE
  5
35D
100
AcDbEntity
  8
0
100
AcDbLine
 62
7
  6
CONTINUOUS
 10
4.9830465809
 20
2.083359473
 11
4.9830465809
 21
5.583359473
  0
LINE
  5
35E
100
AcDbEntity
  8
0
100
AcDbLine
 62
7
  6
CONTINUOUS
 10
4.9860345273
 20
5.720859473
 11
4.9860345273
 21
5.770859473
  0
LINE
  5
35F
100
AcDbEntity
  8
0
100
AcDbLine
 62
7
  6
CONTINUOUS
 10
4.9973467352
 20
5.770859473
 11
4.9973467352
 21
5.720859473
  0
LINE
  5
360
100
AcDbEntity
  8
0
100
AcDbLine
 62
7
  6
CONTINUOUS
 10
5.0010009803
 20
5.720859473
 11
5.0010009803
 21
5.770859473
  0
LINE
  5
361
100
AcDbEntity
  8
0
100
AcDbLine
 62
7
  6
CONTINUOUS
 10
5.0065563601
 20
5.720859473
 11
5.0065563601
 21
5.770859473
  0
LINE
  5
362
100
AcDbEntity
  8
0
100
AcDbLine
 62
7
  6
CONTINUOUS
 10
5.0177965809
 20
5.770859473
 11
5.0177965809
 21
5.720859473
  0
LINE
  5
363
100
AcDbEntity
  8
0
100
AcDbLine
 62
7
  6
CONTINUOUS
 10
5.0221448173
 20
5.720859473
 11
5.0221448173
 21
5.770859473
  0
LINE
  5
364
100
AcDbEntity
  8
0
100
AcDbLine
 62
7
  6
CONTINUOUS
 10
5.0279142415
 20
5.720859473
 11
5.0279142415
 21
5.770859473
  0
LINE
  5
365
100
AcDbEntity
  8
0
100
AcDbLine
 62
7
  6
CONTINUOUS
 10
5.0390343429
 20
5.770859473
 11
5.0390343429
 21
5.720859473
  0
LINE
  5
366
100
AcDbEntity
  8
0
100
AcDbLine
 62
7
  6
CONTINUOUS
 10
5.0440579508
 20
5.720859473
 11
5.0440579508
 21
5.770859473
  0
LINE
  5
367
100
AcDbEntity
  8
0
100
AcDbLine
 62
7
  6
CONTINUOUS
 10
5.0500167138
 20
5.720859473
 11
5.0500167138
 21
5.770859473
  0
LINE
  5
368
100
AcDbEntity
  8
0
100
AcDbLine
 62
7
  6
CONTINUOUS
 10
5.0609690778
 20
5.770859473
 11
5.0609690778
 21
5.720859473
  0
LINE
  5
369
100
AcDbEntity
  8
0
100
AcDbLine
 62
7
  6
CONTINUOUS
 10
5.0666465453
 20
5.720859473
 11
5.0666465453
 21
5.770859473
  0
LINE
  5
36A
100
AcDbEntity
  8
0
100
AcDbLine
 62
7
  6
CONTINUOUS
 10
5.0727691307
 20
5.720859473
 11
5.0727691307
 21
5.770859473
  0
LINE
  5
36B
100
AcDbEntity
  8
0
100
AcDbLine
 62
7
  6
CONTINUOUS
 10
5.0835068577
 20
5.770859473
 11
5.0835068577
 21
5.720859473
  0
LINE
  5
36C
100
AcDbEntity
  8
0
100
AcDbLine
 62
7
  6
CONTINUOUS
 10
5.0898138731
 20
5.720859473
 11
5.0898138731
 21
5.770859473
  0
LINE
  5
36D
100
AcDbEntity
  8
0
100
AcDbLine
 62
7
  6
CONTINUOUS
 10
5.0960740631
 20
5.720859473
 11
5.0960740631
 21
5.770859473
  0
LINE
  5
36E
100
AcDbEntity
  8
0
100
AcDbLine
 62
7
  6
CONTINUOUS
 10
5.1065511723
 20
5.770859473
 11
5.1065511723
 21
5.720859473
  0
LINE
  5
36F
100
AcDbEntity
  8
0
100
AcDbLine
 62
7
  6
CONTINUOUS
 10
5.1134607279
 20
5.720859473
 11
5.1134607279
 21
5.770859473
  0
LINE
  5
370
100
AcDbEntity
  8
0
100
AcDbLine
 62
7
  6
CONTINUOUS
 10
5.1198317154
 20
5.720859473
 11
5.1198317154
 21
5.770859473
  0
LINE
  5
371
100
AcDbEntity
  8
0
100
AcDbLine
 62
7
  6
CONTINUOUS
 10
5.1300033424
 20
5.770859473
 11
5.1300033424
 21
5.720859473
  0
LINE
  5
372
100
AcDbEntity
  8
0
100
AcDbLine
 62
7
  6
CONTINUOUS
 10
5.1374858505
 20
5.720859473
 11
5.1374858505
 21
5.770859473
  0
LINE
  5
373
100
AcDbEntity
  8
0
100
AcDbLine
 62
7
  6
CONTINUOUS
 10
5.143940354
 20
5.720859473
 11
5.143940354
 21
5.770859473
  0
LINE
  5
374
100
AcDbEntity
  8
0
100
AcDbLine
 62
7
  6
CONTINUOUS
 10
5.1537629422
 20
5.770859473
 11
5.1537629422
 21
5.720859473
  0
LINE
  5
375
100
AcDbEntity
  8
0
100
AcDbLine
 62
7
  6
CONTINUOUS
 10
5.1617863615
 20
5.720859473
 11
5.1617863615
 21
5.770859473
  0
LINE
  5
376
100
AcDbEntity
  8
0
100
AcDbLine
 62
7
  6
CONTINUOUS
 10
5.1682967417
 20
5.720859473
 11
5.1682967417
 21
5.770859473
  0
LINE
  5
377
100
AcDbEntity
  8
0
100
AcDbLine
 62
7
  6
CONTINUOUS
 10
5.1777282294
 20
5.770859473
 11
5.1777282294
 21
5.720859473
  0
LINE
  5
378
100
AcDbEntity
  8
0
100
AcDbLine
 62
7
  6
CONTINUOUS
 10
5.1862582023
 20
5.720859473
 11
5.1862582023
 21
5.770859473
  0
LINE
  5
379
100
AcDbEntity
  8
0
100
AcDbLine
 62
7
  6
CONTINUOUS
 10
5.1927965809
 20
5.720859473
 11
5.1927965809
 21
5.770859473
  0
LINE
  5
37A
100
AcDbEntity
  8
0
100
AcDbLine
 62
7
  6
CONTINUOUS
 10
5.2017965809
 20
5.770859473
 11
5.2017965809
 21
5.720859473
  0
LINE
  5
37B
100
AcDbEntity
  8
0
100
AcDbLine
 62
7
  6
CONTINUOUS
 10
5.2107965809
 20
5.720859473
 11
5.2107965809
 21
5.770859473
  0
LINE
  5
37C
100
AcDbEntity
  8
0
100
AcDbLine
 62
7
  6
CONTINUOUS
 10
5.2173349595
 20
5.720859473
 11
5.2173349595
 21
5.770859473
  0
LINE
  5
37D
100
AcDbEntity
  8
0
100
AcDbLine
 62
7
  6
CONTINUOUS
 10
5.2258649325
 20
5.770859473
 11
5.2258649325
 21
5.720859473
  0
LINE
  5
37E
100
AcDbEntity
  8
0
100
AcDbLine
 62
7
  6
CONTINUOUS
 10
5.2352964201
 20
5.720859473
 11
5.2352964201
 21
5.770859473
  0
LINE
  5
37F
100
AcDbEntity
  8
0
100
AcDbLine
 62
7
  6
CONTINUOUS
 10
5.2418068004
 20
5.720859473
 11
5.2418068004
 21
5.770859473
  0
LINE
  5
380
100
AcDbEntity
  8
0
100
AcDbLine
 62
7
  6
CONTINUOUS
 10
7.6217965809
 20
6.768359473
 11
7.6467965809
 21
6.793359473
  0
LINE
  5
381
100
AcDbEntity
  8
0
100
AcDbLine
 62
7
  6
CONTINUOUS
 10
2.7842965809
 20
6.768359473
 11
2.7592965809
 21
6.793359473
  0
LINE
  5
382
100
AcDbEntity
  8
0
100
AcDbLine
 62
7
  6
CONTINUOUS
 10
5.2498302197
 20
5.770859473
 11
5.2498302197
 21
5.720859473
  0
LINE
  5
383
100
AcDbEntity
  8
0
100
AcDbLine
 62
7
  6
CONTINUOUS
 10
5.2596528079
 20
5.720859473
 11
5.2596528079
 21
5.770859473
  0
LINE
  5
384
100
AcDbEntity
  8
0
100
AcDbLine
 62
7
  6
CONTINUOUS
 10
5.2661073114
 20
5.720859473
 11
5.2661073114
 21
5.770859473
  0
LINE
  5
385
100
AcDbEntity
  8
0
100
AcDbLine
 62
7
  6
CONTINUOUS
 10
5.2735898194
 20
5.770859473
 11
5.2735898194
 21
5.720859473
  0
LINE
  5
386
100
AcDbEntity
  8
0
100
AcDbLine
 62
7
  6
CONTINUOUS
 10
5.2837614464
 20
5.720859473
 11
5.2837614464
 21
5.770859473
  0
LINE
  5
387
100
AcDbEntity
  8
0
100
AcDbLine
 62
7
  6
CONTINUOUS
 10
5.2901324339
 20
5.720859473
 11
5.2901324339
 21
5.770859473
  0
LINE
  5
388
100
AcDbEntity
  8
0
100
AcDbLine
 62
7
  6
CONTINUOUS
 10
5.2970419895
 20
5.770859473
 11
5.2970419895
 21
5.720859473
  0
LINE
  5
389
100
AcDbEntity
  8
0
100
AcDbLine
 62
7
  6
CONTINUOUS
 10
5.3075190988
 20
5.720859473
 11
5.3075190988
 21
5.770859473
  0
LINE
  5
38A
100
AcDbEntity
  8
0
100
AcDbLine
 62
7
  6
CONTINUOUS
 10
5.3137792888
 20
5.720859473
 11
5.3137792888
 21
5.770859473
  0
LINE
  5
38B
100
AcDbEntity
  8
0
100
AcDbLine
 62
7
  6
CONTINUOUS
 10
5.3200863042
 20
5.770859473
 11
5.3200863042
 21
5.720859473
  0
LINE
  5
38C
100
AcDbEntity
  8
0
100
AcDbLine
 62
7
  6
CONTINUOUS
 10
5.3308240311
 20
5.720859473
 11
5.3308240311
 21
5.770859473
  0
LINE
  5
38D
100
AcDbEntity
  8
0
100
AcDbLine
 62
7
  6
CONTINUOUS
 10
5.3369466165
 20
5.720859473
 11
5.3369466165
 21
5.770859473
  0
LINE
  5
38E
100
AcDbEntity
  8
0
100
AcDbLine
 62
7
  6
CONTINUOUS
 10
5.342624084
 20
5.770859473
 11
5.342624084
 21
5.720859473
  0
LINE
  5
38F
100
AcDbEntity
  8
0
100
AcDbLine
 62
7
  6
CONTINUOUS
 10
5.3535764481
 20
5.720859473
 11
5.3535764481
 21
5.770859473
  0
LINE
  5
390
100
AcDbEntity
  8
0
100
AcDbLine
 62
7
  6
CONTINUOUS
 10
5.359535211
 20
5.720859473
 11
5.359535211
 21
5.770859473
  0
LINE
  5
391
100
AcDbEntity
  8
0
100
AcDbLine
 62
7
  6
CONTINUOUS
 10
5.3645588189
 20
5.770859473
 11
5.3645588189
 21
5.720859473
  0
LINE
  5
392
100
AcDbEntity
  8
0
100
AcDbLine
 62
7
  6
CONTINUOUS
 10
5.3756789204
 20
5.720859473
 11
5.3756789204
 21
5.770859473
  0
LINE
  5
393
100
AcDbEntity
  8
0
100
AcDbLine
 62
7
  6
CONTINUOUS
 10
5.3814483445
 20
5.720859473
 11
5.3814483445
 21
5.770859473
  0
LINE
  5
394
100
AcDbEntity
  8
0
100
AcDbLine
 62
7
  6
CONTINUOUS
 10
5.3857965809
 20
5.770859473
 11
5.3857965809
 21
5.720859473
  0
LINE
  5
395
100
AcDbEntity
  8
0
100
AcDbLine
 62
7
  6
CONTINUOUS
 10
5.3970368018
 20
5.720859473
 11
5.3970368018
 21
5.770859473
  0
LINE
  5
396
100
AcDbEntity
  8
0
100
AcDbLine
 62
7
  6
CONTINUOUS
 10
5.4025921816
 20
5.720859473
 11
5.4025921816
 21
5.770859473
  0
LINE
  5
397
100
AcDbEntity
  8
0
100
AcDbLine
 62
7
  6
CONTINUOUS
 10
5.4062464267
 20
5.770859473
 11
5.4062464267
 21
5.720859473
  0
LINE
  5
398
100
AcDbEntity
  8
0
100
AcDbLine
 62
7
  6
CONTINUOUS
 10
5.4175586346
 20
5.720859473
 11
5.4175586346
 21
5.770859473
  0
LINE
  5
399
100
AcDbEntity
  8
0
100
AcDbLine
 62
7
  6
CONTINUOUS
 10
5.4205465809
 20
2.083359473
 11
5.4205465809
 21
5.583359473
  0
LINE
  5
39A
100
AcDbEntity
  8
0
100
AcDbLine
 62
7
  6
CONTINUOUS
 10
5.422876181
 20
5.720859473
 11
5.422876181
 21
5.770859473
  0
LINE
  5
39B
100
AcDbEntity
  8
0
100
AcDbLine
 62
7
  6
CONTINUOUS
 10
5.4258207868
 20
5.770859473
 11
5.4258207868
 21
5.720859473
  0
LINE
  5
39C
100
AcDbEntity
  8
0
100
AcDbLine
 62
7
  6
CONTINUOUS
 10
5.4371565412
 20
5.720859473
 11
5.4371565412
 21
5.770859473
  0
LINE
  5
39D
100
AcDbEntity
  8
0
100
AcDbLine
 62
7
  6
CONTINUOUS
 10
5.4422134837
 20
5.720859473
 11
5.4422134837
 21
5.770859473
  0
LINE
  5
39E
100
AcDbEntity
  8
0
100
AcDbLine
 62
7
  6
CONTINUOUS
 10
5.4444358409
 20
5.770859473
 11
5.4444358409
 21
5.720859473
  0
LINE
  5
39F
100
AcDbEntity
  8
0
100
AcDbLine
 62
7
  6
CONTINUOUS
 10
5.4517965809
 20
5.643359473
 11
5.4517965809
 21
5.598359473
  0
LINE
  5
3A0
100
AcDbEntity
  8
0
100
AcDbLine
 62
7
  6
CONTINUOUS
 10
5.4557466003
 20
5.720859473
 11
5.4557466003
 21
5.770859473
  0
LINE
  5
3A1
100
AcDbEntity
  8
0
100
AcDbLine
 62
7
  6
CONTINUOUS
 10
5.4605212843
 20
5.720859473
 11
5.4605212843
 21
5.770859473
  0
LINE
  5
3A2
100
AcDbEntity
  8
0
100
AcDbLine
 62
7
  6
CONTINUOUS
 10
5.4620118764
 20
5.770859473
 11
5.4620118764
 21
5.720859473
  0
LINE
  5
3A3
100
AcDbEntity
  8
0
100
AcDbLine
 62
7
  6
CONTINUOUS
 10
5.4732492064
 20
5.720859473
 11
5.4732492064
 21
5.770859473
  0
LINE
  5
3A4
100
AcDbEntity
  8
0
100
AcDbLine
 62
7
  6
CONTINUOUS
 10
5.477721186
 20
5.720859473
 11
5.477721186
 21
5.770859473
  0
LINE
  5
3A5
100
AcDbEntity
  8
0
100
AcDbLine
 62
7
  6
CONTINUOUS
 10
5.4784736301
 20
5.770859473
 11
5.4784736301
 21
5.720859473
  0
LINE
  5
3A6
100
AcDbEntity
  8
0
100
AcDbLine
 62
7
  6
CONTINUOUS
 10
5.4895894107
 20
5.720859473
 11
5.4895894107
 21
5.770859473
  0
LINE
  5
3A7
100
AcDbEntity
  8
0
100
AcDbLine
 62
7
  6
CONTINUOUS
 10
5.4937395362
 20
5.720859473
 11
5.4937395362
 21
5.770859473
  0
LINE
  5
3A8
100
AcDbEntity
  8
0
100
AcDbLine
 62
7
  6
CONTINUOUS
 10
5.5046972419
 20
5.720859473
 11
5.5046972419
 21
5.770859473
  0
LINE
  5
3A9
100
AcDbEntity
  8
0
100
AcDbLine
 62
7
  6
CONTINUOUS
 10
5.5085077418
 20
5.720859473
 11
5.5085077418
 21
5.770859473
  0
LINE
  5
3AA
100
AcDbEntity
  8
0
100
AcDbLine
 62
7
  6
CONTINUOUS
 10
5.518508006
 20
5.720859473
 11
5.518508006
 21
5.770859473
  0
LINE
  5
3AB
100
AcDbEntity
  8
0
100
AcDbLine
 62
7
  6
CONTINUOUS
 10
5.5219625631
 20
5.720859473
 11
5.5219625631
 21
5.770859473
  0
LINE
  5
3AC
100
AcDbEntity
  8
0
100
AcDbLine
 62
7
  6
CONTINUOUS
 10
5.5297965809
 20
6.643359473
 11
5.5297965809
 21
5.770859473
  0
LINE
  5
3AD
100
AcDbEntity
  8
0
100
AcDbLine
 62
7
  6
CONTINUOUS
 10
5.5309625631
 20
5.720859473
 11
5.5309625631
 21
5.770859473
  0
LINE
  5
3AE
100
AcDbEntity
  8
0
100
AcDbLine
 62
7
  6
CONTINUOUS
 10
5.5340463846
 20
5.720859473
 11
5.5340463846
 21
5.770859473
  0
LINE
  5
3AF
100
AcDbEntity
  8
0
100
AcDbLine
 62
7
  6
CONTINUOUS
 10
5.542007581
 20
5.720859473
 11
5.542007581
 21
5.770859473
  0
LINE
  5
3B0
100
AcDbEntity
  8
0
100
AcDbLine
 62
7
  6
CONTINUOUS
 10
5.5447074614
 20
5.720859473
 11
5.5447074614
 21
5.770859473
  0
LINE
  5
3B1
100
AcDbEntity
  8
0
100
AcDbLine
 62
7
  6
CONTINUOUS
 10
5.5515957631
 20
5.720859473
 11
5.5515957631
 21
5.770859473
  0
LINE
  5
3B2
100
AcDbEntity
  8
0
100
AcDbLine
 62
7
  6
CONTINUOUS
 10
5.5539001411
 20
5.720859473
 11
5.5539001411
 21
5.770859473
  0
LINE
  5
3B3
100
AcDbEntity
  8
0
100
AcDbLine
 62
7
  6
CONTINUOUS
 10
5.5596860515
 20
5.720859473
 11
5.5596860515
 21
5.770859473
  0
LINE
  5
3B4
100
AcDbEntity
  8
0
100
AcDbLine
 62
7
  6
CONTINUOUS
 10
5.5615850594
 20
5.720859473
 11
5.5615850594
 21
5.770859473
  0
LINE
  5
3B5
100
AcDbEntity
  8
0
100
AcDbLine
 62
7
  6
CONTINUOUS
 10
5.5662438022
 20
5.720859473
 11
5.5662438022
 21
5.770859473
  0
LINE
  5
3B6
100
AcDbEntity
  8
0
100
AcDbLine
 62
7
  6
CONTINUOUS
 10
5.5677293081
 20
5.720859473
 11
5.5677293081
 21
5.770859473
  0
LINE
  5
3B7
100
AcDbEntity
  8
0
100
AcDbLine
 62
7
  6
CONTINUOUS
 10
5.5712409339
 20
5.720859473
 11
5.5712409339
 21
5.770859473
  0
LINE
  5
3B8
100
AcDbEntity
  8
0
100
AcDbLine
 62
7
  6
CONTINUOUS
 10
5.5723065767
 20
5.720859473
 11
5.5723065767
 21
5.770859473
  0
LINE
  5
3B9
100
AcDbEntity
  8
0
100
AcDbLine
 62
7
  6
CONTINUOUS
 10
5.5746560482
 20
5.720859473
 11
5.5746560482
 21
5.770859473
  0
LINE
  5
3BA
100
AcDbEntity
  8
0
100
AcDbLine
 62
7
  6
CONTINUOUS
 10
5.5752972647
 20
5.720859473
 11
5.5752972647
 21
5.770859473
  0
LINE
  5
3BB
100
AcDbEntity
  8
0
100
AcDbLine
 62
7
  6
CONTINUOUS
 10
5.576474521
 20
5.720859473
 11
5.576474521
 21
5.770859473
  0
LINE
  5
3BC
100
AcDbEntity
  8
0
100
AcDbLine
 62
7
  6
CONTINUOUS
 10
5.5766885654
 20
5.720859473
 11
5.5766885654
 21
5.770859473
  0
LINE
  5
3BD
100
AcDbEntity
  8
0
100
AcDbLine
 62
7
  6
CONTINUOUS
 10
5.7392965809
 20
6.768359473
 11
5.7392965809
 21
6.718359473
  0
LINE
  5
3BE
100
AcDbEntity
  8
0
100
AcDbLine
 62
7
  6
CONTINUOUS
 10
5.7642965809
 20
6.833359473
 11
5.7642965809
 21
6.793359473
  0
LINE
  5
3BF
100
AcDbEntity
  8
0
100
AcDbLine
 62
7
  6
CONTINUOUS
 10
5.7642965809
 20
6.718359473
 11
5.7642965809
 21
6.678359473
  0
LINE
  5
3C0
100
AcDbEntity
  8
0
100
AcDbLine
 62
7
  6
CONTINUOUS
 10
8.9142965809
 20
5.317859473
 11
7.6242965809
 21
5.317859473
  0
LINE
  5
3C1
100
AcDbEntity
  8
0
100
AcDbLine
 62
7
  6
CONTINUOUS
 10
1.4917965809
 20
5.317859473
 11
2.7817965809
 21
5.317859473
  0
LINE
  5
3C2
100
AcDbEntity
  8
0
100
AcDbLine
 62
7
  6
CONTINUOUS
 10
3.0592965809
 20
5.370359473
 11
2.8817965809
 21
5.370359473
  0
LINE
  5
3C3
100
AcDbEntity
  8
0
100
AcDbLine
 62
7
  6
CONTINUOUS
 10
7.3467965809
 20
5.370359473
 11
7.5242965809
 21
5.370359473
  0
LINE
  5
3C4
100
AcDbEntity
  8
0
100
AcDbLine
 62
7
  6
CONTINUOUS
 10
3.0592965809
 20
5.565359473
 11
2.8817965809
 21
5.565359473
  0
LINE
  5
3C5
100
AcDbEntity
  8
0
100
AcDbLine
 62
7
  6
CONTINUOUS
 10
7.3467965809
 20
5.565359473
 11
7.5242965809
 21
5.565359473
  0
LINE
  5
3C6
100
AcDbEntity
  8
0
100
AcDbLine
 62
7
  6
CONTINUOUS
 10
5.4367965809
 20
5.583359473
 11
4.9667965809
 21
5.583359473
  0
LINE
  5
3C7
100
AcDbEntity
  8
0
100
AcDbLine
 62
7
  6
CONTINUOUS
 10
6.6967965809
 20
6.793359473
 11
6.6967965809
 21
6.833359473
  0
LINE
  5
3C8
100
AcDbEntity
  8
0
100
AcDbLine
 62
7
  6
CONTINUOUS
 10
6.6968818517
 20
6.718359473
 11
6.6968818517
 21
6.678359473
  0
LINE
  5
3C9
100
AcDbEntity
  8
0
100
AcDbLine
 62
7
  6
CONTINUOUS
 10
6.6970616823
 20
6.718359473
 11
6.6970616823
 21
6.678359473
  0
LINE
  5
3CA
100
AcDbEntity
  8
0
100
AcDbLine
 62
7
  6
CONTINUOUS
 10
6.6980037295
 20
6.718359473
 11
6.6980037295
 21
6.678359473
  0
LINE
  5
3CB
100
AcDbEntity
  8
0
100
AcDbLine
 62
7
  6
CONTINUOUS
 10
6.6985427281
 20
6.718359473
 11
6.6985427281
 21
6.678359473
  0
LINE
  5
3CC
100
AcDbEntity
  8
0
100
AcDbLine
 62
7
  6
CONTINUOUS
 10
6.7004242405
 20
6.718359473
 11
6.7004242405
 21
6.678359473
  0
LINE
  5
3CD
100
AcDbEntity
  8
0
100
AcDbLine
 62
7
  6
CONTINUOUS
 10
6.7013209299
 20
6.718359473
 11
6.7013209299
 21
6.678359473
  0
LINE
  5
3CE
100
AcDbEntity
  8
0
100
AcDbLine
 62
7
  6
CONTINUOUS
 10
6.7041367503
 20
6.718359473
 11
6.7041367503
 21
6.678359473
  0
LINE
  5
3CF
100
AcDbEntity
  8
0
100
AcDbLine
 62
7
  6
CONTINUOUS
 10
6.7053886728
 20
6.718359473
 11
6.7053886728
 21
6.678359473
  0
LINE
  5
3D0
100
AcDbEntity
  8
0
100
AcDbLine
 62
7
  6
CONTINUOUS
 10
6.7091310832
 20
6.718359473
 11
6.7091310832
 21
6.678359473
  0
LINE
  5
3D1
100
AcDbEntity
  8
0
100
AcDbLine
 62
7
  6
CONTINUOUS
 10
6.7107348073
 20
6.718359473
 11
6.7107348073
 21
6.678359473
  0
LINE
  5
3D2
100
AcDbEntity
  8
0
100
AcDbLine
 62
7
  6
CONTINUOUS
 10
6.7153935501
 20
6.718359473
 11
6.7153935501
 21
6.678359473
  0
LINE
  5
3D3
100
AcDbEntity
  8
0
100
AcDbLine
 62
7
  6
CONTINUOUS
 10
6.7173446801
 20
6.718359473
 11
6.7173446801
 21
6.678359473
  0
LINE
  5
3D4
100
AcDbEntity
  8
0
100
AcDbLine
 62
7
  6
CONTINUOUS
 10
6.7217965809
 20
6.718359473
 11
6.7217965809
 21
6.768359473
  0
LINE
  5
3D5
100
AcDbEntity
  8
0
100
AcDbLine
 62
7
  6
CONTINUOUS
 10
6.722906986
 20
6.718359473
 11
6.722906986
 21
6.678359473
  0
LINE
  5
3D6
100
AcDbEntity
  8
0
100
AcDbLine
 62
7
  6
CONTINUOUS
 10
6.725200174
 20
6.718359473
 11
6.725200174
 21
6.678359473
  0
LINE
  5
3D7
100
AcDbEntity
  8
0
100
AcDbLine
 62
7
  6
CONTINUOUS
 10
6.731650797
 20
6.718359473
 11
6.731650797
 21
6.678359473
  0
LINE
  5
3D8
100
AcDbEntity
  8
0
100
AcDbLine
 62
7
  6
CONTINUOUS
 10
6.7342797575
 20
6.718359473
 11
6.7342797575
 21
6.678359473
  0
LINE
  5
3D9
100
AcDbEntity
  8
0
100
AcDbLine
 62
7
  6
CONTINUOUS
 10
6.7416010171
 20
6.718359473
 11
6.7416010171
 21
6.678359473
  0
LINE
  5
3DA
100
AcDbEntity
  8
0
100
AcDbLine
 62
7
  6
CONTINUOUS
 10
6.7445585443
 20
6.718359473
 11
6.7445585443
 21
6.678359473
  0
LINE
  5
3DB
100
AcDbEntity
  8
0
100
AcDbLine
 62
7
  6
CONTINUOUS
 10
5.4517965809
 20
5.598359473
 11
4.9517965809
 21
5.598359473
  0
LINE
  5
3DC
100
AcDbEntity
  8
0
100
AcDbLine
 62
7
  6
CONTINUOUS
 10
8.9142965809
 20
5.617859473
 11
7.6242965809
 21
5.617859473
  0
LINE
  5
3DD
100
AcDbEntity
  8
0
100
AcDbLine
 62
7
  6
CONTINUOUS
 10
1.4917965809
 20
5.617859473
 11
2.7817965809
 21
5.617859473
  0
LINE
  5
3DE
100
AcDbEntity
  8
0
100
AcDbLine
 62
7
  6
CONTINUOUS
 10
7.2692965809
 20
5.642859473
 11
7.0742965809
 21
5.642859473
  0
LINE
  5
3DF
100
AcDbEntity
  8
0
100
AcDbLine
 62
7
  6
CONTINUOUS
 10
3.3317965809
 20
5.642859473
 11
3.1367965809
 21
5.642859473
  0
LINE
  5
3E0
100
AcDbEntity
  8
0
100
AcDbLine
 62
7
  6
CONTINUOUS
 10
4.9517965809
 20
5.643359473
 11
5.4517965809
 21
5.643359473
  0
LINE
  5
3E1
100
AcDbEntity
  8
0
100
AcDbLine
 62
7
  6
CONTINUOUS
 10
7.2692965809
 20
5.655359473
 11
7.0742965809
 21
5.655359473
  0
LINE
  5
3E2
100
AcDbEntity
  8
0
100
AcDbLine
 62
7
  6
CONTINUOUS
 10
3.3317965809
 20
5.655359473
 11
3.1367965809
 21
5.655359473
  0
LINE
  5
3E3
100
AcDbEntity
  8
0
100
AcDbLine
 62
7
  6
CONTINUOUS
 10
5.4713018957
 20
5.658359473
 11
4.9322912661
 21
5.658359473
  0
LINE
  5
3E4
100
AcDbEntity
  8
0
100
AcDbLine
 62
7
  6
CONTINUOUS
 10
3.3880465809
 20
5.665359473
 11
3.0805465809
 21
5.665359473
  0
LINE
  5
3E5
100
AcDbEntity
  8
0
100
AcDbLine
 62
7
  6
CONTINUOUS
 10
7.0180465809
 20
5.665359473
 11
7.3255465809
 21
5.665359473
  0
LINE
  5
3E6
100
AcDbEntity
  8
0
100
AcDbLine
 62
7
  6
CONTINUOUS
 10
5.4855845095
 20
5.6687761397
 11
4.9180086524
 21
5.6687761397
  0
LINE
  5
3E7
100
AcDbEntity
  8
0
100
AcDbLine
 62
7
  6
CONTINUOUS
 10
5.5766885654
 20
5.720859473
 11
4.8269045965
 21
5.720859473
  0
LINE
  5
3E8
100
AcDbEntity
  8
0
100
AcDbLine
 62
7
  6
CONTINUOUS
 10
3.0767965809
 20
5.7251241753
 11
3.3917965809
 21
5.7251241753
  0
LINE
  5
3E9
100
AcDbEntity
  8
0
100
AcDbLine
 62
7
  6
CONTINUOUS
 10
7.0142965809
 20
5.7251241753
 11
7.3292965809
 21
5.7251241753
  0
LINE
  5
3EA
100
AcDbEntity
  8
0
100
AcDbLine
 62
7
  6
CONTINUOUS
 10
3.0855465809
 20
5.7350457427
 11
3.3830465809
 21
5.7350457427
  0
LINE
  5
3EB
100
AcDbEntity
  8
0
100
AcDbLine
 62
7
  6
CONTINUOUS
 10
7.0230465809
 20
5.7350457427
 11
7.3205465809
 21
5.7350457427
  0
LINE
  5
3EC
100
AcDbEntity
  8
0
100
AcDbLine
 62
7
  6
CONTINUOUS
 10
4.8269045965
 20
5.770859473
 11
5.5766885654
 21
5.770859473
  0
LINE
  5
3ED
100
AcDbEntity
  8
0
100
AcDbLine
 62
7
  6
CONTINUOUS
 10
3.0492965809
 20
5.840859473
 11
3.4192965809
 21
5.840859473
  0
LINE
  5
3EE
100
AcDbEntity
  8
0
100
AcDbLine
 62
7
  6
CONTINUOUS
 10
6.9867965809
 20
5.840859473
 11
7.3567965809
 21
5.840859473
  0
LINE
  5
3EF
100
AcDbEntity
  8
0
100
AcDbLine
 62
7
  6
CONTINUOUS
 10
3.0342965809
 20
5.855859473
 11
3.4342965809
 21
5.855859473
  0
LINE
  5
3F0
100
AcDbEntity
  8
0
100
AcDbLine
 62
7
  6
CONTINUOUS
 10
6.9717965809
 20
5.855859473
 11
7.3717965809
 21
5.855859473
  0
LINE
  5
3F1
100
AcDbEntity
  8
0
100
AcDbLine
 62
7
  6
CONTINUOUS
 10
4.6392965809
 20
6.793359473
 11
4.6642965809
 21
6.768359473
  0
LINE
  5
3F2
100
AcDbEntity
  8
0
100
AcDbLine
 62
7
  6
CONTINUOUS
 10
6.7527303733
 20
6.718359473
 11
6.7527303733
 21
6.678359473
  0
LINE
  5
3F3
100
AcDbEntity
  8
0
100
AcDbLine
 62
7
  6
CONTINUOUS
 10
6.7560083608
 20
6.718359473
 11
6.7560083608
 21
6.678359473
  0
LINE
  5
3F4
100
AcDbEntity
  8
0
100
AcDbLine
 62
7
  6
CONTINUOUS
 10
6.7650083608
 20
6.718359473
 11
6.7650083608
 21
6.678359473
  0
LINE
  5
3F5
100
AcDbEntity
  8
0
100
AcDbLine
 62
7
  6
CONTINUOUS
 10
6.768597824
 20
6.718359473
 11
6.768597824
 21
6.678359473
  0
LINE
  5
3F6
100
AcDbEntity
  8
0
100
AcDbLine
 62
7
  6
CONTINUOUS
 10
6.7784013266
 20
6.718359473
 11
6.7784013266
 21
6.678359473
  0
LINE
  5
3F7
100
AcDbEntity
  8
0
100
AcDbLine
 62
7
  6
CONTINUOUS
 10
6.7822924269
 20
6.718359473
 11
6.7822924269
 21
6.678359473
  0
LINE
  5
3F8
100
AcDbEntity
  8
0
100
AcDbLine
 62
7
  6
CONTINUOUS
 10
6.7928725614
 20
6.718359473
 11
6.7928725614
 21
6.678359473
  0
LINE
  5
3F9
100
AcDbEntity
  8
0
100
AcDbLine
 62
7
  6
CONTINUOUS
 10
6.7970546336
 20
6.718359473
 11
6.7970546336
 21
6.678359473
  0
LINE
  5
3FA
100
AcDbEntity
  8
0
100
AcDbLine
 62
7
  6
CONTINUOUS
 10
6.808092271
 20
6.678359473
 11
6.808092271
 21
6.718359473
  0
LINE
  5
3FB
100
AcDbEntity
  8
0
100
AcDbLine
 62
7
  6
CONTINUOUS
 10
6.8083824006
 20
6.718359473
 11
6.8083824006
 21
6.678359473
  0
LINE
  5
3FC
100
AcDbEntity
  8
0
100
AcDbLine
 62
7
  6
CONTINUOUS
 10
6.8128439819
 20
6.718359473
 11
6.8128439819
 21
6.678359473
  0
LINE
  5
3FD
100
AcDbEntity
  8
0
100
AcDbLine
 62
7
  6
CONTINUOUS
 10
6.8143077819
 20
6.028359473
 11
6.8143077819
 21
5.978359473
  0
LINE
  5
3FE
100
AcDbEntity
  8
0
100
AcDbLine
 62
7
  6
CONTINUOUS
 10
6.8146184734
 20
6.028359473
 11
6.8146184734
 21
5.978359473
  0
LINE
  5
3FF
100
AcDbEntity
  8
0
100
AcDbLine
 62
7
  6
CONTINUOUS
 10
6.8149643398
 20
6.028359473
 11
6.8149643398
 21
5.978359473
  0
LINE
  5
400
100
AcDbEntity
  8
0
100
AcDbLine
 62
7
  6
CONTINUOUS
 10
6.8165159466
 20
6.028359473
 11
6.8165159466
 21
5.978359473
  0
LINE
  5
401
100
AcDbEntity
  8
0
100
AcDbLine
 62
7
  6
CONTINUOUS
 10
6.8173213659
 20
6.028359473
 11
6.8173213659
 21
5.978359473
  0
LINE
  5
402
100
AcDbEntity
  8
0
100
AcDbLine
 62
7
  6
CONTINUOUS
 10
6.8201064939
 20
6.028359473
 11
6.8201064939
 21
5.978359473
  0
LINE
  5
403
100
AcDbEntity
  8
0
100
AcDbLine
 62
7
  6
CONTINUOUS
 10
6.8213676278
 20
6.028359473
 11
6.8213676278
 21
5.978359473
  0
LINE
  5
404
100
AcDbEntity
  8
0
100
AcDbLine
 62
7
  6
CONTINUOUS
 10
6.8240048026
 20
6.678359473
 11
6.8240048026
 21
6.718359473
  0
LINE
  5
405
100
AcDbEntity
  8
0
100
AcDbLine
 62
7
  6
CONTINUOUS
 10
6.8248883328
 20
6.718359473
 11
6.8248883328
 21
6.678359473
  0
LINE
  5
406
100
AcDbEntity
  8
0
100
AcDbLine
 62
7
  6
CONTINUOUS
 10
6.8253730046
 20
6.028359473
 11
6.8253730046
 21
5.978359473
  0
LINE
  5
407
100
AcDbEntity
  8
0
100
AcDbLine
 62
7
  6
CONTINUOUS
 10
6.8270838433
 20
6.028359473
 11
6.8270838433
 21
5.978359473
  0
LINE
  5
408
100
AcDbEntity
  8
0
100
AcDbLine
 62
7
  6
CONTINUOUS
 10
6.8296171944
 20
6.718359473
 11
6.8296171944
 21
6.678359473
  0
LINE
  5
409
100
AcDbEntity
  8
0
100
AcDbLine
 62
7
  6
CONTINUOUS
 10
6.8322903814
 20
6.028359473
 11
6.8322903814
 21
5.978359473
  0
LINE
  5
40A
100
AcDbEntity
  8
0
100
AcDbLine
 62
7
  6
CONTINUOUS
 10
6.8344427719
 20
6.028359473
 11
6.8344427719
 21
5.978359473
  0
LINE
  5
40B
100
AcDbEntity
  8
0
100
AcDbLine
 62
7
  6
CONTINUOUS
 10
6.8408256599
 20
6.028359473
 11
6.8408256599
 21
5.978359473
  0
LINE
  5
40C
100
AcDbEntity
  8
0
100
AcDbLine
 62
7
  6
CONTINUOUS
 10
6.8408706073
 20
6.678359473
 11
6.8408706073
 21
6.718359473
  0
LINE
  5
40D
100
AcDbEntity
  8
0
100
AcDbLine
 62
7
  6
CONTINUOUS
 10
6.8423451165
 20
6.718359473
 11
6.8423451165
 21
6.678359473
  0
LINE
  5
40E
100
AcDbEntity
  8
0
100
AcDbLine
 62
7
  6
CONTINUOUS
 10
6.8434093451
 20
6.028359473
 11
6.8434093451
 21
5.978359473
  0
LINE
  5
40F
100
AcDbEntity
  8
0
100
AcDbLine
 62
7
  6
CONTINUOUS
 10
6.8473282968
 20
6.718359473
 11
6.8473282968
 21
6.678359473
  0
LINE
  5
410
100
AcDbEntity
  8
0
100
AcDbLine
 62
7
  6
CONTINUOUS
 10
6.8509381655
 20
6.028359473
 11
6.8509381655
 21
5.978359473
  0
LINE
  5
411
100
AcDbEntity
  8
0
100
AcDbLine
 62
7
  6
CONTINUOUS
 10
6.8539408329
 20
6.028359473
 11
6.8539408329
 21
5.978359473
  0
LINE
  5
412
100
AcDbEntity
  8
0
100
AcDbLine
 62
7
  6
CONTINUOUS
 10
6.8586434572
 20
6.678359473
 11
6.8586434572
 21
6.718359473
  0
LINE
  5
413
100
AcDbEntity
  8
0
100
AcDbLine
 62
7
  6
CONTINUOUS
 10
6.8592965809
 20
6.028359473
 11
6.8592965809
 21
6.638359473
  0
LINE
  5
414
100
AcDbEntity
  8
0
100
AcDbLine
 62
7
  6
CONTINUOUS
 10
6.8607049036
 20
6.718359473
 11
6.8607049036
 21
6.678359473
  0
LINE
  5
415
100
AcDbEntity
  8
0
100
AcDbLine
 62
7
  6
CONTINUOUS
 10
6.8625797075
 20
6.028359473
 11
6.8625797075
 21
5.978359473
  0
LINE
  5
416
100
AcDbEntity
  8
0
100
AcDbLine
 62
7
  6
CONTINUOUS
 10
6.8659287442
 20
6.718359473
 11
6.8659287442
 21
6.678359473
  0
LINE
  5
417
100
AcDbEntity
  8
0
100
AcDbLine
 62
7
  6
CONTINUOUS
 10
6.8659870482
 20
6.028359473
 11
6.8659870482
 21
5.978359473
  0
LINE
  5
418
100
AcDbEntity
  8
0
100
AcDbLine
 62
7
  6
CONTINUOUS
 10
6.8717965809
 20
6.638359473
 11
6.8717965809
 21
6.643359473
  0
LINE
  5
419
100
AcDbEntity
  8
0
100
AcDbLine
 62
7
  6
CONTINUOUS
 10
6.8756948088
 20
6.028359473
 11
6.8756948088
 21
5.978359473
  0
LINE
  5
41A
100
AcDbEntity
  8
0
100
AcDbLine
 62
7
  6
CONTINUOUS
 10
6.8772746379
 20
6.678359473
 11
6.8772746379
 21
6.718359473
  0
LINE
  5
41B
100
AcDbEntity
  8
0
100
AcDbLine
 62
7
  6
CONTINUOUS
 10
6.8794905852
 20
6.028359473
 11
6.8794905852
 21
5.978359473
  0
LINE
  5
41C
100
AcDbEntity
  8
0
100
AcDbLine
 62
7
  6
CONTINUOUS
 10
6.8799173715
 20
6.718359473
 11
6.8799173715
 21
6.678359473
  0
LINE
  5
41D
100
AcDbEntity
  8
0
100
AcDbLine
 62
7
  6
CONTINUOUS
 10
6.8853675541
 20
6.718359473
 11
6.8853675541
 21
6.678359473
  0
LINE
  5
41E
100
AcDbEntity
  8
0
100
AcDbLine
 62
7
  6
CONTINUOUS
 10
6.8902209699
 20
6.028359473
 11
6.8902209699
 21
5.978359473
  0
LINE
  5
41F
100
AcDbEntity
  8
0
100
AcDbLine
 62
7
  6
CONTINUOUS
 10
6.8943870933
 20
6.028359473
 11
6.8943870933
 21
5.978359473
  0
LINE
  5
420
100
AcDbEntity
  8
0
100
AcDbLine
 62
7
  6
CONTINUOUS
 10
6.8967130829
 20
6.678359473
 11
6.8967130829
 21
6.718359473
  0
LINE
  5
421
100
AcDbEntity
  8
0
100
AcDbLine
 62
7
  6
CONTINUOUS
 10
6.89992986
 20
6.718359473
 11
6.89992986
 21
6.678359473
  0
LINE
  5
422
100
AcDbEntity
  8
0
100
AcDbLine
 62
7
  6
CONTINUOUS
 10
6.9054708523
 20
5.978359473
 11
6.9054708523
 21
6.028359473
  0
LINE
  5
423
100
AcDbEntity
  8
0
100
AcDbLine
 62
7
  6
CONTINUOUS
 10
6.905591446
 20
6.718359473
 11
6.905591446
 21
6.678359473
  0
LINE
  5
424
100
AcDbEntity
  8
0
100
AcDbLine
 62
7
  6
CONTINUOUS
 10
6.906088967
 20
6.028359473
 11
6.906088967
 21
5.978359473
  0
LINE
  5
425
100
AcDbEntity
  8
0
100
AcDbLine
 62
7
  6
CONTINUOUS
 10
6.910605584
 20
6.028359473
 11
6.910605584
 21
5.978359473
  0
LINE
  5
426
100
AcDbEntity
  8
0
100
AcDbLine
 62
7
  6
CONTINUOUS
 10
6.9169055125
 20
6.678359473
 11
6.9169055125
 21
6.718359473
  0
LINE
  5
427
100
AcDbEntity
  8
0
100
AcDbLine
 62
7
  6
CONTINUOUS
 10
6.9206875162
 20
6.718359473
 11
6.9206875162
 21
6.678359473
  0
LINE
  5
428
100
AcDbEntity
  8
0
100
AcDbLine
 62
7
  6
CONTINUOUS
 10
6.9218258586
 20
5.978359473
 11
6.9218258586
 21
6.028359473
  0
LINE
  5
429
100
AcDbEntity
  8
0
100
AcDbLine
 62
7
  6
CONTINUOUS
 10
6.9232231819
 20
6.028359473
 11
6.9232231819
 21
5.978359473
  0
LINE
  5
42A
100
AcDbEntity
  8
0
100
AcDbLine
 62
7
  6
CONTINUOUS
 10
6.9265449877
 20
6.718359473
 11
6.9265449877
 21
6.678359473
  0
LINE
  5
42B
100
AcDbEntity
  8
0
100
AcDbLine
 62
7
  6
CONTINUOUS
 10
6.9280687688
 20
6.028359473
 11
6.9280687688
 21
5.978359473
  0
LINE
  5
42C
100
AcDbEntity
  8
0
100
AcDbLine
 62
7
  6
CONTINUOUS
 10
6.9377965809
 20
6.678359473
 11
6.9377965809
 21
6.718359473
  0
LINE
  5
42D
100
AcDbEntity
  8
0
100
AcDbLine
 62
7
  6
CONTINUOUS
 10
6.9393720892
 20
5.978359473
 11
6.9393720892
 21
6.028359473
  0
LINE
  5
42E
100
AcDbEntity
  8
0
100
AcDbLine
 62
7
  6
CONTINUOUS
 10
6.9415419622
 20
6.028359473
 11
6.9415419622
 21
5.978359473
  0
LINE
  5
42F
100
AcDbEntity
  8
0
100
AcDbLine
 62
7
  6
CONTINUOUS
 10
6.942133445
 20
6.718359473
 11
6.942133445
 21
6.678359473
  0
LINE
  5
430
100
AcDbEntity
  8
0
100
AcDbLine
 62
7
  6
CONTINUOUS
 10
6.9466934275
 20
6.028359473
 11
6.9466934275
 21
5.978359473
  0
LINE
  5
431
100
AcDbEntity
  8
0
100
AcDbLine
 62
7
  6
CONTINUOUS
 10
6.948170747
 20
6.718359473
 11
6.948170747
 21
6.678359473
  0
LINE
  5
432
100
AcDbEntity
  8
0
100
AcDbLine
 62
7
  6
CONTINUOUS
 10
6.9580259284
 20
5.978359473
 11
6.9580259284
 21
6.028359473
  0
LINE
  5
433
100
AcDbEntity
  8
0
100
AcDbLine
 62
7
  6
CONTINUOUS
 10
6.9593290271
 20
6.678359473
 11
6.9593290271
 21
6.718359473
  0
LINE
  5
434
100
AcDbEntity
  8
0
100
AcDbLine
 62
7
  6
CONTINUOUS
 10
6.9609580107
 20
6.028359473
 11
6.9609580107
 21
5.978359473
  0
LINE
  5
435
100
AcDbEntity
  8
0
100
AcDbLine
 62
7
  6
CONTINUOUS
 10
6.9642088644
 20
6.718359473
 11
6.9642088644
 21
6.678359473
  0
LINE
  5
436
100
AcDbEntity
  8
0
100
AcDbLine
 62
7
  6
CONTINUOUS
 10
6.9663908053
 20
6.028359473
 11
6.9663908053
 21
5.978359473
  0
LINE
  5
437
100
AcDbEntity
  8
0
100
AcDbLine
 62
7
  6
CONTINUOUS
 10
6.9704094491
 20
6.718359473
 11
6.9704094491
 21
6.678359473
  0
LINE
  5
438
100
AcDbEntity
  8
0
100
AcDbLine
 62
7
  6
CONTINUOUS
 10
6.9717965809
 20
5.855859473
 11
6.9717965809
 21
5.900859473
  0
LINE
  5
439
100
AcDbEntity
  8
0
100
AcDbLine
 62
7
  6
CONTINUOUS
 10
6.9776984821
 20
5.978359473
 11
6.9776984821
 21
6.028359473
  0
LINE
  5
43A
100
AcDbEntity
  8
0
100
AcDbLine
 62
7
  6
CONTINUOUS
 10
6.9813788009
 20
6.028359473
 11
6.9813788009
 21
5.978359473
  0
LINE
  5
43B
100
AcDbEntity
  8
0
100
AcDbLine
 62
7
  6
CONTINUOUS
 10
6.981443832
 20
6.678359473
 11
6.981443832
 21
6.718359473
  0
LINE
  5
43C
100
AcDbEntity
  8
0
100
AcDbLine
 62
7
  6
CONTINUOUS
 10
6.9868532673
 20
6.718359473
 11
6.9868532673
 21
6.678359473
  0
LINE
  5
43D
100
AcDbEntity
  8
0
100
AcDbLine
 62
7
  6
CONTINUOUS
 10
6.9870670352
 20
6.028359473
 11
6.9870670352
 21
5.978359473
  0
LINE
  5
43E
100
AcDbEntity
  8
0
100
AcDbLine
 62
7
  6
CONTINUOUS
 10
6.9932001394
 20
6.718359473
 11
6.9932001394
 21
6.678359473
  0
LINE
  5
43F
100
AcDbEntity
  8
0
100
AcDbLine
 62
7
  6
CONTINUOUS
 10
6.9982960016
 20
5.978359473
 11
6.9982960016
 21
6.028359473
  0
LINE
  5
440
100
AcDbEntity
  8
0
100
AcDbLine
 62
7
  6
CONTINUOUS
 10
7.0027070186
 20
6.028359473
 11
7.0027070186
 21
5.978359473
  0
LINE
  5
441
100
AcDbEntity
  8
0
100
AcDbLine
 62
7
  6
CONTINUOUS
 10
7.0040803805
 20
6.678359473
 11
7.0040803805
 21
6.718359473
  0
LINE
  5
442
100
AcDbEntity
  8
0
100
AcDbLine
 62
7
  6
CONTINUOUS
 10
7.0086235854
 20
6.028359473
 11
7.0086235854
 21
5.978359473
  0
LINE
  5
443
100
AcDbEntity
  8
0
100
AcDbLine
 62
7
  6
CONTINUOUS
 10
7.0100045871
 20
6.718359473
 11
7.0100045871
 21
6.678359473
  0
LINE
  5
444
100
AcDbEntity
  8
0
100
AcDbLine
 62
7
  6
CONTINUOUS
 10
7.0164803501
 20
6.718359473
 11
7.0164803501
 21
6.678359473
  0
LINE
  5
445
100
AcDbEntity
  8
0
100
AcDbLine
 62
7
  6
CONTINUOUS
 10
7.0197203304
 20
5.978359473
 11
7.0197203304
 21
6.028359473
  0
LINE
  5
446
100
AcDbEntity
  8
0
100
AcDbLine
 62
7
  6
CONTINUOUS
 10
7.0230465809
 20
5.840859473
 11
7.0230465809
 21
5.7350457427
  0
LINE
  5
447
100
AcDbEntity
  8
0
100
AcDbLine
 62
7
  6
CONTINUOUS
 10
7.0248410251
 20
6.028359473
 11
7.0248410251
 21
5.978359473
  0
LINE
  5
448
100
AcDbEntity
  8
0
100
AcDbLine
 62
7
  6
CONTINUOUS
 10
7.0271766276
 20
6.678359473
 11
7.0271766276
 21
6.718359473
  0
LINE
  5
449
100
AcDbEntity
  8
0
100
AcDbLine
 62
7
  6
CONTINUOUS
 10
7.0309577293
 20
6.028359473
 11
7.0309577293
 21
5.978359473
  0
LINE
  5
44A
100
AcDbEntity
  8
0
100
AcDbLine
 62
7
  6
CONTINUOUS
 10
7.0335993674
 20
6.718359473
 11
7.0335993674
 21
6.678359473
  0
LINE
  5
44B
100
AcDbEntity
  8
0
100
AcDbLine
 62
7
  6
CONTINUOUS
 10
7.0401862718
 20
6.718359473
 11
7.0401862718
 21
6.678359473
  0
LINE
  5
44C
100
AcDbEntity
  8
0
100
AcDbLine
 62
7
  6
CONTINUOUS
 10
7.0418693717
 20
5.978359473
 11
7.0418693717
 21
6.028359473
  0
LINE
  5
44D
100
AcDbEntity
  8
0
100
AcDbLine
 62
7
  6
CONTINUOUS
 10
7.0476753417
 20
6.028359473
 11
7.0476753417
 21
5.978359473
  0
LINE
  5
44E
100
AcDbEntity
  8
0
100
AcDbLine
 62
7
  6
CONTINUOUS
 10
7.3717965809
 20
5.900859473
 11
6.9717965809
 21
5.900859473
  0
LINE
  5
44F
100
AcDbEntity
  8
0
100
AcDbLine
 62
7
  6
CONTINUOUS
 10
3.4342965809
 20
5.900859473
 11
3.0342965809
 21
5.900859473
  0
LINE
  5
450
100
AcDbEntity
  8
0
100
AcDbLine
 62
7
  6
CONTINUOUS
 10
3.0051356436
 20
5.915859473
 11
3.4634575182
 21
5.915859473
  0
LINE
  5
451
100
AcDbEntity
  8
0
100
AcDbLine
 62
7
  6
CONTINUOUS
 10
6.9426356436
 20
5.915859473
 11
7.4009575182
 21
5.915859473
  0
LINE
  5
452
100
AcDbEntity
  8
0
100
AcDbLine
 62
7
  6
CONTINUOUS
 10
2.9926436181
 20
5.9225559016
 11
3.4759495438
 21
5.9225559016
  0
LINE
  5
453
100
AcDbEntity
  8
0
100
AcDbLine
 62
7
  6
CONTINUOUS
 10
6.9301436181
 20
5.9225559016
 11
7.4134495438
 21
5.9225559016
  0
LINE
  5
454
100
AcDbEntity
  8
0
100
AcDbLine
 62
7
  6
CONTINUOUS
 10
2.8768077819
 20
5.978359473
 11
3.59178538
 21
5.978359473
  0
LINE
  5
455
100
AcDbEntity
  8
0
100
AcDbLine
 62
7
  6
CONTINUOUS
 10
6.8143077819
 20
5.978359473
 11
7.52928538
 21
5.978359473
  0
LINE
  5
456
100
AcDbEntity
  8
0
100
AcDbLine
 62
7
  6
CONTINUOUS
 10
2.8768077819
 20
6.028359473
 11
3.59178538
 21
6.028359473
  0
LINE
  5
457
100
AcDbEntity
  8
0
100
AcDbLine
 62
7
  6
CONTINUOUS
 10
6.8143077819
 20
6.028359473
 11
7.52928538
 21
6.028359473
  0
LINE
  5
458
100
AcDbEntity
  8
0
100
AcDbLine
 62
7
  6
CONTINUOUS
 10
7.0506692678
 20
6.678359473
 11
7.0506692678
 21
6.718359473
  0
LINE
  5
459
100
AcDbEntity
  8
0
100
AcDbLine
 62
7
  6
CONTINUOUS
 10
7.0539630345
 20
6.028359473
 11
7.0539630345
 21
5.978359473
  0
LINE
  5
45A
100
AcDbEntity
  8
0
100
AcDbLine
 62
7
  6
CONTINUOUS
 10
7.0575729367
 20
6.718359473
 11
7.0575729367
 21
6.678359473
  0
LINE
  5
45B
100
AcDbEntity
  8
0
100
AcDbLine
 62
7
  6
CONTINUOUS
 10
7.0642529282
 20
6.718359473
 11
7.0642529282
 21
6.678359473
  0
LINE
  5
45C
100
AcDbEntity
  8
0
100
AcDbLine
 62
7
  6
CONTINUOUS
 10
7.0646375754
 20
5.978359473
 11
7.0646375754
 21
6.028359473
  0
LINE
  5
45D
100
AcDbEntity
  8
0
100
AcDbLine
 62
7
  6
CONTINUOUS
 10
7.0711011525
 20
6.028359473
 11
7.0711011525
 21
5.978359473
  0
LINE
  5
45E
100
AcDbEntity
  8
0
100
AcDbLine
 62
7
  6
CONTINUOUS
 10
7.0742965809
 20
5.655359473
 11
7.0742965809
 21
5.642859473
  0
LINE
  5
45F
100
AcDbEntity
  8
0
100
AcDbLine
 62
7
  6
CONTINUOUS
 10
7.0744939096
 20
6.678359473
 11
7.0744939096
 21
6.718359473
  0
LINE
  5
460
100
AcDbEntity
  8
0
100
AcDbLine
 62
7
  6
CONTINUOUS
 10
7.0775298702
 20
6.028359473
 11
7.0775298702
 21
5.978359473
  0
LINE
  5
461
100
AcDbEntity
  8
0
100
AcDbLine
 62
7
  6
CONTINUOUS
 10
7.081859585
 20
6.718359473
 11
7.081859585
 21
6.678359473
  0
LINE
  5
462
100
AcDbEntity
  8
0
100
AcDbLine
 62
7
  6
CONTINUOUS
 10
7.0879164406
 20
5.978359473
 11
7.0879164406
 21
6.028359473
  0
LINE
  5
463
100
AcDbEntity
  8
0
100
AcDbLine
 62
7
  6
CONTINUOUS
 10
7.0886143543
 20
6.718359473
 11
7.0886143543
 21
6.678359473
  0
LINE
  5
464
100
AcDbEntity
  8
0
100
AcDbLine
 62
7
  6
CONTINUOUS
 10
7.0950068229
 20
6.028359473
 11
7.0950068229
 21
5.978359473
  0
LINE
  5
465
100
AcDbEntity
  8
0
100
AcDbLine
 62
7
  6
CONTINUOUS
 10
7.0985852513
 20
6.678359473
 11
7.0985852513
 21
6.718359473
  0
LINE
  5
466
100
AcDbEntity
  8
0
100
AcDbLine
 62
7
  6
CONTINUOUS
 10
7.1015459296
 20
6.028359473
 11
7.1015459296
 21
5.978359473
  0
LINE
  5
467
100
AcDbEntity
  8
0
100
AcDbLine
 62
7
  6
CONTINUOUS
 10
7.1063927444
 20
6.718359473
 11
7.1063927444
 21
6.678359473
  0
LINE
  5
468
100
AcDbEntity
  8
0
100
AcDbLine
 62
7
  6
CONTINUOUS
 10
7.1115950328
 20
5.978359473
 11
7.1115950328
 21
6.028359473
  0
LINE
  5
469
100
AcDbEntity
  8
0
100
AcDbLine
 62
7
  6
CONTINUOUS
 10
7.113203777
 20
6.718359473
 11
7.113203777
 21
6.678359473
  0
LINE
  5
46A
100
AcDbEntity
  8
0
100
AcDbLine
 62
7
  6
CONTINUOUS
 10
7.1192784315
 20
6.028359473
 11
7.1192784315
 21
5.978359473
  0
LINE
  5
46B
100
AcDbEntity
  8
0
100
AcDbLine
 62
7
  6
CONTINUOUS
 10
7.1228772601
 20
6.678359473
 11
7.1228772601
 21
6.718359473
  0
LINE
  5
46C
100
AcDbEntity
  8
0
100
AcDbLine
 62
7
  6
CONTINUOUS
 10
7.1258967655
 20
6.028359473
 11
7.1258967655
 21
5.978359473
  0
LINE
  5
46D
100
AcDbEntity
  8
0
100
AcDbLine
 62
7
  6
CONTINUOUS
 10
7.1311051712
 20
6.718359473
 11
7.1311051712
 21
6.678359473
  0
LINE
  5
46E
100
AcDbEntity
  8
0
100
AcDbLine
 62
7
  6
CONTINUOUS
 10
7.1355605128
 20
5.978359473
 11
7.1355605128
 21
6.028359473
  0
LINE
  5
46F
100
AcDbEntity
  8
0
100
AcDbLine
 62
7
  6
CONTINUOUS
 10
7.1379537986
 20
6.718359473
 11
7.1379537986
 21
6.678359473
  0
LINE
  5
470
100
AcDbEntity
  8
0
100
AcDbLine
 62
7
  6
CONTINUOUS
 10
7.1438003129
 20
6.028359473
 11
7.1438003129
 21
5.978359473
  0
LINE
  5
471
100
AcDbEntity
  8
0
100
AcDbLine
 62
7
  6
CONTINUOUS
 10
7.1473033534
 20
6.678359473
 11
7.1473033534
 21
6.718359473
  0
LINE
  5
472
100
AcDbEntity
  8
0
100
AcDbLine
 62
7
  6
CONTINUOUS
 10
7.1504663348
 20
6.028359473
 11
7.1504663348
 21
5.978359473
  0
LINE
  5
473
100
AcDbEntity
  8
0
100
AcDbLine
 62
7
  6
CONTINUOUS
 10
7.1559291303
 20
6.718359473
 11
7.1559291303
 21
6.678359473
  0
LINE
  5
474
100
AcDbEntity
  8
0
100
AcDbLine
 62
7
  6
CONTINUOUS
 10
7.1596986742
 20
5.978359473
 11
7.1596986742
 21
6.028359473
  0
LINE
  5
475
100
AcDbEntity
  8
0
100
AcDbLine
 62
7
  6
CONTINUOUS
 10
7.1627965809
 20
6.718359473
 11
7.1627965809
 21
6.678359473
  0
LINE
  5
476
100
AcDbEntity
  8
0
100
AcDbLine
 62
7
  6
CONTINUOUS
 10
7.1684556094
 20
6.028359473
 11
7.1684556094
 21
5.978359473
  0
LINE
  5
477
100
AcDbEntity
  8
0
100
AcDbLine
 62
7
  6
CONTINUOUS
 10
7.1717965809
 20
6.678359473
 11
7.1717965809
 21
6.718359473
  0
LINE
  5
478
100
AcDbEntity
  8
0
100
AcDbLine
 62
7
  6
CONTINUOUS
 10
7.1751375525
 20
6.028359473
 11
7.1751375525
 21
5.978359473
  0
LINE
  5
479
100
AcDbEntity
  8
0
100
AcDbLine
 62
7
  6
CONTINUOUS
 10
7.1807965809
 20
6.718359473
 11
7.1807965809
 21
6.678359473
  0
LINE
  5
47A
100
AcDbEntity
  8
0
100
AcDbLine
 62
7
  6
CONTINUOUS
 10
7.1838944876
 20
5.978359473
 11
7.1838944876
 21
6.028359473
  0
LINE
  5
47B
100
AcDbEntity
  8
0
100
AcDbLine
 62
7
  6
CONTINUOUS
 10
7.1876640316
 20
6.718359473
 11
7.1876640316
 21
6.678359473
  0
LINE
  5
47C
100
AcDbEntity
  8
0
100
AcDbLine
 62
7
  6
CONTINUOUS
 10
7.193126827
 20
6.028359473
 11
7.193126827
 21
5.978359473
  0
LINE
  5
47D
100
AcDbEntity
  8
0
100
AcDbLine
 62
7
  6
CONTINUOUS
 10
7.1962898085
 20
6.678359473
 11
7.1962898085
 21
6.718359473
  0
LINE
  5
47E
100
AcDbEntity
  8
0
100
AcDbLine
 62
7
  6
CONTINUOUS
 10
7.1997928489
 20
6.028359473
 11
7.1997928489
 21
5.978359473
  0
LINE
  5
47F
100
AcDbEntity
  8
0
100
AcDbLine
 62
7
  6
CONTINUOUS
 10
7.2056393632
 20
6.718359473
 11
7.2056393632
 21
6.678359473
  0
LINE
  5
480
100
AcDbEntity
  8
0
100
AcDbLine
 62
7
  6
CONTINUOUS
 10
7.208032649
 20
5.978359473
 11
7.208032649
 21
6.028359473
  0
LINE
  5
481
100
AcDbEntity
  8
0
100
AcDbLine
 62
7
  6
CONTINUOUS
 10
7.2124879907
 20
6.718359473
 11
7.2124879907
 21
6.678359473
  0
LINE
  5
482
100
AcDbEntity
  8
0
100
AcDbLine
 62
7
  6
CONTINUOUS
 10
7.2176963964
 20
6.028359473
 11
7.2176963964
 21
5.978359473
  0
LINE
  5
483
100
AcDbEntity
  8
0
100
AcDbLine
 62
7
  6
CONTINUOUS
 10
7.2207159017
 20
6.678359473
 11
7.2207159017
 21
6.718359473
  0
LINE
  5
484
100
AcDbEntity
  8
0
100
AcDbLine
 62
7
  6
CONTINUOUS
 10
7.2243147304
 20
6.028359473
 11
7.2243147304
 21
5.978359473
  0
LINE
  5
485
100
AcDbEntity
  8
0
100
AcDbLine
 62
7
  6
CONTINUOUS
 10
7.2303893848
 20
6.718359473
 11
7.2303893848
 21
6.678359473
  0
LINE
  5
486
100
AcDbEntity
  8
0
100
AcDbLine
 62
7
  6
CONTINUOUS
 10
7.231998129
 20
5.978359473
 11
7.231998129
 21
6.028359473
  0
LINE
  5
487
100
AcDbEntity
  8
0
100
AcDbLine
 62
7
  6
CONTINUOUS
 10
7.2372004175
 20
6.718359473
 11
7.2372004175
 21
6.678359473
  0
LINE
  5
488
100
AcDbEntity
  8
0
100
AcDbLine
 62
7
  6
CONTINUOUS
 10
7.2420472322
 20
6.028359473
 11
7.2420472322
 21
5.978359473
  0
LINE
  5
489
100
AcDbEntity
  8
0
100
AcDbLine
 62
7
  6
CONTINUOUS
 10
7.2450079106
 20
6.678359473
 11
7.2450079106
 21
6.718359473
  0
LINE
  5
48A
100
AcDbEntity
  8
0
100
AcDbLine
 62
7
  6
CONTINUOUS
 10
7.248586339
 20
6.028359473
 11
7.248586339
 21
5.978359473
  0
LINE
  5
48B
100
AcDbEntity
  8
0
100
AcDbLine
 62
7
  6
CONTINUOUS
 10
7.2549788076
 20
6.718359473
 11
7.2549788076
 21
6.678359473
  0
LINE
  5
48C
100
AcDbEntity
  8
0
100
AcDbLine
 62
7
  6
CONTINUOUS
 10
7.2556767213
 20
5.978359473
 11
7.2556767213
 21
6.028359473
  0
LINE
  5
48D
100
AcDbEntity
  8
0
100
AcDbLine
 62
7
  6
CONTINUOUS
 10
7.2617335769
 20
6.718359473
 11
7.2617335769
 21
6.678359473
  0
LINE
  5
48E
100
AcDbEntity
  8
0
100
AcDbLine
 62
7
  6
CONTINUOUS
 10
7.2660632917
 20
6.028359473
 11
7.2660632917
 21
5.978359473
  0
LINE
  5
48F
100
AcDbEntity
  8
0
100
AcDbLine
 62
7
  6
CONTINUOUS
 10
7.2690992522
 20
6.678359473
 11
7.2690992522
 21
6.718359473
  0
LINE
  5
490
100
AcDbEntity
  8
0
100
AcDbLine
 62
7
  6
CONTINUOUS
 10
7.2692965809
 20
5.655359473
 11
7.2692965809
 21
5.642859473
  0
LINE
  5
491
100
AcDbEntity
  8
0
100
AcDbLine
 62
7
  6
CONTINUOUS
 10
7.2724920094
 20
6.028359473
 11
7.2724920094
 21
5.978359473
  0
LINE
  5
492
100
AcDbEntity
  8
0
100
AcDbLine
 62
7
  6
CONTINUOUS
 10
7.2789555864
 20
5.978359473
 11
7.2789555864
 21
6.028359473
  0
LINE
  5
493
100
AcDbEntity
  8
0
100
AcDbLine
 62
7
  6
CONTINUOUS
 10
7.2793402337
 20
6.718359473
 11
7.2793402337
 21
6.678359473
  0
LINE
  5
494
100
AcDbEntity
  8
0
100
AcDbLine
 62
7
  6
CONTINUOUS
 10
7.2860202252
 20
6.718359473
 11
7.2860202252
 21
6.678359473
  0
LINE
  5
495
100
AcDbEntity
  8
0
100
AcDbLine
 62
7
  6
CONTINUOUS
 10
7.2896301274
 20
6.028359473
 11
7.2896301274
 21
5.978359473
  0
LINE
  5
496
100
AcDbEntity
  8
0
100
AcDbLine
 62
7
  6
CONTINUOUS
 10
7.292923894
 20
6.678359473
 11
7.292923894
 21
6.718359473
  0
LINE
  5
497
100
AcDbEntity
  8
0
100
AcDbLine
 62
7
  6
CONTINUOUS
 10
7.2959178202
 20
6.028359473
 11
7.2959178202
 21
5.978359473
  0
LINE
  5
498
100
AcDbEntity
  8
0
100
AcDbLine
 62
7
  6
CONTINUOUS
 10
7.3017237901
 20
5.978359473
 11
7.3017237901
 21
6.028359473
  0
LINE
  5
499
100
AcDbEntity
  8
0
100
AcDbLine
 62
7
  6
CONTINUOUS
 10
7.3034068901
 20
6.718359473
 11
7.3034068901
 21
6.678359473
  0
LINE
  5
49A
100
AcDbEntity
  8
0
100
AcDbLine
 62
7
  6
CONTINUOUS
 10
7.3099937945
 20
6.718359473
 11
7.3099937945
 21
6.678359473
  0
LINE
  5
49B
100
AcDbEntity
  8
0
100
AcDbLine
 62
7
  6
CONTINUOUS
 10
7.3126354325
 20
6.028359473
 11
7.3126354325
 21
5.978359473
  0
LINE
  5
49C
100
AcDbEntity
  8
0
100
AcDbLine
 62
7
  6
CONTINUOUS
 10
7.3164165343
 20
6.678359473
 11
7.3164165343
 21
6.718359473
  0
LINE
  5
49D
100
AcDbEntity
  8
0
100
AcDbLine
 62
7
  6
CONTINUOUS
 10
7.3187521368
 20
6.028359473
 11
7.3187521368
 21
5.978359473
  0
LINE
  5
49E
100
AcDbEntity
  8
0
100
AcDbLine
 62
7
  6
CONTINUOUS
 10
7.3205465809
 20
5.840859473
 11
7.3205465809
 21
5.7350457427
  0
LINE
  5
49F
100
AcDbEntity
  8
0
100
AcDbLine
 62
7
  6
CONTINUOUS
 10
7.3238728315
 20
5.978359473
 11
7.3238728315
 21
6.028359473
  0
LINE
  5
4A0
100
AcDbEntity
  8
0
100
AcDbLine
 62
7
  6
CONTINUOUS
 10
7.3271128118
 20
6.718359473
 11
7.3271128118
 21
6.678359473
  0
LINE
  5
4A1
100
AcDbEntity
  8
0
100
AcDbLine
 62
7
  6
CONTINUOUS
 10
7.3335885748
 20
6.718359473
 11
7.3335885748
 21
6.678359473
  0
LINE
  5
4A2
100
AcDbEntity
  8
0
100
AcDbLine
 62
7
  6
CONTINUOUS
 10
7.3349695764
 20
6.028359473
 11
7.3349695764
 21
5.978359473
  0
LINE
  5
4A3
100
AcDbEntity
  8
0
100
AcDbLine
 62
7
  6
CONTINUOUS
 10
7.3395127813
 20
6.678359473
 11
7.3395127813
 21
6.718359473
  0
LINE
  5
4A4
100
AcDbEntity
  8
0
100
AcDbLine
 62
7
  6
CONTINUOUS
 10
7.3408861432
 20
6.028359473
 11
7.3408861432
 21
5.978359473
  0
LINE
  5
4A5
100
AcDbEntity
  8
0
100
AcDbLine
 62
7
  6
CONTINUOUS
 10
7.3452971603
 20
5.978359473
 11
7.3452971603
 21
6.028359473
  0
LINE
  5
4A6
100
AcDbEntity
  8
0
100
AcDbLine
 62
7
  6
CONTINUOUS
 10
7.3467965809
 20
5.565359473
 11
7.3467965809
 21
5.370359473
  0
LINE
  5
4A7
100
AcDbEntity
  8
0
100
AcDbLine
 62
7
  6
CONTINUOUS
 10
7.3503930225
 20
6.718359473
 11
7.3503930225
 21
6.678359473
  0
LINE
  5
4A8
100
AcDbEntity
  8
0
100
AcDbLine
 62
7
  6
CONTINUOUS
 10
7.3565261267
 20
6.028359473
 11
7.3565261267
 21
5.978359473
  0
LINE
  5
4A9
100
AcDbEntity
  8
0
100
AcDbLine
 62
7
  6
CONTINUOUS
 10
7.3567398945
 20
6.718359473
 11
7.3567398945
 21
6.678359473
  0
LINE
  5
4AA
100
AcDbEntity
  8
0
100
AcDbLine
 62
7
  6
CONTINUOUS
 10
7.3621493299
 20
6.678359473
 11
7.3621493299
 21
6.718359473
  0
LINE
  5
4AB
100
AcDbEntity
  8
0
100
AcDbLine
 62
7
  6
CONTINUOUS
 10
7.3622143609
 20
6.028359473
 11
7.3622143609
 21
5.978359473
  0
LINE
  5
4AC
100
AcDbEntity
  8
0
100
AcDbLine
 62
7
  6
CONTINUOUS
 10
7.3658946798
 20
5.978359473
 11
7.3658946798
 21
6.028359473
  0
LINE
  5
4AD
100
AcDbEntity
  8
0
100
AcDbLine
 62
7
  6
CONTINUOUS
 10
7.3717965809
 20
5.855859473
 11
7.3717965809
 21
5.900859473
  0
LINE
  5
4AE
100
AcDbEntity
  8
0
100
AcDbLine
 62
7
  6
CONTINUOUS
 10
7.3731837127
 20
6.718359473
 11
7.3731837127
 21
6.678359473
  0
LINE
  5
4AF
100
AcDbEntity
  8
0
100
AcDbLine
 62
7
  6
CONTINUOUS
 10
7.3772023565
 20
6.028359473
 11
7.3772023565
 21
5.978359473
  0
LINE
  5
4B0
100
AcDbEntity
  8
0
100
AcDbLine
 62
7
  6
CONTINUOUS
 10
7.3793842974
 20
6.718359473
 11
7.3793842974
 21
6.678359473
  0
LINE
  5
4B1
100
AcDbEntity
  8
0
100
AcDbLine
 62
7
  6
CONTINUOUS
 10
7.3826351512
 20
6.028359473
 11
7.3826351512
 21
5.978359473
  0
LINE
  5
4B2
100
AcDbEntity
  8
0
100
AcDbLine
 62
7
  6
CONTINUOUS
 10
7.3842641348
 20
6.678359473
 11
7.3842641348
 21
6.718359473
  0
LINE
  5
4B3
100
AcDbEntity
  8
0
100
AcDbLine
 62
7
  6
CONTINUOUS
 10
7.3855672335
 20
5.978359473
 11
7.3855672335
 21
6.028359473
  0
LINE
  5
4B4
100
AcDbEntity
  8
0
100
AcDbLine
 62
7
  6
CONTINUOUS
 10
7.3954224149
 20
6.718359473
 11
7.3954224149
 21
6.678359473
  0
LINE
  5
4B5
100
AcDbEntity
  8
0
100
AcDbLine
 62
7
  6
CONTINUOUS
 10
7.3968997343
 20
6.028359473
 11
7.3968997343
 21
5.978359473
  0
LINE
  5
4B6
100
AcDbEntity
  8
0
100
AcDbLine
 62
7
  6
CONTINUOUS
 10
7.4014597169
 20
6.718359473
 11
7.4014597169
 21
6.678359473
  0
LINE
  5
4B7
100
AcDbEntity
  8
0
100
AcDbLine
 62
7
  6
CONTINUOUS
 10
7.4020511996
 20
6.028359473
 11
7.4020511996
 21
5.978359473
  0
LINE
  5
4B8
100
AcDbEntity
  8
0
100
AcDbLine
 62
7
  6
CONTINUOUS
 10
7.4042210726
 20
5.978359473
 11
7.4042210726
 21
6.028359473
  0
LINE
  5
4B9
100
AcDbEntity
  8
0
100
AcDbLine
 62
7
  6
CONTINUOUS
 10
7.4057965809
 20
6.678359473
 11
7.4057965809
 21
6.718359473
  0
LINE
  5
4BA
100
AcDbEntity
  8
0
100
AcDbLine
 62
7
  6
CONTINUOUS
 10
7.4155243931
 20
6.028359473
 11
7.4155243931
 21
5.978359473
  0
LINE
  5
4BB
100
AcDbEntity
  8
0
100
AcDbLine
 62
7
  6
CONTINUOUS
 10
7.4170481742
 20
6.718359473
 11
7.4170481742
 21
6.678359473
  0
LINE
  5
4BC
100
AcDbEntity
  8
0
100
AcDbLine
 62
7
  6
CONTINUOUS
 10
7.42036998
 20
6.028359473
 11
7.42036998
 21
5.978359473
  0
LINE
  5
4BD
100
AcDbEntity
  8
0
100
AcDbLine
 62
7
  6
CONTINUOUS
 10
7.4217673033
 20
5.978359473
 11
7.4217673033
 21
6.028359473
  0
LINE
  5
4BE
100
AcDbEntity
  8
0
100
AcDbLine
 62
7
  6
CONTINUOUS
 10
7.4229056456
 20
6.718359473
 11
7.4229056456
 21
6.678359473
  0
LINE
  5
4BF
100
AcDbEntity
  8
0
100
AcDbLine
 62
7
  6
CONTINUOUS
 10
7.4266876493
 20
6.678359473
 11
7.4266876493
 21
6.718359473
  0
LINE
  5
4C0
100
AcDbEntity
  8
0
100
AcDbLine
 62
7
  6
CONTINUOUS
 10
7.4329875778
 20
6.028359473
 11
7.4329875778
 21
5.978359473
  0
LINE
  5
4C1
100
AcDbEntity
  8
0
100
AcDbLine
 62
7
  6
CONTINUOUS
 10
7.4375041948
 20
6.028359473
 11
7.4375041948
 21
5.978359473
  0
LINE
  5
4C2
100
AcDbEntity
  8
0
100
AcDbLine
 62
7
  6
CONTINUOUS
 10
7.4380017159
 20
6.718359473
 11
7.4380017159
 21
6.678359473
  0
LINE
  5
4C3
100
AcDbEntity
  8
0
100
AcDbLine
 62
7
  6
CONTINUOUS
 10
7.4381223096
 20
5.978359473
 11
7.4381223096
 21
6.028359473
  0
LINE
  5
4C4
100
AcDbEntity
  8
0
100
AcDbLine
 62
7
  6
CONTINUOUS
 10
7.4436633019
 20
6.718359473
 11
7.4436633019
 21
6.678359473
  0
LINE
  5
4C5
100
AcDbEntity
  8
0
100
AcDbLine
 62
7
  6
CONTINUOUS
 10
7.446880079
 20
6.678359473
 11
7.446880079
 21
6.718359473
  0
LINE
  5
4C6
100
AcDbEntity
  8
0
100
AcDbLine
 62
7
  6
CONTINUOUS
 10
7.4492060685
 20
6.028359473
 11
7.4492060685
 21
5.978359473
  0
LINE
  5
4C7
100
AcDbEntity
  8
0
100
AcDbLine
 62
7
  6
CONTINUOUS
 10
7.4533721919
 20
6.028359473
 11
7.4533721919
 21
5.978359473
  0
LINE
  5
4C8
100
AcDbEntity
  8
0
100
AcDbLine
 62
7
  6
CONTINUOUS
 10
7.4582256078
 20
6.718359473
 11
7.4582256078
 21
6.678359473
  0
LINE
  5
4C9
100
AcDbEntity
  8
0
100
AcDbLine
 62
7
  6
CONTINUOUS
 10
7.4636757904
 20
6.718359473
 11
7.4636757904
 21
6.678359473
  0
LINE
  5
4CA
100
AcDbEntity
  8
0
100
AcDbLine
 62
7
  6
CONTINUOUS
 10
7.4641025767
 20
6.028359473
 11
7.4641025767
 21
5.978359473
  0
LINE
  5
4CB
100
AcDbEntity
  8
0
100
AcDbLine
 62
7
  6
CONTINUOUS
 10
7.4663185239
 20
6.678359473
 11
7.4663185239
 21
6.718359473
  0
LINE
  5
4CC
100
AcDbEntity
  8
0
100
AcDbLine
 62
7
  6
CONTINUOUS
 10
7.467898353
 20
6.028359473
 11
7.467898353
 21
5.978359473
  0
LINE
  5
4CD
100
AcDbEntity
  8
0
100
AcDbLine
 62
7
  6
CONTINUOUS
 10
7.4717965809
 20
6.638359473
 11
7.4717965809
 21
6.643359473
  0
LINE
  5
4CE
100
AcDbEntity
  8
0
100
AcDbLine
 62
7
  6
CONTINUOUS
 10
7.4776061136
 20
6.028359473
 11
7.4776061136
 21
5.978359473
  0
LINE
  5
4CF
100
AcDbEntity
  8
0
100
AcDbLine
 62
7
  6
CONTINUOUS
 10
7.4776644177
 20
6.718359473
 11
7.4776644177
 21
6.678359473
  0
LINE
  5
4D0
100
AcDbEntity
  8
0
100
AcDbLine
 62
7
  6
CONTINUOUS
 10
7.4810134543
 20
6.028359473
 11
7.4810134543
 21
5.978359473
  0
LINE
  5
4D1
100
AcDbEntity
  8
0
100
AcDbLine
 62
7
  6
CONTINUOUS
 10
7.4828882582
 20
6.718359473
 11
7.4828882582
 21
6.678359473
  0
LINE
  5
4D2
100
AcDbEntity
  8
0
100
AcDbLine
 62
7
  6
CONTINUOUS
 10
7.4842965809
 20
6.028359473
 11
7.4842965809
 21
6.638359473
  0
LINE
  5
4D3
100
AcDbEntity
  8
0
100
AcDbLine
 62
7
  6
CONTINUOUS
 10
7.4849497047
 20
6.678359473
 11
7.4849497047
 21
6.718359473
  0
LINE
  5
4D4
100
AcDbEntity
  8
0
100
AcDbLine
 62
7
  6
CONTINUOUS
 10
7.4896523289
 20
6.028359473
 11
7.4896523289
 21
5.978359473
  0
LINE
  5
4D5
100
AcDbEntity
  8
0
100
AcDbLine
 62
7
  6
CONTINUOUS
 10
7.4926549964
 20
6.028359473
 11
7.4926549964
 21
5.978359473
  0
LINE
  5
4D6
100
AcDbEntity
  8
0
100
AcDbLine
 62
7
  6
CONTINUOUS
 10
7.4962648651
 20
6.718359473
 11
7.4962648651
 21
6.678359473
  0
LINE
  5
4D7
100
AcDbEntity
  8
0
100
AcDbLine
 62
7
  6
CONTINUOUS
 10
7.5001838168
 20
6.028359473
 11
7.5001838168
 21
5.978359473
  0
LINE
  5
4D8
100
AcDbEntity
  8
0
100
AcDbLine
 62
7
  6
CONTINUOUS
 10
7.5012480454
 20
6.718359473
 11
7.5012480454
 21
6.678359473
  0
LINE
  5
4D9
100
AcDbEntity
  8
0
100
AcDbLine
 62
7
  6
CONTINUOUS
 10
7.5027225545
 20
6.678359473
 11
7.5027225545
 21
6.718359473
  0
LINE
  5
4DA
100
AcDbEntity
  8
0
100
AcDbLine
 62
7
  6
CONTINUOUS
 10
7.502767502
 20
6.028359473
 11
7.502767502
 21
5.978359473
  0
LINE
  5
4DB
100
AcDbEntity
  8
0
100
AcDbLine
 62
7
  6
CONTINUOUS
 10
7.50915039
 20
6.028359473
 11
7.50915039
 21
5.978359473
  0
LINE
  5
4DC
100
AcDbEntity
  8
0
100
AcDbLine
 62
7
  6
CONTINUOUS
 10
7.5113027804
 20
6.028359473
 11
7.5113027804
 21
5.978359473
  0
LINE
  5
4DD
100
AcDbEntity
  8
0
100
AcDbLine
 62
7
  6
CONTINUOUS
 10
7.5139759675
 20
6.718359473
 11
7.5139759675
 21
6.678359473
  0
LINE
  5
4DE
100
AcDbEntity
  8
0
100
AcDbLine
 62
7
  6
CONTINUOUS
 10
7.5165093186
 20
6.028359473
 11
7.5165093186
 21
5.978359473
  0
LINE
  5
4DF
100
AcDbEntity
  8
0
100
AcDbLine
 62
7
  6
CONTINUOUS
 10
7.5182201572
 20
6.028359473
 11
7.5182201572
 21
5.978359473
  0
LINE
  5
4E0
100
AcDbEntity
  8
0
100
AcDbLine
 62
7
  6
CONTINUOUS
 10
7.518704829
 20
6.718359473
 11
7.518704829
 21
6.678359473
  0
LINE
  5
4E1
100
AcDbEntity
  8
0
100
AcDbLine
 62
7
  6
CONTINUOUS
 10
7.5195883593
 20
6.678359473
 11
7.5195883593
 21
6.718359473
  0
LINE
  5
4E2
100
AcDbEntity
  8
0
100
AcDbLine
 62
7
  6
CONTINUOUS
 10
7.5222255341
 20
6.028359473
 11
7.5222255341
 21
5.978359473
  0
LINE
  5
4E3
100
AcDbEntity
  8
0
100
AcDbLine
 62
7
  6
CONTINUOUS
 10
7.5234866679
 20
6.028359473
 11
7.5234866679
 21
5.978359473
  0
LINE
  5
4E4
100
AcDbEntity
  8
0
100
AcDbLine
 62
7
  6
CONTINUOUS
 10
7.5242965809
 20
5.350859473
 11
7.5242965809
 21
5.584859473
  0
LINE
  5
4E5
100
AcDbEntity
  8
0
100
AcDbLine
 62
7
  6
CONTINUOUS
 10
7.526271796
 20
6.028359473
 11
7.526271796
 21
5.978359473
  0
LINE
  5
4E6
100
AcDbEntity
  8
0
100
AcDbLine
 62
7
  6
CONTINUOUS
 10
7.5270772152
 20
6.028359473
 11
7.5270772152
 21
5.978359473
  0
LINE
  5
4E7
100
AcDbEntity
  8
0
100
AcDbLine
 62
7
  6
CONTINUOUS
 10
7.528628822
 20
6.028359473
 11
7.528628822
 21
5.978359473
  0
LINE
  5
4E8
100
AcDbEntity
  8
0
100
AcDbLine
 62
7
  6
CONTINUOUS
 10
7.5289746885
 20
6.028359473
 11
7.5289746885
 21
5.978359473
  0
LINE
  5
4E9
100
AcDbEntity
  8
0
100
AcDbLine
 62
7
  6
CONTINUOUS
 10
7.52928538
 20
6.028359473
 11
7.52928538
 21
5.978359473
  0
LINE
  5
4EA
100
AcDbEntity
  8
0
100
AcDbLine
 62
7
  6
CONTINUOUS
 10
7.5307491799
 20
6.718359473
 11
7.5307491799
 21
6.678359473
  0
LINE
  5
4EB
100
AcDbEntity
  8
0
100
AcDbLine
 62
7
  6
CONTINUOUS
 10
7.5352107612
 20
6.718359473
 11
7.5352107612
 21
6.678359473
  0
LINE
  5
4EC
100
AcDbEntity
  8
0
100
AcDbLine
 62
7
  6
CONTINUOUS
 10
7.5355008909
 20
6.678359473
 11
7.5355008909
 21
6.718359473
  0
LINE
  5
4ED
100
AcDbEntity
  8
0
100
AcDbLine
 62
7
  6
CONTINUOUS
 10
7.5465385283
 20
6.718359473
 11
7.5465385283
 21
6.678359473
  0
LINE
  5
4EE
100
AcDbEntity
  8
0
100
AcDbLine
 62
7
  6
CONTINUOUS
 10
7.5507206005
 20
6.718359473
 11
7.5507206005
 21
6.678359473
  0
LINE
  5
4EF
100
AcDbEntity
  8
0
100
AcDbLine
 62
7
  6
CONTINUOUS
 10
7.561300735
 20
6.718359473
 11
7.561300735
 21
6.678359473
  0
LINE
  5
4F0
100
AcDbEntity
  8
0
100
AcDbLine
 62
7
  6
CONTINUOUS
 10
7.5617965809
 20
5.317859473
 11
7.5617965809
 21
5.617859473
  0
LINE
  5
4F1
100
AcDbEntity
  8
0
100
AcDbLine
 62
7
  6
CONTINUOUS
 10
7.5651918353
 20
6.718359473
 11
7.5651918353
 21
6.678359473
  0
LINE
  5
4F2
100
AcDbEntity
  8
0
100
AcDbLine
 62
7
  6
CONTINUOUS
 10
7.5749953379
 20
6.718359473
 11
7.5749953379
 21
6.678359473
  0
LINE
  5
4F3
100
AcDbEntity
  8
0
100
AcDbLine
 62
7
  6
CONTINUOUS
 10
7.578584801
 20
6.718359473
 11
7.578584801
 21
6.678359473
  0
LINE
  5
4F4
100
AcDbEntity
  8
0
100
AcDbLine
 62
7
  6
CONTINUOUS
 10
7.587584801
 20
6.718359473
 11
7.587584801
 21
6.678359473
  0
LINE
  5
4F5
100
AcDbEntity
  8
0
100
AcDbLine
 62
7
  6
CONTINUOUS
 10
7.5908627886
 20
6.718359473
 11
7.5908627886
 21
6.678359473
  0
LINE
  5
4F6
100
AcDbEntity
  8
0
100
AcDbLine
 62
7
  6
CONTINUOUS
 10
7.5990346176
 20
6.718359473
 11
7.5990346176
 21
6.678359473
  0
LINE
  5
4F7
100
AcDbEntity
  8
0
100
AcDbLine
 62
7
  6
CONTINUOUS
 10
7.6019921448
 20
6.718359473
 11
7.6019921448
 21
6.678359473
  0
LINE
  5
4F8
100
AcDbEntity
  8
0
100
AcDbLine
 62
7
  6
CONTINUOUS
 10
7.6093134043
 20
6.718359473
 11
7.6093134043
 21
6.678359473
  0
LINE
  5
4F9
100
AcDbEntity
  8
0
100
AcDbLine
 62
7
  6
CONTINUOUS
 10
7.6119423648
 20
6.718359473
 11
7.6119423648
 21
6.678359473
  0
LINE
  5
4FA
100
AcDbEntity
  8
0
100
AcDbLine
 62
7
  6
CONTINUOUS
 10
7.6183929879
 20
6.718359473
 11
7.6183929879
 21
6.678359473
  0
LINE
  5
4FB
100
AcDbEntity
  8
0
100
AcDbLine
 62
7
  6
CONTINUOUS
 10
7.6206861759
 20
6.718359473
 11
7.6206861759
 21
6.678359473
  0
LINE
  5
4FC
100
AcDbEntity
  8
0
100
AcDbLine
 62
7
  6
CONTINUOUS
 10
7.6217965809
 20
6.718359473
 11
7.6217965809
 21
6.768359473
  0
LINE
  5
4FD
100
AcDbEntity
  8
0
100
AcDbLine
 62
7
  6
CONTINUOUS
 10
7.6242965809
 20
5.617859473
 11
7.6242965809
 21
5.317859473
  0
LINE
  5
4FE
100
AcDbEntity
  8
0
100
AcDbLine
 62
7
  6
CONTINUOUS
 10
7.6262484818
 20
6.718359473
 11
7.6262484818
 21
6.678359473
  0
LINE
  5
4FF
100
AcDbEntity
  8
0
100
AcDbLine
 62
7
  6
CONTINUOUS
 10
7.6281996117
 20
6.718359473
 11
7.6281996117
 21
6.678359473
  0
LINE
  5
500
100
AcDbEntity
  8
0
100
AcDbLine
 62
7
  6
CONTINUOUS
 10
7.6328583545
 20
6.718359473
 11
7.6328583545
 21
6.678359473
  0
LINE
  5
501
100
AcDbEntity
  8
0
100
AcDbLine
 62
7
  6
CONTINUOUS
 10
7.6344620786
 20
6.718359473
 11
7.6344620786
 21
6.678359473
  0
LINE
  5
502
100
AcDbEntity
  8
0
100
AcDbLine
 62
7
  6
CONTINUOUS
 10
7.6382044891
 20
6.718359473
 11
7.6382044891
 21
6.678359473
  0
LINE
  5
503
100
AcDbEntity
  8
0
100
AcDbLine
 62
7
  6
CONTINUOUS
 10
7.6394564115
 20
6.718359473
 11
7.6394564115
 21
6.678359473
  0
LINE
  5
504
100
AcDbEntity
  8
0
100
AcDbLine
 62
7
  6
CONTINUOUS
 10
7.6422722319
 20
6.718359473
 11
7.6422722319
 21
6.678359473
  0
LINE
  5
505
100
AcDbEntity
  8
0
100
AcDbLine
 62
7
  6
CONTINUOUS
 10
7.6431689214
 20
6.718359473
 11
7.6431689214
 21
6.678359473
  0
LINE
  5
506
100
AcDbEntity
  8
0
100
AcDbLine
 62
7
  6
CONTINUOUS
 10
7.6450504337
 20
6.718359473
 11
7.6450504337
 21
6.678359473
  0
LINE
  5
507
100
AcDbEntity
  8
0
100
AcDbLine
 62
7
  6
CONTINUOUS
 10
7.6455894324
 20
6.718359473
 11
7.6455894324
 21
6.678359473
  0
LINE
  5
508
100
AcDbEntity
  8
0
100
AcDbLine
 62
7
  6
CONTINUOUS
 10
7.6465314796
 20
6.718359473
 11
7.6465314796
 21
6.678359473
  0
LINE
  5
509
100
AcDbEntity
  8
0
100
AcDbLine
 62
7
  6
CONTINUOUS
 10
7.6467113101
 20
6.718359473
 11
7.6467113101
 21
6.678359473
  0
LINE
  5
50A
100
AcDbEntity
  8
0
100
AcDbLine
 62
7
  6
CONTINUOUS
 10
7.6467965809
 20
6.793359473
 11
7.6467965809
 21
6.833359473
  0
LINE
  5
50B
100
AcDbEntity
  8
0
100
AcDbLine
 62
7
  6
CONTINUOUS
 10
7.4842965809
 20
6.638359473
 11
6.8592965809
 21
6.638359473
  0
LINE
  5
50C
100
AcDbEntity
  8
0
100
AcDbLine
 62
7
  6
CONTINUOUS
 10
3.5467965809
 20
6.638359473
 11
2.9217965809
 21
6.638359473
  0
LINE
  5
50D
100
AcDbEntity
  8
0
100
AcDbLine
 62
7
  6
CONTINUOUS
 10
5.660580728
 20
6.643359473
 11
4.7430124338
 21
6.643359473
  0
LINE
  5
50E
100
AcDbEntity
  8
0
100
AcDbLine
 62
7
  6
CONTINUOUS
 10
2.865743541
 20
6.643359473
 11
3.6028496209
 21
6.643359473
  0
LINE
  5
50F
100
AcDbEntity
  8
0
100
AcDbLine
 62
7
  6
CONTINUOUS
 10
6.803243541
 20
6.643359473
 11
7.5403496209
 21
6.643359473
  0
LINE
  5
510
100
AcDbEntity
  8
0
100
AcDbLine
 62
7
  6
CONTINUOUS
 10
5.673887531
 20
6.6514363961
 11
4.7297056308
 21
6.6514363961
  0
LINE
  5
511
100
AcDbEntity
  8
0
100
AcDbLine
 62
7
  6
CONTINUOUS
 10
2.851434453
 20
6.653859473
 11
3.6171587089
 21
6.653859473
  0
LINE
  5
512
100
AcDbEntity
  8
0
100
AcDbLine
 62
7
  6
CONTINUOUS
 10
6.788934453
 20
6.653859473
 11
7.5546587089
 21
6.653859473
  0
LINE
  5
513
100
AcDbEntity
  8
0
100
AcDbLine
 62
7
  6
CONTINUOUS
 10
2.7593818517
 20
6.678359473
 11
3.7092113101
 21
6.678359473
  0
LINE
  5
514
100
AcDbEntity
  8
0
100
AcDbLine
 62
7
  6
CONTINUOUS
 10
4.6392965809
 20
6.678359473
 11
5.7642965809
 21
6.678359473
  0
LINE
  5
515
100
AcDbEntity
  8
0
100
AcDbLine
 62
7
  6
CONTINUOUS
 10
6.6968818517
 20
6.678359473
 11
7.6467113101
 21
6.678359473
  0
LINE
  5
516
100
AcDbEntity
  8
0
100
AcDbLine
 62
7
  6
CONTINUOUS
 10
2.7593818517
 20
6.718359473
 11
3.7092113101
 21
6.718359473
  0
LINE
  5
517
100
AcDbEntity
  8
0
100
AcDbLine
 62
7
  6
CONTINUOUS
 10
4.6392965809
 20
6.718359473
 11
5.7642965809
 21
6.718359473
  0
LINE
  5
518
100
AcDbEntity
  8
0
100
AcDbLine
 62
7
  6
CONTINUOUS
 10
6.6968818517
 20
6.718359473
 11
7.6467113101
 21
6.718359473
  0
LINE
  5
519
100
AcDbEntity
  8
0
100
AcDbLine
 62
7
  6
CONTINUOUS
 10
7.6217965809
 20
6.768359473
 11
6.7217965809
 21
6.768359473
  0
LINE
  5
51A
100
AcDbEntity
  8
0
100
AcDbLine
 62
7
  6
CONTINUOUS
 10
2.7842965809
 20
6.768359473
 11
3.6842965809
 21
6.768359473
  0
LINE
  5
51B
100
AcDbEntity
  8
0
100
AcDbLine
 62
7
  6
CONTINUOUS
 10
4.6642965809
 20
6.768359473
 11
5.7392965809
 21
6.768359473
  0
LINE
  5
51C
100
AcDbEntity
  8
0
100
AcDbLine
 62
7
  6
CONTINUOUS
 10
7.6467965809
 20
6.793359473
 11
6.6967965809
 21
6.793359473
  0
LINE
  5
51D
100
AcDbEntity
  8
0
100
AcDbLine
 62
7
  6
CONTINUOUS
 10
2.7592965809
 20
6.793359473
 11
3.7092965809
 21
6.793359473
  0
LINE
  5
51E
100
AcDbEntity
  8
0
100
AcDbLine
 62
7
  6
CONTINUOUS
 10
4.6392965809
 20
6.793359473
 11
5.7642965809
 21
6.793359473
  0
LINE
  5
51F
100
AcDbEntity
  8
0
100
AcDbLine
 62
7
  6
CONTINUOUS
 10
7.6467965809
 20
6.833359473
 11
6.6967965809
 21
6.833359473
  0
LINE
  5
520
100
AcDbEntity
  8
0
100
AcDbLine
 62
7
  6
CONTINUOUS
 10
2.7592965809
 20
6.833359473
 11
3.7092965809
 21
6.833359473
  0
LINE
  5
521
100
AcDbEntity
  8
0
100
AcDbLine
 62
7
  6
CONTINUOUS
 10
4.6392965809
 20
6.833359473
 11
5.7642965809
 21
6.833359473
  0
LINE
  5
522
100
AcDbEntity
  8
0
100
AcDbLine
 62
7
  6
CONTINUOUS
 10
6.7217965809
 20
6.768359473
 11
6.6967965809
 21
6.793359473
  0
LINE
  5
523
100
AcDbEntity
  8
0
100
AcDbLine
 62
7
  6
CONTINUOUS
 10
8.9142965809
 20
5.306609473
 11
8.9142965809
 21
5.629109473
  0
LINE
  5
524
100
AcDbEntity
  8
0
100
AcDbLine
 62
7
  6
CONTINUOUS
 10
8.9742965809
 20
5.306609473
 11
8.9742965809
 21
5.629109473
  0
ARC
  5
525
100
AcDbEntity
  8
0
100
AcDbCircle
 62
7
  6
CONTINUOUS
 10
5.2017965809
 20
2.083359473
 40
0.21875
100
AcDbArc
 50
180.0
 51
360.0
  0
ARC
  5
526
100
AcDbEntity
  8
0
100
AcDbCircle
 62
7
  6
CONTINUOUS
 10
3.0592965809
 20
5.642859473
 40
0.2725
100
AcDbArc
 50
270.0
 51
360.0
  0
ARC
  5
527
100
AcDbEntity
  8
0
100
AcDbCircle
 62
7
  6
CONTINUOUS
 10
2.8885434055
 20
5.853359473
 40
0.125
100
AcDbArc
 50
33.6123745985
 51
87.9300455073
  0
ARC
  5
528
100
AcDbEntity
  8
0
100
AcDbCircle
 62
7
  6
CONTINUOUS
 10
3.0592965809
 20
5.642859473
 40
0.0775
100
AcDbArc
 50
270.0
 51
360.0
  0
ARC
  5
529
100
AcDbEntity
  8
0
100
AcDbCircle
 62
7
  6
CONTINUOUS
 10
2.8817965809
 20
5.3130526548
 40
0.0378068182
100
AcDbArc
 50
90.0
 51
172.6955544394
  0
ARC
  5
52A
100
AcDbEntity
  8
0
100
AcDbCircle
 62
7
  6
CONTINUOUS
 10
2.8817965809
 20
5.6226662912
 40
0.0378068182
100
AcDbArc
 50
187.3044455606
 51
270.0
  0
ARC
  5
52B
100
AcDbEntity
  8
0
100
AcDbCircle
 62
7
  6
CONTINUOUS
 10
2.8130465809
 20
5.317859473
 40
0.03125
100
AcDbArc
 50
180.0
 51
360.0
  0
ARC
  5
52C
100
AcDbEntity
  8
0
100
AcDbCircle
 62
7
  6
CONTINUOUS
 10
2.8130465809
 20
5.617859473
 40
0.03125
100
AcDbArc
 50
0.0
 51
180.0
  0
ARC
  5
52D
100
AcDbEntity
  8
0
100
AcDbCircle
 62
7
  6
CONTINUOUS
 10
3.0805465809
 20
5.695359473
 40
0.03
100
AcDbArc
 50
97.1807557815
 51
270.0
  0
ARC
  5
52E
100
AcDbEntity
  8
0
100
AcDbCircle
 62
7
  6
CONTINUOUS
 10
1.4617965809
 20
5.306609473
 40
0.03
100
AcDbArc
 50
180.0
 51
360.0
  0
ARC
  5
52F
100
AcDbEntity
  8
0
100
AcDbCircle
 62
7
  6
CONTINUOUS
 10
1.4617965809
 20
5.629109473
 40
0.03
100
AcDbArc
 50
0.0
 51
180.0
  0
ARC
  5
530
100
AcDbEntity
  8
0
100
AcDbCircle
 62
7
  6
CONTINUOUS
 10
3.0492965809
 20
5.855859473
 40
0.015
100
AcDbArc
 50
180.0
 51
270.0
  0
ARC
  5
531
100
AcDbEntity
  8
0
100
AcDbCircle
 62
7
  6
CONTINUOUS
 10
3.0192965809
 20
5.900859473
 40
0.015
100
AcDbArc
 50
0.0
 51
90.0
  0
ARC
  5
532
100
AcDbEntity
  8
0
100
AcDbCircle
 62
7
  6
CONTINUOUS
 10
3.0051356436
 20
5.930859473
 40
0.015
100
AcDbArc
 50
213.6123745985
 51
270.0
  0
ARC
  5
533
100
AcDbEntity
  8
0
100
AcDbCircle
 62
7
  6
CONTINUOUS
 10
3.0755465809
 20
5.7350457427
 40
0.01
100
AcDbArc
 50
277.1807557814
 51
360.0
  0
ARC
  5
534
100
AcDbEntity
  8
0
100
AcDbCircle
 62
7
  6
CONTINUOUS
 10
3.1267965809
 20
5.655359473
 40
0.01
100
AcDbArc
 50
0.0
 51
90.0
  0
ARC
  5
535
100
AcDbEntity
  8
0
100
AcDbCircle
 62
7
  6
CONTINUOUS
 10
2.8180465809
 20
6.643359473
 40
0.035
100
AcDbArc
 50
17.4576031237
 51
89.2442850325
  0
ARC
  5
536
100
AcDbEntity
  8
0
100
AcDbCircle
 62
7
  6
CONTINUOUS
 10
2.865743541
 20
6.658359473
 40
0.015
100
AcDbArc
 50
197.4576031237
 51
270.0
  0
ARC
  5
537
100
AcDbEntity
  8
0
100
AcDbCircle
 62
7
  6
CONTINUOUS
 10
3.5800497564
 20
5.853359473
 40
0.125
100
AcDbArc
 50
92.0699544927
 51
146.3876254015
  0
ARC
  5
538
100
AcDbEntity
  8
0
100
AcDbCircle
 62
7
  6
CONTINUOUS
 10
4.8465955836
 20
5.645859473
 40
0.075
100
AcDbArc
 50
17.791590573
 51
87.6354421783
  0
ARC
  5
539
100
AcDbEntity
  8
0
100
AcDbCircle
 62
7
  6
CONTINUOUS
 10
3.3880465809
 20
5.695359473
 40
0.03
100
AcDbArc
 50
270.0
 51
82.8192442185
  0
ARC
  5
53A
100
AcDbEntity
  8
0
100
AcDbCircle
 62
7
  6
CONTINUOUS
 10
3.4192965809
 20
5.855859473
 40
0.015
100
AcDbArc
 50
270.0
 51
360.0
  0
ARC
  5
53B
100
AcDbEntity
  8
0
100
AcDbCircle
 62
7
  6
CONTINUOUS
 10
3.4492965809
 20
5.900859473
 40
0.015
100
AcDbArc
 50
90.0
 51
180.0
  0
ARC
  5
53C
100
AcDbEntity
  8
0
100
AcDbCircle
 62
7
  6
CONTINUOUS
 10
3.4634575182
 20
5.930859473
 40
0.015
100
AcDbArc
 50
270.0
 51
326.3876254015
  0
ARC
  5
53D
100
AcDbEntity
  8
0
100
AcDbCircle
 62
7
  6
CONTINUOUS
 10
4.9322912661
 20
5.673359473
 40
0.015
100
AcDbArc
 50
197.791590573
 51
270.0
  0
ARC
  5
53E
100
AcDbEntity
  8
0
100
AcDbCircle
 62
7
  6
CONTINUOUS
 10
4.9367965809
 20
5.643359473
 40
0.015
100
AcDbArc
 50
0.0
 51
90.0
  0
ARC
  5
53F
100
AcDbEntity
  8
0
100
AcDbCircle
 62
7
  6
CONTINUOUS
 10
4.9667965809
 20
5.598359473
 40
0.015
100
AcDbArc
 50
180.0
 51
270.0
  0
ARC
  5
540
100
AcDbEntity
  8
0
100
AcDbCircle
 62
7
  6
CONTINUOUS
 10
3.3930465809
 20
5.7350457427
 40
0.01
100
AcDbArc
 50
180.0
 51
262.8192442186
  0
ARC
  5
541
100
AcDbEntity
  8
0
100
AcDbCircle
 62
7
  6
CONTINUOUS
 10
3.3417965809
 20
5.655359473
 40
0.01
100
AcDbArc
 50
90.0
 51
180.0
  0
ARC
  5
542
100
AcDbEntity
  8
0
100
AcDbCircle
 62
7
  6
CONTINUOUS
 10
4.6853496209
 20
6.628359473
 40
0.05
100
AcDbArc
 50
27.4864262504
 51
90.0
  0
ARC
  5
543
100
AcDbEntity
  8
0
100
AcDbCircle
 62
7
  6
CONTINUOUS
 10
3.6505465809
 20
6.643359473
 40
0.035
100
AcDbArc
 50
90.7557149675
 51
162.5423968763
  0
ARC
  5
544
100
AcDbEntity
  8
0
100
AcDbCircle
 62
7
  6
CONTINUOUS
 10
3.6028496209
 20
6.658359473
 40
0.015
100
AcDbArc
 50
270.0
 51
342.5423968763
  0
ARC
  5
545
100
AcDbEntity
  8
0
100
AcDbCircle
 62
7
  6
CONTINUOUS
 10
4.7430124338
 20
6.658359473
 40
0.015
100
AcDbArc
 50
207.4864262505
 51
270.0
  0
ARC
  5
546
100
AcDbEntity
  8
0
100
AcDbCircle
 62
7
  6
CONTINUOUS
 10
6.8260434055
 20
5.853359473
 40
0.125
100
AcDbArc
 50
33.6123745985
 51
88.1487931069
  0
ARC
  5
547
100
AcDbEntity
  8
0
100
AcDbCircle
 62
7
  6
CONTINUOUS
 10
5.5569975782
 20
5.645859473
 40
0.075
100
AcDbArc
 50
92.3645578217
 51
162.208409427
  0
ARC
  5
548
100
AcDbEntity
  8
0
100
AcDbCircle
 62
7
  6
CONTINUOUS
 10
7.0180465809
 20
5.695359473
 40
0.03
100
AcDbArc
 50
97.1807557815
 51
270.0
  0
ARC
  5
549
100
AcDbEntity
  8
0
100
AcDbCircle
 62
7
  6
CONTINUOUS
 10
5.4713018957
 20
5.673359473
 40
0.015
100
AcDbArc
 50
270.0
 51
342.208409427
  0
ARC
  5
54A
100
AcDbEntity
  8
0
100
AcDbCircle
 62
7
  6
CONTINUOUS
 10
5.4667965809
 20
5.643359473
 40
0.015
100
AcDbArc
 50
90.0
 51
180.0
  0
ARC
  5
54B
100
AcDbEntity
  8
0
100
AcDbCircle
 62
7
  6
CONTINUOUS
 10
5.4367965809
 20
5.598359473
 40
0.015
100
AcDbArc
 50
270.0
 51
360.0
  0
ARC
  5
54C
100
AcDbEntity
  8
0
100
AcDbCircle
 62
7
  6
CONTINUOUS
 10
6.9426356436
 20
5.930859473
 40
0.015
100
AcDbArc
 50
213.6123745985
 51
270.0
  0
ARC
  5
54D
100
AcDbEntity
  8
0
100
AcDbCircle
 62
7
  6
CONTINUOUS
 10
6.9567965809
 20
5.900859473
 40
0.015
100
AcDbArc
 50
0.0
 51
90.0
  0
ARC
  5
54E
100
AcDbEntity
  8
0
100
AcDbCircle
 62
7
  6
CONTINUOUS
 10
6.9867965809
 20
5.855859473
 40
0.015
100
AcDbArc
 50
180.0
 51
270.0
  0
ARC
  5
54F
100
AcDbEntity
  8
0
100
AcDbCircle
 62
7
  6
CONTINUOUS
 10
7.0642965809
 20
5.655359473
 40
0.01
100
AcDbArc
 50
0.0
 51
90.0
  0
ARC
  5
550
100
AcDbEntity
  8
0
100
AcDbCircle
 62
7
  6
CONTINUOUS
 10
7.0130465809
 20
5.7350457427
 40
0.01
100
AcDbArc
 50
277.1807557814
 51
360.0
  0
ARC
  5
551
100
AcDbEntity
  8
0
100
AcDbCircle
 62
7
  6
CONTINUOUS
 10
5.718243541
 20
6.628359473
 40
0.05
100
AcDbArc
 50
90.0
 51
152.5135737496
  0
ARC
  5
552
100
AcDbEntity
  8
0
100
AcDbCircle
 62
7
  6
CONTINUOUS
 10
6.7555465809
 20
6.643359473
 40
0.035
100
AcDbArc
 50
17.4576031237
 51
87.5819201041
  0
ARC
  5
553
100
AcDbEntity
  8
0
100
AcDbCircle
 62
7
  6
CONTINUOUS
 10
5.660580728
 20
6.658359473
 40
0.015
100
AcDbArc
 50
270.0
 51
332.5135737495
  0
ARC
  5
554
100
AcDbEntity
  8
0
100
AcDbCircle
 62
7
  6
CONTINUOUS
 10
6.803243541
 20
6.658359473
 40
0.015
100
AcDbArc
 50
197.4576031237
 51
270.0
  0
ARC
  5
555
100
AcDbEntity
  8
0
100
AcDbCircle
 62
7
  6
CONTINUOUS
 10
7.3467965809
 20
5.642859473
 40
0.2725
100
AcDbArc
 50
180.0
 51
270.0
  0
ARC
  5
556
100
AcDbEntity
  8
0
100
AcDbCircle
 62
7
  6
CONTINUOUS
 10
7.5175497564
 20
5.853359473
 40
0.125
100
AcDbArc
 50
91.8512068931
 51
146.3876254015
  0
ARC
  5
557
100
AcDbEntity
  8
0
100
AcDbCircle
 62
7
  6
CONTINUOUS
 10
7.3467965809
 20
5.642859473
 40
0.0775
100
AcDbArc
 50
180.0
 51
270.0
  0
ARC
  5
558
100
AcDbEntity
  8
0
100
AcDbCircle
 62
7
  6
CONTINUOUS
 10
7.5242965809
 20
5.6226662912
 40
0.0378068182
100
AcDbArc
 50
270.0
 51
352.6955544394
  0
ARC
  5
559
100
AcDbEntity
  8
0
100
AcDbCircle
 62
7
  6
CONTINUOUS
 10
7.5242965809
 20
5.3130526548
 40
0.0378068182
100
AcDbArc
 50
7.3044455606
 51
90.0
  0
ARC
  5
55A
100
AcDbEntity
  8
0
100
AcDbCircle
 62
7
  6
CONTINUOUS
 10
7.5930465809
 20
5.617859473
 40
0.03125
100
AcDbArc
 50
0.0
 51
180.0
  0
ARC
  5
55B
100
AcDbEntity
  8
0
100
AcDbCircle
 62
7
  6
CONTINUOUS
 10
7.5930465809
 20
5.317859473
 40
0.03125
100
AcDbArc
 50
180.0
 51
360.0
  0
ARC
  5
55C
100
AcDbEntity
  8
0
100
AcDbCircle
 62
7
  6
CONTINUOUS
 10
8.9442965809
 20
5.629109473
 40
0.03
100
AcDbArc
 50
0.0
 51
180.0
  0
ARC
  5
55D
100
AcDbEntity
  8
0
100
AcDbCircle
 62
7
  6
CONTINUOUS
 10
8.9442965809
 20
5.306609473
 40
0.03
100
AcDbArc
 50
180.0
 51
360.0
  0
ARC
  5
55E
100
AcDbEntity
  8
0
100
AcDbCircle
 62
7
  6
CONTINUOUS
 10
7.3255465809
 20
5.695359473
 40
0.03
100
AcDbArc
 50
270.0
 51
82.8192442185
  0
ARC
  5
55F
100
AcDbEntity
  8
0
100
AcDbCircle
 62
7
  6
CONTINUOUS
 10
7.4009575182
 20
5.930859473
 40
0.015
100
AcDbArc
 50
270.0
 51
326.3876254015
  0
ARC
  5
560
100
AcDbEntity
  8
0
100
AcDbCircle
 62
7
  6
CONTINUOUS
 10
7.3867965809
 20
5.900859473
 40
0.015
100
AcDbArc
 50
90.0
 51
180.0
  0
ARC
  5
561
100
AcDbEntity
  8
0
100
AcDbCircle
 62
7
  6
CONTINUOUS
 10
7.3567965809
 20
5.855859473
 40
0.015
100
AcDbArc
 50
270.0
 51
360.0
  0
ARC
  5
562
100
AcDbEntity
  8
0
100
AcDbCircle
 62
7
  6
CONTINUOUS
 10
7.2792965809
 20
5.655359473
 40
0.01
100
AcDbArc
 50
90.0
 51
180.0
  0
ARC
  5
563
100
AcDbEntity
  8
0
100
AcDbCircle
 62
7
  6
CONTINUOUS
 10
7.3305465809
 20
5.7350457427
 40
0.01
100
AcDbArc
 50
180.0
 51
262.8192442186
  0
ARC
  5
564
100
AcDbEntity
  8
0
100
AcDbCircle
 62
7
  6
CONTINUOUS
 10
7.5880465809
 20
6.643359473
 40
0.035
100
AcDbArc
 50
92.4180798959
 51
162.5423968763
  0
ARC
  5
565
100
AcDbEntity
  8
0
100
AcDbCircle
 62
7
  6
CONTINUOUS
 10
7.5403496209
 20
6.658359473
 40
0.015
100
AcDbArc
 50
270.0
 51
342.5423968763
  0
ENDSEC
  0
SECTION
  2
OBJECTS
  0
DICTIONARY
  5
C
100
AcDbDictionary
280
0
281
1
  3
ACAD_GROUP
350
D
  3
ACAD_MLINESTYLE
350
17
  3
ACAD_LAYOUT
350
1A
  3
ACAD_PLOTSETTINGS
350
19
  3
ACAD_PLOTSTYLENAME
350
E
  0
DICTIONARY
  5
D
102
{ACAD_REACTORS
330
C
102
}
100
AcDbDictionary
280
0
281
1
  0
ACDBDICTIONARYWDFLT
  5
E
102
{ACAD_REACTORS
330
C
102
}
100
AcDbDictionary
281
1
  3
Normal
350
F
100
AcDbDictionaryWithDefault
340
F
  0
DICTIONARY
  5
17
102
{ACAD_REACTORS
330
C
102
}
100
AcDbDictionary
280
0
281
1
  3
Standard
350
18
  0
DICTIONARY
  5
19
102
{ACAD_REACTORS
330
C
102
}
100
AcDbDictionary
281
1
  0
DICTIONARY
  5
1A
102
{ACAD_REACTORS
330
C
102
}
100
AcDbDictionary
281
1
  3
Model
350
566
  3
Layout1
350
567
  0
ACDBPLACEHOLDER
  5
F
102
{ACAD_REACTORS
330
E
102
}
  0
MLINESTYLE
  5
18
102
{ACAD_REACTORS
330
17
102
}
100
AcDbMlineStyle
  2
STANDARD
 70
0
  3

 62
256
 51
90.0
 52
90.0
 71
2
 49
0.5
 62
256
  6
BYLAYER
 49
-0.5
 62
256
  6
BYLAYER
  0
LAYOUT
  5
566
102
{ACAD_REACTORS
330
1A
102
}
100
AcDbPlotSettings
  1

  2
none_device
  4
ANSI_A_(11.00_x_8.50_Inches)
  6

 40
0.0
 41
0.0
 42
0.0
 43
0.0
 44
279.4
 45
215.9
 46
0.0
 47
0.0
 48
0.0
 49
0.0
140
0.0
141
0.0
142
1.0
143
1.0
 70
1024
 72
0
 73
0
 74
0
  7

 75
0
147
1.0
148
0.0
149
0.0
100
AcDbLayout
  1
Model
 70
0
 71
0
 10
0.0
 20
0.0
 11
11.0
 21
8.5
 12
0.0
 22
0.0
 32
0.0
 14
0.0
 24
0.0
 34
0.0
 15
0.0
 25
0.0
 35
0.0
146
0.0
 13
0.0
 23
0.0
 33
0.0
 16
1.0
 26
0.0
 36
0.0
 17
0.0
 27
1.0
 37
0.0
 76
0
330
202
345
0
346
0
  0
LAYOUT
  5
567
102
{ACAD_REACTORS
330
1A
102
}
100
AcDbPlotSettings
  1

  2
none_device
  4
ANSI_A_(11.00_x_8.50_Inches)
  6

 40
0.0
 41
0.0
 42
0.0
 43
0.0
 44
279.4
 45
215.9
 46
0.0
 47
0.0
 48
0.0
 49
0.0
140
0.0
141
0.0
142
1.0
143
1.0
 70
0
 72
0
 73
0
 74
0
  7

 75
0
147
1.0
148
0.0
149
0.0
100
AcDbLayout
  1
Layout1
 70
0
 71
1
 10
0.0
 20
0.0
 11
11.0
 21
8.5
 12
0.0
 22
0.0
 32
0.0
 14
0.0
 24
0.0
 34
0.0
 15
0.0
 25
0.0
 35
0.0
146
0.0
 13
0.0
 23
0.0
 33
0.0
 16
1.0
 26
0.0
 36
0.0
 17
0.0
 27
1.0
 37
0.0
 76
0
330
203
345
0
346
0
  0
ENDSEC
  0
EOF
