999
DXF file: 3-2974tr_right.dxf
999
Pro/ENGINEER 2018400 by Parametric Technology Corporation
  0
SECTION
  2
HEADER
  9
$ACADVER
  1
AC1027
  9
$DWGCODEPAGE
  3
ANSI_1252
  9
$EXTMAX
 10
11.0
 20
8.5
 30
0.0
  9
$EXTMIN
 10
0.0
 20
0.0
 30
0.0
  9
$LIMMIN
 10
0.0
 20
0.0
  9
$LIMMAX
 10
11.0
 20
8.5
  9
$VIEWCTR
 10
5.5
 20
4.25
  9
$VIEWSIZE
 40
8.5
  9
$CLAYER
  8
0
  9
$LTSCALE
 40
0.605
  9
$CELTYPE
  6
BYLAYER
  9
$DIMSCALE
 40
1.0
  9
$DIMASZ
 40
0.1
  9
$DIMEXO
 40
0.0625
  9
$DIMDLI
 40
0.418
  9
$DIMEXE
 40
0.125
  9
$DIMCEN
 40
0.099
  9
$DIMLFAC
 40
1.0
  9
$DIMBLK
  1
_FILLED
  9
$DIMALT
 70
1
  9
$DIMALTD
 70
2
  9
$DIMALTTD
 70
2
  9
$DIMALTF
 40
25.4
  9
$DIMTXT
 40
0.08
  9
$DIMTOL
 70
1
  9
$DIMLIM
 70
0
  9
$DIMTFAC
 40
1.0
  9
$DIMTP
 40
0.001
  9
$DIMTM
 40
0.001
  9
$DIMGAP
 40
0.09
  9
$DIMDSEP
 70
46
  9
$AUNITS
 70
0
  9
$PDMODE
 70
3
  9
$PDSIZE
 40
0.3125
  9
$HANDSEED
  5
2B0
  9
$TILEMODE
 70
1
  9
$MEASUREMENT
 70
0
  9
$INSUNITS
 70
1
  0
ENDSEC
  0
SECTION
  2
CLASSES
  0
CLASS
  1
ACDBDICTIONARYWDFLT
  2
AcDbDictionaryWithDefault
  3
AutoCAD 2000
 90
0
 91
1
280
0
281
0
  0
CLASS
  1
ACDBPLACEHOLDER
  2
AcDbPlaceHolder
  3
AutoCAD 2000
 90
0
 91
1
280
0
281
0
  0
CLASS
  1
LAYOUT
  2
AcDbLayout
  3
AutoCAD 2000
 90
0
 91
0
280
0
281
0
  0
ENDSEC
  0
SECTION
  2
TABLES
  0
TABLE
  2
VPORT
  5
8
100
AcDbSymbolTable
 70
2
  0
VPORT
  5
1F4
100
AcDbSymbolTableRecord
100
AcDbViewportTableRecord
  2
*ACTIVE
 70
0
 10
0.0
 20
0.0
 11
1.0
 21
1.0
 12
5.5
 22
4.25
 13
0.0
 23
0.0
 14
1.0
 24
1.0
 15
0.0
 25
0.0
 16
0.0
 26
0.0
 36
1.0
 17
0.0
 27
0.0
 37
0.0
 40
8.5
 41
1.2941176471
 42
50.0
 43
0.0
 44
0.0
 50
0.0
 51
0.0
 71
0
 72
100
 73
1
 74
1
 75
0
 76
0
 77
0
 78
0
  0
ENDTAB
  0
TABLE
  2
LTYPE
  5
5
100
AcDbSymbolTable
 70
6
  0
LTYPE
  5
14
100
AcDbSymbolTableRecord
100
AcDbLinetypeTableRecord
  2
BYBLOCK
 70
0
  3

 72
65
 73
0
 40
0.0
  0
LTYPE
  5
15
100
AcDbSymbolTableRecord
100
AcDbLinetypeTableRecord
  2
BYLAYER
 70
0
  3

 72
65
 73
0
 40
0.0
  0
LTYPE
  5
16
100
AcDbSymbolTableRecord
100
AcDbLinetypeTableRecord
  2
CONTINUOUS
 70
64
  3
Solid line
 72
65
 73
0
 40
0.0
  0
LTYPE
  5
1F5
100
AcDbSymbolTableRecord
100
AcDbLinetypeTableRecord
  2
CENTER
 70
64
  3
____ _ ____ _ ____ _ ____ _ ____ _ ____ _ ____
 72
65
 73
4
 40
0.6
 49
0.375
 74
0
 49
-0.075
 74
0
 49
0.075
 74
0
 49
-0.075
 74
0
  0
LTYPE
  5
1F6
100
AcDbSymbolTableRecord
100
AcDbLinetypeTableRecord
  2
HIDDEN
 70
64
  3
- - - - - - - - - - - - - - - - - - - -
 72
65
 73
2
 40
0.2
 49
0.1
 74
0
 49
-0.1
 74
0
  0
LTYPE
  5
1F7
100
AcDbSymbolTableRecord
100
AcDbLinetypeTableRecord
  2
PHANTOM
 70
64
  3
_____ _ _ _____ _ _ _____ _ _ _____
 72
65
 73
6
 40
0.8
 49
0.45
 74
0
 49
-0.05
 74
0
 49
0.1
 74
0
 49
-0.05
 74
0
 49
0.1
 74
0
 49
-0.05
 74
0
  0
LTYPE
  5
1F8
100
AcDbSymbolTableRecord
100
AcDbLinetypeTableRecord
  2
DOT
 70
64
  3
. . . . . . . . . . . . . . . . . . . .
 72
65
 73
2
 40
0.2
 49
0.1
 74
0
 49
-0.1
 74
0
  0
LTYPE
  5
1F9
100
AcDbSymbolTableRecord
100
AcDbLinetypeTableRecord
  2
DASHED
 70
64
  3
- - - - - - - - - - - - - - - - - - - -
 72
65
 73
2
 40
0.2
 49
0.1
 74
0
 49
-0.1
 74
0
  0
ENDTAB
  0
TABLE
  2
LAYER
  5
2
100
AcDbSymbolTable
 70
36
  0
LAYER
  5
10
100
AcDbSymbolTableRecord
100
AcDbLayerTableRecord
  2
0
 70
0
 62
7
  6
CONTINUOUS
370
-3
390
F
  0
LAYER
  5
1FA
100
AcDbSymbolTableRecord
100
AcDbLayerTableRecord
  2
DEFAULT_1
 70
0
 62
7
  6
CENTER
370
-3
390
F
  0
LAYER
  5
1FB
100
AcDbSymbolTableRecord
100
AcDbLayerTableRecord
  2
DEFAULT_2
 70
0
 62
8
  6
HIDDEN
370
-3
390
F
  0
LAYER
  5
1FC
100
AcDbSymbolTableRecord
100
AcDbLayerTableRecord
  2
DEFAULT_3
 70
0
 62
7
  6
PHANTOM
370
-3
390
F
  0
LAYER
  5
1FD
100
AcDbSymbolTableRecord
100
AcDbLayerTableRecord
  2
01___PRT_ALL_DTM_PLN
 70
0
 62
7
  6
CONTINUOUS
370
-3
390
F
  0
LAYER
  5
1FE
100
AcDbSymbolTableRecord
100
AcDbLayerTableRecord
  2
01___PRT_DEF_DTM_PLN
 70
0
 62
7
  6
CONTINUOUS
370
-3
390
F
  0
LAYER
  5
1FF
100
AcDbSymbolTableRecord
100
AcDbLayerTableRecord
  2
02___PRT_ALL_AXES
 70
0
 62
7
  6
CONTINUOUS
370
-3
390
F
  0
LAYER
  5
200
100
AcDbSymbolTableRecord
100
AcDbLayerTableRecord
  2
03___PRT_ALL_CURVES
 70
0
 62
7
  6
CONTINUOUS
370
-3
390
F
  0
LAYER
  5
201
100
AcDbSymbolTableRecord
100
AcDbLayerTableRecord
  2
04___PRT_ALL_DTM_PNT
 70
0
 62
7
  6
CONTINUOUS
370
-3
390
F
  0
LAYER
  5
202
100
AcDbSymbolTableRecord
100
AcDbLayerTableRecord
  2
05___PRT_ALL_DTM_CSYS
 70
0
 62
7
  6
CONTINUOUS
370
-3
390
F
  0
LAYER
  5
203
100
AcDbSymbolTableRecord
100
AcDbLayerTableRecord
  2
05___PRT_DEF_DTM_CSYS
 70
0
 62
7
  6
CONTINUOUS
370
-3
390
F
  0
LAYER
  5
204
100
AcDbSymbolTableRecord
100
AcDbLayerTableRecord
  2
06___PRT_ALL_SURFS
 70
0
 62
7
  6
CONTINUOUS
370
-3
390
F
  0
LAYER
  5
205
100
AcDbSymbolTableRecord
100
AcDbLayerTableRecord
  2
ALL_ASSEMBLY_MEMBERS
 70
0
 62
7
  6
CONTINUOUS
370
-3
390
F
  0
LAYER
  5
206
100
AcDbSymbolTableRecord
100
AcDbLayerTableRecord
  2
ALL_FEATURES
 70
0
 62
7
  6
CONTINUOUS
370
-3
390
F
  0
LAYER
  5
207
100
AcDbSymbolTableRecord
100
AcDbLayerTableRecord
  2
AXES_FEATURES
 70
0
 62
7
  6
CONTINUOUS
370
-3
390
F
  0
LAYER
  5
208
100
AcDbSymbolTableRecord
100
AcDbLayerTableRecord
  2
BROACH_SKETCH
 70
0
 62
7
  6
CONTINUOUS
370
-3
390
F
  0
LAYER
  5
209
100
AcDbSymbolTableRecord
100
AcDbLayerTableRecord
  2
CHAMFER_FEATURES
 70
0
 62
7
  6
CONTINUOUS
370
-3
390
F
  0
LAYER
  5
20A
100
AcDbSymbolTableRecord
100
AcDbLayerTableRecord
  2
COLOR1
 70
0
 62
7
  6
CONTINUOUS
370
-3
390
F
  0
LAYER
  5
20B
100
AcDbSymbolTableRecord
100
AcDbLayerTableRecord
  2
CURVES
 70
0
 62
7
  6
CONTINUOUS
370
-3
390
F
  0
LAYER
  5
20C
100
AcDbSymbolTableRecord
100
AcDbLayerTableRecord
  2
CUT_FEATURES
 70
0
 62
7
  6
CONTINUOUS
370
-3
390
F
  0
LAYER
  5
20D
100
AcDbSymbolTableRecord
100
AcDbLayerTableRecord
  2
DATUM_CURVES
 70
0
 62
7
  6
CONTINUOUS
370
-3
390
F
  0
LAYER
  5
20E
100
AcDbSymbolTableRecord
100
AcDbLayerTableRecord
  2
DATUM_PLANES
 70
0
 62
7
  6
CONTINUOUS
370
-3
390
F
  0
LAYER
  5
20F
100
AcDbSymbolTableRecord
100
AcDbLayerTableRecord
  2
DATUM_POINTS
 70
0
 62
7
  6
CONTINUOUS
370
-3
390
F
  0
LAYER
  5
210
100
AcDbSymbolTableRecord
100
AcDbLayerTableRecord
  2
DEFAULT_COORDINATE_SYSTEM
 70
0
 62
7
  6
CONTINUOUS
370
-3
390
F
  0
LAYER
  5
211
100
AcDbSymbolTableRecord
100
AcDbLayerTableRecord
  2
DEFAULT_DATUM_AXES
 70
0
 62
7
  6
CONTINUOUS
370
-3
390
F
  0
LAYER
  5
212
100
AcDbSymbolTableRecord
100
AcDbLayerTableRecord
  2
DEFAULT_DATUM_CURVES
 70
0
 62
7
  6
CONTINUOUS
370
-3
390
F
  0
LAYER
  5
213
100
AcDbSymbolTableRecord
100
AcDbLayerTableRecord
  2
DEFAULT_DATUM_PLANES
 70
0
 62
7
  6
CONTINUOUS
370
-3
390
F
  0
LAYER
  5
214
100
AcDbSymbolTableRecord
100
AcDbLayerTableRecord
  2
DEFAULT_SURFACES
 70
0
 62
7
  6
CONTINUOUS
370
-3
390
F
  0
LAYER
  5
215
100
AcDbSymbolTableRecord
100
AcDbLayerTableRecord
  2
DIMENSIONS
 70
0
 62
7
  6
CONTINUOUS
370
-3
390
F
  0
LAYER
  5
216
100
AcDbSymbolTableRecord
100
AcDbLayerTableRecord
  2
HOLE_FEATURES
 70
0
 62
7
  6
CONTINUOUS
370
-3
390
F
  0
LAYER
  5
217
100
AcDbSymbolTableRecord
100
AcDbLayerTableRecord
  2
IMPORTED_FEATURE
 70
0
 62
7
  6
CONTINUOUS
370
-3
390
F
  0
LAYER
  5
218
100
AcDbSymbolTableRecord
100
AcDbLayerTableRecord
  2
INTF_1
 70
0
 62
7
  6
CONTINUOUS
370
-3
390
F
  0
LAYER
  5
219
100
AcDbSymbolTableRecord
100
AcDbLayerTableRecord
  2
INTF_12
 70
0
 62
7
  6
CONTINUOUS
370
-3
390
F
  0
LAYER
  5
21A
100
AcDbSymbolTableRecord
100
AcDbLayerTableRecord
  2
INTF_13
 70
0
 62
7
  6
CONTINUOUS
370
-3
390
F
  0
LAYER
  5
21B
100
AcDbSymbolTableRecord
100
AcDbLayerTableRecord
  2
INTF_BLANK
 70
0
 62
7
  6
CONTINUOUS
370
-3
390
F
  0
LAYER
  5
21C
100
AcDbSymbolTableRecord
100
AcDbLayerTableRecord
  2
INTF_CYAN
 70
0
 62
7
  6
CONTINUOUS
370
-3
390
F
  0
LAYER
  5
21D
100
AcDbSymbolTableRecord
100
AcDbLayerTableRecord
  2
INTF_YELLOW
 70
0
 62
7
  6
CONTINUOUS
370
-3
390
F
  0
LAYER
  5
21E
100
AcDbSymbolTableRecord
100
AcDbLayerTableRecord
  2
NOTES
 70
0
 62
7
  6
CONTINUOUS
370
-3
390
F
  0
LAYER
  5
21F
100
AcDbSymbolTableRecord
100
AcDbLayerTableRecord
  2
PART_REFERENCE_DIMENSIONS
 70
0
 62
7
  6
CONTINUOUS
370
-3
390
F
  0
LAYER
  5
220
100
AcDbSymbolTableRecord
100
AcDbLayerTableRecord
  2
PLATED_SURFACE_AREA
 70
0
 62
7
  6
CONTINUOUS
370
-3
390
F
  0
LAYER
  5
221
100
AcDbSymbolTableRecord
100
AcDbLayerTableRecord
  2
POINTS
 70
0
 62
7
  6
CONTINUOUS
370
-3
390
F
  0
LAYER
  5
222
100
AcDbSymbolTableRecord
100
AcDbLayerTableRecord
  2
PROTRUSION
 70
0
 62
7
  6
CONTINUOUS
370
-3
390
F
  0
LAYER
  5
223
100
AcDbSymbolTableRecord
100
AcDbLayerTableRecord
  2
PROTRUSION_FEATURES
 70
0
 62
7
  6
CONTINUOUS
370
-3
390
F
  0
LAYER
  5
224
100
AcDbSymbolTableRecord
100
AcDbLayerTableRecord
  2
QUILT
 70
0
 62
7
  6
CONTINUOUS
370
-3
390
F
  0
LAYER
  5
225
100
AcDbSymbolTableRecord
100
AcDbLayerTableRecord
  2
QUILTS
 70
0
 62
7
  6
CONTINUOUS
370
-3
390
F
  0
LAYER
  5
226
100
AcDbSymbolTableRecord
100
AcDbLayerTableRecord
  2
REFERENCE_DIMENSIONS
 70
0
 62
7
  6
CONTINUOUS
370
-3
390
F
  0
LAYER
  5
227
100
AcDbSymbolTableRecord
100
AcDbLayerTableRecord
  2
ROUND_FEATURES
 70
0
 62
7
  6
CONTINUOUS
370
-3
390
F
  0
LAYER
  5
228
100
AcDbSymbolTableRecord
100
AcDbLayerTableRecord
  2
SURFACE_FEATURES
 70
0
 62
7
  6
CONTINUOUS
370
-3
390
F
  0
LAYER
  5
229
100
AcDbSymbolTableRecord
100
AcDbLayerTableRecord
  2
XSEC_DATUMS
 70
0
 62
7
  6
CONTINUOUS
370
-3
390
F
  0
LAYER
  5
22A
100
AcDbSymbolTableRecord
100
AcDbLayerTableRecord
  2
_BLACK_HOLE
 70
0
 62
7
  6
CONTINUOUS
370
-3
390
F
  0
ENDTAB
  0
TABLE
  2
STYLE
  5
3
100
AcDbSymbolTable
 70
1
  0
STYLE
  5
11
100
AcDbSymbolTableRecord
100
AcDbTextStyleTableRecord
  2
STANDARD
 70
0
 40
0.0
 41
0.8
 50
0.0
 71
0
 42
0.2
  3
txt
  4

  0
STYLE
  5
22B
100
AcDbSymbolTableRecord
100
AcDbTextStyleTableRecord
  2
TEXTSTYLE_1
 70
0
 40
0.0
 41
0.8
 50
0.0
 71
0
 42
0.2
  3
gdt
  4

  0
ENDTAB
  0
TABLE
  2
VIEW
  5
6
100
AcDbSymbolTable
 70
0
  0
ENDTAB
  0
TABLE
  2
UCS
  5
7
100
AcDbSymbolTable
 70
0
  0
ENDTAB
  0
TABLE
  2
APPID
  5
9
100
AcDbSymbolTable
 70
1
  0
APPID
  5
22C
100
AcDbSymbolTableRecord
100
AcDbRegAppTableRecord
  2
ACAD
 70
0
  0
ENDTAB
  0
TABLE
  2
BLOCK_RECORD
  5
1
100
AcDbSymbolTable
 70
0
  0
BLOCK_RECORD
  5
22D
100
AcDbSymbolTableRecord
100
AcDbBlockTableRecord
  2
*Model_Space
  0
BLOCK_RECORD
  5
22E
100
AcDbSymbolTableRecord
100
AcDbBlockTableRecord
  2
*Paper_Space
  0
BLOCK_RECORD
  5
22F
100
AcDbSymbolTableRecord
100
AcDbBlockTableRecord
  2
_FILLED
  0
ENDTAB
  0
TABLE
  2
DIMSTYLE
  5
A
100
AcDbSymbolTable
 70
1
100
AcDbDimStyleTable
 71
0
  0
DIMSTYLE
105
230
100
AcDbSymbolTableRecord
100
AcDbDimStyleTableRecord
  2
STANDARD
 70
0
  3

  4

 40
1.0
 41
0.1
 42
0.0625
 43
0.38
 44
0.125
 45
0.0
 46
0.0
 47
0.001
 48
0.001
140
0.08
141
0.09
142
0.0
143
25.4
144
1.0
145
0.0
146
1.0
147
0.09
 71
1.0
 72
0.0
 73
1
 74
1
 75
0
 76
0
 77
0
 78
4
 79
1
170
1
171
2
172
0
173
0
174
0
175
0
176
0
177
0
178
0
270
2
179
3
271
3
272
3
273
2
274
2
275
0
280
0
281
0
282
0
283
1
284
4
285
0
286
0
287
3
288
0
340
11
278
46
341
22F
342
22F
343
22F
344
22F
  0
ENDTAB
  0
ENDSEC
  0
SECTION
  2
BLOCKS
  0
BLOCK
  5
20
100
AcDbEntity
  8
0
100
AcDbBlockBegin
  2
*Model_Space
 70
0
 10
0.0
 20
0.0
 30
0.0
  3
*Model_Space
  1

  0
ENDBLK
  5
21
100
AcDbEntity
  8
0
100
AcDbBlockEnd
  0
BLOCK
  5
1C
100
AcDbEntity
  8
0
100
AcDbBlockBegin
  2
*Paper_Space
 70
0
 10
0.0
 20
0.0
 30
0.0
  3
*Paper_Space
  1

  0
ENDBLK
  5
1D
100
AcDbEntity
  8
0
100
AcDbBlockEnd
  0
BLOCK
  5
231
100
AcDbEntity
  8
0
100
AcDbBlockBegin
  2
_FILLED
 70
64
 10
0.0
 20
0.0
  3
_FILLED
  1

  0
SOLID
  5
232
100
AcDbEntity
  8
0
  6
BYBLOCK
 62
0
100
AcDbTrace
 10
0.0
 20
0.0
 11
-1.0
 21
0.2
 12
-1.0
 22
-0.2
 13
-1.0
 23
-0.2
  0
ENDBLK
  5
233
100
AcDbEntity
  8
0
  6
BYBLOCK
 62
0
100
AcDbBlockEnd
  0
ENDSEC
  0
SECTION
  2
ENTITIES
  0
MTEXT
  5
234
100
AcDbEntity
  8
0
100
AcDbMText
 62
2
  6
CONTINUOUS
  7
STANDARD
 71
3
 72
1
 10
4.958113354
 20
2.9506562599
 30
0.0
 11
1.0
 21
0.0
 31
0.0
 73
2
 44
0.9
  1
SCALE  .500
 40
0.08
 41
0.704
  0
LINE
  5
235
100
AcDbEntity
  8
0
100
AcDbLine
 62
7
  6
CONTINUOUS
 10
0.0
 20
0.0
 11
0.0
 21
8.5
  0
LINE
  5
236
100
AcDbEntity
  8
0
100
AcDbLine
 62
7
  6
CONTINUOUS
 10
0.0
 20
0.0
 11
11.0
 21
0.0
  0
LINE
  5
237
100
AcDbEntity
  8
0
100
AcDbLine
 62
7
  6
CONTINUOUS
 10
0.0
 20
8.5
 11
11.0
 21
8.5
  0
LINE
  5
238
100
AcDbEntity
  8
0
100
AcDbLine
 62
7
  6
CONTINUOUS
 10
11.0
 20
0.0
 11
11.0
 21
8.5
  0
LINE
  5
239
100
AcDbEntity
  8
0
100
AcDbLine
 62
7
  6
CONTINUOUS
 10
5.818863729
 20
3.047019337
 11
5.6904921716
 21
3.058250393
  0
LINE
  5
23A
100
AcDbEntity
  8
0
100
AcDbLine
 62
7
  6
CONTINUOUS
 10
3.938362979
 20
4.3576449038
 11
3.938362979
 21
5.2176449038
  0
LINE
  5
23B
100
AcDbEntity
  8
0
100
AcDbLine
 62
7
  6
CONTINUOUS
 10
3.953362979
 20
4.3426449038
 11
3.953362979
 21
5.2326449038
  0
LINE
  5
23C
100
AcDbEntity
  8
0
100
AcDbLine
 62
7
  6
CONTINUOUS
 10
4.110862979
 20
5.2326449038
 11
4.110862979
 21
4.3426449038
  0
LINE
  5
23D
100
AcDbEntity
  8
0
100
AcDbLine
 62
7
  6
CONTINUOUS
 10
4.125862979
 20
5.2176449038
 11
4.125862979
 21
4.3576449038
  0
LINE
  5
23E
100
AcDbEntity
  8
0
100
AcDbLine
 62
7
  6
CONTINUOUS
 10
4.145862979
 20
4.3863949038
 11
4.145862979
 21
4.6988949038
  0
LINE
  5
23F
100
AcDbEntity
  8
ALL_FEATURES
100
AcDbLine
 62
7
  6
CONTINUOUS
 10
4.296863729
 20
4.42717485
 11
4.296863729
 21
4.4156278446
  0
LINE
  5
240
100
AcDbEntity
  8
ALL_FEATURES
100
AcDbLine
 62
7
  6
CONTINUOUS
 10
4.316863729
 20
4.4098543419
 11
4.316863729
 21
4.4329483527
  0
LINE
  5
241
100
AcDbEntity
  8
0
100
AcDbLine
 62
7
  6
CONTINUOUS
 10
4.3168637522
 20
4.388629663
 11
4.3168637647
 21
4.4015888599
  0
LINE
  5
242
100
AcDbEntity
  8
ALL_FEATURES
100
AcDbLine
 62
7
  6
CONTINUOUS
 10
4.336863729
 20
4.4156278446
 11
4.336863729
 21
4.42717485
  0
LINE
  5
243
100
AcDbEntity
  8
ALL_FEATURES
100
AcDbLine
 62
7
  6
CONTINUOUS
 10
4.394863729
 20
4.6988949038
 11
4.394863729
 21
4.3863949038
  0
LINE
  5
244
100
AcDbEntity
  8
0
100
AcDbLine
 62
7
  6
CONTINUOUS
 10
4.419863729
 20
4.0651449038
 11
4.419863729
 21
5.0201449038
  0
LINE
  5
245
100
AcDbEntity
  8
0
100
AcDbLine
 62
7
  6
CONTINUOUS
 10
4.434863729
 20
4.0501449038
 11
4.434863729
 21
5.0351449038
  0
LINE
  5
246
100
AcDbEntity
  8
ALL_FEATURES
100
AcDbLine
 62
7
  6
CONTINUOUS
 10
5.681363729
 20
4.0501449038
 11
5.269863729
 21
4.0501449038
  0
LINE
  5
247
100
AcDbEntity
  8
0
100
AcDbLine
 62
7
  6
CONTINUOUS
 10
5.269863729
 20
4.0501449038
 11
4.434863729
 21
4.0501449038
  0
LINE
  5
248
100
AcDbEntity
  8
ALL_FEATURES
100
AcDbLine
 62
7
  6
CONTINUOUS
 10
4.291552335
 20
4.4124524181
 11
4.2899818578
 21
4.4135629132
  0
LINE
  5
249
100
AcDbEntity
  8
ALL_FEATURES
100
AcDbLine
 62
7
  6
CONTINUOUS
 10
4.2900393787
 20
4.413633411
 11
4.2900165004
 21
4.4136520781
  0
LINE
  5
24A
100
AcDbEntity
  8
ALL_FEATURES
100
AcDbLine
 62
7
  6
CONTINUOUS
 10
4.2900381449
 20
4.4136330537
 11
4.2900162323
 21
4.4136520007
  0
LINE
  5
24B
100
AcDbEntity
  8
0
100
AcDbLine
 62
7
  6
CONTINUOUS
 10
4.679863729
 20
5.0321727647
 11
4.679863729
 21
5.1346781719
  0
LINE
  5
24C
100
AcDbEntity
  8
ALL_FEATURES
100
AcDbLine
 62
7
  6
CONTINUOUS
 10
4.342175123
 20
4.4124524181
 11
4.3493742159
 21
4.4175429455
  0
LINE
  5
24D
100
AcDbEntity
  8
ALL_FEATURES
100
AcDbLine
 62
7
  6
CONTINUOUS
 10
4.296863729
 20
4.4156278446
 11
4.316863729
 21
4.4098543419
  0
LINE
  5
24E
100
AcDbEntity
  8
ALL_FEATURES
100
AcDbLine
 62
7
  6
CONTINUOUS
 10
4.336863729
 20
4.42717485
 11
4.316863729
 21
4.4329483527
  0
LINE
  5
24F
100
AcDbEntity
  8
ALL_FEATURES
100
AcDbLine
 62
7
  6
CONTINUOUS
 10
4.809863729
 20
5.0321733731
 11
4.809863729
 21
5.1346781719
  0
LINE
  5
250
100
AcDbEntity
  8
0
100
AcDbLine
 62
7
  6
CONTINUOUS
 10
4.110862979
 20
4.3426449038
 11
3.953362979
 21
4.3426449038
  0
LINE
  5
251
100
AcDbEntity
  8
0
100
AcDbLine
 62
7
  6
CONTINUOUS
 10
4.394863729
 20
4.3863949038
 11
4.145862979
 21
4.3863949038
  0
LINE
  5
252
100
AcDbEntity
  8
ALL_FEATURES
100
AcDbLine
 62
7
  6
CONTINUOUS
 10
4.316863729
 20
4.4329483527
 11
4.296863729
 21
4.42717485
  0
LINE
  5
253
100
AcDbEntity
  8
ALL_FEATURES
100
AcDbLine
 62
7
  6
CONTINUOUS
 10
4.316863729
 20
4.4098543419
 11
4.336863729
 21
4.4156278446
  0
LINE
  5
254
100
AcDbEntity
  8
0
100
AcDbLine
 62
7
  6
CONTINUOUS
 10
4.419863729
 20
4.4501449038
 11
4.394863729
 21
4.4501449038
  0
LINE
  5
255
100
AcDbEntity
  8
0
100
AcDbLine
 62
7
  6
CONTINUOUS
 10
3.953362979
 20
4.5531120951
 11
4.110862979
 21
4.5531120951
  0
LINE
  5
256
100
AcDbEntity
  8
0
100
AcDbLine
 62
7
  6
CONTINUOUS
 10
4.419863729
 20
4.6351449038
 11
4.394863729
 21
4.6351449038
  0
LINE
  5
257
100
AcDbEntity
  8
0
100
AcDbLine
 62
7
  6
CONTINUOUS
 10
4.394863729
 20
4.6988949038
 11
4.145862979
 21
4.6988949038
  0
LINE
  5
258
100
AcDbEntity
  8
02___PRT_ALL_AXES
100
AcDbLine
 62
7
  6
CONTINUOUS
 10
5.269863729
 20
5.0351449038
 11
5.269863729
 21
4.0501449038
  0
LINE
  5
259
100
AcDbEntity
  8
ALL_FEATURES
100
AcDbLine
 62
7
  6
CONTINUOUS
 10
5.269863729
 20
4.0501449038
 11
5.269863729
 21
5.0351449038
  0
LINE
  5
25A
100
AcDbEntity
  8
ALL_FEATURES
100
AcDbLine
 62
7
  6
CONTINUOUS
 10
5.681363729
 20
5.0351449038
 11
5.269863729
 21
5.0351449038
  0
LINE
  5
25B
100
AcDbEntity
  8
0
100
AcDbLine
 62
7
  6
CONTINUOUS
 10
5.269863729
 20
5.0351449038
 11
4.832363729
 21
5.0351449038
  0
LINE
  5
25C
100
AcDbEntity
  8
0
100
AcDbLine
 62
7
  6
CONTINUOUS
 10
4.657363729
 20
5.0351449038
 11
4.434863729
 21
5.0351449038
  0
LINE
  5
25D
100
AcDbEntity
  8
ALL_FEATURES
100
AcDbLine
 62
7
  6
CONTINUOUS
 10
4.679863729
 20
5.1346781719
 11
4.809863729
 21
5.1346781719
  0
LINE
  5
25E
100
AcDbEntity
  8
ALL_FEATURES
100
AcDbLine
 62
7
  6
CONTINUOUS
 10
4.7894091836
 20
5.1631190632
 11
4.7003182745
 21
5.1631190632
  0
LINE
  5
25F
100
AcDbEntity
  8
0
100
AcDbLine
 62
7
  6
CONTINUOUS
 10
5.681363729
 20
3.0682124264
 11
5.681363729
 21
6.0170773813
  0
LINE
  5
260
100
AcDbEntity
  8
0
100
AcDbLine
 62
7
  6
CONTINUOUS
 10
5.6904921716
 20
3.058250393
 11
5.6904921716
 21
6.0270394147
  0
LINE
  5
261
100
AcDbEntity
  8
0
100
AcDbLine
 62
7
  6
CONTINUOUS
 10
4.110862979
 20
5.2184299432
 11
3.953362979
 21
5.2184299432
  0
LINE
  5
262
100
AcDbEntity
  8
0
100
AcDbLine
 62
7
  6
CONTINUOUS
 10
4.110862979
 20
5.2326449038
 11
3.953362979
 21
5.2326449038
  0
LINE
  5
263
100
AcDbEntity
  8
0
100
AcDbLine
 62
7
  6
CONTINUOUS
 10
5.818863729
 20
3.047019337
 11
5.818863729
 21
3.0500395186
  0
LINE
  5
264
100
AcDbEntity
  8
0
100
AcDbLine
 62
7
  6
CONTINUOUS
 10
5.868863729
 20
3.0456562599
 11
5.868863729
 21
6.0426448159
  0
LINE
  5
265
100
AcDbEntity
  8
0
100
AcDbLine
 62
7
  6
CONTINUOUS
 10
5.868863729
 20
6.0426449038
 11
5.6904921716
 21
6.0270394147
  0
ARC
  5
266
100
AcDbEntity
  8
0
100
AcDbCircle
 62
7
  6
CONTINUOUS
 10
4.3202286974
 20
3.8309087711
 40
0.5706900095
100
AcDbArc
 50
89.9811680148
 51
90.3378323706
  0
ARC
  5
267
100
AcDbEntity
  8
0
100
AcDbCircle
 62
7
  6
CONTINUOUS
 10
4.3160971047
 20
4.3858610515
 40
0.057085639
100
AcDbArc
 50
55.8482942135
 51
63.4031869564
  0
ARC
  5
268
100
AcDbEntity
  8
0
100
AcDbCircle
 62
7
  6
CONTINUOUS
 10
4.3161262936
 20
4.3859207836
 40
0.0570191597
100
AcDbArc
 50
63.402541296
 51
64.0737854566
  0
ARC
  5
269
100
AcDbEntity
  8
0
100
AcDbCircle
 62
7
  6
CONTINUOUS
 10
4.3175360164
 20
4.3860303167
 40
0.0568925233
100
AcDbArc
 50
115.9121894372
 51
124.8727344829
  0
ARC
  5
26A
100
AcDbEntity
  8
0
100
AcDbCircle
 62
7
  6
CONTINUOUS
 10
4.3167556043
 20
4.3868583089
 40
0.0558906841
100
AcDbArc
 50
53.7056683017
 51
55.8330171883
  0
ARC
  5
26B
100
AcDbEntity
  8
0
100
AcDbCircle
 62
7
  6
CONTINUOUS
 10
4.3169375774
 20
4.3869080503
 40
0.0558302498
100
AcDbArc
 50
124.8838952811
 51
125.6157768446
  0
ARC
  5
26C
100
AcDbEntity
  8
0
100
AcDbCircle
 62
7
  6
CONTINUOUS
 10
4.3166946753
 20
4.3872455375
 40
0.0554144396
100
AcDbArc
 50
125.6148149053
 51
126.6498807136
  0
ARC
  5
26D
100
AcDbEntity
  8
0
100
AcDbCircle
 62
7
  6
CONTINUOUS
 10
4.3172895054
 20
4.387590599
 40
0.054984434
100
AcDbArc
 50
51.9949925677
 51
53.7023861408
  0
ARC
  5
26E
100
AcDbEntity
  8
0
100
AcDbCircle
 62
7
  6
CONTINUOUS
 10
4.3161450849
 20
4.3879747594
 40
0.054501323
100
AcDbArc
 50
126.6439456134
 51
128.8908985835
  0
ARC
  5
26F
100
AcDbEntity
  8
0
100
AcDbCircle
 62
7
  6
CONTINUOUS
 10
4.3139113508
 20
4.3929005227
 40
0.0517135956
100
AcDbArc
 50
46.6873851715
 51
57.050622263
  0
ARC
  5
270
100
AcDbEntity
  8
0
100
AcDbCircle
 62
7
  6
CONTINUOUS
 10
4.3141332144
 20
4.3932733764
 40
0.0512800464
100
AcDbArc
 50
57.0320557403
 51
59.199667495
  0
ARC
  5
271
100
AcDbEntity
  8
0
100
AcDbCircle
 62
7
  6
CONTINUOUS
 10
4.3152975058
 20
4.4047035137
 40
0.0404962545
100
AcDbArc
 50
51.9080584844
 51
52.4254177033
  0
ARC
  5
272
100
AcDbEntity
  8
0
100
AcDbCircle
 62
7
  6
CONTINUOUS
 10
4.3147492032
 20
4.4089478447
 40
0.0350544698
100
AcDbArc
 50
121.3279581611
 51
127.5978609896
  0
ARC
  5
273
100
AcDbEntity
  8
0
100
AcDbCircle
 62
7
  6
CONTINUOUS
 10
4.3281985512
 20
4.4107118511
 40
0.0290102769
100
AcDbArc
 50
38.0583461533
 51
43.0855219454
  0
ARC
  5
274
100
AcDbEntity
  8
0
100
AcDbCircle
 62
7
  6
CONTINUOUS
 10
4.3305089866
 20
4.4125503232
 40
0.0260577376
100
AcDbArc
 50
33.5105628811
 51
38.0071513374
  0
ARC
  5
275
100
AcDbEntity
  8
0
100
AcDbCircle
 62
7
  6
CONTINUOUS
 10
4.3319840955
 20
4.4135565545
 40
0.0242722969
100
AcDbArc
 50
32.6436664562
 51
33.4525271192
  0
ARC
  5
276
100
AcDbEntity
  8
ALL_FEATURES
100
AcDbCircle
 62
7
  6
CONTINUOUS
 10
4.3291147561
 20
4.430926557
 40
0.0226244745
100
AcDbArc
 50
303.1317531741
 51
305.2585488325
  0
ARC
  5
277
100
AcDbEntity
  8
0
100
AcDbCircle
 62
7
  6
CONTINUOUS
 10
4.145862979
 20
4.3663949038
 40
0.02
100
AcDbArc
 50
90.0
 51
179.9999999991
  0
ARC
  5
278
100
AcDbEntity
  8
0
100
AcDbCircle
 62
7
  6
CONTINUOUS
 10
4.110862979
 20
4.3576449038
 40
0.015
100
AcDbArc
 50
270.0
 51
360.0
  0
ARC
  5
279
100
AcDbEntity
  8
0
100
AcDbCircle
 62
7
  6
CONTINUOUS
 10
3.953362979
 20
4.3576449038
 40
0.015
100
AcDbArc
 50
180.0
 51
270.0
  0
ARC
  5
27A
100
AcDbEntity
  8
0
100
AcDbCircle
 62
7
  6
CONTINUOUS
 10
4.434863729
 20
4.0651449038
 40
0.015
100
AcDbArc
 50
180.0
 51
270.0
  0
ARC
  5
27B
100
AcDbEntity
  8
ALL_FEATURES
100
AcDbCircle
 62
7
  6
CONTINUOUS
 10
4.2965987421
 20
4.4263282651
 40
0.0140135993
100
AcDbArc
 50
211.9484841386
 51
213.5071488901
  0
ARC
  5
27C
100
AcDbEntity
  8
0
100
AcDbCircle
 62
7
  6
CONTINUOUS
 10
4.2875949744
 20
4.415030351
 40
0.0131874557
100
AcDbArc
 50
184.6334086784
 51
192.0054137707
  0
ARC
  5
27D
100
AcDbEntity
  8
ALL_FEATURES
100
AcDbCircle
 62
7
  6
CONTINUOUS
 10
4.2958798174
 20
4.425890577
 40
0.0131719719
100
AcDbArc
 50
207.8214561477
 51
211.987783667
  0
ARC
  5
27E
100
AcDbEntity
  8
0
100
AcDbCircle
 62
7
  6
CONTINUOUS
 10
4.2950321215
 20
4.4198541228
 40
0.0122051898
100
AcDbArc
 50
166.702682609
 51
167.5727299121
  0
ARC
  5
27F
100
AcDbEntity
  8
0
100
AcDbCircle
 62
7
  6
CONTINUOUS
 10
4.2944004402
 20
4.4210434571
 40
0.0115464089
100
AcDbArc
 50
190.2401591078
 51
197.5400294168
  0
ARC
  5
280
100
AcDbEntity
  8
ALL_FEATURES
100
AcDbCircle
 62
7
  6
CONTINUOUS
 10
4.2936626514
 20
4.424917149
 40
0.0107458962
100
AcDbArc
 50
194.1064880472
 51
198.8845041367
  0
ARC
  5
281
100
AcDbEntity
  8
ALL_FEATURES
100
AcDbCircle
 62
7
  6
CONTINUOUS
 10
4.2933588616
 20
4.4248398961
 40
0.010432439
100
AcDbArc
 50
192.0252632444
 51
194.1016430105
  0
ARC
  5
282
100
AcDbEntity
  8
0
100
AcDbCircle
 62
7
  6
CONTINUOUS
 10
4.2915020818
 20
4.420318374
 40
0.0086382466
100
AcDbArc
 50
178.6694670493
 51
179.9942322578
  0
ARC
  5
283
100
AcDbEntity
  8
ALL_FEATURES
100
AcDbCircle
 62
7
  6
CONTINUOUS
 10
4.744863729
 20
5.0303949038
 40
0.14
100
AcDbArc
 50
71.446995465
 51
108.553004535
  0
ARC
  5
284
100
AcDbEntity
  8
ALL_FEATURES
100
AcDbCircle
 62
7
  6
CONTINUOUS
 10
4.709863729
 20
5.1346781719
 40
0.03
100
AcDbArc
 50
108.553004535
 51
180.0
  0
ARC
  5
285
100
AcDbEntity
  8
ALL_FEATURES
100
AcDbCircle
 62
7
  6
CONTINUOUS
 10
4.779863729
 20
5.1346781719
 40
0.03
100
AcDbArc
 50
0.0
 51
71.446995465
  0
ARC
  5
286
100
AcDbEntity
  8
0
100
AcDbCircle
 62
7
  6
CONTINUOUS
 10
4.145862979
 20
4.7188949038
 40
0.02
100
AcDbArc
 50
180.0000000009
 51
270.0
  0
ARC
  5
287
100
AcDbEntity
  8
0
100
AcDbCircle
 62
7
  6
CONTINUOUS
 10
4.110862979
 20
5.2176449038
 40
0.015
100
AcDbArc
 50
0.0
 51
90.0
  0
ARC
  5
288
100
AcDbEntity
  8
0
100
AcDbCircle
 62
7
  6
CONTINUOUS
 10
3.953362979
 20
5.2176449038
 40
0.015
100
AcDbArc
 50
90.0
 51
180.0
  0
ARC
  5
289
100
AcDbEntity
  8
0
100
AcDbCircle
 62
7
  6
CONTINUOUS
 10
4.434863729
 20
5.0201449038
 40
0.015
100
AcDbArc
 50
90.0
 51
180.0
  0
ARC
  5
28A
100
AcDbEntity
  8
0
100
AcDbCircle
 62
7
  6
CONTINUOUS
 10
5.691363729
 20
3.06821234
 40
0.01
100
AcDbArc
 50
180.0
 51
265.0
  0
ARC
  5
28B
100
AcDbEntity
  8
0
100
AcDbCircle
 62
7
  6
CONTINUOUS
 10
5.691363729
 20
6.0170774677
 40
0.01
100
AcDbArc
 50
95.0
 51
180.0
  0
LINE
  5
28C
100
AcDbEntity
  8
ALL_FEATURES
100
AcDbLine
 62
7
  6
CONTINUOUS
 10
4.2834951753
 20
4.4214391158
 11
4.2842304431
 21
4.4197429824
  0
SPLINE
  5
28D
100
AcDbEntity
  8
ALL_FEATURES
100
AcDbSpline
 62
7
  6
CONTINUOUS
 70
0
 71
3
 72
11
 73
7
 74
0
 42
0.0000001
 43
0.0000001
 44
0.0000000001
 40
0.0
 40
0.0
 40
0.0
 40
0.0
 40
0.2307462166
 40
0.4738202426
 40
0.730095453
 40
1.0
 40
1.0
 40
1.0
 40
1.0
 10
4.2849139655
 20
4.4185921834
 30
0.0
 10
4.2852186856
 20
4.4181318072
 30
0.0
 10
4.285899501
 20
4.4172220702
 30
0.0
 10
4.2870849308
 20
4.4159355427
 30
0.0
 10
4.2884525965
 20
4.4147004434
 30
0.0
 10
4.2894545809
 20
4.4139357524
 30
0.0
 10
4.2899818579
 20
4.4135629136
 30
0.0
  0
SPLINE
  5
28E
100
AcDbEntity
  8
ALL_FEATURES
100
AcDbSpline
 62
7
  6
CONTINUOUS
 70
0
 71
3
 72
21
 73
17
 74
0
 42
0.0000001
 43
0.0000001
 44
0.0000000001
 40
0.0
 40
0.0
 40
0.0
 40
0.0
 40
0.0697308383
 40
0.1393243434
 40
0.2771865865
 40
0.4120853488
 40
0.4780180745
 40
0.5427142836
 40
0.6060179606
 40
0.6677893778
 40
0.7278972869
 40
0.7862254717
 40
0.8426740382
 40
0.8971565679
 40
0.9496121506
 40
1.0
 40
1.0
 40
1.0
 40
1.0
 10
4.316863729
 20
4.4059013473
 30
0.0
 10
4.3162473355
 20
4.4059013473
 30
0.0
 10
4.3150156729
 20
4.4059197724
 30
0.0
 10
4.3125676255
 20
4.40602949
 30
0.0
 10
4.3095515609
 20
4.406301023
 30
0.0
 10
4.3065899106
 20
4.4067541439
 30
0.0
 10
4.3042897938
 20
4.4072236182
 30
0.0
 10
4.3026224063
 20
4.4076233986
 30
0.0
 10
4.3010056893
 20
4.4080722526
 30
0.0
 10
4.2994453268
 20
4.4085683897
 30
0.0
 10
4.2979468674
 20
4.4091101666
 30
0.0
 10
4.2965156233
 20
4.4096956864
 30
0.0
 10
4.2951566061
 20
4.4103227288
 30
0.0
 10
4.2938746958
 20
4.4109893116
 30
0.0
 10
4.2926744176
 20
4.4116929086
 30
0.0
 10
4.2919160084
 20
4.4121952549
 30
0.0
 10
4.2915523388
 20
4.4124524194
 30
0.0
  0
SPLINE
  5
28F
100
AcDbEntity
  8
ALL_FEATURES
100
AcDbSpline
 62
7
  6
CONTINUOUS
 70
0
 71
3
 72
21
 73
17
 74
0
 42
0.0000001
 43
0.0000001
 44
0.0000000001
 40
0.0
 40
0.0
 40
0.0
 40
0.0
 40
0.0512381848
 40
0.1044250032
 40
0.1595137161
 40
0.2164352173
 40
0.2751033436
 40
0.3354211718
 40
0.3972751437
 40
0.460542547
 40
0.5250911937
 40
0.5907747068
 40
0.7249257436
 40
0.8617983556
 40
0.9308381316
 40
1.0
 40
1.0
 40
1.0
 40
1.0
 10
4.3414805278
 20
4.4119804614
 30
0.0
 10
4.3411133361
 20
4.4117406078
 30
0.0
 10
4.340351332
 20
4.4112724231
 30
0.0
 10
4.3391531261
 20
4.4106166828
 30
0.0
 10
4.3378818263
 20
4.4099964177
 30
0.0
 10
4.3365416779
 20
4.4094135807
 30
0.0
 10
4.3351370636
 20
4.4088699946
 30
0.0
 10
4.3336725169
 20
4.4083676081
 30
0.0
 10
4.3321528684
 20
4.4079078991
 30
0.0
 10
4.3305830689
 20
4.4074924201
 30
0.0
 10
4.3289682435
 20
4.4071226314
 30
0.0
 10
4.3267467996
 20
4.4066888816
 30
0.0
 10
4.323893254
 20
4.4062704055
 30
0.0
 10
4.3209914463
 20
4.4060196131
 30
0.0
 10
4.3186387961
 20
4.4059183469
 30
0.0
 10
4.31745574
 20
4.4059013473
 30
0.0
 10
4.316863729
 20
4.4059013473
 30
0.0
  0
SPLINE
  5
290
100
AcDbEntity
  8
ALL_FEATURES
100
AcDbSpline
 62
7
  6
CONTINUOUS
 70
0
 71
3
 72
41
 73
37
 74
0
 42
0.0000001
 43
0.0000001
 44
0.0000000001
 40
0.0
 40
0.0
 40
0.0
 40
0.0
 40
0.0435772512
 40
0.087032409
 40
0.1301794658
 40
0.1728637099
 40
0.2149494797
 40
0.2563016289
 40
0.2967851582
 40
0.3362721018
 40
0.3746484794
 40
0.4118091565
 40
0.4476645394
 40
0.4821379769
 40
0.5151720746
 40
0.5467305404
 40
0.5767995781
 40
0.6053961315
 40
0.6325657955
 40
0.6456445495
 40
0.658401932
 40
0.6830127929
 40
0.7065750712
 40
0.7293011481
 40
0.7514436909
 40
0.773287342
 40
0.7951336257
 40
0.8172838908
 40
0.8400223739
 40
0.8636010599
 40
0.888231643
 40
0.9009998568
 40
0.9140899692
 40
0.9412836486
 40
0.9699053259
 40
1.0
 40
1.0
 40
1.0
 40
1.0
 10
4.316863729
 20
4.4369013473
 30
0.0
 10
4.3175689881
 20
4.4369013473
 30
0.0
 10
4.3189776477
 20
4.4368772427
 30
0.0
 10
4.3210821148
 20
4.4367693146
 30
0.0
 10
4.3231672212
 20
4.4365898311
 30
0.0
 10
4.3252227208
 20
4.4363397226
 30
0.0
 10
4.3272391918
 20
4.4360201801
 30
0.0
 10
4.3292074407
 20
4.4356326438
 30
0.0
 10
4.3311183574
 20
4.4351790576
 30
0.0
 10
4.3329629538
 20
4.4346612736
 30
0.0
 10
4.3347327184
 20
4.4340819808
 30
0.0
 10
4.3364194041
 20
4.4334436063
 30
0.0
 10
4.3380152677
 20
4.4327493
 30
0.0
 10
4.3395129024
 20
4.4320021396
 30
0.0
 10
4.3409053777
 20
4.4312055332
 30
0.0
 10
4.3421863462
 20
4.4303632239
 30
0.0
 10
4.3433497769
 20
4.429478754
 30
0.0
 10
4.3443904213
 20
4.4285564057
 30
0.0
 10
4.3451607435
 20
4.4277491969
 30
0.0
 10
4.3457081939
 20
4.4270883395
 30
0.0
 10
4.346198016
 20
4.4264348304
 30
0.0
 10
4.3467290113
 20
4.4256014993
 30
0.0
 10
4.3472344184
 20
4.4245684875
 30
0.0
 10
4.3475975774
 20
4.4235191015
 30
0.0
 10
4.3478158601
 20
4.4224584666
 30
0.0
 10
4.3478881202
 20
4.4213921376
 30
0.0
 10
4.3478133273
 20
4.4203258595
 30
0.0
 10
4.3475925347
 20
4.4192653713
 30
0.0
 10
4.3472268925
 20
4.4182162272
 30
0.0
 10
4.3467190578
 20
4.4171835375
 30
0.0
 10
4.3461861111
 20
4.4163505566
 30
0.0
 10
4.3456947583
 20
4.4156973493
 30
0.0
 10
4.3451457518
 20
4.4150368142
 30
0.0
 10
4.344373522
 20
4.4142300635
 30
0.0
 10
4.3433307614
 20
4.4133083667
 30
0.0
 10
4.3425727927
 20
4.4127336293
 30
0.0
 10
4.3421751193
 20
4.4124524194
 30
0.0
  0
LINE
  5
291
100
AcDbEntity
  8
ALL_FEATURES
100
AcDbLine
 62
7
  6
CONTINUOUS
 10
4.2915523388
 20
4.4124524194
 11
4.2900381449
 21
4.4136330537
  0
SPLINE
  5
292
100
AcDbEntity
  8
ALL_FEATURES
100
AcDbSpline
 62
7
  6
CONTINUOUS
 70
0
 71
3
 72
38
 73
34
 74
0
 42
0.0000001
 43
0.0000001
 44
0.0000000001
 40
0.0
 40
0.0
 40
0.0
 40
0.0
 40
0.0280967383
 40
0.0548485182
 40
0.0803434138
 40
0.1047028387
 40
0.1280895771
 40
0.150703182
 40
0.1727786017
 40
0.1945777887
 40
0.2163771291
 40
0.2384529994
 40
0.2610673305
 40
0.2844550332
 40
0.3088156226
 40
0.3343118378
 40
0.3475283274
 40
0.3610713219
 40
0.3891695716
 40
0.4186649977
 40
0.4495816122
 40
0.4819180829
 40
0.5156484259
 40
0.5507303861
 40
0.5871011582
 40
0.624685842
 40
0.6633961402
 40
0.7031326507
 40
0.7437874541
 40
0.82735435
 40
0.9131230974
 40
0.9565069902
 40
1.0
 40
1.0
 40
1.0
 40
1.0
 10
4.2900162323
 20
4.4136520007
 30
0.0
 10
4.2896863089
 20
4.4139377384
 30
0.0
 10
4.2890622185
 20
4.4145192865
 30
0.0
 10
4.2882213177
 20
4.4154435589
 30
0.0
 10
4.2875023816
 20
4.4163941203
 30
0.0
 10
4.2869090709
 20
4.417367328
 30
0.0
 10
4.28644406
 20
4.4183590383
 30
0.0
 10
4.2861098993
 20
4.4193651039
 30
0.0
 10
4.2859086804
 20
4.4203810105
 30
0.0
 10
4.2858413583
 20
4.421401908
 30
0.0
 10
4.285908828
 20
4.4224228025
 30
0.0
 10
4.2861101936
 20
4.4234387014
 30
0.0
 10
4.2864444984
 20
4.4244447521
 30
0.0
 10
4.2869096553
 20
4.4254364502
 30
0.0
 10
4.2875030898
 20
4.4264096121
 30
0.0
 10
4.2880951563
 20
4.4271922667
 30
0.0
 10
4.2886273886
 20
4.427805447
 30
0.0
 10
4.2892134696
 20
4.4284244049
 30
0.0
 10
4.2900229095
 20
4.4291785327
 30
0.0
 10
4.2910967624
 20
4.4300389529
 30
0.0
 10
4.2922804031
 20
4.4308621995
 30
0.0
 10
4.2935687787
 20
4.4316447682
 30
0.0
 10
4.2949563654
 20
4.4323836069
 30
0.0
 10
4.2964373951
 20
4.4330753524
 30
0.0
 10
4.298005474
 20
4.433717357
 30
0.0
 10
4.2996540159
 20
4.4343067161
 30
0.0
 10
4.3013759867
 20
4.4348409986
 30
0.0
 10
4.3031640858
 20
4.43531799
 30
0.0
 10
4.3056488459
 20
4.4358797318
 30
0.0
 10
4.3088683909
 20
4.4364224382
 30
0.0
 10
4.312159393
 20
4.4367475888
 30
0.0
 10
4.31483843
 20
4.4368792233
 30
0.0
 10
4.3161881037
 20
4.4369013473
 30
0.0
 10
4.316863729
 20
4.4369013473
 30
0.0
  0
SPLINE
  5
293
100
AcDbEntity
  8
0
100
AcDbSpline
 62
7
  6
CONTINUOUS
 70
0
 71
3
 72
11
 73
7
 74
0
 42
0.0000001
 43
0.0000001
 44
0.0000000001
 40
0.0
 40
0.0
 40
0.0
 40
0.0
 40
0.2557149926
 40
0.5093959137
 40
0.7580992061
 40
1.0
 40
1.0
 40
1.0
 40
1.0
 10
4.316863729
 20
4.4428332029
 30
0.0
 10
4.3189980099
 20
4.4428401057
 30
0.0
 10
4.3232544421
 20
4.4425833741
 30
0.0
 10
4.3294952091
 20
4.4414623669
 30
0.0
 10
4.3354585831
 20
4.439678598
 30
0.0
 10
4.3392400305
 20
4.4380841397
 30
0.0
 10
4.3410558296
 20
4.4372014115
 30
0.0
  0
SPLINE
  5
294
100
AcDbEntity
  8
0
100
AcDbSpline
 62
7
  6
CONTINUOUS
 70
0
 71
3
 72
14
 73
10
 74
0
 42
0.0000001
 43
0.0000001
 44
0.0000000001
 40
0.0
 40
0.0
 40
0.0
 40
0.0
 40
0.2000215638
 40
0.3127398127
 40
0.4342116767
 40
0.5642395593
 40
0.7023925688
 40
0.8479493884
 40
1.0
 40
1.0
 40
1.0
 40
1.0
 10
4.2744087284
 20
4.4129968461
 30
0.0
 10
4.2744086091
 20
4.4142433862
 30
0.0
 10
4.2747512901
 20
4.4161959747
 30
0.0
 10
4.2756614312
 20
4.4187450824
 30
0.0
 10
4.27663828
 20
4.420798803
 30
0.0
 10
4.2778695629
 20
4.4228945651
 30
0.0
 10
4.2793443526
 20
4.4250125067
 30
0.0
 10
4.2810487916
 20
4.4271291409
 30
0.0
 10
4.2823040216
 20
4.4284965145
 30
0.0
 10
4.2829657078
 20
4.4291748111
 30
0.0
  0
SPLINE
  5
295
100
AcDbEntity
  8
0
100
AcDbSpline
 62
7
  6
CONTINUOUS
 70
0
 71
3
 72
12
 73
8
 74
0
 42
0.0000001
 43
0.0000001
 44
0.0000000001
 40
0.0
 40
0.0
 40
0.0
 40
0.0
 40
0.2418488716
 40
0.4278442847
 40
0.6169356454
 40
0.8081609609
 40
1.0
 40
1.0
 40
1.0
 40
1.0
 10
4.2926743731
 20
4.4372031405
 30
0.0
 10
4.2944899928
 20
4.4380855732
 30
0.0
 10
4.2977888463
 20
4.4394755354
 30
0.0
 10
4.3027068813
 20
4.4410189207
 30
0.0
 10
4.3073244688
 20
4.4420571413
 30
0.0
 10
4.3120623777
 20
4.4427014439
 30
0.0
 10
4.3152624822
 20
4.442842348
 30
0.0
 10
4.316863729
 20
4.4428332029
 30
0.0
  0
LINE
  5
296
100
AcDbEntity
  8
0
100
AcDbLine
 62
7
  6
CONTINUOUS
 10
4.2828661643
 20
4.4205189549
 11
4.2831128997
 21
4.4224806815
  0
SPLINE
  5
297
100
AcDbEntity
  8
0
100
AcDbSpline
 62
7
  6
CONTINUOUS
 70
0
 71
3
 72
9
 73
5
 74
0
 42
0.0000001
 43
0.0000001
 44
0.0000000001
 40
0.0
 40
0.0
 40
0.0
 40
0.0
 40
0.4732789765
 40
1.0
 40
1.0
 40
1.0
 40
1.0
 10
4.2831541572
 20
4.4226613673
 30
0.0
 10
4.283320816
 20
4.4233666476
 30
0.0
 10
4.2838027162
 20
4.4248271766
 30
0.0
 10
4.284475029
 20
4.4262073874
 30
0.0
 10
4.2848666169
 20
4.4269124829
 30
0.0
  0
LINE
  5
298
100
AcDbEntity
  8
0
100
AcDbLine
 62
7
  6
CONTINUOUS
 10
4.2848666169
 20
4.4269124829
 11
4.2869482053
 21
4.4300699906
  0
SPLINE
  5
299
100
AcDbEntity
  8
0
100
AcDbSpline
 62
7
  6
CONTINUOUS
 70
0
 71
3
 72
17
 73
13
 74
0
 42
0.0000001
 43
0.0000001
 44
0.0000000001
 40
0.0
 40
0.0
 40
0.0
 40
0.0
 40
0.168576228
 40
0.3241552293
 40
0.4651013222
 40
0.5916669711
 40
0.7052706019
 40
0.8084956009
 40
0.8574565682
 40
0.9053352174
 40
0.9526712189
 40
1.0
 40
1.0
 40
1.0
 40
1.0
 10
4.3071534981
 20
4.4016020758
 30
0.0
 10
4.3054662846
 20
4.4018947843
 30
0.0
 10
4.3022403069
 20
4.4025741924
 30
0.0
 10
4.2977092705
 20
4.4039348381
 30
0.0
 10
4.2937297543
 20
4.4055808004
 30
0.0
 10
4.2903491099
 20
4.4074917641
 30
0.0
 10
4.2875929469
 20
4.409655172
 30
0.0
 10
4.2858015215
 20
4.4117028533
 30
0.0
 10
4.2847338256
 20
4.4134366376
 30
0.0
 10
4.2841117934
 20
4.4147662798
 30
0.0
 10
4.2836547765
 20
4.4161435792
 30
0.0
 10
4.2834605353
 20
4.4170879966
 30
0.0
 10
4.2833908627
 20
4.4175636923
 30
0.0
  0
SPLINE
  5
29A
100
AcDbEntity
  8
0
100
AcDbSpline
 62
7
  6
CONTINUOUS
 70
0
 71
3
 72
9
 73
5
 74
0
 42
0.0000001
 43
0.0000001
 44
0.0000000001
 40
0.0
 40
0.0
 40
0.0
 40
0.0
 40
0.233646199
 40
1.0
 40
1.0
 40
1.0
 40
1.0
 10
4.286947074
 20
4.4300693311
 30
0.0
 10
4.2873575033
 20
4.4306625499
 30
0.0
 10
4.2892211419
 20
4.4331267417
 30
0.0
 10
4.2914877032
 20
4.4352778243
 30
0.0
 10
4.2933619248
 20
4.4367219366
 30
0.0
  0
SPLINE
  5
29B
100
AcDbEntity
  8
0
100
AcDbSpline
 62
7
  6
CONTINUOUS
 70
0
 71
3
 72
22
 73
18
 74
0
 42
0.0000001
 43
0.0000001
 44
0.0000000001
 40
0.0
 40
0.0
 40
0.0
 40
0.0
 40
0.1254767747
 40
0.1827971072
 40
0.2371247073
 40
0.2891704797
 40
0.3398484006
 40
0.3901992327
 40
0.4414164273
 40
0.4947108542
 40
0.5512136839
 40
0.6119240119
 40
0.6776376164
 40
0.7489564442
 40
0.8263419845
 40
0.9100868587
 40
1.0
 40
1.0
 40
1.0
 40
1.0
 10
4.3524223778
 20
4.4266493393
 30
0.0
 10
4.3532612657
 20
4.4253397421
 30
0.0
 10
4.3543075348
 20
4.4233005561
 30
0.0
 10
4.3551322364
 20
4.4204724615
 30
0.0
 10
4.3554324567
 20
4.4184587218
 30
0.0
 10
4.3554314033
 20
4.4165044536
 30
0.0
 10
4.3551273532
 20
4.4146230655
 30
0.0
 10
4.3545190951
 20
4.4128274522
 30
0.0
 10
4.353606597
 20
4.4111290561
 30
0.0
 10
4.3523916017
 20
4.4095361057
 30
0.0
 10
4.3508758843
 20
4.4080539321
 30
0.0
 10
4.3490608913
 20
4.4066860788
 30
0.0
 10
4.3469480149
 20
4.4054353977
 30
0.0
 10
4.3445388256
 20
4.4043051769
 30
0.0
 10
4.3418353402
 20
4.4033008428
 30
0.0
 10
4.3388457334
 20
4.4024299606
 30
0.0
 10
4.3367437628
 20
4.4019596494
 30
0.0
 10
4.3356498855
 20
4.4017465407
 30
0.0
  0
SPLINE
  5
29C
100
AcDbEntity
  8
0
100
AcDbSpline
 62
7
  6
CONTINUOUS
 70
0
 71
3
 72
34
 73
30
 74
0
 42
0.0000001
 43
0.0000001
 44
0.0000000001
 40
0.0
 40
0.0
 40
0.0
 40
0.0
 40
0.0739296715
 40
0.142234833
 40
0.2044423561
 40
0.233199328
 40
0.2604040314
 40
0.2861179351
 40
0.3104426576
 40
0.333560084
 40
0.3557170528
 40
0.3772087062
 40
0.3983898637
 40
0.419662976
 40
0.4414219702
 40
0.4640311223
 40
0.4878191211
 40
0.5130551172
 40
0.5399451952
 40
0.5686401995
 40
0.5992399473
 40
0.6318026633
 40
0.6663469806
 40
0.7028261532
 40
0.7411598221
 40
0.8228969157
 40
0.8659059206
 40
0.9100203343
 40
1.0
 40
1.0
 40
1.0
 40
1.0
 10
4.3511450898
 20
4.4309159656
 30
0.0
 10
4.3528153283
 20
4.4296106329
 30
0.0
 10
4.3558865788
 20
4.4269090303
 30
0.0
 10
4.3597876428
 20
4.4225143138
 30
0.0
 10
4.3623438836
 20
4.418707991
 30
0.0
 10
4.3638832474
 20
4.4156856485
 30
0.0
 10
4.3647632903
 20
4.4135118584
 30
0.0
 10
4.3653959845
 20
4.4113854339
 30
0.0
 10
4.3657775307
 20
4.4093182991
 30
0.0
 10
4.3659055848
 20
4.407321637
 30
0.0
 10
4.365779001
 20
4.4054055536
 30
0.0
 10
4.3653960776
 20
4.4035798539
 30
0.0
 10
4.3647562412
 20
4.401854289
 30
0.0
 10
4.3638638913
 20
4.4002361953
 30
0.0
 10
4.3627237909
 20
4.3987308745
 30
0.0
 10
4.3613404822
 20
4.3973427782
 30
0.0
 10
4.3597211287
 20
4.3960720563
 30
0.0
 10
4.3578722374
 20
4.3949165158
 30
0.0
 10
4.3557991461
 20
4.3938744349
 30
0.0
 10
4.3535077362
 20
4.3929431954
 30
0.0
 10
4.3510048448
 20
4.3921176173
 30
0.0
 10
4.3482971695
 20
4.3913933188
 30
0.0
 10
4.3453929487
 20
4.3907662701
 30
0.0
 10
4.3423026445
 20
4.3902306186
 30
0.0
 10
4.3378550545
 20
4.3896185053
 30
0.0
 10
4.3331962524
 20
4.38918972
 30
0.0
 10
4.3283631474
 20
4.388897891
 30
0.0
 10
4.3232891689
 20
4.388686593
 30
0.0
 10
4.3194437425
 20
4.3886264221
 30
0.0
 10
4.316863729
 20
4.3886296631
 30
0.0
  0
SPLINE
  5
29D
100
AcDbEntity
  8
0
100
AcDbSpline
 62
7
  6
CONTINUOUS
 70
0
 71
3
 72
34
 73
30
 74
0
 42
0.0000001
 43
0.0000001
 44
0.0000000001
 40
0.0
 40
0.0
 40
0.0
 40
0.0
 40
0.0901491447
 40
0.1343629684
 40
0.1774827468
 40
0.2594875874
 40
0.2979818328
 40
0.3346382357
 40
0.3693767922
 40
0.4021474657
 40
0.4329643005
 40
0.4618816554
 40
0.4889935591
 40
0.5144434797
 40
0.5384284765
 40
0.5612063661
 40
0.5830955994
 40
0.6044511341
 40
0.6256578338
 40
0.6471137331
 40
0.6691795182
 40
0.6921540881
 40
0.7162886849
 40
0.7417776023
 40
0.7687328333
 40
0.7972209885
 40
0.8588622667
 40
0.9266021392
 40
1.0
 40
1.0
 40
1.0
 40
1.0
 10
4.316863729
 20
4.3886296631
 30
0.0
 10
4.314303985
 20
4.3886279766
 30
0.0
 10
4.3104883504
 20
4.3886865884
 30
0.0
 10
4.3054528048
 20
4.3888933631
 30
0.0
 10
4.3006529694
 20
4.3891803787
 30
0.0
 10
4.2960239247
 20
4.3896025361
 30
0.0
 10
4.2916015829
 20
4.3902038643
 30
0.0
 10
4.2885252775
 20
4.3907300143
 30
0.0
 10
4.2856313737
 20
4.3913457199
 30
0.0
 10
4.2829302457
 20
4.3920568434
 30
0.0
 10
4.2804301092
 20
4.3928673655
 30
0.0
 10
4.2781375713
 20
4.3937814616
 30
0.0
 10
4.276059272
 20
4.3948041374
 30
0.0
 10
4.2742011339
 20
4.395938316
 30
0.0
 10
4.2725683253
 20
4.3971855748
 30
0.0
 10
4.2711669091
 20
4.3985479993
 30
0.0
 10
4.2700041162
 20
4.4000260812
 30
0.0
 10
4.2690844918
 20
4.4016157388
 30
0.0
 10
4.2684126156
 20
4.4033119448
 30
0.0
 10
4.2679929981
 20
4.4051079689
 30
0.0
 10
4.2678259779
 20
4.4069945604
 30
0.0
 10
4.2679097051
 20
4.4089620921
 30
0.0
 10
4.2682430531
 20
4.4110008543
 30
0.0
 10
4.2688241958
 20
4.4131000777
 30
0.0
 10
4.2696494243
 20
4.4152483448
 30
0.0
 10
4.2711094974
 20
4.4182390306
 30
0.0
 10
4.2735600301
 20
4.4220142648
 30
0.0
 10
4.2773270711
 20
4.4263874877
 30
0.0
 10
4.2803049126
 20
4.4290869337
 30
0.0
 10
4.2819270055
 20
4.4303954767
 30
0.0
  0
SPLINE
  5
29E
100
AcDbEntity
  8
0
100
AcDbSpline
 62
7
  6
CONTINUOUS
 70
0
 71
3
 72
25
 73
21
 74
0
 42
0.0000001
 43
0.0000001
 44
0.0000000001
 40
0.0
 40
0.0
 40
0.0
 40
0.0
 40
0.1940207699
 40
0.3807548214
 40
0.5527861614
 40
0.6312663545
 40
0.7037029364
 40
0.7693725704
 40
0.8276803344
 40
0.8780660611
 40
0.9200559474
 40
0.9377949312
 40
0.9533103655
 40
0.9665670728
 40
0.977547489
 40
0.9862633777
 40
0.9927582562
 40
0.995211947
 40
0.9971807779
 40
1.0
 40
1.0
 40
1.0
 40
1.0
 10
4.110862979
 20
5.2184299432
 30
0.0
 10
4.1118380878
 20
5.2184299432
 30
0.0
 10
4.1137517001
 20
5.2184202494
 30
0.0
 10
4.1165296034
 20
5.2183770574
 30
0.0
 10
4.1187263658
 20
5.2183171275
 30
0.0
 10
4.1203482494
 20
5.2182546525
 30
0.0
 10
4.1214355843
 20
5.2182035493
 30
0.0
 10
4.1224211303
 20
5.2181471985
 30
0.0
 10
4.1232953589
 20
5.218086332
 30
0.0
 10
4.124049923
 20
5.2180215828
 30
0.0
 10
4.1246002325
 20
5.2179622689
 30
0.0
 10
4.1249750486
 20
5.2179119129
 30
0.0
 10
4.1252060181
 20
5.217875762
 30
0.0
 10
4.1254024564
 20
5.2178391633
 30
0.0
 10
4.1255640109
 20
5.2178023581
 30
0.0
 10
4.125690408
 20
5.2177653207
 30
0.0
 10
4.1257732358
 20
5.2177326613
 30
0.0
 10
4.1258207238
 20
5.2177045134
 30
0.0
 10
4.1258489335
 20
5.2176821042
 30
0.0
 10
4.125862979
 20
5.2176590727
 30
0.0
 10
4.125862979
 20
5.2176449038
 30
0.0
  0
SPLINE
  5
29F
100
AcDbEntity
  8
0
100
AcDbSpline
 62
7
  6
CONTINUOUS
 70
0
 71
3
 72
25
 73
21
 74
0
 42
0.0000001
 43
0.0000001
 44
0.0000000001
 40
0.0
 40
0.0
 40
0.0
 40
0.0
 40
0.0028190048
 40
0.0047874498
 40
0.0072406107
 40
0.0137341849
 40
0.0224487503
 40
0.0334281709
 40
0.0466840557
 40
0.0621977841
 40
0.0799346211
 40
0.1219211241
 40
0.1723060796
 40
0.2306118441
 40
0.2962803464
 40
0.3687152355
 40
0.4471920691
 40
0.6192213074
 40
0.8059691236
 40
1.0
 40
1.0
 40
1.0
 40
1.0
 10
3.938362979
 20
5.2176449038
 30
0.0
 10
3.938362979
 20
5.2176590716
 30
0.0
 10
3.9383770175
 20
5.2176821021
 30
0.0
 10
3.9384052202
 20
5.2177045119
 30
0.0
 10
3.9384526957
 20
5.2177326586
 30
0.0
 10
3.9385355075
 20
5.2177653164
 30
0.0
 10
3.9386618866
 20
5.2178023506
 30
0.0
 10
3.9388234261
 20
5.2178391513
 30
0.0
 10
3.9390198474
 20
5.2178757444
 30
0.0
 10
3.9392507934
 20
5.2179118943
 30
0.0
 10
3.9396255729
 20
5.2179622501
 30
0.0
 10
3.9401758507
 20
5.2180215659
 30
0.0
 10
3.9409303841
 20
5.2180863132
 30
0.0
 10
3.9418045931
 20
5.2181471852
 30
0.0
 10
3.9427901152
 20
5.2182035357
 30
0.0
 10
3.9438774193
 20
5.2182546395
 30
0.0
 10
3.9454992674
 20
5.2183171188
 30
0.0
 10
3.9476960723
 20
5.2183770525
 30
0.0
 10
3.9504740861
 20
5.2184202454
 30
0.0
 10
3.9523878191
 20
5.2184299432
 30
0.0
 10
3.953362979
 20
5.2184299432
 30
0.0
  0
SPLINE
  5
2A0
100
AcDbEntity
  8
0
100
AcDbSpline
 62
7
  6
CONTINUOUS
 70
0
 71
3
 72
25
 73
21
 74
0
 42
0.0000001
 43
0.0000001
 44
0.0000000001
 40
0.0
 40
0.0
 40
0.0
 40
0.0
 40
0.0028191924
 40
0.0047879672
 40
0.007241577
 40
0.0137362357
 40
0.022451855
 40
0.0334319827
 40
0.0466883233
 40
0.0622031027
 40
0.079941273
 40
0.1219296916
 40
0.1723144916
 40
0.2306206225
 40
0.2962888609
 40
0.3687235388
 40
0.4472007727
 40
0.6192281536
 40
0.8059710736
 40
1.0
 40
1.0
 40
1.0
 40
1.0
 10
4.125862979
 20
4.5523270557
 30
0.0
 10
4.125862979
 20
4.5523412244
 30
0.0
 10
4.1258489344
 20
4.5523642558
 30
0.0
 10
4.1258207258
 20
4.5523866651
 30
0.0
 10
4.1257732398
 20
4.5524148127
 30
0.0
 10
4.1256904149
 20
4.5524474718
 30
0.0
 10
4.1255640216
 20
4.5524845086
 30
0.0
 10
4.1254024717
 20
4.5525213127
 30
0.0
 10
4.1252060398
 20
4.55255791
 30
0.0
 10
4.1249750795
 20
4.5525940603
 30
0.0
 10
4.1246002783
 20
4.5526444156
 30
0.0
 10
4.1240499848
 20
4.5527037289
 30
0.0
 10
4.1232954409
 20
4.5527684767
 30
0.0
 10
4.1224212322
 20
4.5528293446
 30
0.0
 10
4.1214357109
 20
4.5528856945
 30
0.0
 10
4.1203484075
 20
4.5529367974
 30
0.0
 10
4.1187265683
 20
4.5529992737
 30
0.0
 10
4.116529796
 20
4.5530592064
 30
0.0
 10
4.1137518269
 20
4.553102398
 30
0.0
 10
4.1118381288
 20
4.5531120951
 30
0.0
 10
4.110862979
 20
4.5531120951
 30
0.0
  0
SPLINE
  5
2A1
100
AcDbEntity
  8
0
100
AcDbSpline
 62
7
  6
CONTINUOUS
 70
0
 71
3
 72
25
 73
21
 74
0
 42
0.0000001
 43
0.0000001
 44
0.0000000001
 40
0.0
 40
0.0
 40
0.0
 40
0.0
 40
0.0028191924
 40
0.0047879672
 40
0.007241577
 40
0.0137362357
 40
0.022451855
 40
0.0334319827
 40
0.0466883233
 40
0.0622031027
 40
0.079941273
 40
0.1219296916
 40
0.1723144916
 40
0.2306206225
 40
0.2962888609
 40
0.3687235388
 40
0.4472007727
 40
0.6192281536
 40
0.8059710736
 40
1.0
 40
1.0
 40
1.0
 40
1.0
 10
3.938362979
 20
4.5523270557
 30
0.0
 10
3.938362979
 20
4.5523412244
 30
0.0
 10
3.9383770236
 20
4.5523642558
 30
0.0
 10
3.9384052323
 20
4.5523866651
 30
0.0
 10
3.9384527182
 20
4.5524148127
 30
0.0
 10
3.9385355432
 20
4.5524474718
 30
0.0
 10
3.9386619364
 20
4.5524845086
 30
0.0
 10
3.9388234864
 20
4.5525213127
 30
0.0
 10
3.9390199182
 20
4.55255791
 30
0.0
 10
3.9392508785
 20
4.5525940603
 30
0.0
 10
3.9396256798
 20
4.5526444156
 30
0.0
 10
3.9401759733
 20
4.5527037289
 30
0.0
 10
3.9409305172
 20
4.5527684767
 30
0.0
 10
3.9418047259
 20
4.5528293446
 30
0.0
 10
3.9427902471
 20
4.5528856945
 30
0.0
 10
3.9438775505
 20
4.5529367974
 30
0.0
 10
3.9454993898
 20
4.5529992737
 30
0.0
 10
3.9476961621
 20
4.5530592064
 30
0.0
 10
3.9504741312
 20
4.553102398
 30
0.0
 10
3.9523878292
 20
4.5531120951
 30
0.0
 10
3.953362979
 20
4.5531120951
 30
0.0
  0
SPLINE
  5
2A2
100
AcDbEntity
  8
0
100
AcDbSpline
 62
7
  6
CONTINUOUS
 70
0
 71
3
 72
15
 73
11
 74
0
 42
0.0000001
 43
0.0000001
 44
0.0000000001
 40
0.0
 40
0.0
 40
0.0
 40
0.0
 40
0.1334997075
 40
0.2672728657
 40
0.3996758053
 40
0.5293801524
 40
0.6552517212
 40
0.7762417672
 40
0.8914058314
 40
1.0
 40
1.0
 40
1.0
 40
1.0
 10
4.3204162719
 20
4.4038182737
 30
0.0
 10
4.3187713978
 20
4.4038329454
 30
0.0
 10
4.3154783958
 20
4.4039589843
 30
0.0
 10
4.3105736255
 20
4.4044298639
 30
0.0
 10
4.3057513002
 20
4.4051839037
 30
0.0
 10
4.3010795484
 20
4.4062129621
 30
0.0
 10
4.2966199353
 20
4.4075067105
 30
0.0
 10
4.292430773
 20
4.4090515616
 30
0.0
 10
4.2885676877
 20
4.4108289481
 30
0.0
 10
4.286170167
 20
4.4122002678
 30
0.0
 10
4.2850445257
 20
4.4129236908
 30
0.0
  0
SPLINE
  5
2A3
100
AcDbEntity
  8
0
100
AcDbSpline
 62
7
  6
CONTINUOUS
 70
0
 71
3
 72
9
 73
5
 74
0
 42
0.0000001
 43
0.0000001
 44
0.0000000001
 40
0.0
 40
0.0
 40
0.0
 40
0.0
 40
0.5149696103
 40
1.0
 40
1.0
 40
1.0
 40
1.0
 10
4.2772901622
 20
4.4065179945
 30
0.0
 10
4.2766638747
 20
4.4074117767
 30
0.0
 10
4.2755913826
 20
4.4092553786
 30
0.0
 10
4.2749095481
 20
4.4112818246
 30
0.0
 10
4.2746959554
 20
4.4122873059
 30
0.0
  0
LINE
  5
2A4
100
AcDbEntity
  8
0
100
AcDbLine
 62
7
  6
CONTINUOUS
 10
4.3168637647
 20
4.4015888599
 11
4.3071534981
 21
4.4016020758
  0
SPLINE
  5
2A5
100
AcDbEntity
  8
0
100
AcDbSpline
 62
7
  6
CONTINUOUS
 70
0
 71
3
 72
11
 73
7
 74
0
 42
0.0000001
 43
0.0000001
 44
0.0000000001
 40
0.0
 40
0.0
 40
0.0
 40
0.0
 40
0.2497615434
 40
0.4929253064
 40
0.7397000187
 40
1.0
 40
1.0
 40
1.0
 40
1.0
 10
4.2772901622
 20
4.4065179945
 30
0.0
 10
4.276832975
 20
4.406919734
 30
0.0
 10
4.2760024089
 20
4.4078011642
 30
0.0
 10
4.2750739505
 20
4.4093639392
 30
0.0
 10
4.2745205376
 20
4.4111222898
 30
0.0
 10
4.2744087891
 20
4.412362549
 30
0.0
 10
4.2744087284
 20
4.4129968461
 30
0.0
  0
SPLINE
  5
2A6
100
AcDbEntity
  8
0
100
AcDbSpline
 62
7
  6
CONTINUOUS
 70
0
 71
3
 72
11
 73
7
 74
0
 42
0.0000001
 43
0.0000001
 44
0.0000000001
 40
0.0
 40
0.0
 40
0.0
 40
0.0
 40
0.1989565057
 40
0.4273975604
 40
0.6926182258
 40
1.0
 40
1.0
 40
1.0
 40
1.0
 10
4.2829657078
 20
4.4291748111
 30
0.0
 10
4.2827922868
 20
4.4287308953
 30
0.0
 10
4.2824594883
 20
4.4277617626
 30
0.0
 10
4.2819994909
 20
4.4261674036
 30
0.0
 10
4.281518919
 20
4.4243095701
 30
0.0
 10
4.2811905116
 20
4.4229778413
 30
0.0
 10
4.281013647
 20
4.4222630845
 30
0.0
  0
LINE
  5
2A7
100
AcDbEntity
  8
0
100
AcDbLine
 62
7
  6
CONTINUOUS
 10
4.281013647
 20
4.4222630845
 11
4.2772901622
 21
4.4065179945
  0
LINE
  5
2A8
100
AcDbEntity
  8
0
100
AcDbLine
 62
7
  6
CONTINUOUS
 10
4.3356498855
 20
4.4017465407
 11
4.3204162719
 21
4.4015987498
  0
LINE
  5
2A9
100
AcDbEntity
  8
0
100
AcDbLine
 62
7
  6
CONTINUOUS
 10
4.3402814373
 20
4.4365745736
 11
4.3404479497
 21
4.4371986002
  0
SPLINE
  5
2AA
100
AcDbEntity
  8
0
100
AcDbSpline
 62
7
  6
CONTINUOUS
 70
0
 71
3
 72
9
 73
5
 74
0
 42
0.0000001
 43
0.0000001
 44
0.0000000001
 40
0.0
 40
0.0
 40
0.0
 40
0.0
 40
0.4874868294
 40
1.0
 40
1.0
 40
1.0
 40
1.0
 10
4.2833909854
 20
4.4175638168
 30
0.0
 10
4.283213335
 20
4.4179861375
 30
0.0
 10
4.282943767
 20
4.4188948871
 30
0.0
 10
4.2828638154
 20
4.4198375584
 30
0.0
 10
4.2828638352
 20
4.4203192435
 30
0.0
  0
SPLINE
  5
2AB
100
AcDbEntity
  8
0
100
AcDbSpline
 62
7
  6
CONTINUOUS
 70
0
 71
3
 72
15
 73
11
 74
0
 42
0.0000001
 43
0.0000001
 44
0.0000000001
 40
0.0
 40
0.0
 40
0.0
 40
0.0
 40
0.094900325
 40
0.199938462
 40
0.3148393788
 40
0.4388019604
 40
0.5707262202
 40
0.7093171205
 40
0.8530771848
 40
1.0
 40
1.0
 40
1.0
 40
1.0
 10
4.3545662667
 20
4.4130387372
 30
0.0
 10
4.3537004868
 20
4.4122978869
 30
0.0
 10
4.3517468134
 20
4.4108862155
 30
0.0
 10
4.3484227058
 20
4.4090704008
 30
0.0
 10
4.3446043892
 20
4.4074807401
 30
0.0
 10
4.3403525605
 20
4.4061430864
 30
0.0
 10
4.3357311893
 20
4.405084433
 30
0.0
 10
4.330811292
 20
4.4043240315
 30
0.0
 10
4.3256724782
 20
4.4038809942
 30
0.0
 10
4.3221803353
 20
4.4038025388
 30
0.0
 10
4.3204162719
 20
4.4038182737
 30
0.0
  0
LINE
  5
2AC
100
AcDbEntity
  8
0
100
AcDbLine
 62
7
  6
CONTINUOUS
 10
5.868863729
 20
3.0456562599
 11
5.818863729
 21
3.0500395186
  0
SPLINE
  5
2AD
100
AcDbEntity
  8
0
100
AcDbSpline
 62
7
  6
CONTINUOUS
 70
0
 71
3
 72
15
 73
11
 74
0
 42
0.0000001
 43
0.0000001
 44
0.0000000001
 40
0.0
 40
0.0
 40
0.0
 40
0.0
 40
0.0413886599
 40
0.1544241533
 40
0.3154799328
 40
0.4999966735
 40
0.6845138246
 40
0.845569841
 40
0.9586076352
 40
1.0
 40
1.0
 40
1.0
 40
1.0
 10
4.832363729
 20
5.0351449038
 30
0.0
 10
4.8299674561
 20
5.0347833812
 30
0.0
 10
4.8210188158
 20
5.0334862976
 30
0.0
 10
4.8026807134
 20
5.031237524
 30
0.0
 10
4.7759067394
 20
5.0290483741
 30
0.0
 10
4.7448642895
 20
5.0281578543
 30
0.0
 10
4.7138218238
 20
5.0290483082
 30
0.0
 10
4.6870476733
 20
5.0312374208
 30
0.0
 10
4.6687092052
 20
5.0334862173
 30
0.0
 10
4.6597602164
 20
5.0347833485
 30
0.0
 10
4.657363729
 20
5.0351449038
 30
0.0
  0
ENDSEC
  0
SECTION
  2
OBJECTS
  0
DICTIONARY
  5
C
100
AcDbDictionary
280
0
281
1
  3
ACAD_GROUP
350
D
  3
ACAD_MLINESTYLE
350
17
  3
ACAD_LAYOUT
350
1A
  3
ACAD_PLOTSETTINGS
350
19
  3
ACAD_PLOTSTYLENAME
350
E
  0
DICTIONARY
  5
D
102
{ACAD_REACTORS
330
C
102
}
100
AcDbDictionary
280
0
281
1
  0
ACDBDICTIONARYWDFLT
  5
E
102
{ACAD_REACTORS
330
C
102
}
100
AcDbDictionary
281
1
  3
Normal
350
F
100
AcDbDictionaryWithDefault
340
F
  0
DICTIONARY
  5
17
102
{ACAD_REACTORS
330
C
102
}
100
AcDbDictionary
280
0
281
1
  3
Standard
350
18
  0
DICTIONARY
  5
19
102
{ACAD_REACTORS
330
C
102
}
100
AcDbDictionary
281
1
  0
DICTIONARY
  5
1A
102
{ACAD_REACTORS
330
C
102
}
100
AcDbDictionary
281
1
  3
Model
350
2AE
  3
Layout1
350
2AF
  0
ACDBPLACEHOLDER
  5
F
102
{ACAD_REACTORS
330
E
102
}
  0
MLINESTYLE
  5
18
102
{ACAD_REACTORS
330
17
102
}
100
AcDbMlineStyle
  2
STANDARD
 70
0
  3

 62
256
 51
90.0
 52
90.0
 71
2
 49
0.5
 62
256
  6
BYLAYER
 49
-0.5
 62
256
  6
BYLAYER
  0
LAYOUT
  5
2AE
102
{ACAD_REACTORS
330
1A
102
}
100
AcDbPlotSettings
  1

  2
none_device
  4
ANSI_A_(11.00_x_8.50_Inches)
  6

 40
0.0
 41
0.0
 42
0.0
 43
0.0
 44
279.4
 45
215.9
 46
0.0
 47
0.0
 48
0.0
 49
0.0
140
0.0
141
0.0
142
1.0
143
1.0
 70
1024
 72
0
 73
0
 74
0
  7

 75
0
147
1.0
148
0.0
149
0.0
100
AcDbLayout
  1
Model
 70
0
 71
0
 10
0.0
 20
0.0
 11
11.0
 21
8.5
 12
0.0
 22
0.0
 32
0.0
 14
0.0
 24
0.0
 34
0.0
 15
0.0
 25
0.0
 35
0.0
146
0.0
 13
0.0
 23
0.0
 33
0.0
 16
1.0
 26
0.0
 36
0.0
 17
0.0
 27
1.0
 37
0.0
 76
0
330
22D
345
0
346
0
  0
LAYOUT
  5
2AF
102
{ACAD_REACTORS
330
1A
102
}
100
AcDbPlotSettings
  1

  2
none_device
  4
ANSI_A_(11.00_x_8.50_Inches)
  6

 40
0.0
 41
0.0
 42
0.0
 43
0.0
 44
279.4
 45
215.9
 46
0.0
 47
0.0
 48
0.0
 49
0.0
140
0.0
141
0.0
142
1.0
143
1.0
 70
0
 72
0
 73
0
 74
0
  7

 75
0
147
1.0
148
0.0
149
0.0
100
AcDbLayout
  1
Layout1
 70
0
 71
1
 10
0.0
 20
0.0
 11
11.0
 21
8.5
 12
0.0
 22
0.0
 32
0.0
 14
0.0
 24
0.0
 34
0.0
 15
0.0
 25
0.0
 35
0.0
146
0.0
 13
0.0
 23
0.0
 33
0.0
 16
1.0
 26
0.0
 36
0.0
 17
0.0
 27
1.0
 37
0.0
 76
0
330
22E
345
0
346
0
  0
ENDSEC
  0
EOF
