999
DXF file: 3-3147_top.dxf
999
Pro/ENGINEER 2018400 by Parametric Technology Corporation
  0
SECTION
  2
HEADER
  9
$ACADVER
  1
AC1027
  9
$DWGCODEPAGE
  3
ANSI_1252
  9
$EXTMAX
 10
11.0
 20
8.5
 30
0.0
  9
$EXTMIN
 10
0.0
 20
0.0
 30
0.0
  9
$LIMMIN
 10
0.0
 20
0.0
  9
$LIMMAX
 10
11.0
 20
8.5
  9
$VIEWCTR
 10
5.5
 20
4.25
  9
$VIEWSIZE
 40
8.5
  9
$CLAYER
  8
0
  9
$LTSCALE
 40
0.605
  9
$CELTYPE
  6
BYLAYER
  9
$DIMSCALE
 40
1.0
  9
$DIMASZ
 40
0.1
  9
$DIMEXO
 40
0.0625
  9
$DIMDLI
 40
0.418
  9
$DIMEXE
 40
0.125
  9
$DIMCEN
 40
0.099
  9
$DIMLFAC
 40
1.0
  9
$DIMBLK
  1
_FILLED
  9
$DIMALT
 70
1
  9
$DIMALTD
 70
1
  9
$DIMALTTD
 70
2
  9
$DIMALTF
 40
25.4
  9
$DIMTXT
 40
0.08
  9
$DIMTOL
 70
1
  9
$DIMLIM
 70
0
  9
$DIMTFAC
 40
1.0
  9
$DIMTP
 40
0.01
  9
$DIMTM
 40
0.01
  9
$DIMGAP
 40
0.09
  9
$DIMDSEP
 70
46
  9
$AUNITS
 70
0
  9
$PDMODE
 70
3
  9
$PDSIZE
 40
0.3125
  9
$HANDSEED
  5
4F2
  9
$TILEMODE
 70
1
  9
$MEASUREMENT
 70
0
  9
$INSUNITS
 70
1
  0
ENDSEC
  0
SECTION
  2
CLASSES
  0
CLASS
  1
ACDBDICTIONARYWDFLT
  2
AcDbDictionaryWithDefault
  3
AutoCAD 2000
 90
0
 91
1
280
0
281
0
  0
CLASS
  1
ACDBPLACEHOLDER
  2
AcDbPlaceHolder
  3
AutoCAD 2000
 90
0
 91
1
280
0
281
0
  0
CLASS
  1
LAYOUT
  2
AcDbLayout
  3
AutoCAD 2000
 90
0
 91
0
280
0
281
0
  0
ENDSEC
  0
SECTION
  2
TABLES
  0
TABLE
  2
VPORT
  5
8
100
AcDbSymbolTable
 70
2
  0
VPORT
  5
1F4
100
AcDbSymbolTableRecord
100
AcDbViewportTableRecord
  2
*ACTIVE
 70
0
 10
0.0
 20
0.0
 11
1.0
 21
1.0
 12
5.5
 22
4.25
 13
0.0
 23
0.0
 14
1.0
 24
1.0
 15
0.0
 25
0.0
 16
0.0
 26
0.0
 36
1.0
 17
0.0
 27
0.0
 37
0.0
 40
8.5
 41
1.2941176471
 42
50.0
 43
0.0
 44
0.0
 50
0.0
 51
0.0
 71
0
 72
100
 73
1
 74
1
 75
0
 76
0
 77
0
 78
0
  0
ENDTAB
  0
TABLE
  2
LTYPE
  5
5
100
AcDbSymbolTable
 70
6
  0
LTYPE
  5
14
100
AcDbSymbolTableRecord
100
AcDbLinetypeTableRecord
  2
BYBLOCK
 70
0
  3

 72
65
 73
0
 40
0.0
  0
LTYPE
  5
15
100
AcDbSymbolTableRecord
100
AcDbLinetypeTableRecord
  2
BYLAYER
 70
0
  3

 72
65
 73
0
 40
0.0
  0
LTYPE
  5
16
100
AcDbSymbolTableRecord
100
AcDbLinetypeTableRecord
  2
CONTINUOUS
 70
64
  3
Solid line
 72
65
 73
0
 40
0.0
  0
LTYPE
  5
1F5
100
AcDbSymbolTableRecord
100
AcDbLinetypeTableRecord
  2
CENTER
 70
64
  3
____ _ ____ _ ____ _ ____ _ ____ _ ____ _ ____
 72
65
 73
4
 40
0.6
 49
0.375
 74
0
 49
-0.075
 74
0
 49
0.075
 74
0
 49
-0.075
 74
0
  0
LTYPE
  5
1F6
100
AcDbSymbolTableRecord
100
AcDbLinetypeTableRecord
  2
HIDDEN
 70
64
  3
- - - - - - - - - - - - - - - - - - - -
 72
65
 73
2
 40
0.2
 49
0.1
 74
0
 49
-0.1
 74
0
  0
LTYPE
  5
1F7
100
AcDbSymbolTableRecord
100
AcDbLinetypeTableRecord
  2
PHANTOM
 70
64
  3
_____ _ _ _____ _ _ _____ _ _ _____
 72
65
 73
6
 40
0.8
 49
0.45
 74
0
 49
-0.05
 74
0
 49
0.1
 74
0
 49
-0.05
 74
0
 49
0.1
 74
0
 49
-0.05
 74
0
  0
LTYPE
  5
1F8
100
AcDbSymbolTableRecord
100
AcDbLinetypeTableRecord
  2
DOT
 70
64
  3
. . . . . . . . . . . . . . . . . . . .
 72
65
 73
2
 40
0.2
 49
0.1
 74
0
 49
-0.1
 74
0
  0
LTYPE
  5
1F9
100
AcDbSymbolTableRecord
100
AcDbLinetypeTableRecord
  2
DASHED
 70
64
  3
- - - - - - - - - - - - - - - - - - - -
 72
65
 73
2
 40
0.2
 49
0.1
 74
0
 49
-0.1
 74
0
  0
ENDTAB
  0
TABLE
  2
LAYER
  5
2
100
AcDbSymbolTable
 70
36
  0
LAYER
  5
10
100
AcDbSymbolTableRecord
100
AcDbLayerTableRecord
  2
0
 70
0
 62
7
  6
CONTINUOUS
370
-3
390
F
  0
LAYER
  5
1FA
100
AcDbSymbolTableRecord
100
AcDbLayerTableRecord
  2
DEFAULT_1
 70
0
 62
7
  6
CENTER
370
-3
390
F
  0
LAYER
  5
1FB
100
AcDbSymbolTableRecord
100
AcDbLayerTableRecord
  2
DEFAULT_2
 70
0
 62
8
  6
HIDDEN
370
-3
390
F
  0
LAYER
  5
1FC
100
AcDbSymbolTableRecord
100
AcDbLayerTableRecord
  2
DEFAULT_3
 70
0
 62
7
  6
PHANTOM
370
-3
390
F
  0
LAYER
  5
1FD
100
AcDbSymbolTableRecord
100
AcDbLayerTableRecord
  2
DEFAULT_COORDINATE_SYSTEM
 70
0
 62
7
  6
CONTINUOUS
370
-3
390
F
  0
LAYER
  5
1FE
100
AcDbSymbolTableRecord
100
AcDbLayerTableRecord
  2
DEFAULT_DATUM_AXES
 70
0
 62
7
  6
CONTINUOUS
370
-3
390
F
  0
LAYER
  5
1FF
100
AcDbSymbolTableRecord
100
AcDbLayerTableRecord
  2
DEFAULT_DATUM_PLANES
 70
0
 62
7
  6
CONTINUOUS
370
-3
390
F
  0
ENDTAB
  0
TABLE
  2
STYLE
  5
3
100
AcDbSymbolTable
 70
1
  0
STYLE
  5
11
100
AcDbSymbolTableRecord
100
AcDbTextStyleTableRecord
  2
STANDARD
 70
0
 40
0.0
 41
0.8
 50
0.0
 71
0
 42
0.2
  3
txt
  4

  0
STYLE
  5
200
100
AcDbSymbolTableRecord
100
AcDbTextStyleTableRecord
  2
TEXTSTYLE_1
 70
0
 40
0.0
 41
0.8
 50
0.0
 71
0
 42
0.2
  3
gdt
  4

  0
ENDTAB
  0
TABLE
  2
VIEW
  5
6
100
AcDbSymbolTable
 70
0
  0
ENDTAB
  0
TABLE
  2
UCS
  5
7
100
AcDbSymbolTable
 70
0
  0
ENDTAB
  0
TABLE
  2
APPID
  5
9
100
AcDbSymbolTable
 70
1
  0
APPID
  5
201
100
AcDbSymbolTableRecord
100
AcDbRegAppTableRecord
  2
ACAD
 70
0
  0
ENDTAB
  0
TABLE
  2
BLOCK_RECORD
  5
1
100
AcDbSymbolTable
 70
0
  0
BLOCK_RECORD
  5
202
100
AcDbSymbolTableRecord
100
AcDbBlockTableRecord
  2
*Model_Space
  0
BLOCK_RECORD
  5
203
100
AcDbSymbolTableRecord
100
AcDbBlockTableRecord
  2
*Paper_Space
  0
BLOCK_RECORD
  5
204
100
AcDbSymbolTableRecord
100
AcDbBlockTableRecord
  2
_FILLED
  0
ENDTAB
  0
TABLE
  2
DIMSTYLE
  5
A
100
AcDbSymbolTable
 70
1
100
AcDbDimStyleTable
 71
0
  0
DIMSTYLE
105
205
100
AcDbSymbolTableRecord
100
AcDbDimStyleTableRecord
  2
STANDARD
 70
0
  3

  4

 40
1.0
 41
0.1
 42
0.0625
 43
0.38
 44
0.125
 45
0.0
 46
0.0
 47
0.01
 48
0.01
140
0.08
141
0.09
142
0.0
143
25.4
144
1.0
145
0.0
146
1.0
147
0.09
 71
1.0
 72
0.0
 73
1
 74
1
 75
0
 76
0
 77
0
 78
4
 79
1
170
1
171
1
172
0
173
0
174
0
175
0
176
0
177
0
178
0
270
2
179
2
271
2
272
2
273
2
274
2
275
0
280
0
281
0
282
0
283
1
284
4
285
0
286
0
287
3
288
0
340
11
278
46
341
204
342
204
343
204
344
204
  0
ENDTAB
  0
ENDSEC
  0
SECTION
  2
BLOCKS
  0
BLOCK
  5
20
100
AcDbEntity
  8
0
100
AcDbBlockBegin
  2
*Model_Space
 70
0
 10
0.0
 20
0.0
 30
0.0
  3
*Model_Space
  1

  0
ENDBLK
  5
21
100
AcDbEntity
  8
0
100
AcDbBlockEnd
  0
BLOCK
  5
1C
100
AcDbEntity
  8
0
100
AcDbBlockBegin
  2
*Paper_Space
 70
0
 10
0.0
 20
0.0
 30
0.0
  3
*Paper_Space
  1

  0
ENDBLK
  5
1D
100
AcDbEntity
  8
0
100
AcDbBlockEnd
  0
BLOCK
  5
206
100
AcDbEntity
  8
0
100
AcDbBlockBegin
  2
_FILLED
 70
64
 10
0.0
 20
0.0
  3
_FILLED
  1

  0
SOLID
  5
207
100
AcDbEntity
  8
0
  6
BYBLOCK
 62
0
100
AcDbTrace
 10
0.0
 20
0.0
 11
-1.0
 21
0.2
 12
-1.0
 22
-0.2
 13
-1.0
 23
-0.2
  0
ENDBLK
  5
208
100
AcDbEntity
  8
0
  6
BYBLOCK
 62
0
100
AcDbBlockEnd
  0
ENDSEC
  0
SECTION
  2
ENTITIES
  0
MTEXT
  5
209
100
AcDbEntity
  8
0
100
AcDbMText
 62
2
  6
CONTINUOUS
  7
STANDARD
 71
3
 72
1
 10
3.9550465839
 20
1.6251673481
 30
0.0
 11
1.0
 21
0.0
 31
0.0
 73
2
 44
0.9
  1
SCALE  .375
 40
0.08
 41
0.704
  0
LINE
  5
20A
100
AcDbEntity
  8
0
100
AcDbLine
 62
7
  6
CONTINUOUS
 10
0.0
 20
0.0
 11
0.0
 21
8.5
  0
LINE
  5
20B
100
AcDbEntity
  8
0
100
AcDbLine
 62
7
  6
CONTINUOUS
 10
0.0
 20
0.0
 11
11.0
 21
0.0
  0
LINE
  5
20C
100
AcDbEntity
  8
0
100
AcDbLine
 62
7
  6
CONTINUOUS
 10
0.0
 20
8.5
 11
11.0
 21
8.5
  0
LINE
  5
20D
100
AcDbEntity
  8
0
100
AcDbLine
 62
7
  6
CONTINUOUS
 10
11.0
 20
0.0
 11
11.0
 21
8.5
  0
LINE
  5
20E
100
AcDbEntity
  8
0
100
AcDbLine
 62
7
  6
CONTINUOUS
 10
1.0029621506
 20
6.168664175
 11
1.0029621506
 21
6.333664175
  0
LINE
  5
20F
100
AcDbEntity
  8
0
100
AcDbLine
 62
7
  6
CONTINUOUS
 10
1.0142121506
 20
6.157414175
 11
1.0142121506
 21
6.344914175
  0
LINE
  5
210
100
AcDbEntity
  8
0
100
AcDbLine
 62
7
  6
CONTINUOUS
 10
1.6916496506
 20
6.676789175
 11
1.6916496506
 21
6.344914175
  0
LINE
  5
211
100
AcDbEntity
  8
0
100
AcDbLine
 62
7
  6
CONTINUOUS
 10
1.6916496506
 20
6.157414175
 11
1.6916496506
 21
5.825539175
  0
LINE
  5
212
100
AcDbEntity
  8
0
100
AcDbLine
 62
7
  6
CONTINUOUS
 10
1.7028996506
 20
6.676789175
 11
1.7028996506
 21
6.344914175
  0
LINE
  5
213
100
AcDbEntity
  8
0
100
AcDbLine
 62
7
  6
CONTINUOUS
 10
1.7028996506
 20
6.157414175
 11
1.7028996506
 21
5.825539175
  0
LINE
  5
214
100
AcDbEntity
  8
0
100
AcDbLine
 62
7
  6
CONTINUOUS
 10
1.7141496506
 20
5.814289175
 11
1.7141496506
 21
5.803039175
  0
LINE
  5
215
100
AcDbEntity
  8
0
100
AcDbLine
 62
7
  6
CONTINUOUS
 10
1.7141496506
 20
6.688039175
 11
1.7141496506
 21
6.699289175
  0
LINE
  5
216
100
AcDbEntity
  8
0
100
AcDbLine
 62
7
  6
CONTINUOUS
 10
1.8125871506
 20
6.555851675
 11
1.8125871506
 21
6.344914175
  0
LINE
  5
217
100
AcDbEntity
  8
0
100
AcDbLine
 62
7
  6
CONTINUOUS
 10
1.8125871506
 20
6.157414175
 11
1.8125871506
 21
5.946476675
  0
LINE
  5
218
100
AcDbEntity
  8
0
100
AcDbLine
 62
7
  6
CONTINUOUS
 10
1.8238371506
 20
6.555851675
 11
1.8238371506
 21
6.344914175
  0
LINE
  5
219
100
AcDbEntity
  8
0
100
AcDbLine
 62
7
  6
CONTINUOUS
 10
1.8238371506
 20
6.157414175
 11
1.8238371506
 21
5.946476675
  0
LINE
  5
21A
100
AcDbEntity
  8
0
100
AcDbLine
 62
7
  6
CONTINUOUS
 10
1.8350871506
 20
5.935226675
 11
1.8350871506
 21
5.923976675
  0
LINE
  5
21B
100
AcDbEntity
  8
0
100
AcDbLine
 62
7
  6
CONTINUOUS
 10
1.8350871506
 20
6.567101675
 11
1.8350871507
 21
6.578351675
  0
LINE
  5
21C
100
AcDbEntity
  8
0
100
AcDbLine
 62
7
  6
CONTINUOUS
 10
1.8500452706
 20
6.5076562933
 11
1.8500452706
 21
6.344914175
  0
LINE
  5
21D
100
AcDbEntity
  8
0
100
AcDbLine
 62
7
  6
CONTINUOUS
 10
1.8500452706
 20
6.157414175
 11
1.8500452706
 21
5.9946720566
  0
LINE
  5
21E
100
AcDbEntity
  8
0
100
AcDbLine
 62
7
  6
CONTINUOUS
 10
1.8611243578
 20
6.5076562933
 11
1.8611243578
 21
6.344914175
  0
LINE
  5
21F
100
AcDbEntity
  8
0
100
AcDbLine
 62
7
  6
CONTINUOUS
 10
1.8611243578
 20
6.157414175
 11
1.8611243578
 21
5.9946720566
  0
LINE
  5
220
100
AcDbEntity
  8
0
100
AcDbLine
 62
7
  6
CONTINUOUS
 10
1.8832825323
 20
6.540893555
 11
1.8832825323
 21
6.5298144678
  0
LINE
  5
221
100
AcDbEntity
  8
0
100
AcDbLine
 62
7
  6
CONTINUOUS
 10
1.8832825323
 20
5.961434795
 11
1.8832825323
 21
5.9725138822
  0
LINE
  5
222
100
AcDbEntity
  8
0
100
AcDbLine
 62
7
  6
CONTINUOUS
 10
1.9376496506
 20
6.430789175
 11
1.9376496506
 21
6.344914175
  0
LINE
  5
223
100
AcDbEntity
  8
0
100
AcDbLine
 62
7
  6
CONTINUOUS
 10
1.9376496506
 20
6.157414175
 11
1.9376496506
 21
6.071539175
  0
LINE
  5
224
100
AcDbEntity
  8
0
100
AcDbLine
 62
7
  6
CONTINUOUS
 10
1.9488996506
 20
6.430789175
 11
1.9488996506
 21
6.344914175
  0
LINE
  5
225
100
AcDbEntity
  8
0
100
AcDbLine
 62
7
  6
CONTINUOUS
 10
1.9488996506
 20
6.157414175
 11
1.9488996506
 21
6.071539175
  0
LINE
  5
226
100
AcDbEntity
  8
0
100
AcDbLine
 62
7
  6
CONTINUOUS
 10
1.9601496506
 20
6.060289175
 11
1.9601496506
 21
6.049039175
  0
LINE
  5
227
100
AcDbEntity
  8
0
100
AcDbLine
 62
7
  6
CONTINUOUS
 10
1.9601496506
 20
6.442039175
 11
1.9601496507
 21
6.453289175
  0
LINE
  5
228
100
AcDbEntity
  8
0
100
AcDbLine
 62
7
  6
CONTINUOUS
 10
1.9884621506
 20
6.344914175
 11
1.9884621506
 21
6.157414175
  0
LINE
  5
229
100
AcDbEntity
  8
0
100
AcDbLine
 62
7
  6
CONTINUOUS
 10
2.0109621506
 20
6.133601675
 11
2.0109621506
 21
6.368726675
  0
LINE
  5
22A
100
AcDbEntity
  8
0
100
AcDbLine
 62
7
  6
CONTINUOUS
 10
2.0222121506
 20
6.122351675
 11
2.0222121506
 21
6.379976675
  0
LINE
  5
22B
100
AcDbEntity
  8
0
100
AcDbLine
 62
7
  6
CONTINUOUS
 10
2.396266769
 20
6.5298144678
 11
2.319735612
 21
6.4532833107
  0
LINE
  5
22C
100
AcDbEntity
  8
0
100
AcDbLine
 62
7
  6
CONTINUOUS
 10
1.8611243578
 20
5.9946720566
 11
1.9376555148
 21
6.0712032136
  0
LINE
  5
22D
100
AcDbEntity
  8
0
100
AcDbLine
 62
7
  6
CONTINUOUS
 10
2.4184249434
 20
6.5076562933
 11
2.3418937864
 21
6.4311251363
  0
LINE
  5
22E
100
AcDbEntity
  8
0
100
AcDbLine
 62
7
  6
CONTINUOUS
 10
1.8832825323
 20
5.9725138822
 11
1.9598136893
 21
6.0490450392
  0
LINE
  5
22F
100
AcDbEntity
  8
0
100
AcDbLine
 62
7
  6
CONTINUOUS
 10
2.2573371506
 20
6.379976675
 11
2.2573371506
 21
6.122351675
  0
LINE
  5
230
100
AcDbEntity
  8
0
100
AcDbLine
 62
7
  6
CONTINUOUS
 10
2.2685871506
 20
6.368726675
 11
2.2685871506
 21
6.133601675
  0
LINE
  5
231
100
AcDbEntity
  8
0
100
AcDbLine
 62
7
  6
CONTINUOUS
 10
2.2885871506
 20
6.3450534952
 11
2.2885871506
 21
6.1572748547
  0
LINE
  5
232
100
AcDbEntity
  8
0
100
AcDbLine
 62
7
  6
CONTINUOUS
 10
2.2985871506
 20
6.3338731553
 11
2.2985871506
 21
6.1684551946
  0
LINE
  5
233
100
AcDbEntity
  8
0
100
AcDbLine
 62
7
  6
CONTINUOUS
 10
2.3193996506
 20
6.060289175
 11
2.3193996506
 21
6.049039175
  0
LINE
  5
234
100
AcDbEntity
  8
0
100
AcDbLine
 62
7
  6
CONTINUOUS
 10
2.3193996506
 20
6.442039175
 11
2.3193996506
 21
6.453289175
  0
LINE
  5
235
100
AcDbEntity
  8
0
100
AcDbLine
 62
7
  6
CONTINUOUS
 10
2.3306496506
 20
6.071539175
 11
2.3306496506
 21
6.430789175
  0
LINE
  5
236
100
AcDbEntity
  8
0
100
AcDbLine
 62
7
  6
CONTINUOUS
 10
2.3418996506
 20
6.071539175
 11
2.3418996506
 21
6.430789175
  0
LINE
  5
237
100
AcDbEntity
  8
0
100
AcDbLine
 62
7
  6
CONTINUOUS
 10
2.396266769
 20
6.540893555
 11
2.396266769
 21
6.5298144678
  0
LINE
  5
238
100
AcDbEntity
  8
0
100
AcDbLine
 62
7
  6
CONTINUOUS
 10
2.396266769
 20
5.961434795
 11
2.396266769
 21
5.9725138822
  0
LINE
  5
239
100
AcDbEntity
  8
0
100
AcDbLine
 62
7
  6
CONTINUOUS
 10
2.4184249434
 20
5.9946720566
 11
2.4184249434
 21
6.5076562933
  0
LINE
  5
23A
100
AcDbEntity
  8
0
100
AcDbLine
 62
7
  6
CONTINUOUS
 10
2.4295040306
 20
5.9946720566
 11
2.4295040306
 21
6.5076562933
  0
LINE
  5
23B
100
AcDbEntity
  8
0
100
AcDbLine
 62
7
  6
CONTINUOUS
 10
2.4444621506
 20
5.935226675
 11
2.4444621506
 21
5.923976675
  0
LINE
  5
23C
100
AcDbEntity
  8
0
100
AcDbLine
 62
7
  6
CONTINUOUS
 10
2.4444621506
 20
6.567101675
 11
2.4444621506
 21
6.578351675
  0
LINE
  5
23D
100
AcDbEntity
  8
0
100
AcDbLine
 62
7
  6
CONTINUOUS
 10
2.4557121506
 20
5.946476675
 11
2.4557121506
 21
6.555851675
  0
LINE
  5
23E
100
AcDbEntity
  8
0
100
AcDbLine
 62
7
  6
CONTINUOUS
 10
2.4669621506
 20
5.946476675
 11
2.4669621506
 21
6.555851675
  0
LINE
  5
23F
100
AcDbEntity
  8
0
100
AcDbLine
 62
7
  6
CONTINUOUS
 10
2.5653996506
 20
5.814289175
 11
2.5653996506
 21
5.803039175
  0
LINE
  5
240
100
AcDbEntity
  8
0
100
AcDbLine
 62
7
  6
CONTINUOUS
 10
2.5653996506
 20
6.688039175
 11
2.5653996506
 21
6.699289175
  0
LINE
  5
241
100
AcDbEntity
  8
0
100
AcDbLine
 62
7
  6
CONTINUOUS
 10
2.5766496506
 20
5.825539175
 11
2.5766496506
 21
6.676789175
  0
LINE
  5
242
100
AcDbEntity
  8
0
100
AcDbLine
 62
7
  6
CONTINUOUS
 10
2.5878996506
 20
5.825539175
 11
2.5878996506
 21
6.676789175
  0
LINE
  5
243
100
AcDbEntity
  8
0
100
AcDbLine
 62
7
  6
CONTINUOUS
 10
3.3446768095
 20
5.9791477656
 11
3.2209534157
 21
5.8554243717
  0
LINE
  5
244
100
AcDbEntity
  8
0
100
AcDbLine
 62
7
  6
CONTINUOUS
 10
3.8246165908
 20
6.4590875469
 11
4.0355144539
 21
6.6699854099
  0
LINE
  5
245
100
AcDbEntity
  8
0
100
AcDbLine
 62
7
  6
CONTINUOUS
 10
3.3647534097
 20
5.9530615024
 11
3.2440348474
 21
5.83234294
  0
LINE
  5
246
100
AcDbEntity
  8
0
100
AcDbLine
 62
7
  6
CONTINUOUS
 10
3.8476980225
 20
6.4360061152
 11
4.0585958856
 21
6.6469039782
  0
LINE
  5
247
100
AcDbEntity
  8
0
100
AcDbLine
 62
7
  6
CONTINUOUS
 10
3.9091629536
 20
2.4119083998
 11
3.3703863477
 21
2.4119083998
  0
LINE
  5
248
100
AcDbEntity
  8
0
100
AcDbLine
 62
7
  6
CONTINUOUS
 10
3.9091629536
 20
2.4122644681
 11
3.3703863477
 21
2.4122644681
  0
LINE
  5
249
100
AcDbEntity
  8
0
100
AcDbLine
 62
7
  6
CONTINUOUS
 10
3.9326004536
 20
2.4353458998
 11
3.9322443853
 21
2.4353458998
  0
LINE
  5
24A
100
AcDbEntity
  8
0
100
AcDbLine
 62
7
  6
CONTINUOUS
 10
3.3473049159
 20
2.4353458998
 11
3.3469488477
 21
2.4353458998
  0
LINE
  5
24B
100
AcDbEntity
  8
0
100
AcDbLine
 62
7
  6
CONTINUOUS
 10
3.9091629536
 20
2.4122644681
 11
3.8246165908
 21
2.4968108308
  0
LINE
  5
24C
100
AcDbEntity
  8
0
100
AcDbLine
 62
7
  6
CONTINUOUS
 10
3.9322443853
 20
2.4353458998
 11
3.8476980225
 21
2.5198922626
  0
LINE
  5
24D
100
AcDbEntity
  8
0
100
AcDbLine
 62
7
  6
CONTINUOUS
 10
3.030399652
 20
6.8314659389
 11
3.030399652
 21
5.670862411
  0
LINE
  5
24E
100
AcDbEntity
  8
0
100
AcDbLine
 62
7
  6
CONTINUOUS
 10
3.0594728866
 20
5.6417891763
 11
3.0594728867
 21
6.8605391736
  0
LINE
  5
24F
100
AcDbEntity
  8
0
100
AcDbLine
 62
7
  6
CONTINUOUS
 10
3.1616496506
 20
6.705851675
 11
3.1616496506
 21
5.796476675
  0
LINE
  5
250
100
AcDbEntity
  8
0
100
AcDbLine
 62
7
  6
CONTINUOUS
 10
3.1738371506
 20
6.705851675
 11
3.1738371506
 21
5.796476675
  0
LINE
  5
251
100
AcDbEntity
  8
0
100
AcDbLine
 62
7
  6
CONTINUOUS
 10
3.1850871506
 20
5.785226675
 11
3.1850871506
 21
5.773039175
  0
LINE
  5
252
100
AcDbEntity
  8
0
100
AcDbLine
 62
7
  6
CONTINUOUS
 10
3.1850871506
 20
6.717101675
 11
3.1850871493
 21
6.729289175
  0
LINE
  5
253
100
AcDbEntity
  8
0
100
AcDbLine
 62
7
  6
CONTINUOUS
 10
3.2089510712
 20
5.8554243717
 11
3.2089510712
 21
6.6469039782
  0
LINE
  5
254
100
AcDbEntity
  8
0
100
AcDbLine
 62
7
  6
CONTINUOUS
 10
3.2209534157
 20
5.8554243717
 11
3.2209534157
 21
6.6469039782
  0
LINE
  5
255
100
AcDbEntity
  8
0
100
AcDbLine
 62
7
  6
CONTINUOUS
 10
3.2440348474
 20
5.83234294
 11
3.2440348474
 21
5.8203405955
  0
LINE
  5
256
100
AcDbEntity
  8
0
100
AcDbLine
 62
7
  6
CONTINUOUS
 10
3.2440348474
 20
6.6699854099
 11
3.2440348474
 21
6.6819877544
  0
LINE
  5
257
100
AcDbEntity
  8
0
100
AcDbLine
 62
7
  6
CONTINUOUS
 10
3.8246165908
 20
2.4968108308
 11
3.4549327104
 21
2.4968108308
  0
LINE
  5
258
100
AcDbEntity
  8
0
100
AcDbLine
 62
7
  6
CONTINUOUS
 10
3.8476980225
 20
2.5198922626
 11
3.4318512787
 21
2.5198922626
  0
LWPOLYLINE
  5
259
100
AcDbEntity
  8
0
100
AcDbPolyline
 62
7
  6
CONTINUOUS
 90
61
 70
0
 10
3.9188962018
 20
2.96053593
 10
3.9189067856
 20
2.9605216519
 10
3.9188984967
 20
2.9605334839
 10
3.918865719
 20
2.9605820416
 10
3.9188103784
 20
2.9606676604
 10
3.918733293
 20
2.9607921603
 10
3.9186355772
 20
2.9609568149
 10
3.9185194461
 20
2.9611608021
 10
3.9183857652
 20
2.9614053602
 10
3.91823536
 20
2.9616917267
 10
3.9180701729
 20
2.9620188121
 10
3.9178910146
 20
2.9623874685
 10
3.9176984832
 20
2.9627989154
 10
3.917493989
 20
2.9632525053
 10
3.9172781732
 20
2.9637490824
 10
3.9170515575
 20
2.9642897144
 10
3.9168151996
 20
2.9648740901
 10
3.9165696357
 20
2.9655030294
 10
3.9163153131
 20
2.9661775417
 10
3.9160530294
 20
2.9668976352
 10
3.9157832172
 20
2.967664213
 10
3.9155063061
 20
2.9684781515
 10
3.9152230112
 20
2.9693393979
 10
3.9149337316
 20
2.9702487564
 10
3.9146388782
 20
2.9712069708
 10
3.9143391177
 20
2.9722138824
 10
3.9140348412
 20
2.9732701571
 10
3.9137263996
 20
2.9743765778
 10
3.9134143453
 20
2.9755331556
 10
3.9130990494
 20
2.9767404944
 10
3.9127808366
 20
2.9779993545
 10
3.9124601521
 20
2.9793099904
 10
3.9121374367
 20
2.9806726018
 10
3.9118129146
 20
2.9820882729
 10
3.9114866889
 20
2.983558689
 10
3.9111591654
 20
2.9850842273
 10
3.9108306151
 20
2.9866658713
 10
3.9105009604
 20
2.9883064094
 10
3.9101705902
 20
2.9900064801
 10
3.9098398759
 20
2.9917668051
 10
3.9095087481
 20
2.9935905785
 10
3.9091775941
 20
2.9954786993
 10
3.9088468524
 20
2.997431781
 10
3.9085165735
 20
2.9994528345
 10
3.9081870865
 20
3.0015434133
 10
3.9078589656
 20
3.003703548
 10
3.9075326576
 20
3.0059340439
 10
3.907208599
 20
3.0082357978
 10
3.906887295
 20
3.0106092323
 10
3.9065693266
 20
3.0130542397
 10
3.9062551809
 20
3.015571433
 10
3.905945427
 20
3.0181607667
 10
3.9056407708
 20
3.0208208926
 10
3.9053414463
 20
3.0235545607
 10
3.9050482887
 20
3.0263591103
 10
3.9047627909
 20
3.0292245199
 10
3.9044852504
 20
3.0321515826
 10
3.9042162161
 20
3.0351384037
 10
3.9039572913
 20
3.038169984
 10
3.9037087728
 20
3.0412445835
 10
3.903470887
 20
3.0443614874
  0
LINE
  5
25A
100
AcDbEntity
  8
0
100
AcDbLine
 62
7
  6
CONTINUOUS
 10
3.3759320871
 20
5.8813356188
 11
3.3763783702
 21
5.8751805816
  0
LINE
  5
25B
100
AcDbEntity
  8
0
100
AcDbLine
 62
7
  6
CONTINUOUS
 10
3.3763783702
 20
5.8751805816
 11
3.3767780163
 21
5.8689383001
  0
LINE
  5
25C
100
AcDbEntity
  8
0
100
AcDbLine
 62
7
  6
CONTINUOUS
 10
3.3767780163
 20
5.8689383001
 11
3.3771310005
 21
5.8626139194
  0
LINE
  5
25D
100
AcDbEntity
  8
0
100
AcDbLine
 62
7
  6
CONTINUOUS
 10
3.3771310005
 20
5.8626139194
 11
3.377437033
 21
5.8562172573
  0
LINE
  5
25E
100
AcDbEntity
  8
0
100
AcDbLine
 62
7
  6
CONTINUOUS
 10
3.377437033
 20
5.8562172573
 11
3.3776960179
 21
5.8497552561
  0
LINE
  5
25F
100
AcDbEntity
  8
0
100
AcDbLine
 62
7
  6
CONTINUOUS
 10
3.3776960179
 20
5.8497552561
 11
3.377907672
 21
5.8432348012
  0
LINE
  5
260
100
AcDbEntity
  8
0
100
AcDbLine
 62
7
  6
CONTINUOUS
 10
3.377907672
 20
5.8432348012
 11
3.3780714665
 21
5.8366655959
  0
LINE
  5
261
100
AcDbEntity
  8
0
100
AcDbLine
 62
7
  6
CONTINUOUS
 10
3.3780714665
 20
5.8366655959
 11
3.3781870461
 21
5.8300541836
  0
LINE
  5
262
100
AcDbEntity
  8
0
100
AcDbLine
 62
7
  6
CONTINUOUS
 10
3.3781870461
 20
5.8300541836
 11
3.3782541136
 21
5.8234063254
  0
LINE
  5
263
100
AcDbEntity
  8
0
100
AcDbLine
 62
7
  6
CONTINUOUS
 10
3.3782541136
 20
5.8234063254
 11
3.378272793
 21
5.8175777436
  0
LINE
  5
264
100
AcDbEntity
  8
0
100
AcDbLine
 62
7
  6
CONTINUOUS
 10
3.3469488477
 20
2.4353458998
 11
3.3469488477
 21
2.9426814428
  0
LINE
  5
265
100
AcDbEntity
  8
0
100
AcDbLine
 62
7
  6
CONTINUOUS
 10
3.3473049159
 20
2.4353458998
 11
3.3473049159
 21
2.9427117376
  0
LINE
  5
266
100
AcDbEntity
  8
0
100
AcDbLine
 62
7
  6
CONTINUOUS
 10
3.3703863477
 20
2.4119083998
 11
3.3703863477
 21
2.4122644681
  0
LINE
  5
267
100
AcDbEntity
  8
0
100
AcDbLine
 62
7
  6
CONTINUOUS
 10
3.3786288613
 20
3.1061805786
 11
3.3786288613
 21
5.8175777436
  0
LINE
  5
268
100
AcDbEntity
  8
0
100
AcDbLine
 62
7
  6
CONTINUOUS
 10
3.4318512787
 20
6.4360061152
 11
3.4318512787
 21
2.5198922626
  0
LINE
  5
269
100
AcDbEntity
  8
0
100
AcDbLine
 62
7
  6
CONTINUOUS
 10
3.4549327104
 20
2.4968108308
 11
3.4549327104
 21
6.4590875469
  0
LINE
  5
26A
100
AcDbEntity
  8
0
100
AcDbLine
 62
7
  6
CONTINUOUS
 10
3.4944621506
 20
6.372851675
 11
3.4944621506
 21
6.129476675
  0
LINE
  5
26B
100
AcDbEntity
  8
0
100
AcDbLine
 62
7
  6
CONTINUOUS
 10
3.5057121506
 20
6.372851675
 11
3.5057121506
 21
6.129476675
  0
LINE
  5
26C
100
AcDbEntity
  8
0
100
AcDbLine
 62
7
  6
CONTINUOUS
 10
3.5180871506
 20
6.117101675
 11
3.5180871506
 21
6.105851675
  0
LINE
  5
26D
100
AcDbEntity
  8
0
100
AcDbLine
 62
7
  6
CONTINUOUS
 10
3.5180871506
 20
6.385226675
 11
3.5180871506
 21
6.396476675
  0
LINE
  5
26E
100
AcDbEntity
  8
0
100
AcDbLine
 62
7
  6
CONTINUOUS
 10
3.378272793
 20
5.8175777436
 11
3.3782690099
 21
3.1035589827
  0
LINE
  5
26F
100
AcDbEntity
  8
0
100
AcDbLine
 62
7
  6
CONTINUOUS
 10
3.3782690099
 20
3.1035589827
 11
3.3782241867
 21
3.0967805932
  0
LINE
  5
270
100
AcDbEntity
  8
0
100
AcDbLine
 62
7
  6
CONTINUOUS
 10
3.3782241867
 20
3.0967805932
 11
3.378129008
 21
3.0900360557
  0
LINE
  5
271
100
AcDbEntity
  8
0
100
AcDbLine
 62
7
  6
CONTINUOUS
 10
3.378129008
 20
3.0900360557
 11
3.3779836907
 21
3.0833296823
  0
LINE
  5
272
100
AcDbEntity
  8
0
100
AcDbLine
 62
7
  6
CONTINUOUS
 10
3.3779836907
 20
3.0833296823
 11
3.3777886013
 21
3.076670748
  0
LINE
  5
273
100
AcDbEntity
  8
0
100
AcDbLine
 62
7
  6
CONTINUOUS
 10
3.3777886013
 20
3.076670748
 11
3.3775441026
 21
3.070065239
  0
LINE
  5
274
100
AcDbEntity
  8
0
100
AcDbLine
 62
7
  6
CONTINUOUS
 10
3.3775441026
 20
3.070065239
 11
3.377250575
 21
3.063521467
  0
LINE
  5
275
100
AcDbEntity
  8
0
100
AcDbLine
 62
7
  6
CONTINUOUS
 10
3.377250575
 20
3.063521467
 11
3.3769081663
 21
3.0570480562
  0
LINE
  5
276
100
AcDbEntity
  8
0
100
AcDbLine
 62
7
  6
CONTINUOUS
 10
3.3769081663
 20
3.0570480562
 11
3.3765167475
 21
3.0506495223
  0
LWPOLYLINE
  5
277
100
AcDbEntity
  8
0
100
AcDbPolyline
 62
7
  6
CONTINUOUS
 90
59
 70
0
 10
3.3765167475
 20
3.0506495223
 10
3.3760771313
 20
3.0443445312
 10
3.3758395009
 20
3.0412316075
 10
3.3755912577
 20
3.0381607783
 10
3.3753326078
 20
3.0351327236
 10
3.3750638434
 20
3.0321491727
 10
3.3747865383
 20
3.029224798
 10
3.3745012311
 20
3.026361423
 10
3.3742082289
 20
3.0235583898
 10
3.3739090211
 20
3.0208257174
 10
3.3736044321
 20
3.0181660151
 10
3.3732947046
 20
3.015576652
 10
3.3729805713
 20
3.0130592251
 10
3.3726626029
 20
3.0106138174
 10
3.3723412571
 20
3.0082397079
 10
3.3720171083
 20
3.0059370685
 10
3.3716906659
 20
3.0037055188
 10
3.3713623708
 20
3.0015441948
 10
3.3710326936
 20
2.999452439
 10
3.3707022208
 20
2.997430284
 10
3.3703712831
 20
2.9954761692
 10
3.3700399388
 20
2.993587115
 10
3.3697086347
 20
2.9917625392
 10
3.3693777627
 20
2.9900015536
 10
3.3690472556
 20
2.9883009629
 10
3.3687174912
 20
2.9866600662
 10
3.3683888508
 20
2.9850781817
 10
3.3680612298
 20
2.9835523912
 10
3.3677348942
 20
2.9820816874
 10
3.3674102518
 20
2.9806657029
 10
3.3670873991
 20
2.9793027277
 10
3.3667665576
 20
2.9779916719
 10
3.3664481758
 20
2.9767323727
 10
3.3661327082
 20
2.9755246176
 10
3.3658204809
 20
2.9743676525
 10
3.3655118688
 20
2.9732608914
 10
3.3652074398
 20
2.9722043782
 10
3.3649075563
 20
2.971197366
 10
3.3646126045
 20
2.970239169
 10
3.3643232409
 20
2.9693299117
 10
3.3640398689
 20
2.9684688258
 10
3.3637628813
 20
2.9676550666
 10
3.3634929848
 20
2.9668886373
 10
3.3632306023
 20
2.9661686385
 10
3.3629761729
 20
2.9654941899
 10
3.3627305186
 20
2.964865347
 10
3.3624940945
 20
2.9642811175
 10
3.3622674362
 20
2.9637406756
 10
3.3620516141
 20
2.9632443579
 10
3.3618471528
 20
2.9627910974
 10
3.3616546981
 20
2.9623800544
 10
3.3614756778
 20
2.9620119048
 10
3.3613106949
 20
2.9616854291
 10
3.3611605643
 20
2.9613997736
 10
3.3610272474
 20
2.9611560504
 10
3.3609116194
 20
2.9609530945
 10
3.3608145114
 20
2.9607895877
 10
3.3607380224
 20
2.9606661522
 10
3.3606908286
 20
2.9605929725
  0
LINE
  5
278
100
AcDbEntity
  8
0
100
AcDbLine
 62
7
  6
CONTINUOUS
 10
3.3469488477
 20
2.9426814428
 11
3.3473049159
 21
2.9426814428
  0
LINE
  5
279
100
AcDbEntity
  8
0
100
AcDbLine
 62
7
  6
CONTINUOUS
 10
3.9322443853
 20
2.9426814428
 11
3.9326004536
 21
2.9426814428
  0
LINE
  5
27A
100
AcDbEntity
  8
0
100
AcDbLine
 62
7
  6
CONTINUOUS
 10
3.9012765082
 20
3.1061805786
 11
3.9009204399
 21
3.1061805786
  0
LINE
  5
27B
100
AcDbEntity
  8
0
100
AcDbLine
 62
7
  6
CONTINUOUS
 10
3.378272793
 20
3.1061805786
 11
3.3786288613
 21
3.1061805786
  0
LINE
  5
27C
100
AcDbEntity
  8
0
100
AcDbLine
 62
7
  6
CONTINUOUS
 10
3.903470887
 20
3.0443614874
 11
3.9030309153
 21
3.0506738316
  0
LINE
  5
27D
100
AcDbEntity
  8
0
100
AcDbLine
 62
7
  6
CONTINUOUS
 10
3.9030309153
 20
3.0506738316
 11
3.9026393392
 21
3.0570786995
  0
LINE
  5
27E
100
AcDbEntity
  8
0
100
AcDbLine
 62
7
  6
CONTINUOUS
 10
3.9026393392
 20
3.0570786995
 11
3.9022969514
 21
3.0635571631
  0
LINE
  5
27F
100
AcDbEntity
  8
0
100
AcDbLine
 62
7
  6
CONTINUOUS
 10
3.9022969514
 20
3.0635571631
 11
3.9020035595
 21
3.0701052677
  0
LINE
  5
280
100
AcDbEntity
  8
0
100
AcDbLine
 62
7
  6
CONTINUOUS
 10
3.9020035595
 20
3.0701052677
 11
3.9017592713
 21
3.0767146179
  0
LINE
  5
281
100
AcDbEntity
  8
0
100
AcDbLine
 62
7
  6
CONTINUOUS
 10
3.9017592713
 20
3.0767146179
 11
3.9015644243
 21
3.0833776571
  0
LINE
  5
282
100
AcDbEntity
  8
0
100
AcDbLine
 62
7
  6
CONTINUOUS
 10
3.9015644243
 20
3.0833776571
 11
3.9014193814
 21
3.0900887544
  0
LINE
  5
283
100
AcDbEntity
  8
0
100
AcDbLine
 62
7
  6
CONTINUOUS
 10
3.9014193814
 20
3.0900887544
 11
3.901324525
 21
3.0968390216
  0
LINE
  5
284
100
AcDbEntity
  8
0
100
AcDbLine
 62
7
  6
CONTINUOUS
 10
3.901324525
 20
3.0968390216
 11
3.9012801053
 21
3.1036246644
  0
LINE
  5
285
100
AcDbEntity
  8
0
100
AcDbLine
 62
7
  6
CONTINUOUS
 10
3.7614621506
 20
6.117101675
 11
3.7614621506
 21
6.105851675
  0
LINE
  5
286
100
AcDbEntity
  8
0
100
AcDbLine
 62
7
  6
CONTINUOUS
 10
3.7614621506
 20
6.385226675
 11
3.7614621506
 21
6.396476675
  0
LINE
  5
287
100
AcDbEntity
  8
0
100
AcDbLine
 62
7
  6
CONTINUOUS
 10
3.7738371506
 20
6.129476675
 11
3.7738371506
 21
6.372851675
  0
LINE
  5
288
100
AcDbEntity
  8
0
100
AcDbLine
 62
7
  6
CONTINUOUS
 10
3.7850871506
 20
6.129476675
 11
3.7850871506
 21
6.372851675
  0
LINE
  5
289
100
AcDbEntity
  8
0
100
AcDbLine
 62
7
  6
CONTINUOUS
 10
3.8246165908
 20
2.4968108308
 11
3.8246165908
 21
6.4590875469
  0
LINE
  5
28A
100
AcDbEntity
  8
0
100
AcDbLine
 62
7
  6
CONTINUOUS
 10
3.8476980225
 20
2.5198922626
 11
3.8476980225
 21
6.4360061152
  0
LINE
  5
28B
100
AcDbEntity
  8
0
100
AcDbLine
 62
7
  6
CONTINUOUS
 10
3.9009204399
 20
5.8175777436
 11
3.9009204399
 21
3.1061805786
  0
LINE
  5
28C
100
AcDbEntity
  8
0
100
AcDbLine
 62
7
  6
CONTINUOUS
 10
3.9091629536
 20
2.4122644681
 11
3.9091629536
 21
2.4119083998
  0
LINE
  5
28D
100
AcDbEntity
  8
0
100
AcDbLine
 62
7
  6
CONTINUOUS
 10
3.9012801053
 20
3.1036246644
 11
3.9012801184
 21
5.8201385868
  0
LINE
  5
28E
100
AcDbEntity
  8
0
100
AcDbLine
 62
7
  6
CONTINUOUS
 10
3.9012801184
 20
5.8201385868
 11
3.9013232474
 21
5.8267957168
  0
LINE
  5
28F
100
AcDbEntity
  8
0
100
AcDbLine
 62
7
  6
CONTINUOUS
 10
3.9013232474
 20
5.8267957168
 11
3.9014149726
 21
5.8334219811
  0
LINE
  5
290
100
AcDbEntity
  8
0
100
AcDbLine
 62
7
  6
CONTINUOUS
 10
3.9014149726
 20
5.8334219811
 11
3.9015550893
 21
5.8400118374
  0
LINE
  5
291
100
AcDbEntity
  8
0
100
AcDbLine
 62
7
  6
CONTINUOUS
 10
3.9015550893
 20
5.8400118374
 11
3.9017432331
 21
5.8465557187
  0
LINE
  5
292
100
AcDbEntity
  8
0
100
AcDbLine
 62
7
  6
CONTINUOUS
 10
3.9017432331
 20
5.8465557187
 11
3.9019790007
 21
5.8530467291
  0
LINE
  5
293
100
AcDbEntity
  8
0
100
AcDbLine
 62
7
  6
CONTINUOUS
 10
3.9019790007
 20
5.8530467291
 11
3.9022619251
 21
5.8594761742
  0
LINE
  5
294
100
AcDbEntity
  8
0
100
AcDbLine
 62
7
  6
CONTINUOUS
 10
3.9022619251
 20
5.8594761742
 11
3.9025917452
 21
5.8658352052
  0
LINE
  5
295
100
AcDbEntity
  8
0
100
AcDbLine
 62
7
  6
CONTINUOUS
 10
3.9025917452
 20
5.8658352052
 11
3.9029683057
 21
5.8721165723
  0
LINE
  5
296
100
AcDbEntity
  8
0
100
AcDbLine
 62
7
  6
CONTINUOUS
 10
3.9029683057
 20
5.8721165723
 11
3.9033913651
 21
5.8783119783
  0
LWPOLYLINE
  5
297
100
AcDbEntity
  8
0
100
AcDbPolyline
 62
7
  6
CONTINUOUS
 90
57
 70
0
 10
3.9033913651
 20
5.8783119783
 10
3.9038597806
 20
5.8844024894
 10
3.9041100964
 20
5.887397361
 10
3.9043708515
 20
5.8903558613
 10
3.904640829
 20
5.8932657145
 10
3.9049197159
 20
5.8961259204
 10
3.9052072072
 20
5.8989356786
 10
3.9055018499
 20
5.901683818
 10
3.9058030275
 20
5.904368368
 10
3.9061104717
 20
5.9069906073
 10
3.9064230803
 20
5.9095449457
 10
3.9067401858
 20
5.9120300496
 10
3.907061473
 20
5.9144474033
 10
3.9073863289
 20
5.9167961111
 10
3.9077142961
 20
5.9190765268
 10
3.9080449334
 20
5.9212891415
 10
3.9083776409
 20
5.9234334557
 10
3.9087119223
 20
5.9255097643
 10
3.9090473775
 20
5.927518979
 10
3.9093835447
 20
5.9294616336
 10
3.9097198548
 20
5.931337697
 10
3.9100560054
 20
5.9331486573
 10
3.9103919548
 20
5.9348972415
 10
3.910727282
 20
5.9365840409
 10
3.9110616035
 20
5.9382098429
 10
3.9113949812
 20
5.9397774909
 10
3.9117270723
 20
5.9412877564
 10
3.9120575118
 20
5.942741319
 10
3.9123863491
 20
5.944140609
 10
3.9127133074
 20
5.9454865266
 10
3.9130379683
 20
5.9467793972
 10
3.9133601584
 20
5.9480205305
 10
3.9136796728
 20
5.9492110493
 10
3.9139959943
 20
5.950350921
 10
3.9143084383
 20
5.9514396378
 10
3.9146166432
 20
5.9524779318
 10
3.9149201766
 20
5.9534663219
 10
3.9152181777
 20
5.9544040448
 10
3.9155102188
 20
5.9552918534
 10
3.9157958578
 20
5.9561305093
 10
3.9160741293
 20
5.9569193628
 10
3.9163445929
 20
5.9576594101
 10
3.9166067324
 20
5.9583514711
 10
3.9168593622
 20
5.958994738
 10
3.917101969
 20
5.9595903048
 10
3.9173339618
 20
5.9601391118
 10
3.9175539054
 20
5.960640263
 10
3.9177611876
 20
5.9610949599
 10
3.917955139
 20
5.9615043231
 10
3.9181340858
 20
5.9618675257
 10
3.9182972784
 20
5.9621858661
 10
3.9184439877
 20
5.9624607346
 10
3.9185724029
 20
5.962691659
 10
3.9186815647
 20
5.962879957
 10
3.9187707459
 20
5.9630274092
 10
3.9188383326
 20
5.9631344427
 10
3.9188774209
 20
5.9631938915
  0
LINE
  5
298
100
AcDbEntity
  8
0
100
AcDbLine
 62
7
  6
CONTINUOUS
 10
3.9322443853
 20
2.942802373
 11
3.9322443853
 21
2.4353458998
  0
LINE
  5
299
100
AcDbEntity
  8
0
100
AcDbLine
 62
7
  6
CONTINUOUS
 10
3.9326004536
 20
2.9426814428
 11
3.9326004536
 21
2.4353458998
  0
LINE
  5
29A
100
AcDbEntity
  8
0
100
AcDbLine
 62
7
  6
CONTINUOUS
 10
4.0355144539
 20
5.83234294
 11
4.0355144539
 21
5.8203405955
  0
LINE
  5
29B
100
AcDbEntity
  8
0
100
AcDbLine
 62
7
  6
CONTINUOUS
 10
4.0355144539
 20
6.6699854099
 11
4.0355144539
 21
6.6819877544
  0
LINE
  5
29C
100
AcDbEntity
  8
0
100
AcDbLine
 62
7
  6
CONTINUOUS
 10
4.0585958856
 20
6.6469039782
 11
4.0585958856
 21
5.8554243717
  0
LINE
  5
29D
100
AcDbEntity
  8
0
100
AcDbLine
 62
7
  6
CONTINUOUS
 10
4.0705982301
 20
6.6469039782
 11
4.0705982301
 21
5.8554243717
  0
LINE
  5
29E
100
AcDbEntity
  8
0
100
AcDbLine
 62
7
  6
CONTINUOUS
 10
4.0944621506
 20
6.717101675
 11
4.0944621506
 21
6.729289175
  0
LINE
  5
29F
100
AcDbEntity
  8
0
100
AcDbLine
 62
7
  6
CONTINUOUS
 10
4.0944621506
 20
5.785226675
 11
4.0944621519
 21
5.773039175
  0
LINE
  5
2A0
100
AcDbEntity
  8
0
100
AcDbLine
 62
7
  6
CONTINUOUS
 10
4.1057121506
 20
5.796476675
 11
4.1057121506
 21
6.705851675
  0
LINE
  5
2A1
100
AcDbEntity
  8
0
100
AcDbLine
 62
7
  6
CONTINUOUS
 10
4.1178996506
 20
5.796476675
 11
4.1178996506
 21
6.705851675
  0
LINE
  5
2A2
100
AcDbEntity
  8
0
100
AcDbLine
 62
7
  6
CONTINUOUS
 10
4.2200764146
 20
5.6417891763
 11
4.2200764146
 21
6.8605391736
  0
LINE
  5
2A3
100
AcDbEntity
  8
0
100
AcDbLine
 62
7
  6
CONTINUOUS
 10
5.396266769
 20
6.5298144678
 11
5.3197352007
 21
6.4532828995
  0
LINE
  5
2A4
100
AcDbEntity
  8
0
100
AcDbLine
 62
7
  6
CONTINUOUS
 10
4.8611243578
 20
5.9946720566
 11
4.9376559261
 21
6.0712036249
  0
LINE
  5
2A5
100
AcDbEntity
  8
0
100
AcDbLine
 62
7
  6
CONTINUOUS
 10
5.4184249434
 20
6.5076562933
 11
5.3418933751
 21
6.431124725
  0
LINE
  5
2A6
100
AcDbEntity
  8
0
100
AcDbLine
 62
7
  6
CONTINUOUS
 10
4.8832825323
 20
5.9725138822
 11
4.9598141006
 21
6.0490454505
  0
LINE
  5
2A7
100
AcDbEntity
  8
0
100
AcDbLine
 62
7
  6
CONTINUOUS
 10
1.8611243578
 20
6.5076562933
 11
1.9376555148
 21
6.4311251363
  0
LINE
  5
2A8
100
AcDbEntity
  8
0
100
AcDbLine
 62
7
  6
CONTINUOUS
 10
2.396266769
 20
5.9725138822
 11
2.319735612
 21
6.0490450392
  0
LINE
  5
2A9
100
AcDbEntity
  8
0
100
AcDbLine
 62
7
  6
CONTINUOUS
 10
1.8832825323
 20
6.5298144678
 11
1.9598136893
 21
6.4532833107
  0
LINE
  5
2AA
100
AcDbEntity
  8
0
100
AcDbLine
 62
7
  6
CONTINUOUS
 10
2.4184249434
 20
5.9946720566
 11
2.3418937864
 21
6.0712032136
  0
LINE
  5
2AB
100
AcDbEntity
  8
0
100
AcDbLine
 62
7
  6
CONTINUOUS
 10
4.2491496493
 20
5.670862411
 11
4.2491496493
 21
6.8314659389
  0
LINE
  5
2AC
100
AcDbEntity
  8
0
100
AcDbLine
 62
7
  6
CONTINUOUS
 10
8.7266496506
 20
3.8331679482
 11
9.0528996506
 21
3.8331679482
  0
LINE
  5
2AD
100
AcDbEntity
  8
0
100
AcDbLine
 62
7
  6
CONTINUOUS
 10
8.7266496506
 20
3.8345074947
 11
9.0528996506
 21
3.8345074947
  0
LINE
  5
2AE
100
AcDbEntity
  8
0
100
AcDbLine
 62
7
  6
CONTINUOUS
 10
8.7459621506
 20
3.841242728
 11
9.0335871506
 21
3.841242728
  0
LINE
  5
2AF
100
AcDbEntity
  8
0
100
AcDbLine
 62
7
  6
CONTINUOUS
 10
8.7459621506
 20
3.8425822744
 11
9.0335871506
 21
3.8425822744
  0
LWPOLYLINE
  5
2B0
100
AcDbEntity
  8
0
100
AcDbPolyline
 62
7
  6
CONTINUOUS
 90
60
 70
0
 10
3.360666148
 20
5.9632052276
 10
3.3606469034
 20
5.9632306958
 10
3.3606438814
 20
5.9632347386
 10
3.3606657481
 20
5.9632029558
 10
3.3607110879
 20
5.9631341721
 10
3.3607791275
 20
5.9630263682
 10
3.3608687989
 20
5.9628780428
 10
3.3609783565
 20
5.9626889875
 10
3.3611070336
 20
5.9624575081
 10
3.3612539266
 20
5.9621822038
 10
3.3614172479
 20
5.9618635131
 10
3.3615962734
 20
5.9615000429
 10
3.3617902591
 20
5.9610904891
 10
3.3619975524
 20
5.960635638
 10
3.3622174903
 20
5.9601343557
 10
3.3624494619
 20
5.959585437
 10
3.3626920444
 20
5.958989749
 10
3.3629446445
 20
5.9583463547
 10
3.3632067578
 20
5.9576541348
 10
3.3634772247
 20
5.9569138228
 10
3.3637555387
 20
5.9561245601
 10
3.3640412452
 20
5.9552853914
 10
3.364333358
 20
5.954397053
 10
3.3646314266
 20
5.9534588253
 10
3.3649350184
 20
5.9524699672
 10
3.3652432594
 20
5.9514312831
 10
3.3655557126
 20
5.95034227
 10
3.3658720269
 20
5.949202161
 10
3.3661915279
 20
5.9480114257
 10
3.3665137033
 20
5.9467700753
 10
3.3668383479
 20
5.9454769845
 10
3.3671652906
 20
5.9441308322
 10
3.3674941167
 20
5.9427312748
 10
3.3678245507
 20
5.9412774049
 10
3.3681566398
 20
5.9397667996
 10
3.3684900208
 20
5.9381987733
 10
3.3688243356
 20
5.9365726275
 10
3.3691596225
 20
5.9348856369
 10
3.3694954981
 20
5.9331370241
 10
3.3698315488
 20
5.9313261733
 10
3.3701677376
 20
5.9294503465
 10
3.3705037632
 20
5.9275080675
 10
3.3708390685
 20
5.9254993138
 10
3.3711732135
 20
5.9234234344
 10
3.3715058023
 20
5.9212794951
 10
3.3718363466
 20
5.9190671579
 10
3.3721642701
 20
5.9167867573
 10
3.3724891352
 20
5.9144377639
 10
3.3728104736
 20
5.9120198365
 10
3.3731276575
 20
5.9095338317
 10
3.3734403677
 20
5.9069782307
 10
3.373747931
 20
5.9043543836
 10
3.3740492486
 20
5.9016678248
 10
3.374344063
 20
5.8989171454
 10
3.3746317457
 20
5.8961043935
 10
3.3749108164
 20
5.8932410093
 10
3.3751809743
 20
5.8903277668
 10
3.3754419089
 20
5.8873656651
 10
3.3756923787
 20
5.8843673095
 10
3.3759320871
 20
5.8813356188
  0
LINE
  5
2B1
100
AcDbEntity
  8
0
100
AcDbLine
 62
7
  6
CONTINUOUS
 10
4.6916496506
 20
6.676789175
 11
4.6916496506
 21
5.825539175
  0
LINE
  5
2B2
100
AcDbEntity
  8
0
100
AcDbLine
 62
7
  6
CONTINUOUS
 10
4.7028996506
 20
6.676789175
 11
4.7028996506
 21
5.825539175
  0
LINE
  5
2B3
100
AcDbEntity
  8
0
100
AcDbLine
 62
7
  6
CONTINUOUS
 10
4.7141496506
 20
5.814289175
 11
4.7141496506
 21
5.803039175
  0
LINE
  5
2B4
100
AcDbEntity
  8
0
100
AcDbLine
 62
7
  6
CONTINUOUS
 10
4.7141496506
 20
6.688039175
 11
4.7141496506
 21
6.699289175
  0
LINE
  5
2B5
100
AcDbEntity
  8
0
100
AcDbLine
 62
7
  6
CONTINUOUS
 10
4.8125871506
 20
6.555851675
 11
4.8125871506
 21
5.946476675
  0
LINE
  5
2B6
100
AcDbEntity
  8
0
100
AcDbLine
 62
7
  6
CONTINUOUS
 10
4.8238371506
 20
6.555851675
 11
4.8238371506
 21
5.946476675
  0
LINE
  5
2B7
100
AcDbEntity
  8
0
100
AcDbLine
 62
7
  6
CONTINUOUS
 10
4.8350871506
 20
5.935226675
 11
4.8350871506
 21
5.923976675
  0
LINE
  5
2B8
100
AcDbEntity
  8
0
100
AcDbLine
 62
7
  6
CONTINUOUS
 10
4.8350871506
 20
6.567101675
 11
4.8350871507
 21
6.578351675
  0
LINE
  5
2B9
100
AcDbEntity
  8
0
100
AcDbLine
 62
7
  6
CONTINUOUS
 10
4.8500452706
 20
6.5076562933
 11
4.8500452706
 21
5.9946720566
  0
LINE
  5
2BA
100
AcDbEntity
  8
0
100
AcDbLine
 62
7
  6
CONTINUOUS
 10
9.0335871506
 20
4.1031331407
 11
8.7459621506
 21
4.1031331407
  0
LINE
  5
2BB
100
AcDbEntity
  8
0
100
AcDbLine
 62
7
  6
CONTINUOUS
 10
8.7459621506
 20
4.1084162609
 11
9.0335871506
 21
4.1084162609
  0
LINE
  5
2BC
100
AcDbEntity
  8
0
100
AcDbLine
 62
7
  6
CONTINUOUS
 10
9.0528996506
 20
4.1160288275
 11
8.7266496506
 21
4.1160288275
  0
LINE
  5
2BD
100
AcDbEntity
  8
0
100
AcDbLine
 62
7
  6
CONTINUOUS
 10
9.0528996506
 20
4.1213119477
 11
8.7266496506
 21
4.1213119477
  0
LINE
  5
2BE
100
AcDbEntity
  8
0
100
AcDbLine
 62
7
  6
CONTINUOUS
 10
4.8611243578
 20
6.5076562933
 11
4.8611243578
 21
5.9946720566
  0
LINE
  5
2BF
100
AcDbEntity
  8
0
100
AcDbLine
 62
7
  6
CONTINUOUS
 10
4.8832825323
 20
6.540893555
 11
4.8832825323
 21
6.5298144678
  0
LINE
  5
2C0
100
AcDbEntity
  8
0
100
AcDbLine
 62
7
  6
CONTINUOUS
 10
4.8832825323
 20
5.961434795
 11
4.8832825323
 21
5.9725138822
  0
LINE
  5
2C1
100
AcDbEntity
  8
0
100
AcDbLine
 62
7
  6
CONTINUOUS
 10
4.9376496506
 20
6.430789175
 11
4.9376496506
 21
6.071539175
  0
LINE
  5
2C2
100
AcDbEntity
  8
0
100
AcDbLine
 62
7
  6
CONTINUOUS
 10
4.9488996506
 20
6.430789175
 11
4.9488996506
 21
6.071539175
  0
LINE
  5
2C3
100
AcDbEntity
  8
0
100
AcDbLine
 62
7
  6
CONTINUOUS
 10
4.9601496506
 20
6.060289175
 11
4.9601496506
 21
6.049039175
  0
LINE
  5
2C4
100
AcDbEntity
  8
0
100
AcDbLine
 62
7
  6
CONTINUOUS
 10
4.9601496506
 20
6.442039175
 11
4.9601496507
 21
6.453289175
  0
LINE
  5
2C5
100
AcDbEntity
  8
0
100
AcDbLine
 62
7
  6
CONTINUOUS
 10
4.9809621506
 20
6.1684551946
 11
4.9809621506
 21
6.3338731553
  0
LINE
  5
2C6
100
AcDbEntity
  8
0
100
AcDbLine
 62
7
  6
CONTINUOUS
 10
4.9909621506
 20
6.1572748547
 11
4.9909621506
 21
6.3450534952
  0
LINE
  5
2C7
100
AcDbEntity
  8
0
100
AcDbLine
 62
7
  6
CONTINUOUS
 10
5.0109621506
 20
6.133601675
 11
5.0109621506
 21
6.368726675
  0
LINE
  5
2C8
100
AcDbEntity
  8
0
100
AcDbLine
 62
7
  6
CONTINUOUS
 10
5.0222121506
 20
6.122351675
 11
5.0222121506
 21
6.379976675
  0
LINE
  5
2C9
100
AcDbEntity
  8
0
100
AcDbLine
 62
7
  6
CONTINUOUS
 10
5.2573371506
 20
6.379976675
 11
5.2573371506
 21
6.122351675
  0
LINE
  5
2CA
100
AcDbEntity
  8
0
100
AcDbLine
 62
7
  6
CONTINUOUS
 10
5.2685871506
 20
6.368726675
 11
5.2685871506
 21
6.133601675
  0
LINE
  5
2CB
100
AcDbEntity
  8
0
100
AcDbLine
 62
7
  6
CONTINUOUS
 10
5.2910871506
 20
6.157414175
 11
5.2910871506
 21
6.344914175
  0
LINE
  5
2CC
100
AcDbEntity
  8
0
100
AcDbLine
 62
7
  6
CONTINUOUS
 10
5.3193996506
 20
6.060289175
 11
5.3193996506
 21
6.049039175
  0
LINE
  5
2CD
100
AcDbEntity
  8
0
100
AcDbLine
 62
7
  6
CONTINUOUS
 10
5.3193996506
 20
6.442039175
 11
5.3193996506
 21
6.453289175
  0
LINE
  5
2CE
100
AcDbEntity
  8
0
100
AcDbLine
 62
7
  6
CONTINUOUS
 10
5.3306496506
 20
6.071539175
 11
5.3306496506
 21
6.157414175
  0
LINE
  5
2CF
100
AcDbEntity
  8
0
100
AcDbLine
 62
7
  6
CONTINUOUS
 10
5.3306496506
 20
6.344914175
 11
5.3306496506
 21
6.430789175
  0
LINE
  5
2D0
100
AcDbEntity
  8
0
100
AcDbLine
 62
7
  6
CONTINUOUS
 10
5.3418996506
 20
6.071539175
 11
5.3418996506
 21
6.157414175
  0
LINE
  5
2D1
100
AcDbEntity
  8
0
100
AcDbLine
 62
7
  6
CONTINUOUS
 10
5.3418996506
 20
6.344914175
 11
5.3418996506
 21
6.430789175
  0
LINE
  5
2D2
100
AcDbEntity
  8
0
100
AcDbLine
 62
7
  6
CONTINUOUS
 10
5.396266769
 20
6.540893555
 11
5.396266769
 21
6.5298144678
  0
LINE
  5
2D3
100
AcDbEntity
  8
0
100
AcDbLine
 62
7
  6
CONTINUOUS
 10
5.396266769
 20
5.961434795
 11
5.396266769
 21
5.9725138822
  0
LINE
  5
2D4
100
AcDbEntity
  8
0
100
AcDbLine
 62
7
  6
CONTINUOUS
 10
5.4184249434
 20
5.9946720566
 11
5.4184249434
 21
6.157414175
  0
LINE
  5
2D5
100
AcDbEntity
  8
0
100
AcDbLine
 62
7
  6
CONTINUOUS
 10
5.4184249434
 20
6.344914175
 11
5.4184249434
 21
6.5076562933
  0
LINE
  5
2D6
100
AcDbEntity
  8
0
100
AcDbLine
 62
7
  6
CONTINUOUS
 10
5.4295040306
 20
5.9946720566
 11
5.4295040306
 21
6.157414175
  0
LINE
  5
2D7
100
AcDbEntity
  8
0
100
AcDbLine
 62
7
  6
CONTINUOUS
 10
5.4295040306
 20
6.344914175
 11
5.4295040306
 21
6.5076562933
  0
LINE
  5
2D8
100
AcDbEntity
  8
0
100
AcDbLine
 62
7
  6
CONTINUOUS
 10
5.4444621506
 20
5.935226675
 11
5.4444621506
 21
5.923976675
  0
LINE
  5
2D9
100
AcDbEntity
  8
0
100
AcDbLine
 62
7
  6
CONTINUOUS
 10
5.4444621506
 20
6.567101675
 11
5.4444621506
 21
6.578351675
  0
LINE
  5
2DA
100
AcDbEntity
  8
0
100
AcDbLine
 62
7
  6
CONTINUOUS
 10
5.4557121506
 20
5.946476675
 11
5.4557121506
 21
6.157414175
  0
LINE
  5
2DB
100
AcDbEntity
  8
0
100
AcDbLine
 62
7
  6
CONTINUOUS
 10
5.4557121506
 20
6.344914175
 11
5.4557121506
 21
6.555851675
  0
LINE
  5
2DC
100
AcDbEntity
  8
0
100
AcDbLine
 62
7
  6
CONTINUOUS
 10
5.4669621506
 20
5.946476675
 11
5.4669621506
 21
6.157414175
  0
LINE
  5
2DD
100
AcDbEntity
  8
0
100
AcDbLine
 62
7
  6
CONTINUOUS
 10
5.4669621506
 20
6.344914175
 11
5.4669621506
 21
6.555851675
  0
LINE
  5
2DE
100
AcDbEntity
  8
0
100
AcDbLine
 62
7
  6
CONTINUOUS
 10
7.271266769
 20
6.5298144678
 11
7.1947356317
 21
6.4532833305
  0
LINE
  5
2DF
100
AcDbEntity
  8
0
100
AcDbLine
 62
7
  6
CONTINUOUS
 10
6.7361243578
 20
5.9946720566
 11
6.8126554866
 21
6.0712031854
  0
LINE
  5
2E0
100
AcDbEntity
  8
0
100
AcDbLine
 62
7
  6
CONTINUOUS
 10
7.2934249434
 20
6.5076562933
 11
7.2168938149
 21
6.4311251648
  0
LINE
  5
2E1
100
AcDbEntity
  8
0
100
AcDbLine
 62
7
  6
CONTINUOUS
 10
6.7582825323
 20
5.9725138822
 11
6.8348136691
 21
6.049045019
  0
LINE
  5
2E2
100
AcDbEntity
  8
0
100
AcDbLine
 62
7
  6
CONTINUOUS
 10
3.4318512787
 20
2.5198922626
 11
3.3473049159
 21
2.4353458998
  0
LINE
  5
2E3
100
AcDbEntity
  8
0
100
AcDbLine
 62
7
  6
CONTINUOUS
 10
3.4549327104
 20
2.4968108308
 11
3.3703863477
 21
2.4122644681
  0
LINE
  5
2E4
100
AcDbEntity
  8
0
100
AcDbLine
 62
7
  6
CONTINUOUS
 10
3.2209534157
 20
6.6469039782
 11
3.4318512787
 21
6.4360061152
  0
LINE
  5
2E5
100
AcDbEntity
  8
0
100
AcDbLine
 62
7
  6
CONTINUOUS
 10
4.0355144539
 20
5.83234294
 11
3.9147958651
 21
5.9530615288
  0
LINE
  5
2E6
100
AcDbEntity
  8
0
100
AcDbLine
 62
7
  6
CONTINUOUS
 10
3.2440348474
 20
6.6699854099
 11
3.4549327104
 21
6.4590875469
  0
LINE
  5
2E7
100
AcDbEntity
  8
0
100
AcDbLine
 62
7
  6
CONTINUOUS
 10
4.0585958856
 20
5.8554243717
 11
3.9348724917
 21
5.9791477656
  0
LINE
  5
2E8
100
AcDbEntity
  8
0
100
AcDbLine
 62
7
  6
CONTINUOUS
 10
5.5653996506
 20
5.814289175
 11
5.5653996506
 21
5.803039175
  0
LINE
  5
2E9
100
AcDbEntity
  8
0
100
AcDbLine
 62
7
  6
CONTINUOUS
 10
5.5653996506
 20
6.688039175
 11
5.5653996506
 21
6.699289175
  0
LINE
  5
2EA
100
AcDbEntity
  8
0
100
AcDbLine
 62
7
  6
CONTINUOUS
 10
5.5766496506
 20
5.825539175
 11
5.5766496506
 21
6.157414175
  0
LINE
  5
2EB
100
AcDbEntity
  8
0
100
AcDbLine
 62
7
  6
CONTINUOUS
 10
5.5766496506
 20
6.344914175
 11
5.5766496506
 21
6.676789175
  0
LINE
  5
2EC
100
AcDbEntity
  8
0
100
AcDbLine
 62
7
  6
CONTINUOUS
 10
5.5878996506
 20
5.825539175
 11
5.5878996506
 21
6.157414175
  0
LINE
  5
2ED
100
AcDbEntity
  8
0
100
AcDbLine
 62
7
  6
CONTINUOUS
 10
5.5878996506
 20
6.344914175
 11
5.5878996506
 21
6.676789175
  0
LINE
  5
2EE
100
AcDbEntity
  8
0
100
AcDbLine
 62
7
  6
CONTINUOUS
 10
6.2653371506
 20
6.344914175
 11
6.2653371506
 21
6.157414175
  0
LINE
  5
2EF
100
AcDbEntity
  8
0
100
AcDbLine
 62
7
  6
CONTINUOUS
 10
6.2765871506
 20
6.333664175
 11
6.2765871506
 21
6.168664175
  0
LINE
  5
2F0
100
AcDbEntity
  8
0
100
AcDbLine
 62
7
  6
CONTINUOUS
 10
3.0594728866
 20
5.6417891763
 11
3.378272793
 21
5.6417891763
  0
LINE
  5
2F1
100
AcDbEntity
  8
0
100
AcDbLine
 62
7
  6
CONTINUOUS
 10
3.9012765082
 20
5.6417891763
 11
4.2200764146
 21
5.6417891763
  0
LINE
  5
2F2
100
AcDbEntity
  8
0
100
AcDbLine
 62
7
  6
CONTINUOUS
 10
3.030399652
 20
5.670862411
 11
3.378272793
 21
5.670862411
  0
LINE
  5
2F3
100
AcDbEntity
  8
0
100
AcDbLine
 62
7
  6
CONTINUOUS
 10
3.9012765082
 20
5.670862411
 11
4.2491496493
 21
5.670862411
  0
LINE
  5
2F4
100
AcDbEntity
  8
0
100
AcDbLine
 62
7
  6
CONTINUOUS
 10
3.1850871506
 20
5.773039175
 11
3.378272793
 21
5.773039175
  0
LINE
  5
2F5
100
AcDbEntity
  8
0
100
AcDbLine
 62
7
  6
CONTINUOUS
 10
3.9012765082
 20
5.773039175
 11
4.0944621506
 21
5.773039175
  0
LINE
  5
2F6
100
AcDbEntity
  8
0
100
AcDbLine
 62
7
  6
CONTINUOUS
 10
8.5353996506
 20
5.782414175
 11
8.7022746506
 21
5.782414175
  0
LINE
  5
2F7
100
AcDbEntity
  8
0
100
AcDbLine
 62
7
  6
CONTINUOUS
 10
9.0772746506
 20
5.782414175
 11
9.2441496506
 21
5.782414175
  0
LINE
  5
2F8
100
AcDbEntity
  8
0
100
AcDbLine
 62
7
  6
CONTINUOUS
 10
3.1850871506
 20
5.785226675
 11
3.378272793
 21
5.785226675
  0
LINE
  5
2F9
100
AcDbEntity
  8
0
100
AcDbLine
 62
7
  6
CONTINUOUS
 10
3.9012765082
 20
5.785226675
 11
4.0944621506
 21
5.785226675
  0
LINE
  5
2FA
100
AcDbEntity
  8
0
100
AcDbLine
 62
7
  6
CONTINUOUS
 10
4.1057121506
 20
5.796476675
 11
4.1178996506
 21
5.796476675
  0
LINE
  5
2FB
100
AcDbEntity
  8
0
100
AcDbLine
 62
7
  6
CONTINUOUS
 10
3.1738371506
 20
5.796476675
 11
3.1616496506
 21
5.7964766737
  0
LINE
  5
2FC
100
AcDbEntity
  8
0
100
AcDbLine
 62
7
  6
CONTINUOUS
 10
8.5203996506
 20
5.797414175
 11
8.7022746506
 21
5.797414175
  0
LINE
  5
2FD
100
AcDbEntity
  8
0
100
AcDbLine
 62
7
  6
CONTINUOUS
 10
9.0772746506
 20
5.797414175
 11
9.2591496506
 21
5.797414175
  0
LINE
  5
2FE
100
AcDbEntity
  8
0
100
AcDbLine
 62
7
  6
CONTINUOUS
 10
1.7141496506
 20
5.803039175
 11
2.5653996506
 21
5.803039175
  0
LINE
  5
2FF
100
AcDbEntity
  8
0
100
AcDbLine
 62
7
  6
CONTINUOUS
 10
4.7141496506
 20
5.803039175
 11
5.5653996506
 21
5.803039175
  0
LINE
  5
300
100
AcDbEntity
  8
0
100
AcDbLine
 62
7
  6
CONTINUOUS
 10
6.5891496506
 20
5.803039175
 11
7.4403996506
 21
5.803039175
  0
LINE
  5
301
100
AcDbEntity
  8
0
100
AcDbLine
 62
7
  6
CONTINUOUS
 10
1.7141496506
 20
5.814289175
 11
2.5653996506
 21
5.814289175
  0
LINE
  5
302
100
AcDbEntity
  8
0
100
AcDbLine
 62
7
  6
CONTINUOUS
 10
4.7141496506
 20
5.814289175
 11
5.5653996506
 21
5.814289175
  0
LINE
  5
303
100
AcDbEntity
  8
0
100
AcDbLine
 62
7
  6
CONTINUOUS
 10
6.5891496506
 20
5.814289175
 11
7.4403996506
 21
5.814289175
  0
LINE
  5
304
100
AcDbEntity
  8
0
100
AcDbLine
 62
7
  6
CONTINUOUS
 10
3.9012765082
 20
5.8175777436
 11
3.9009204399
 21
5.8175777436
  0
LINE
  5
305
100
AcDbEntity
  8
0
100
AcDbLine
 62
7
  6
CONTINUOUS
 10
3.378272793
 20
5.8175777436
 11
3.3786288613
 21
5.8175777436
  0
LINE
  5
306
100
AcDbEntity
  8
0
100
AcDbLine
 62
7
  6
CONTINUOUS
 10
4.0355144539
 20
5.8203405955
 11
3.9012810567
 21
5.8203405955
  0
LINE
  5
307
100
AcDbEntity
  8
0
100
AcDbLine
 62
7
  6
CONTINUOUS
 10
3.3782681385
 20
5.8203405955
 11
3.2440348474
 21
5.8203405955
  0
LINE
  5
308
100
AcDbEntity
  8
0
100
AcDbLine
 62
7
  6
CONTINUOUS
 10
6.5778996506
 20
5.825539175
 11
6.5666496506
 21
5.825539175
  0
LINE
  5
309
100
AcDbEntity
  8
0
100
AcDbLine
 62
7
  6
CONTINUOUS
 10
4.7028996506
 20
5.825539175
 11
4.6916496506
 21
5.825539175
  0
LINE
  5
30A
100
AcDbEntity
  8
0
100
AcDbLine
 62
7
  6
CONTINUOUS
 10
1.7028996506
 20
5.825539175
 11
1.6916496506
 21
5.825539175
  0
LINE
  5
30B
100
AcDbEntity
  8
0
100
AcDbLine
 62
7
  6
CONTINUOUS
 10
2.5766496506
 20
5.825539175
 11
2.5878996506
 21
5.825539175
  0
LINE
  5
30C
100
AcDbEntity
  8
0
100
AcDbLine
 62
7
  6
CONTINUOUS
 10
5.5766496506
 20
5.825539175
 11
5.5878996506
 21
5.825539175
  0
LINE
  5
30D
100
AcDbEntity
  8
0
100
AcDbLine
 62
7
  6
CONTINUOUS
 10
7.4516496506
 20
5.825539175
 11
7.4628996506
 21
5.825539175
  0
LINE
  5
30E
100
AcDbEntity
  8
0
100
AcDbLine
 62
7
  6
CONTINUOUS
 10
4.0355144539
 20
5.83234294
 11
3.9013980396
 21
5.83234294
  0
LINE
  5
30F
100
AcDbEntity
  8
0
100
AcDbLine
 62
7
  6
CONTINUOUS
 10
3.3781512745
 20
5.83234294
 11
3.2440348474
 21
5.83234294
  0
LINE
  5
310
100
AcDbEntity
  8
0
100
AcDbLine
 62
7
  6
CONTINUOUS
 10
3.2209534157
 20
5.8554243717
 11
3.2089510712
 21
5.8554243717
  0
LINE
  5
311
100
AcDbEntity
  8
0
100
AcDbLine
 62
7
  6
CONTINUOUS
 10
4.0585958856
 20
5.8554243717
 11
4.0705982301
 21
5.8554243717
  0
LINE
  5
312
100
AcDbEntity
  8
0
100
AcDbLine
 62
7
  6
CONTINUOUS
 10
1.8350871506
 20
5.923976675
 11
2.4444621506
 21
5.923976675
  0
LINE
  5
313
100
AcDbEntity
  8
0
100
AcDbLine
 62
7
  6
CONTINUOUS
 10
4.8350871506
 20
5.923976675
 11
5.4444621506
 21
5.923976675
  0
LINE
  5
314
100
AcDbEntity
  8
0
100
AcDbLine
 62
7
  6
CONTINUOUS
 10
6.7100871506
 20
5.923976675
 11
7.3194621506
 21
5.923976675
  0
LINE
  5
315
100
AcDbEntity
  8
0
100
AcDbLine
 62
7
  6
CONTINUOUS
 10
4.8611243578
 20
6.5076562933
 11
4.9376559261
 21
6.431124725
  0
LINE
  5
316
100
AcDbEntity
  8
0
100
AcDbLine
 62
7
  6
CONTINUOUS
 10
5.396266769
 20
5.9725138822
 11
5.3197352007
 21
6.0490454505
  0
LINE
  5
317
100
AcDbEntity
  8
0
100
AcDbLine
 62
7
  6
CONTINUOUS
 10
4.8832825323
 20
6.5298144678
 11
4.9598141006
 21
6.4532828995
  0
LINE
  5
318
100
AcDbEntity
  8
0
100
AcDbLine
 62
7
  6
CONTINUOUS
 10
5.4184249434
 20
5.9946720566
 11
5.3418933751
 21
6.0712036249
  0
LINE
  5
319
100
AcDbEntity
  8
0
100
AcDbLine
 62
7
  6
CONTINUOUS
 10
6.5666496506
 20
6.676789175
 11
6.5666496506
 21
5.825539175
  0
LINE
  5
31A
100
AcDbEntity
  8
0
100
AcDbLine
 62
7
  6
CONTINUOUS
 10
6.5778996506
 20
6.676789175
 11
6.5778996506
 21
5.825539175
  0
LINE
  5
31B
100
AcDbEntity
  8
0
100
AcDbLine
 62
7
  6
CONTINUOUS
 10
6.5891496506
 20
5.814289175
 11
6.5891496506
 21
5.803039175
  0
LINE
  5
31C
100
AcDbEntity
  8
0
100
AcDbLine
 62
7
  6
CONTINUOUS
 10
6.5891496506
 20
6.688039175
 11
6.5891496506
 21
6.699289175
  0
LINE
  5
31D
100
AcDbEntity
  8
0
100
AcDbLine
 62
7
  6
CONTINUOUS
 10
6.6875871506
 20
6.555851675
 11
6.6875871506
 21
5.946476675
  0
LINE
  5
31E
100
AcDbEntity
  8
0
100
AcDbLine
 62
7
  6
CONTINUOUS
 10
6.6988371506
 20
6.555851675
 11
6.6988371506
 21
5.946476675
  0
LINE
  5
31F
100
AcDbEntity
  8
0
100
AcDbLine
 62
7
  6
CONTINUOUS
 10
6.7100871506
 20
5.935226675
 11
6.7100871506
 21
5.923976675
  0
LINE
  5
320
100
AcDbEntity
  8
0
100
AcDbLine
 62
7
  6
CONTINUOUS
 10
6.7100871506
 20
6.567101675
 11
6.7100871507
 21
6.578351675
  0
LINE
  5
321
100
AcDbEntity
  8
0
100
AcDbLine
 62
7
  6
CONTINUOUS
 10
6.7250452706
 20
6.5076562933
 11
6.7250452706
 21
5.9946720566
  0
LINE
  5
322
100
AcDbEntity
  8
0
100
AcDbLine
 62
7
  6
CONTINUOUS
 10
1.8350871506
 20
5.935226675
 11
2.4444621506
 21
5.935226675
  0
LINE
  5
323
100
AcDbEntity
  8
0
100
AcDbLine
 62
7
  6
CONTINUOUS
 10
4.8350871506
 20
5.935226675
 11
5.4444621506
 21
5.935226675
  0
LINE
  5
324
100
AcDbEntity
  8
0
100
AcDbLine
 62
7
  6
CONTINUOUS
 10
6.7100871506
 20
5.935226675
 11
7.3194621506
 21
5.935226675
  0
LINE
  5
325
100
AcDbEntity
  8
0
100
AcDbLine
 62
7
  6
CONTINUOUS
 10
6.6988371506
 20
5.946476675
 11
6.6875871506
 21
5.946476675
  0
LINE
  5
326
100
AcDbEntity
  8
0
100
AcDbLine
 62
7
  6
CONTINUOUS
 10
4.8238371506
 20
5.946476675
 11
4.8125871506
 21
5.946476675
  0
LINE
  5
327
100
AcDbEntity
  8
0
100
AcDbLine
 62
7
  6
CONTINUOUS
 10
1.8238371506
 20
5.946476675
 11
1.8125871506
 21
5.946476675
  0
LINE
  5
328
100
AcDbEntity
  8
0
100
AcDbLine
 62
7
  6
CONTINUOUS
 10
2.4557121506
 20
5.946476675
 11
2.4669621506
 21
5.946476675
  0
LINE
  5
329
100
AcDbEntity
  8
0
100
AcDbLine
 62
7
  6
CONTINUOUS
 10
5.4557121506
 20
5.946476675
 11
5.4669621506
 21
5.946476675
  0
LINE
  5
32A
100
AcDbEntity
  8
0
100
AcDbLine
 62
7
  6
CONTINUOUS
 10
7.3307121506
 20
5.946476675
 11
7.3419621506
 21
5.946476675
  0
LINE
  5
32B
100
AcDbEntity
  8
0
100
AcDbLine
 62
7
  6
CONTINUOUS
 10
1.8832825323
 20
5.961434795
 11
2.396266769
 21
5.961434795
  0
LINE
  5
32C
100
AcDbEntity
  8
0
100
AcDbLine
 62
7
  6
CONTINUOUS
 10
4.8832825323
 20
5.961434795
 11
5.396266769
 21
5.961434795
  0
LINE
  5
32D
100
AcDbEntity
  8
0
100
AcDbLine
 62
7
  6
CONTINUOUS
 10
6.7582825323
 20
5.961434795
 11
7.271266769
 21
5.961434795
  0
LINE
  5
32E
100
AcDbEntity
  8
0
100
AcDbLine
 62
7
  6
CONTINUOUS
 10
1.8832825323
 20
5.9725138822
 11
2.396266769
 21
5.9725138822
  0
LINE
  5
32F
100
AcDbEntity
  8
0
100
AcDbLine
 62
7
  6
CONTINUOUS
 10
4.8832825323
 20
5.9725138822
 11
5.396266769
 21
5.9725138822
  0
LINE
  5
330
100
AcDbEntity
  8
0
100
AcDbLine
 62
7
  6
CONTINUOUS
 10
6.7582825323
 20
5.9725138822
 11
7.271266769
 21
5.9725138822
  0
LINE
  5
331
100
AcDbEntity
  8
0
100
AcDbLine
 62
7
  6
CONTINUOUS
 10
7.3045040306
 20
5.9946720566
 11
7.2934249434
 21
5.9946720566
  0
LINE
  5
332
100
AcDbEntity
  8
0
100
AcDbLine
 62
7
  6
CONTINUOUS
 10
5.4295040306
 20
5.9946720566
 11
5.4184249434
 21
5.9946720566
  0
LINE
  5
333
100
AcDbEntity
  8
0
100
AcDbLine
 62
7
  6
CONTINUOUS
 10
2.4295040306
 20
5.9946720566
 11
2.4184249434
 21
5.9946720566
  0
LINE
  5
334
100
AcDbEntity
  8
0
100
AcDbLine
 62
7
  6
CONTINUOUS
 10
1.8500452706
 20
5.9946720566
 11
1.8611243578
 21
5.9946720566
  0
LINE
  5
335
100
AcDbEntity
  8
0
100
AcDbLine
 62
7
  6
CONTINUOUS
 10
4.8500452706
 20
5.9946720566
 11
4.8611243578
 21
5.9946720566
  0
LINE
  5
336
100
AcDbEntity
  8
0
100
AcDbLine
 62
7
  6
CONTINUOUS
 10
6.7250452706
 20
5.9946720566
 11
6.7361243578
 21
5.9946720566
  0
LINE
  5
337
100
AcDbEntity
  8
0
100
AcDbLine
 62
7
  6
CONTINUOUS
 10
1.9601496506
 20
6.049039175
 11
2.3193996506
 21
6.049039175
  0
LINE
  5
338
100
AcDbEntity
  8
0
100
AcDbLine
 62
7
  6
CONTINUOUS
 10
4.9601496506
 20
6.049039175
 11
5.3193996506
 21
6.049039175
  0
LINE
  5
339
100
AcDbEntity
  8
0
100
AcDbLine
 62
7
  6
CONTINUOUS
 10
6.8351496506
 20
6.049039175
 11
7.1943996506
 21
6.049039175
  0
LINE
  5
33A
100
AcDbEntity
  8
0
100
AcDbLine
 62
7
  6
CONTINUOUS
 10
1.9601496506
 20
6.060289175
 11
2.3193996506
 21
6.060289175
  0
LINE
  5
33B
100
AcDbEntity
  8
0
100
AcDbLine
 62
7
  6
CONTINUOUS
 10
4.9601496506
 20
6.060289175
 11
5.3193996506
 21
6.060289175
  0
LINE
  5
33C
100
AcDbEntity
  8
0
100
AcDbLine
 62
7
  6
CONTINUOUS
 10
6.8351496506
 20
6.060289175
 11
7.1943996506
 21
6.060289175
  0
LINE
  5
33D
100
AcDbEntity
  8
0
100
AcDbLine
 62
7
  6
CONTINUOUS
 10
6.8238996506
 20
6.071539175
 11
6.8126496506
 21
6.071539175
  0
LINE
  5
33E
100
AcDbEntity
  8
0
100
AcDbLine
 62
7
  6
CONTINUOUS
 10
4.9488996506
 20
6.071539175
 11
4.9376496506
 21
6.071539175
  0
LINE
  5
33F
100
AcDbEntity
  8
0
100
AcDbLine
 62
7
  6
CONTINUOUS
 10
1.9488996506
 20
6.071539175
 11
1.9376496506
 21
6.071539175
  0
LINE
  5
340
100
AcDbEntity
  8
0
100
AcDbLine
 62
7
  6
CONTINUOUS
 10
2.3306496506
 20
6.071539175
 11
2.3418996506
 21
6.071539175
  0
LINE
  5
341
100
AcDbEntity
  8
0
100
AcDbLine
 62
7
  6
CONTINUOUS
 10
5.3306496506
 20
6.071539175
 11
5.3418996506
 21
6.071539175
  0
LINE
  5
342
100
AcDbEntity
  8
0
100
AcDbLine
 62
7
  6
CONTINUOUS
 10
7.2056496506
 20
6.071539175
 11
7.2168996506
 21
6.071539175
  0
LINE
  5
343
100
AcDbEntity
  8
0
100
AcDbLine
 62
7
  6
CONTINUOUS
 10
3.5180871506
 20
6.105851675
 11
3.7614621506
 21
6.105851675
  0
LINE
  5
344
100
AcDbEntity
  8
0
100
AcDbLine
 62
7
  6
CONTINUOUS
 10
3.5180871506
 20
6.117101675
 11
3.7614621506
 21
6.117101675
  0
LINE
  5
345
100
AcDbEntity
  8
0
100
AcDbLine
 62
7
  6
CONTINUOUS
 10
2.2573371506
 20
6.122351675
 11
2.0222121506
 21
6.122351675
  0
LINE
  5
346
100
AcDbEntity
  8
0
100
AcDbLine
 62
7
  6
CONTINUOUS
 10
5.0222121506
 20
6.122351675
 11
5.2573371506
 21
6.122351675
  0
LINE
  5
347
100
AcDbEntity
  8
0
100
AcDbLine
 62
7
  6
CONTINUOUS
 10
6.8972121506
 20
6.122351675
 11
7.1323371506
 21
6.122351675
  0
LINE
  5
348
100
AcDbEntity
  8
0
100
AcDbLine
 62
7
  6
CONTINUOUS
 10
3.5057121506
 20
6.129476675
 11
3.4944621506
 21
6.129476675
  0
LINE
  5
349
100
AcDbEntity
  8
0
100
AcDbLine
 62
7
  6
CONTINUOUS
 10
3.7738371506
 20
6.129476675
 11
3.7850871506
 21
6.129476675
  0
LINE
  5
34A
100
AcDbEntity
  8
0
100
AcDbLine
 62
7
  6
CONTINUOUS
 10
2.2685871506
 20
6.133601675
 11
2.0109621506
 21
6.133601675
  0
LINE
  5
34B
100
AcDbEntity
  8
0
100
AcDbLine
 62
7
  6
CONTINUOUS
 10
5.0109621506
 20
6.133601675
 11
5.2685871506
 21
6.133601675
  0
LINE
  5
34C
100
AcDbEntity
  8
0
100
AcDbLine
 62
7
  6
CONTINUOUS
 10
6.8859621506
 20
6.133601675
 11
7.1435871506
 21
6.133601675
  0
LINE
  5
34D
100
AcDbEntity
  8
0
100
AcDbLine
 62
7
  6
CONTINUOUS
 10
1.9884621506
 20
6.157414175
 11
1.0142121506
 21
6.157414175
  0
LINE
  5
34E
100
AcDbEntity
  8
0
100
AcDbLine
 62
7
  6
CONTINUOUS
 10
5.2910871506
 20
6.157414175
 11
6.2653371506
 21
6.157414175
  0
LINE
  5
34F
100
AcDbEntity
  8
0
100
AcDbLine
 62
7
  6
CONTINUOUS
 10
7.1660871506
 20
6.157414175
 11
8.1403371506
 21
6.157414175
  0
LINE
  5
350
100
AcDbEntity
  8
0
100
AcDbLine
 62
7
  6
CONTINUOUS
 10
8.7266496506
 20
6.1653765465
 11
9.0528996506
 21
6.1653765465
  0
LINE
  5
351
100
AcDbEntity
  8
0
100
AcDbLine
 62
7
  6
CONTINUOUS
 10
8.7266496506
 20
6.1662538798
 11
9.0528996506
 21
6.1662538798
  0
LINE
  5
352
100
AcDbEntity
  8
0
100
AcDbLine
 62
7
  6
CONTINUOUS
 10
2.2985871506
 20
6.168664175
 11
2.2685871506
 21
6.168664175
  0
LINE
  5
353
100
AcDbEntity
  8
0
100
AcDbLine
 62
7
  6
CONTINUOUS
 10
1.0029621506
 20
6.168664175
 11
2.0109621506
 21
6.168664175
  0
LINE
  5
354
100
AcDbEntity
  8
0
100
AcDbLine
 62
7
  6
CONTINUOUS
 10
4.9809621506
 20
6.168664175
 11
5.0109621506
 21
6.168664175
  0
LINE
  5
355
100
AcDbEntity
  8
0
100
AcDbLine
 62
7
  6
CONTINUOUS
 10
5.2685871506
 20
6.168664175
 11
6.2765871506
 21
6.168664175
  0
LINE
  5
356
100
AcDbEntity
  8
0
100
AcDbLine
 62
7
  6
CONTINUOUS
 10
6.8559621506
 20
6.168664175
 11
6.8859621506
 21
6.168664175
  0
LINE
  5
357
100
AcDbEntity
  8
0
100
AcDbLine
 62
7
  6
CONTINUOUS
 10
7.1435871506
 20
6.168664175
 11
8.1515871506
 21
6.168664175
  0
LINE
  5
358
100
AcDbEntity
  8
0
100
AcDbLine
 62
7
  6
CONTINUOUS
 10
6.7361243578
 20
6.5076562933
 11
6.7361243578
 21
5.9946720566
  0
LINE
  5
359
100
AcDbEntity
  8
0
100
AcDbLine
 62
7
  6
CONTINUOUS
 10
6.7582825323
 20
6.540893555
 11
6.7582825323
 21
6.5298144678
  0
LINE
  5
35A
100
AcDbEntity
  8
0
100
AcDbLine
 62
7
  6
CONTINUOUS
 10
6.7582825323
 20
5.961434795
 11
6.7582825323
 21
5.9725138822
  0
LINE
  5
35B
100
AcDbEntity
  8
0
100
AcDbLine
 62
7
  6
CONTINUOUS
 10
6.8126496506
 20
6.430789175
 11
6.8126496506
 21
6.071539175
  0
LINE
  5
35C
100
AcDbEntity
  8
0
100
AcDbLine
 62
7
  6
CONTINUOUS
 10
6.8238996506
 20
6.430789175
 11
6.8238996506
 21
6.071539175
  0
LINE
  5
35D
100
AcDbEntity
  8
0
100
AcDbLine
 62
7
  6
CONTINUOUS
 10
6.8351496506
 20
6.060289175
 11
6.8351496506
 21
6.049039175
  0
LINE
  5
35E
100
AcDbEntity
  8
0
100
AcDbLine
 62
7
  6
CONTINUOUS
 10
6.8351496506
 20
6.442039175
 11
6.8351496507
 21
6.453289175
  0
LINE
  5
35F
100
AcDbEntity
  8
0
100
AcDbLine
 62
7
  6
CONTINUOUS
 10
6.8559621506
 20
6.1684551946
 11
6.8559621506
 21
6.3338731553
  0
LINE
  5
360
100
AcDbEntity
  8
0
100
AcDbLine
 62
7
  6
CONTINUOUS
 10
6.8659621506
 20
6.1572748547
 11
6.8659621506
 21
6.3450534952
  0
LINE
  5
361
100
AcDbEntity
  8
0
100
AcDbLine
 62
7
  6
CONTINUOUS
 10
6.8859621506
 20
6.133601675
 11
6.8859621506
 21
6.368726675
  0
LINE
  5
362
100
AcDbEntity
  8
0
100
AcDbLine
 62
7
  6
CONTINUOUS
 10
6.8972121506
 20
6.122351675
 11
6.8972121506
 21
6.379976675
  0
LINE
  5
363
100
AcDbEntity
  8
0
100
AcDbLine
 62
7
  6
CONTINUOUS
 10
2.2985871506
 20
6.333664175
 11
2.2685871506
 21
6.333664175
  0
LINE
  5
364
100
AcDbEntity
  8
0
100
AcDbLine
 62
7
  6
CONTINUOUS
 10
4.9809621506
 20
6.333664175
 11
5.0109621506
 21
6.333664175
  0
LINE
  5
365
100
AcDbEntity
  8
0
100
AcDbLine
 62
7
  6
CONTINUOUS
 10
5.2685871506
 20
6.333664175
 11
6.2765871506
 21
6.333664175
  0
LINE
  5
366
100
AcDbEntity
  8
0
100
AcDbLine
 62
7
  6
CONTINUOUS
 10
6.8559621506
 20
6.333664175
 11
6.8859621506
 21
6.333664175
  0
LINE
  5
367
100
AcDbEntity
  8
0
100
AcDbLine
 62
7
  6
CONTINUOUS
 10
7.1435871506
 20
6.333664175
 11
8.1515871506
 21
6.333664175
  0
LINE
  5
368
100
AcDbEntity
  8
0
100
AcDbLine
 62
7
  6
CONTINUOUS
 10
1.0029621506
 20
6.333664175
 11
2.0109621506
 21
6.333664175
  0
LINE
  5
369
100
AcDbEntity
  8
0
100
AcDbLine
 62
7
  6
CONTINUOUS
 10
1.9884621506
 20
6.344914175
 11
1.0142121506
 21
6.344914175
  0
LINE
  5
36A
100
AcDbEntity
  8
0
100
AcDbLine
 62
7
  6
CONTINUOUS
 10
5.2910871506
 20
6.344914175
 11
6.2653371506
 21
6.344914175
  0
LINE
  5
36B
100
AcDbEntity
  8
0
100
AcDbLine
 62
7
  6
CONTINUOUS
 10
7.1660871506
 20
6.344914175
 11
8.1403371506
 21
6.344914175
  0
LINE
  5
36C
100
AcDbEntity
  8
0
100
AcDbLine
 62
7
  6
CONTINUOUS
 10
2.0109621506
 20
6.368726675
 11
2.2685871506
 21
6.368726675
  0
LINE
  5
36D
100
AcDbEntity
  8
0
100
AcDbLine
 62
7
  6
CONTINUOUS
 10
5.0109621506
 20
6.368726675
 11
5.2685871506
 21
6.368726675
  0
LINE
  5
36E
100
AcDbEntity
  8
0
100
AcDbLine
 62
7
  6
CONTINUOUS
 10
6.8859621506
 20
6.368726675
 11
7.1435871506
 21
6.368726675
  0
LINE
  5
36F
100
AcDbEntity
  8
0
100
AcDbLine
 62
7
  6
CONTINUOUS
 10
3.5057121506
 20
6.372851675
 11
3.4944621506
 21
6.372851675
  0
LINE
  5
370
100
AcDbEntity
  8
0
100
AcDbLine
 62
7
  6
CONTINUOUS
 10
3.7738371506
 20
6.372851675
 11
3.7850871506
 21
6.372851675
  0
LINE
  5
371
100
AcDbEntity
  8
0
100
AcDbLine
 62
7
  6
CONTINUOUS
 10
2.2573371506
 20
6.379976675
 11
2.0222121506
 21
6.379976675
  0
LINE
  5
372
100
AcDbEntity
  8
0
100
AcDbLine
 62
7
  6
CONTINUOUS
 10
5.0222121506
 20
6.379976675
 11
5.2573371506
 21
6.379976675
  0
LINE
  5
373
100
AcDbEntity
  8
0
100
AcDbLine
 62
7
  6
CONTINUOUS
 10
6.8972121506
 20
6.379976675
 11
7.1323371506
 21
6.379976675
  0
LINE
  5
374
100
AcDbEntity
  8
0
100
AcDbLine
 62
7
  6
CONTINUOUS
 10
3.7614621506
 20
6.385226675
 11
3.5180871506
 21
6.385226675
  0
LINE
  5
375
100
AcDbEntity
  8
0
100
AcDbLine
 62
7
  6
CONTINUOUS
 10
3.7614621506
 20
6.396476675
 11
3.5180871506
 21
6.396476675
  0
LINE
  5
376
100
AcDbEntity
  8
0
100
AcDbLine
 62
7
  6
CONTINUOUS
 10
2.3306496506
 20
6.430789175
 11
2.3418996506
 21
6.4307891749
  0
LINE
  5
377
100
AcDbEntity
  8
0
100
AcDbLine
 62
7
  6
CONTINUOUS
 10
6.8238996506
 20
6.430789175
 11
6.8126496506
 21
6.430789175
  0
LINE
  5
378
100
AcDbEntity
  8
0
100
AcDbLine
 62
7
  6
CONTINUOUS
 10
4.9488996506
 20
6.430789175
 11
4.9376496506
 21
6.430789175
  0
LINE
  5
379
100
AcDbEntity
  8
0
100
AcDbLine
 62
7
  6
CONTINUOUS
 10
1.9488996506
 20
6.430789175
 11
1.9376496506
 21
6.430789175
  0
LINE
  5
37A
100
AcDbEntity
  8
0
100
AcDbLine
 62
7
  6
CONTINUOUS
 10
5.3306496506
 20
6.430789175
 11
5.3418996506
 21
6.4307891749
  0
LINE
  5
37B
100
AcDbEntity
  8
0
100
AcDbLine
 62
7
  6
CONTINUOUS
 10
7.2056496506
 20
6.430789175
 11
7.2168996506
 21
6.4307891749
  0
LINE
  5
37C
100
AcDbEntity
  8
0
100
AcDbLine
 62
7
  6
CONTINUOUS
 10
3.4318512787
 20
6.4360061152
 11
3.8476980225
 21
6.4360061152
  0
LINE
  5
37D
100
AcDbEntity
  8
0
100
AcDbLine
 62
7
  6
CONTINUOUS
 10
7.1943996506
 20
6.442039175
 11
6.8351496506
 21
6.442039175
  0
LINE
  5
37E
100
AcDbEntity
  8
0
100
AcDbLine
 62
7
  6
CONTINUOUS
 10
5.3193996506
 20
6.442039175
 11
4.9601496506
 21
6.442039175
  0
LINE
  5
37F
100
AcDbEntity
  8
0
100
AcDbLine
 62
7
  6
CONTINUOUS
 10
2.3193996506
 20
6.442039175
 11
1.9601496506
 21
6.442039175
  0
LINE
  5
380
100
AcDbEntity
  8
0
100
AcDbLine
 62
7
  6
CONTINUOUS
 10
7.1943996506
 20
6.453289175
 11
6.8351496506
 21
6.453289175
  0
LINE
  5
381
100
AcDbEntity
  8
0
100
AcDbLine
 62
7
  6
CONTINUOUS
 10
5.3193996506
 20
6.453289175
 11
4.9601496506
 21
6.453289175
  0
LINE
  5
382
100
AcDbEntity
  8
0
100
AcDbLine
 62
7
  6
CONTINUOUS
 10
2.3193996506
 20
6.453289175
 11
1.9601496506
 21
6.453289175
  0
LINE
  5
383
100
AcDbEntity
  8
0
100
AcDbLine
 62
7
  6
CONTINUOUS
 10
3.8246165908
 20
6.4590875469
 11
3.4549327104
 21
6.4590875469
  0
LINE
  5
384
100
AcDbEntity
  8
0
100
AcDbLine
 62
7
  6
CONTINUOUS
 10
7.3045040306
 20
6.5076562933
 11
7.2934249434
 21
6.5076562933
  0
LINE
  5
385
100
AcDbEntity
  8
0
100
AcDbLine
 62
7
  6
CONTINUOUS
 10
5.4295040306
 20
6.5076562933
 11
5.4184249434
 21
6.5076562933
  0
LINE
  5
386
100
AcDbEntity
  8
0
100
AcDbLine
 62
7
  6
CONTINUOUS
 10
2.4295040306
 20
6.5076562933
 11
2.4184249434
 21
6.5076562933
  0
LINE
  5
387
100
AcDbEntity
  8
0
100
AcDbLine
 62
7
  6
CONTINUOUS
 10
1.8500452706
 20
6.5076562933
 11
1.8611243578
 21
6.5076562933
  0
LINE
  5
388
100
AcDbEntity
  8
0
100
AcDbLine
 62
7
  6
CONTINUOUS
 10
4.8500452706
 20
6.5076562933
 11
4.8611243578
 21
6.5076562933
  0
LINE
  5
389
100
AcDbEntity
  8
0
100
AcDbLine
 62
7
  6
CONTINUOUS
 10
6.7250452706
 20
6.5076562933
 11
6.7361243578
 21
6.5076562933
  0
LINE
  5
38A
100
AcDbEntity
  8
0
100
AcDbLine
 62
7
  6
CONTINUOUS
 10
7.271266769
 20
6.5298144678
 11
6.7582825323
 21
6.5298144678
  0
LINE
  5
38B
100
AcDbEntity
  8
0
100
AcDbLine
 62
7
  6
CONTINUOUS
 10
5.396266769
 20
6.5298144678
 11
4.8832825323
 21
6.5298144678
  0
LINE
  5
38C
100
AcDbEntity
  8
0
100
AcDbLine
 62
7
  6
CONTINUOUS
 10
2.396266769
 20
6.5298144678
 11
1.8832825323
 21
6.5298144678
  0
LINE
  5
38D
100
AcDbEntity
  8
0
100
AcDbLine
 62
7
  6
CONTINUOUS
 10
7.271266769
 20
6.540893555
 11
6.7582825323
 21
6.540893555
  0
LINE
  5
38E
100
AcDbEntity
  8
0
100
AcDbLine
 62
7
  6
CONTINUOUS
 10
5.396266769
 20
6.540893555
 11
4.8832825323
 21
6.540893555
  0
LINE
  5
38F
100
AcDbEntity
  8
0
100
AcDbLine
 62
7
  6
CONTINUOUS
 10
2.396266769
 20
6.540893555
 11
1.8832825323
 21
6.540893555
  0
LINE
  5
390
100
AcDbEntity
  8
0
100
AcDbLine
 62
7
  6
CONTINUOUS
 10
7.1323371506
 20
6.379976675
 11
7.1323371506
 21
6.122351675
  0
LINE
  5
391
100
AcDbEntity
  8
0
100
AcDbLine
 62
7
  6
CONTINUOUS
 10
7.1435871506
 20
6.368726675
 11
7.1435871506
 21
6.133601675
  0
LINE
  5
392
100
AcDbEntity
  8
0
100
AcDbLine
 62
7
  6
CONTINUOUS
 10
7.1660871506
 20
6.157414175
 11
7.1660871506
 21
6.344914175
  0
LINE
  5
393
100
AcDbEntity
  8
0
100
AcDbLine
 62
7
  6
CONTINUOUS
 10
7.1943996506
 20
6.060289175
 11
7.1943996506
 21
6.049039175
  0
LINE
  5
394
100
AcDbEntity
  8
0
100
AcDbLine
 62
7
  6
CONTINUOUS
 10
7.1943996506
 20
6.442039175
 11
7.1943996506
 21
6.453289175
  0
LINE
  5
395
100
AcDbEntity
  8
0
100
AcDbLine
 62
7
  6
CONTINUOUS
 10
7.2056496506
 20
6.071539175
 11
7.2056496506
 21
6.157414175
  0
LINE
  5
396
100
AcDbEntity
  8
0
100
AcDbLine
 62
7
  6
CONTINUOUS
 10
7.2056496506
 20
6.344914175
 11
7.2056496506
 21
6.430789175
  0
LINE
  5
397
100
AcDbEntity
  8
0
100
AcDbLine
 62
7
  6
CONTINUOUS
 10
7.2168996506
 20
6.071539175
 11
7.2168996506
 21
6.157414175
  0
LINE
  5
398
100
AcDbEntity
  8
0
100
AcDbLine
 62
7
  6
CONTINUOUS
 10
7.2168996506
 20
6.344914175
 11
7.2168996506
 21
6.430789175
  0
LINE
  5
399
100
AcDbEntity
  8
0
100
AcDbLine
 62
7
  6
CONTINUOUS
 10
7.271266769
 20
6.540893555
 11
7.271266769
 21
6.5298144678
  0
LINE
  5
39A
100
AcDbEntity
  8
0
100
AcDbLine
 62
7
  6
CONTINUOUS
 10
7.271266769
 20
5.961434795
 11
7.271266769
 21
5.9725138822
  0
LINE
  5
39B
100
AcDbEntity
  8
0
100
AcDbLine
 62
7
  6
CONTINUOUS
 10
7.2934249434
 20
5.9946720566
 11
7.2934249434
 21
6.157414175
  0
LINE
  5
39C
100
AcDbEntity
  8
0
100
AcDbLine
 62
7
  6
CONTINUOUS
 10
7.2934249434
 20
6.344914175
 11
7.2934249434
 21
6.5076562933
  0
LINE
  5
39D
100
AcDbEntity
  8
0
100
AcDbLine
 62
7
  6
CONTINUOUS
 10
7.3045040306
 20
5.9946720566
 11
7.3045040306
 21
6.157414175
  0
LINE
  5
39E
100
AcDbEntity
  8
0
100
AcDbLine
 62
7
  6
CONTINUOUS
 10
7.3045040306
 20
6.344914175
 11
7.3045040306
 21
6.5076562933
  0
LINE
  5
39F
100
AcDbEntity
  8
0
100
AcDbLine
 62
7
  6
CONTINUOUS
 10
7.3194621506
 20
5.935226675
 11
7.3194621506
 21
5.923976675
  0
LINE
  5
3A0
100
AcDbEntity
  8
0
100
AcDbLine
 62
7
  6
CONTINUOUS
 10
7.3194621506
 20
6.567101675
 11
7.3194621506
 21
6.578351675
  0
LINE
  5
3A1
100
AcDbEntity
  8
0
100
AcDbLine
 62
7
  6
CONTINUOUS
 10
7.3307121506
 20
5.946476675
 11
7.3307121506
 21
6.157414175
  0
LINE
  5
3A2
100
AcDbEntity
  8
0
100
AcDbLine
 62
7
  6
CONTINUOUS
 10
7.3307121506
 20
6.344914175
 11
7.3307121506
 21
6.555851675
  0
LINE
  5
3A3
100
AcDbEntity
  8
0
100
AcDbLine
 62
7
  6
CONTINUOUS
 10
7.3419621506
 20
5.946476675
 11
7.3419621506
 21
6.157414175
  0
LINE
  5
3A4
100
AcDbEntity
  8
0
100
AcDbLine
 62
7
  6
CONTINUOUS
 10
7.3419621506
 20
6.344914175
 11
7.3419621506
 21
6.555851675
  0
LINE
  5
3A5
100
AcDbEntity
  8
0
100
AcDbLine
 62
7
  6
CONTINUOUS
 10
6.6988371506
 20
6.555851675
 11
6.6875871506
 21
6.555851675
  0
LINE
  5
3A6
100
AcDbEntity
  8
0
100
AcDbLine
 62
7
  6
CONTINUOUS
 10
4.8238371506
 20
6.555851675
 11
4.8125871506
 21
6.555851675
  0
LINE
  5
3A7
100
AcDbEntity
  8
0
100
AcDbLine
 62
7
  6
CONTINUOUS
 10
1.8238371506
 20
6.555851675
 11
1.8125871506
 21
6.555851675
  0
LINE
  5
3A8
100
AcDbEntity
  8
0
100
AcDbLine
 62
7
  6
CONTINUOUS
 10
2.4557121506
 20
6.555851675
 11
2.4669621506
 21
6.5558516749
  0
LINE
  5
3A9
100
AcDbEntity
  8
0
100
AcDbLine
 62
7
  6
CONTINUOUS
 10
5.4557121506
 20
6.555851675
 11
5.4669621506
 21
6.5558516749
  0
LINE
  5
3AA
100
AcDbEntity
  8
0
100
AcDbLine
 62
7
  6
CONTINUOUS
 10
7.3307121506
 20
6.555851675
 11
7.3419621506
 21
6.5558516749
  0
LINE
  5
3AB
100
AcDbEntity
  8
0
100
AcDbLine
 62
7
  6
CONTINUOUS
 10
7.3194621506
 20
6.567101675
 11
6.7100871506
 21
6.567101675
  0
LINE
  5
3AC
100
AcDbEntity
  8
0
100
AcDbLine
 62
7
  6
CONTINUOUS
 10
5.4444621506
 20
6.567101675
 11
4.8350871506
 21
6.567101675
  0
LINE
  5
3AD
100
AcDbEntity
  8
0
100
AcDbLine
 62
7
  6
CONTINUOUS
 10
2.4444621506
 20
6.567101675
 11
1.8350871506
 21
6.567101675
  0
LINE
  5
3AE
100
AcDbEntity
  8
0
100
AcDbLine
 62
7
  6
CONTINUOUS
 10
7.3194621506
 20
6.578351675
 11
6.7100871506
 21
6.578351675
  0
LINE
  5
3AF
100
AcDbEntity
  8
0
100
AcDbLine
 62
7
  6
CONTINUOUS
 10
5.4444621506
 20
6.578351675
 11
4.8350871506
 21
6.578351675
  0
LINE
  5
3B0
100
AcDbEntity
  8
0
100
AcDbLine
 62
7
  6
CONTINUOUS
 10
2.4444621506
 20
6.578351675
 11
1.8350871506
 21
6.578351675
  0
LINE
  5
3B1
100
AcDbEntity
  8
0
100
AcDbLine
 62
7
  6
CONTINUOUS
 10
3.2209534157
 20
6.6469039782
 11
3.2089510712
 21
6.6469039782
  0
LINE
  5
3B2
100
AcDbEntity
  8
0
100
AcDbLine
 62
7
  6
CONTINUOUS
 10
4.0585958856
 20
6.6469039782
 11
4.0705982301
 21
6.6469039782
  0
LINE
  5
3B3
100
AcDbEntity
  8
0
100
AcDbLine
 62
7
  6
CONTINUOUS
 10
3.2440348474
 20
6.6699854099
 11
4.0355144539
 21
6.6699854099
  0
LINE
  5
3B4
100
AcDbEntity
  8
0
100
AcDbLine
 62
7
  6
CONTINUOUS
 10
6.5778996506
 20
6.676789175
 11
6.5666496506
 21
6.676789175
  0
LINE
  5
3B5
100
AcDbEntity
  8
0
100
AcDbLine
 62
7
  6
CONTINUOUS
 10
4.7028996506
 20
6.676789175
 11
4.6916496506
 21
6.676789175
  0
LINE
  5
3B6
100
AcDbEntity
  8
0
100
AcDbLine
 62
7
  6
CONTINUOUS
 10
1.7028996506
 20
6.676789175
 11
1.6916496506
 21
6.676789175
  0
LINE
  5
3B7
100
AcDbEntity
  8
0
100
AcDbLine
 62
7
  6
CONTINUOUS
 10
2.5766496506
 20
6.676789175
 11
2.5878996506
 21
6.676789175
  0
LINE
  5
3B8
100
AcDbEntity
  8
0
100
AcDbLine
 62
7
  6
CONTINUOUS
 10
5.5766496506
 20
6.676789175
 11
5.5878996506
 21
6.676789175
  0
LINE
  5
3B9
100
AcDbEntity
  8
0
100
AcDbLine
 62
7
  6
CONTINUOUS
 10
7.4516496506
 20
6.676789175
 11
7.4628996506
 21
6.676789175
  0
LINE
  5
3BA
100
AcDbEntity
  8
0
100
AcDbLine
 62
7
  6
CONTINUOUS
 10
3.2440348474
 20
6.6819877544
 11
4.0355144539
 21
6.6819877544
  0
LINE
  5
3BB
100
AcDbEntity
  8
0
100
AcDbLine
 62
7
  6
CONTINUOUS
 10
7.4403996506
 20
6.688039175
 11
6.5891496506
 21
6.688039175
  0
LINE
  5
3BC
100
AcDbEntity
  8
0
100
AcDbLine
 62
7
  6
CONTINUOUS
 10
5.5653996506
 20
6.688039175
 11
4.7141496506
 21
6.688039175
  0
LINE
  5
3BD
100
AcDbEntity
  8
0
100
AcDbLine
 62
7
  6
CONTINUOUS
 10
2.5653996506
 20
6.688039175
 11
1.7141496506
 21
6.688039175
  0
LINE
  5
3BE
100
AcDbEntity
  8
0
100
AcDbLine
 62
7
  6
CONTINUOUS
 10
7.4403996506
 20
6.699289175
 11
6.5891496506
 21
6.699289175
  0
LINE
  5
3BF
100
AcDbEntity
  8
0
100
AcDbLine
 62
7
  6
CONTINUOUS
 10
5.5653996506
 20
6.699289175
 11
4.7141496506
 21
6.699289175
  0
LINE
  5
3C0
100
AcDbEntity
  8
0
100
AcDbLine
 62
7
  6
CONTINUOUS
 10
2.5653996506
 20
6.699289175
 11
1.7141496506
 21
6.699289175
  0
LINE
  5
3C1
100
AcDbEntity
  8
0
100
AcDbLine
 62
7
  6
CONTINUOUS
 10
9.2591496506
 20
6.704914175
 11
8.5203996506
 21
6.704914175
  0
LINE
  5
3C2
100
AcDbEntity
  8
0
100
AcDbLine
 62
7
  6
CONTINUOUS
 10
3.1738371506
 20
6.705851675
 11
3.1616496506
 21
6.705851675
  0
LINE
  5
3C3
100
AcDbEntity
  8
0
100
AcDbLine
 62
7
  6
CONTINUOUS
 10
4.1057121506
 20
6.705851675
 11
4.1178996506
 21
6.7058516763
  0
LINE
  5
3C4
100
AcDbEntity
  8
0
100
AcDbLine
 62
7
  6
CONTINUOUS
 10
4.0944621506
 20
6.717101675
 11
3.1850871506
 21
6.717101675
  0
LINE
  5
3C5
100
AcDbEntity
  8
0
100
AcDbLine
 62
7
  6
CONTINUOUS
 10
9.2441496506
 20
6.719914175
 11
8.5353996506
 21
6.719914175
  0
LINE
  5
3C6
100
AcDbEntity
  8
0
100
AcDbLine
 62
7
  6
CONTINUOUS
 10
4.0944621506
 20
6.729289175
 11
3.1850871506
 21
6.729289175
  0
LINE
  5
3C7
100
AcDbEntity
  8
0
100
AcDbLine
 62
7
  6
CONTINUOUS
 10
3.030399652
 20
6.8314659389
 11
4.2491496493
 21
6.8314659389
  0
LINE
  5
3C8
100
AcDbEntity
  8
0
100
AcDbLine
 62
7
  6
CONTINUOUS
 10
4.2200764146
 20
6.8605391736
 11
3.0594728866
 21
6.8605391736
  0
LINE
  5
3C9
100
AcDbEntity
  8
0
100
AcDbLine
 62
7
  6
CONTINUOUS
 10
7.4403996506
 20
5.814289175
 11
7.4403996506
 21
5.803039175
  0
LINE
  5
3CA
100
AcDbEntity
  8
0
100
AcDbLine
 62
7
  6
CONTINUOUS
 10
7.4403996506
 20
6.688039175
 11
7.4403996506
 21
6.699289175
  0
LINE
  5
3CB
100
AcDbEntity
  8
0
100
AcDbLine
 62
7
  6
CONTINUOUS
 10
7.4516496506
 20
5.825539175
 11
7.4516496506
 21
6.157414175
  0
LINE
  5
3CC
100
AcDbEntity
  8
0
100
AcDbLine
 62
7
  6
CONTINUOUS
 10
7.4516496506
 20
6.344914175
 11
7.4516496506
 21
6.676789175
  0
LINE
  5
3CD
100
AcDbEntity
  8
0
100
AcDbLine
 62
7
  6
CONTINUOUS
 10
7.4628996506
 20
5.825539175
 11
7.4628996506
 21
6.157414175
  0
LINE
  5
3CE
100
AcDbEntity
  8
0
100
AcDbLine
 62
7
  6
CONTINUOUS
 10
7.4628996506
 20
6.344914175
 11
7.4628996506
 21
6.676789175
  0
LINE
  5
3CF
100
AcDbEntity
  8
0
100
AcDbLine
 62
7
  6
CONTINUOUS
 10
7.271266769
 20
5.9725138822
 11
7.1947356404
 21
6.0490450108
  0
LINE
  5
3D0
100
AcDbEntity
  8
0
100
AcDbLine
 62
7
  6
CONTINUOUS
 10
6.7361243578
 20
6.5076562933
 11
6.8126554946
 21
6.4311251565
  0
LINE
  5
3D1
100
AcDbEntity
  8
0
100
AcDbLine
 62
7
  6
CONTINUOUS
 10
7.2934249434
 20
5.9946720566
 11
7.2168938062
 21
6.0712031938
  0
LINE
  5
3D2
100
AcDbEntity
  8
0
100
AcDbLine
 62
7
  6
CONTINUOUS
 10
6.7582825323
 20
6.5298144678
 11
6.834813661
 21
6.4532833391
  0
LINE
  5
3D3
100
AcDbEntity
  8
0
100
AcDbLine
 62
7
  6
CONTINUOUS
 10
8.1403371506
 20
6.344914175
 11
8.1403371506
 21
6.157414175
  0
LINE
  5
3D4
100
AcDbEntity
  8
0
100
AcDbLine
 62
7
  6
CONTINUOUS
 10
8.1515871506
 20
6.333664175
 11
8.1515871506
 21
6.168664175
  0
LINE
  5
3D5
100
AcDbEntity
  8
0
100
AcDbLine
 62
7
  6
CONTINUOUS
 10
9.0818892479
 20
6.1787402681
 11
9.0823570091
 21
6.1799935062
  0
LINE
  5
3D6
100
AcDbEntity
  8
0
100
AcDbLine
 62
7
  6
CONTINUOUS
 10
9.0814273019
 20
6.1775261439
 11
9.0818892479
 21
6.1787402681
  0
LINE
  5
3D7
100
AcDbEntity
  8
0
100
AcDbLine
 62
7
  6
CONTINUOUS
 10
9.080972769
 20
6.1763539361
 11
9.0814273019
 21
6.1775261439
  0
LINE
  5
3D8
100
AcDbEntity
  8
0
100
AcDbLine
 62
7
  6
CONTINUOUS
 10
9.0805280522
 20
6.1752275287
 11
9.080972769
 21
6.1763539361
  0
LINE
  5
3D9
100
AcDbEntity
  8
0
100
AcDbLine
 62
7
  6
CONTINUOUS
 10
9.0800951304
 20
6.174148866
 11
9.0805280522
 21
6.1752275287
  0
LINE
  5
3DA
100
AcDbEntity
  8
0
100
AcDbLine
 62
7
  6
CONTINUOUS
 10
9.0796742823
 20
6.17311646
 11
9.0800951304
 21
6.174148866
  0
LINE
  5
3DB
100
AcDbEntity
  8
0
100
AcDbLine
 62
7
  6
CONTINUOUS
 10
9.0792672129
 20
6.1721332809
 11
9.0796742823
 21
6.17311646
  0
LINE
  5
3DC
100
AcDbEntity
  8
0
100
AcDbLine
 62
7
  6
CONTINUOUS
 10
9.0788769916
 20
6.1712045105
 11
9.0792672129
 21
6.1721332809
  0
LINE
  5
3DD
100
AcDbEntity
  8
0
100
AcDbLine
 62
7
  6
CONTINUOUS
 10
9.0783869036
 20
6.1700551035
 11
9.0788769916
 21
6.1712045105
  0
LINE
  5
3DE
100
AcDbEntity
  8
0
100
AcDbLine
 62
7
  6
CONTINUOUS
 10
9.0779333263
 20
6.1690080158
 11
9.0783869036
 21
6.1700551035
  0
LINE
  5
3DF
100
AcDbEntity
  8
0
100
AcDbLine
 62
7
  6
CONTINUOUS
 10
9.0777214047
 20
6.1685245119
 11
9.0779333263
 21
6.1690080158
  0
LINE
  5
3E0
100
AcDbEntity
  8
0
100
AcDbLine
 62
7
  6
CONTINUOUS
 10
9.0770605721
 20
6.1670378371
 11
9.0777214047
 21
6.1685245119
  0
LINE
  5
3E1
100
AcDbEntity
  8
0
100
AcDbLine
 62
7
  6
CONTINUOUS
 10
9.0766541677
 20
6.1661386608
 11
9.0770605721
 21
6.1670378371
  0
LINE
  5
3E2
100
AcDbEntity
  8
0
100
AcDbLine
 62
7
  6
CONTINUOUS
 10
9.0762429163
 20
6.1652410618
 11
9.0766541677
 21
6.1661386608
  0
LINE
  5
3E3
100
AcDbEntity
  8
0
100
AcDbLine
 62
7
  6
CONTINUOUS
 10
9.0758311618
 20
6.1643527506
 11
9.0762429163
 21
6.1652410618
  0
LINE
  5
3E4
100
AcDbEntity
  8
0
100
AcDbLine
 62
7
  6
CONTINUOUS
 10
9.0757120538
 20
6.1640982144
 11
9.0758311618
 21
6.1643527506
  0
LINE
  5
3E5
100
AcDbEntity
  8
0
100
AcDbLine
 62
7
  6
CONTINUOUS
 10
8.5203996506
 20
6.704914175
 11
8.5203996506
 21
5.797414175
  0
LINE
  5
3E6
100
AcDbEntity
  8
0
100
AcDbLine
 62
7
  6
CONTINUOUS
 10
8.5353996506
 20
6.719914175
 11
8.5353996506
 21
5.782414175
  0
LINE
  5
3E7
100
AcDbEntity
  8
0
100
AcDbLine
 62
7
  6
CONTINUOUS
 10
9.0873453287
 20
6.1953154498
 11
9.0875718597
 21
6.1961232461
  0
LINE
  5
3E8
100
AcDbEntity
  8
0
100
AcDbLine
 62
7
  6
CONTINUOUS
 10
9.0870493527
 20
6.1942787352
 11
9.0873453287
 21
6.1953154498
  0
LINE
  5
3E9
100
AcDbEntity
  8
0
100
AcDbLine
 62
7
  6
CONTINUOUS
 10
9.0867497419
 20
6.1932498468
 11
9.0870493527
 21
6.1942787352
  0
LINE
  5
3EA
100
AcDbEntity
  8
0
100
AcDbLine
 62
7
  6
CONTINUOUS
 10
9.0864467618
 20
6.1922292899
 11
9.0867497419
 21
6.1932498468
  0
LINE
  5
3EB
100
AcDbEntity
  8
0
100
AcDbLine
 62
7
  6
CONTINUOUS
 10
9.0861407689
 20
6.1912177661
 11
9.0864467618
 21
6.1922292899
  0
LINE
  5
3EC
100
AcDbEntity
  8
0
100
AcDbLine
 62
7
  6
CONTINUOUS
 10
9.0858320955
 20
6.1902157924
 11
9.0861407689
 21
6.1912177661
  0
LINE
  5
3ED
100
AcDbEntity
  8
0
100
AcDbLine
 62
7
  6
CONTINUOUS
 10
9.0853646607
 20
6.1887317607
 11
9.0858320955
 21
6.1902157924
  0
LINE
  5
3EE
100
AcDbEntity
  8
0
100
AcDbLine
 62
7
  6
CONTINUOUS
 10
9.0850505062
 20
6.1877559122
 11
9.0853646607
 21
6.1887317607
  0
LINE
  5
3EF
100
AcDbEntity
  8
0
100
AcDbLine
 62
7
  6
CONTINUOUS
 10
9.0847347679
 20
6.1867917344
 11
9.0850505062
 21
6.1877559122
  0
LINE
  5
3F0
100
AcDbEntity
  8
0
100
AcDbLine
 62
7
  6
CONTINUOUS
 10
9.0844178848
 20
6.185839994
 11
9.0847347679
 21
6.1867917344
  0
LINE
  5
3F1
100
AcDbEntity
  8
0
100
AcDbLine
 62
7
  6
CONTINUOUS
 10
9.0839412895
 20
6.184436811
 11
9.0844178848
 21
6.185839994
  0
LINE
  5
3F2
100
AcDbEntity
  8
0
100
AcDbLine
 62
7
  6
CONTINUOUS
 10
9.0836232788
 20
6.183518325
 11
9.0839412895
 21
6.184436811
  0
LINE
  5
3F3
100
AcDbEntity
  8
0
100
AcDbLine
 62
7
  6
CONTINUOUS
 10
9.083305326
 20
6.1826137982
 11
9.0836232788
 21
6.183518325
  0
LINE
  5
3F4
100
AcDbEntity
  8
0
100
AcDbLine
 62
7
  6
CONTINUOUS
 10
9.0829879578
 20
6.1817242961
 11
9.083305326
 21
6.1826137982
  0
LINE
  5
3F5
100
AcDbEntity
  8
0
100
AcDbLine
 62
7
  6
CONTINUOUS
 10
9.0826716416
 20
6.1808505317
 11
9.0829879578
 21
6.1817242961
  0
LINE
  5
3F6
100
AcDbEntity
  8
0
100
AcDbLine
 62
7
  6
CONTINUOUS
 10
9.0823570091
 20
6.1799935062
 11
9.0826716416
 21
6.1808505317
  0
LINE
  5
3F7
100
AcDbEntity
  8
0
100
AcDbLine
 62
7
  6
CONTINUOUS
 10
8.7022746506
 20
3.8527176148
 11
8.7022746506
 21
6.1467042132
  0
LINE
  5
3F8
100
AcDbEntity
  8
0
100
AcDbLine
 62
7
  6
CONTINUOUS
 10
8.7060246506
 20
4.1002291609
 11
8.7060246506
 21
3.8503071613
  0
LINE
  5
3F9
100
AcDbEntity
  8
0
100
AcDbLine
 62
7
  6
CONTINUOUS
 10
8.7069621506
 20
6.251164175
 11
8.7069621506
 21
6.1582654519
  0
LINE
  5
3FA
100
AcDbEntity
  8
0
100
AcDbLine
 62
7
  6
CONTINUOUS
 10
8.7159621506
 20
3.8651013946
 11
8.7159621506
 21
4.0854349276
  0
LINE
  5
3FB
100
AcDbEntity
  8
0
100
AcDbLine
 62
7
  6
CONTINUOUS
 10
8.7197121506
 20
4.083024474
 11
8.7197121506
 21
3.8626909411
  0
LINE
  5
3FC
100
AcDbEntity
  8
0
100
AcDbLine
 62
7
  6
CONTINUOUS
 10
8.7266496506
 20
3.8345074947
 11
8.7266496506
 21
3.8331679482
  0
LINE
  5
3FD
100
AcDbEntity
  8
0
100
AcDbLine
 62
7
  6
CONTINUOUS
 10
8.7266496506
 20
4.1160288275
 11
8.7266496506
 21
6.1662538798
  0
LINE
  5
3FE
100
AcDbEntity
  8
0
100
AcDbLine
 62
7
  6
CONTINUOUS
 10
8.7459621506
 20
3.8425822744
 11
8.7459621506
 21
3.841242728
  0
LINE
  5
3FF
100
AcDbEntity
  8
0
100
AcDbLine
 62
7
  6
CONTINUOUS
 10
8.7459621506
 20
4.1031331407
 11
8.7459621506
 21
4.1084162609
  0
LINE
  5
400
100
AcDbEntity
  8
0
100
AcDbLine
 62
7
  6
CONTINUOUS
 10
9.0335871506
 20
3.8425822744
 11
9.0335871506
 21
3.841242728
  0
LINE
  5
401
100
AcDbEntity
  8
0
100
AcDbLine
 62
7
  6
CONTINUOUS
 10
9.0335871506
 20
4.1031331407
 11
9.0335871506
 21
4.1084162609
  0
LINE
  5
402
100
AcDbEntity
  8
0
100
AcDbLine
 62
7
  6
CONTINUOUS
 10
9.0528996506
 20
3.8345074947
 11
9.0528996506
 21
3.8331679482
  0
LINE
  5
403
100
AcDbEntity
  8
0
100
AcDbLine
 62
7
  6
CONTINUOUS
 10
9.0528996506
 20
6.1662538798
 11
9.0528996506
 21
4.1160288275
  0
LINE
  5
404
100
AcDbEntity
  8
0
100
AcDbLine
 62
7
  6
CONTINUOUS
 10
9.0598371506
 20
3.8626909411
 11
9.0598371506
 21
4.083024474
  0
LINE
  5
405
100
AcDbEntity
  8
0
100
AcDbLine
 62
7
  6
CONTINUOUS
 10
9.0635871506
 20
4.0854349276
 11
9.0635871506
 21
3.8651013946
  0
LINE
  5
406
100
AcDbEntity
  8
0
100
AcDbLine
 62
7
  6
CONTINUOUS
 10
9.0725871506
 20
6.251164175
 11
9.0725871506
 21
6.1582654049
  0
LINE
  5
407
100
AcDbEntity
  8
0
100
AcDbLine
 62
7
  6
CONTINUOUS
 10
9.0735246506
 20
3.8503071613
 11
9.0735246506
 21
4.1002291609
  0
LINE
  5
408
100
AcDbEntity
  8
0
100
AcDbLine
 62
7
  6
CONTINUOUS
 10
9.0772746506
 20
3.8527176148
 11
9.0772746506
 21
6.1467042132
  0
LINE
  5
409
100
AcDbEntity
  8
0
100
AcDbLine
 62
7
  6
CONTINUOUS
 10
9.2441496506
 20
5.782414175
 11
9.2441496506
 21
6.719914175
  0
LINE
  5
40A
100
AcDbEntity
  8
0
100
AcDbLine
 62
7
  6
CONTINUOUS
 10
9.2591496506
 20
5.797414175
 11
9.2591496506
 21
6.704914175
  0
LINE
  5
40B
100
AcDbEntity
  8
0
100
AcDbLine
 62
7
  6
CONTINUOUS
 10
9.0844031047
 20
6.3165323683
 11
9.0841947328
 21
6.3171490533
  0
LINE
  5
40C
100
AcDbEntity
  8
0
100
AcDbLine
 62
7
  6
CONTINUOUS
 10
9.0847124792
 20
6.3156040689
 11
9.0844031047
 21
6.3165323683
  0
LINE
  5
40D
100
AcDbEntity
  8
0
100
AcDbLine
 62
7
  6
CONTINUOUS
 10
9.0850221055
 20
6.3146598352
 11
9.0847124792
 21
6.3156040689
  0
LINE
  5
40E
100
AcDbEntity
  8
0
100
AcDbLine
 62
7
  6
CONTINUOUS
 10
9.0853315894
 20
6.3137001181
 11
9.0850221055
 21
6.3146598352
  0
LINE
  5
40F
100
AcDbEntity
  8
0
100
AcDbLine
 62
7
  6
CONTINUOUS
 10
9.0857947754
 20
6.3122324989
 11
9.0853315894
 21
6.3137001181
  0
LINE
  5
410
100
AcDbEntity
  8
0
100
AcDbLine
 62
7
  6
CONTINUOUS
 10
9.0861024645
 20
6.311235904
 11
9.0857947754
 21
6.3122324989
  0
LINE
  5
411
100
AcDbEntity
  8
0
100
AcDbLine
 62
7
  6
CONTINUOUS
 10
9.0864089545
 20
6.3102250578
 11
9.0861024645
 21
6.311235904
  0
LINE
  5
412
100
AcDbEntity
  8
0
100
AcDbLine
 62
7
  6
CONTINUOUS
 10
9.086713931
 20
6.3092001468
 11
9.0864089545
 21
6.3102250578
  0
LINE
  5
413
100
AcDbEntity
  8
0
100
AcDbLine
 62
7
  6
CONTINUOUS
 10
9.0870170318
 20
6.3081615823
 11
9.086713931
 21
6.3092001468
  0
LINE
  5
414
100
AcDbEntity
  8
0
100
AcDbLine
 62
7
  6
CONTINUOUS
 10
9.0873179543
 20
6.3071096628
 11
9.0870170318
 21
6.3081615823
  0
LINE
  5
415
100
AcDbEntity
  8
0
100
AcDbLine
 62
7
  6
CONTINUOUS
 10
9.0875718609
 20
6.3062051024
 11
9.0873179543
 21
6.3071096628
  0
ARC
  5
416
100
AcDbEntity
  8
0
100
AcDbCircle
 62
7
  6
CONTINUOUS
 10
3.3703863477
 20
2.9426814428
 40
0.0234375
100
AcDbArc
 50
109.1157481785
 51
180.0
  0
ARC
  5
417
100
AcDbEntity
  8
0
100
AcDbCircle
 62
7
  6
CONTINUOUS
 10
3.9091629536
 20
2.9426814428
 40
0.0234375
100
AcDbArc
 50
0.0
 51
70.891051771
  0
ARC
  5
418
100
AcDbEntity
  8
0
100
AcDbCircle
 62
7
  6
CONTINUOUS
 10
3.3703863477
 20
2.4353458998
 40
0.0234375
100
AcDbArc
 50
180.0
 51
270.0
  0
ARC
  5
419
100
AcDbEntity
  8
0
100
AcDbCircle
 62
7
  6
CONTINUOUS
 10
3.9091629536
 20
2.4353458998
 40
0.0234375
100
AcDbArc
 50
270.0
 51
360.0
  0
ARC
  5
41A
100
AcDbEntity
  8
0
100
AcDbCircle
 62
7
  6
CONTINUOUS
 10
1.7141496506
 20
5.825539175
 40
0.0225
100
AcDbArc
 50
180.0
 51
270.0
  0
ARC
  5
41B
100
AcDbEntity
  8
0
100
AcDbCircle
 62
7
  6
CONTINUOUS
 10
2.5653996506
 20
5.825539175
 40
0.0225
100
AcDbArc
 50
270.0
 51
360.0
  0
ARC
  5
41C
100
AcDbEntity
  8
0
100
AcDbCircle
 62
7
  6
CONTINUOUS
 10
2.2910871506
 20
6.134914175
 40
0.0225
100
AcDbArc
 50
96.3793702084
 51
180.0
  0
ARC
  5
41D
100
AcDbEntity
  8
0
100
AcDbCircle
 62
7
  6
CONTINUOUS
 10
1.9884621506
 20
6.134914175
 40
0.0225
100
AcDbArc
 50
0.0
 51
90.0
  0
ARC
  5
41E
100
AcDbEntity
  8
0
100
AcDbCircle
 62
7
  6
CONTINUOUS
 10
1.8350871506
 20
5.946476675
 40
0.0225
100
AcDbArc
 50
180.0
 51
270.0
  0
ARC
  5
41F
100
AcDbEntity
  8
0
100
AcDbCircle
 62
7
  6
CONTINUOUS
 10
2.4444621506
 20
5.946476675
 40
0.0225
100
AcDbArc
 50
270.0
 51
360.0
  0
ARC
  5
420
100
AcDbEntity
  8
0
100
AcDbCircle
 62
7
  6
CONTINUOUS
 10
1.9601496506
 20
6.071539175
 40
0.0225
100
AcDbArc
 50
180.0
 51
270.0
  0
ARC
  5
421
100
AcDbEntity
  8
0
100
AcDbCircle
 62
7
  6
CONTINUOUS
 10
2.3193996506
 20
6.071539175
 40
0.0225
100
AcDbArc
 50
270.0
 51
360.0
  0
ARC
  5
422
100
AcDbEntity
  8
0
100
AcDbCircle
 62
7
  6
CONTINUOUS
 10
1.0142121506
 20
6.168664175
 40
0.01125
100
AcDbArc
 50
180.0
 51
270.0
  0
ARC
  5
423
100
AcDbEntity
  8
0
100
AcDbCircle
 62
7
  6
CONTINUOUS
 10
2.2873371506
 20
6.1684551946
 40
0.01125
100
AcDbArc
 50
276.3793702084
 51
360.0
  0
ARC
  5
424
100
AcDbEntity
  8
0
100
AcDbCircle
 62
7
  6
CONTINUOUS
 10
2.2573371506
 20
6.133601675
 40
0.01125
100
AcDbArc
 50
270.0
 51
360.0
  0
ARC
  5
425
100
AcDbEntity
  8
0
100
AcDbCircle
 62
7
  6
CONTINUOUS
 10
2.0222121506
 20
6.133601675
 40
0.01125
100
AcDbArc
 50
180.0
 51
270.0
  0
ARC
  5
426
100
AcDbEntity
  8
0
100
AcDbCircle
 62
7
  6
CONTINUOUS
 10
2.5653996506
 20
5.825539175
 40
0.01125
100
AcDbArc
 50
270.0
 51
360.0
  0
ARC
  5
427
100
AcDbEntity
  8
0
100
AcDbCircle
 62
7
  6
CONTINUOUS
 10
1.7141496506
 20
5.825539175
 40
0.01125
100
AcDbArc
 50
180.0
 51
270.0
  0
ARC
  5
428
100
AcDbEntity
  8
0
100
AcDbCircle
 62
7
  6
CONTINUOUS
 10
2.4444621506
 20
5.946476675
 40
0.01125
100
AcDbArc
 50
270.0
 51
360.0
  0
ARC
  5
429
100
AcDbEntity
  8
0
100
AcDbCircle
 62
7
  6
CONTINUOUS
 10
1.8350871506
 20
5.946476675
 40
0.01125
100
AcDbArc
 50
180.0
 51
270.0
  0
ARC
  5
42A
100
AcDbEntity
  8
0
100
AcDbCircle
 62
7
  6
CONTINUOUS
 10
2.3193996506
 20
6.071539175
 40
0.01125
100
AcDbArc
 50
270.0
 51
360.0
  0
ARC
  5
42B
100
AcDbEntity
  8
0
100
AcDbCircle
 62
7
  6
CONTINUOUS
 10
1.9601496506
 20
6.071539175
 40
0.01125
100
AcDbArc
 50
180.0
 51
270.0
  0
ARC
  5
42C
100
AcDbEntity
  8
0
100
AcDbCircle
 62
7
  6
CONTINUOUS
 10
2.5653996506
 20
6.676789175
 40
0.0225
100
AcDbArc
 50
0.0
 51
90.0
  0
ARC
  5
42D
100
AcDbEntity
  8
0
100
AcDbCircle
 62
7
  6
CONTINUOUS
 10
1.7141496506
 20
6.676789175
 40
0.0225
100
AcDbArc
 50
90.0
 51
180.0
  0
ARC
  5
42E
100
AcDbEntity
  8
0
100
AcDbCircle
 62
7
  6
CONTINUOUS
 10
1.9884621506
 20
6.367414175
 40
0.0225
100
AcDbArc
 50
270.0
 51
360.0
  0
ARC
  5
42F
100
AcDbEntity
  8
0
100
AcDbCircle
 62
7
  6
CONTINUOUS
 10
2.2910871506
 20
6.367414175
 40
0.0225
100
AcDbArc
 50
180.0
 51
263.6206297916
  0
ARC
  5
430
100
AcDbEntity
  8
0
100
AcDbCircle
 62
7
  6
CONTINUOUS
 10
2.4444621506
 20
6.555851675
 40
0.0225
100
AcDbArc
 50
0.0
 51
90.0
  0
ARC
  5
431
100
AcDbEntity
  8
0
100
AcDbCircle
 62
7
  6
CONTINUOUS
 10
1.8350871506
 20
6.555851675
 40
0.0225
100
AcDbArc
 50
90.0
 51
180.0
  0
ARC
  5
432
100
AcDbEntity
  8
0
100
AcDbCircle
 62
7
  6
CONTINUOUS
 10
2.3193996506
 20
6.430789175
 40
0.0225
100
AcDbArc
 50
0.0
 51
90.0
  0
ARC
  5
433
100
AcDbEntity
  8
0
100
AcDbCircle
 62
7
  6
CONTINUOUS
 10
1.9601496506
 20
6.430789175
 40
0.0225
100
AcDbArc
 50
90.0
 51
180.0
  0
ARC
  5
434
100
AcDbEntity
  8
0
100
AcDbCircle
 62
7
  6
CONTINUOUS
 10
2.2873371506
 20
6.3338731553
 40
0.01125
100
AcDbArc
 50
0.0
 51
83.6206297669
  0
ARC
  5
435
100
AcDbEntity
  8
0
100
AcDbCircle
 62
7
  6
CONTINUOUS
 10
2.2573371506
 20
6.368726675
 40
0.01125
100
AcDbArc
 50
0.0
 51
90.0
  0
ARC
  5
436
100
AcDbEntity
  8
0
100
AcDbCircle
 62
7
  6
CONTINUOUS
 10
2.0222121506
 20
6.368726675
 40
0.01125
100
AcDbArc
 50
90.0
 51
180.0
  0
ARC
  5
437
100
AcDbEntity
  8
0
100
AcDbCircle
 62
7
  6
CONTINUOUS
 10
1.0142121506
 20
6.333664175
 40
0.01125
100
AcDbArc
 50
90.0
 51
180.0
  0
ARC
  5
438
100
AcDbEntity
  8
0
100
AcDbCircle
 62
7
  6
CONTINUOUS
 10
1.7141496506
 20
6.676789175
 40
0.01125
100
AcDbArc
 50
90.0
 51
180.0
  0
ARC
  5
439
100
AcDbEntity
  8
0
100
AcDbCircle
 62
7
  6
CONTINUOUS
 10
2.5653996506
 20
6.676789175
 40
0.01125
100
AcDbArc
 50
0.0
 51
90.0
  0
ARC
  5
43A
100
AcDbEntity
  8
0
100
AcDbCircle
 62
7
  6
CONTINUOUS
 10
1.8350871506
 20
6.555851675
 40
0.01125
100
AcDbArc
 50
90.0
 51
180.0
  0
ARC
  5
43B
100
AcDbEntity
  8
0
100
AcDbCircle
 62
7
  6
CONTINUOUS
 10
2.4444621506
 20
6.555851675
 40
0.01125
100
AcDbArc
 50
0.0
 51
90.0
  0
ARC
  5
43C
100
AcDbEntity
  8
0
100
AcDbCircle
 62
7
  6
CONTINUOUS
 10
1.9601496506
 20
6.430789175
 40
0.01125
100
AcDbArc
 50
90.0
 51
180.0
  0
ARC
  5
43D
100
AcDbEntity
  8
0
100
AcDbCircle
 62
7
  6
CONTINUOUS
 10
2.3193996506
 20
6.430789175
 40
0.01125
100
AcDbArc
 50
0.0
 51
90.0
  0
ARC
  5
43E
100
AcDbEntity
  8
0
100
AcDbCircle
 62
7
  6
CONTINUOUS
 10
4.2200764146
 20
5.670862411
 40
0.0290732347
100
AcDbArc
 50
270.0
 51
360.0
  0
ARC
  5
43F
100
AcDbEntity
  8
0
100
AcDbCircle
 62
7
  6
CONTINUOUS
 10
3.0594728866
 20
5.670862411
 40
0.0290732347
100
AcDbArc
 50
180.0
 51
270.0
  0
ARC
  5
440
100
AcDbEntity
  8
0
100
AcDbCircle
 62
7
  6
CONTINUOUS
 10
3.5180871506
 20
6.129476675
 40
0.023625
100
AcDbArc
 50
180.0
 51
270.0
  0
ARC
  5
441
100
AcDbEntity
  8
0
100
AcDbCircle
 62
7
  6
CONTINUOUS
 10
3.7614621506
 20
6.129476675
 40
0.023625
100
AcDbArc
 50
270.0
 51
360.0
  0
ARC
  5
442
100
AcDbEntity
  8
0
100
AcDbCircle
 62
7
  6
CONTINUOUS
 10
3.1850871506
 20
5.796476675
 40
0.0234375
100
AcDbArc
 50
180.0
 51
270.0
  0
ARC
  5
443
100
AcDbEntity
  8
0
100
AcDbCircle
 62
7
  6
CONTINUOUS
 10
4.0944621506
 20
5.796476675
 40
0.0234375
100
AcDbArc
 50
270.0
 51
360.0
  0
ARC
  5
444
100
AcDbEntity
  8
0
100
AcDbCircle
 62
7
  6
CONTINUOUS
 10
4.7141496506
 20
5.825539175
 40
0.0225
100
AcDbArc
 50
180.0
 51
270.0
  0
ARC
  5
445
100
AcDbEntity
  8
0
100
AcDbCircle
 62
7
  6
CONTINUOUS
 10
4.8350871506
 20
5.946476675
 40
0.0225
100
AcDbArc
 50
180.0
 51
270.0
  0
ARC
  5
446
100
AcDbEntity
  8
0
100
AcDbCircle
 62
7
  6
CONTINUOUS
 10
4.9601496506
 20
6.071539175
 40
0.0225
100
AcDbArc
 50
180.0
 51
270.0
  0
ARC
  5
447
100
AcDbEntity
  8
0
100
AcDbCircle
 62
7
  6
CONTINUOUS
 10
4.9884621506
 20
6.134914175
 40
0.0225
100
AcDbArc
 50
0.0
 51
83.6206297916
  0
ARC
  5
448
100
AcDbEntity
  8
0
100
AcDbCircle
 62
7
  6
CONTINUOUS
 10
3.7614621506
 20
6.129476675
 40
0.012375
100
AcDbArc
 50
270.0
 51
360.0
  0
ARC
  5
449
100
AcDbEntity
  8
0
100
AcDbCircle
 62
7
  6
CONTINUOUS
 10
3.5180871506
 20
6.129476675
 40
0.012375
100
AcDbArc
 50
180.0
 51
270.0
  0
ARC
  5
44A
100
AcDbEntity
  8
0
100
AcDbCircle
 62
7
  6
CONTINUOUS
 10
4.9922121506
 20
6.1684551946
 40
0.01125
100
AcDbArc
 50
180.0
 51
263.6206297669
  0
ARC
  5
44B
100
AcDbEntity
  8
0
100
AcDbCircle
 62
7
  6
CONTINUOUS
 10
5.0222121506
 20
6.133601675
 40
0.01125
100
AcDbArc
 50
180.0
 51
270.0
  0
ARC
  5
44C
100
AcDbEntity
  8
0
100
AcDbCircle
 62
7
  6
CONTINUOUS
 10
4.0944621506
 20
5.796476675
 40
0.01125
100
AcDbArc
 50
270.0
 51
360.0
  0
ARC
  5
44D
100
AcDbEntity
  8
0
100
AcDbCircle
 62
7
  6
CONTINUOUS
 10
3.1850871506
 20
5.796476675
 40
0.01125
100
AcDbArc
 50
180.0
 51
270.0
  0
ARC
  5
44E
100
AcDbEntity
  8
0
100
AcDbCircle
 62
7
  6
CONTINUOUS
 10
4.7141496506
 20
5.825539175
 40
0.01125
100
AcDbArc
 50
180.0
 51
270.0
  0
ARC
  5
44F
100
AcDbEntity
  8
0
100
AcDbCircle
 62
7
  6
CONTINUOUS
 10
4.8350871506
 20
5.946476675
 40
0.01125
100
AcDbArc
 50
180.0
 51
270.0
  0
ARC
  5
450
100
AcDbEntity
  8
0
100
AcDbCircle
 62
7
  6
CONTINUOUS
 10
4.9601496506
 20
6.071539175
 40
0.01125
100
AcDbArc
 50
180.0
 51
270.0
  0
ARC
  5
451
100
AcDbEntity
  8
0
100
AcDbCircle
 62
7
  6
CONTINUOUS
 10
4.2200764146
 20
6.8314659389
 40
0.0290732347
100
AcDbArc
 50
0.0
 51
90.0
  0
ARC
  5
452
100
AcDbEntity
  8
0
100
AcDbCircle
 62
7
  6
CONTINUOUS
 10
3.0594728866
 20
6.8314659389
 40
0.0290732347
100
AcDbArc
 50
90.0
 51
180.0
  0
ARC
  5
453
100
AcDbEntity
  8
0
100
AcDbCircle
 62
7
  6
CONTINUOUS
 10
3.7614621506
 20
6.372851675
 40
0.023625
100
AcDbArc
 50
0.0
 51
90.0
  0
ARC
  5
454
100
AcDbEntity
  8
0
100
AcDbCircle
 62
7
  6
CONTINUOUS
 10
3.5180871506
 20
6.372851675
 40
0.023625
100
AcDbArc
 50
90.0
 51
180.0
  0
ARC
  5
455
100
AcDbEntity
  8
0
100
AcDbCircle
 62
7
  6
CONTINUOUS
 10
3.1850871506
 20
6.705851675
 40
0.0234375
100
AcDbArc
 50
90.0
 51
180.0
  0
ARC
  5
456
100
AcDbEntity
  8
0
100
AcDbCircle
 62
7
  6
CONTINUOUS
 10
4.0944621506
 20
6.705851675
 40
0.0234375
100
AcDbArc
 50
0.0
 51
90.0
  0
ARC
  5
457
100
AcDbEntity
  8
0
100
AcDbCircle
 62
7
  6
CONTINUOUS
 10
4.7141496506
 20
6.676789175
 40
0.0225
100
AcDbArc
 50
90.0
 51
180.0
  0
ARC
  5
458
100
AcDbEntity
  8
0
100
AcDbCircle
 62
7
  6
CONTINUOUS
 10
4.8350871506
 20
6.555851675
 40
0.0225
100
AcDbArc
 50
90.0
 51
180.0
  0
ARC
  5
459
100
AcDbEntity
  8
0
100
AcDbCircle
 62
7
  6
CONTINUOUS
 10
4.9601496506
 20
6.430789175
 40
0.0225
100
AcDbArc
 50
90.0
 51
180.0
  0
ARC
  5
45A
100
AcDbEntity
  8
0
100
AcDbCircle
 62
7
  6
CONTINUOUS
 10
4.9884621506
 20
6.367414175
 40
0.0225
100
AcDbArc
 50
276.3793702084
 51
360.0
  0
ARC
  5
45B
100
AcDbEntity
  8
0
100
AcDbCircle
 62
7
  6
CONTINUOUS
 10
3.5180871506
 20
6.372851675
 40
0.012375
100
AcDbArc
 50
90.0
 51
180.0
  0
ARC
  5
45C
100
AcDbEntity
  8
0
100
AcDbCircle
 62
7
  6
CONTINUOUS
 10
3.7614621506
 20
6.372851675
 40
0.012375
100
AcDbArc
 50
0.0
 51
90.0
  0
ARC
  5
45D
100
AcDbEntity
  8
0
100
AcDbCircle
 62
7
  6
CONTINUOUS
 10
5.0222121506
 20
6.368726675
 40
0.01125
100
AcDbArc
 50
90.0
 51
180.0
  0
ARC
  5
45E
100
AcDbEntity
  8
0
100
AcDbCircle
 62
7
  6
CONTINUOUS
 10
4.9922121506
 20
6.3338731553
 40
0.01125
100
AcDbArc
 50
96.3793702084
 51
180.0
  0
ARC
  5
45F
100
AcDbEntity
  8
0
100
AcDbCircle
 62
7
  6
CONTINUOUS
 10
4.0944621506
 20
6.705851675
 40
0.01125
100
AcDbArc
 50
0.0
 51
90.0
  0
ARC
  5
460
100
AcDbEntity
  8
0
100
AcDbCircle
 62
7
  6
CONTINUOUS
 10
3.1850871506
 20
6.705851675
 40
0.01125
100
AcDbArc
 50
90.0
 51
180.0
  0
ARC
  5
461
100
AcDbEntity
  8
0
100
AcDbCircle
 62
7
  6
CONTINUOUS
 10
4.7141496506
 20
6.676789175
 40
0.01125
100
AcDbArc
 50
90.0
 51
180.0
  0
ARC
  5
462
100
AcDbEntity
  8
0
100
AcDbCircle
 62
7
  6
CONTINUOUS
 10
4.8350871506
 20
6.555851675
 40
0.01125
100
AcDbArc
 50
90.0
 51
180.0
  0
ARC
  5
463
100
AcDbEntity
  8
0
100
AcDbCircle
 62
7
  6
CONTINUOUS
 10
4.9601496506
 20
6.430789175
 40
0.01125
100
AcDbArc
 50
90.0
 51
180.0
  0
ARC
  5
464
100
AcDbEntity
  8
0
100
AcDbCircle
 62
7
  6
CONTINUOUS
 10
7.1660871506
 20
6.134914175
 40
0.0225
100
AcDbArc
 50
90.0
 51
180.0
  0
ARC
  5
465
100
AcDbEntity
  8
0
100
AcDbCircle
 62
7
  6
CONTINUOUS
 10
6.8634621506
 20
6.134914175
 40
0.0225
100
AcDbArc
 50
0.0
 51
83.6206297916
  0
ARC
  5
466
100
AcDbEntity
  8
0
100
AcDbCircle
 62
7
  6
CONTINUOUS
 10
5.5653996506
 20
5.825539175
 40
0.0225
100
AcDbArc
 50
270.0
 51
360.0
  0
ARC
  5
467
100
AcDbEntity
  8
0
100
AcDbCircle
 62
7
  6
CONTINUOUS
 10
7.1943996506
 20
6.071539175
 40
0.0225
100
AcDbArc
 50
270.0
 51
360.0
  0
ARC
  5
468
100
AcDbEntity
  8
0
100
AcDbCircle
 62
7
  6
CONTINUOUS
 10
6.8351496506
 20
6.071539175
 40
0.0225
100
AcDbArc
 50
180.0
 51
270.0
  0
ARC
  5
469
100
AcDbEntity
  8
0
100
AcDbCircle
 62
7
  6
CONTINUOUS
 10
5.4444621506
 20
5.946476675
 40
0.0225
100
AcDbArc
 50
270.0
 51
360.0
  0
ARC
  5
46A
100
AcDbEntity
  8
0
100
AcDbCircle
 62
7
  6
CONTINUOUS
 10
5.3193996506
 20
6.071539175
 40
0.0225
100
AcDbArc
 50
270.0
 51
360.0
  0
ARC
  5
46B
100
AcDbEntity
  8
0
100
AcDbCircle
 62
7
  6
CONTINUOUS
 10
6.7100871506
 20
5.946476675
 40
0.0225
100
AcDbArc
 50
180.0
 51
270.0
  0
ARC
  5
46C
100
AcDbEntity
  8
0
100
AcDbCircle
 62
7
  6
CONTINUOUS
 10
5.2910871506
 20
6.134914175
 40
0.0225
100
AcDbArc
 50
90.0
 51
180.0
  0
ARC
  5
46D
100
AcDbEntity
  8
0
100
AcDbCircle
 62
7
  6
CONTINUOUS
 10
6.5891496506
 20
5.825539175
 40
0.0225
100
AcDbArc
 50
180.0
 51
270.0
  0
ARC
  5
46E
100
AcDbEntity
  8
0
100
AcDbCircle
 62
7
  6
CONTINUOUS
 10
6.8672121506
 20
6.1684551946
 40
0.01125
100
AcDbArc
 50
180.0
 51
263.6206297669
  0
ARC
  5
46F
100
AcDbEntity
  8
0
100
AcDbCircle
 62
7
  6
CONTINUOUS
 10
6.8972121506
 20
6.133601675
 40
0.01125
100
AcDbArc
 50
180.0
 51
270.0
  0
ARC
  5
470
100
AcDbEntity
  8
0
100
AcDbCircle
 62
7
  6
CONTINUOUS
 10
7.1323371506
 20
6.133601675
 40
0.01125
100
AcDbArc
 50
270.0
 51
360.0
  0
ARC
  5
471
100
AcDbEntity
  8
0
100
AcDbCircle
 62
7
  6
CONTINUOUS
 10
6.2653371506
 20
6.168664175
 40
0.01125
100
AcDbArc
 50
270.0
 51
360.0
  0
ARC
  5
472
100
AcDbEntity
  8
0
100
AcDbCircle
 62
7
  6
CONTINUOUS
 10
5.2573371506
 20
6.133601675
 40
0.01125
100
AcDbArc
 50
270.0
 51
360.0
  0
ARC
  5
473
100
AcDbEntity
  8
0
100
AcDbCircle
 62
7
  6
CONTINUOUS
 10
5.5653996506
 20
5.825539175
 40
0.01125
100
AcDbArc
 50
270.0
 51
360.0
  0
ARC
  5
474
100
AcDbEntity
  8
0
100
AcDbCircle
 62
7
  6
CONTINUOUS
 10
5.4444621506
 20
5.946476675
 40
0.01125
100
AcDbArc
 50
270.0
 51
360.0
  0
ARC
  5
475
100
AcDbEntity
  8
0
100
AcDbCircle
 62
7
  6
CONTINUOUS
 10
5.3193996506
 20
6.071539175
 40
0.01125
100
AcDbArc
 50
270.0
 51
360.0
  0
ARC
  5
476
100
AcDbEntity
  8
0
100
AcDbCircle
 62
7
  6
CONTINUOUS
 10
6.8351496506
 20
6.071539175
 40
0.01125
100
AcDbArc
 50
180.0
 51
270.0
  0
ARC
  5
477
100
AcDbEntity
  8
0
100
AcDbCircle
 62
7
  6
CONTINUOUS
 10
7.1943996506
 20
6.071539175
 40
0.01125
100
AcDbArc
 50
270.0
 51
360.0
  0
ARC
  5
478
100
AcDbEntity
  8
0
100
AcDbCircle
 62
7
  6
CONTINUOUS
 10
6.7100871506
 20
5.946476675
 40
0.01125
100
AcDbArc
 50
180.0
 51
270.0
  0
ARC
  5
479
100
AcDbEntity
  8
0
100
AcDbCircle
 62
7
  6
CONTINUOUS
 10
6.5891496506
 20
5.825539175
 40
0.01125
100
AcDbArc
 50
180.0
 51
270.0
  0
ARC
  5
47A
100
AcDbEntity
  8
0
100
AcDbCircle
 62
7
  6
CONTINUOUS
 10
5.3193996506
 20
6.430789175
 40
0.0225
100
AcDbArc
 50
0.0
 51
90.0
  0
ARC
  5
47B
100
AcDbEntity
  8
0
100
AcDbCircle
 62
7
  6
CONTINUOUS
 10
5.2910871506
 20
6.367414175
 40
0.0225
100
AcDbArc
 50
180.0
 51
270.0
  0
ARC
  5
47C
100
AcDbEntity
  8
0
100
AcDbCircle
 62
7
  6
CONTINUOUS
 10
5.2573371506
 20
6.368726675
 40
0.01125
100
AcDbArc
 50
0.0
 51
90.0
  0
ARC
  5
47D
100
AcDbEntity
  8
0
100
AcDbCircle
 62
7
  6
CONTINUOUS
 10
5.3193996506
 20
6.430789175
 40
0.01125
100
AcDbArc
 50
0.0
 51
90.0
  0
ARC
  5
47E
100
AcDbEntity
  8
0
100
AcDbCircle
 62
7
  6
CONTINUOUS
 10
5.5653996506
 20
6.676789175
 40
0.0225
100
AcDbArc
 50
0.0
 51
90.0
  0
ARC
  5
47F
100
AcDbEntity
  8
0
100
AcDbCircle
 62
7
  6
CONTINUOUS
 10
5.4444621506
 20
6.555851675
 40
0.0225
100
AcDbArc
 50
0.0
 51
90.0
  0
ARC
  5
480
100
AcDbEntity
  8
0
100
AcDbCircle
 62
7
  6
CONTINUOUS
 10
5.5653996506
 20
6.676789175
 40
0.01125
100
AcDbArc
 50
0.0
 51
90.0
  0
ARC
  5
481
100
AcDbEntity
  8
0
100
AcDbCircle
 62
7
  6
CONTINUOUS
 10
5.4444621506
 20
6.555851675
 40
0.01125
100
AcDbArc
 50
0.0
 51
90.0
  0
ARC
  5
482
100
AcDbEntity
  8
0
100
AcDbCircle
 62
7
  6
CONTINUOUS
 10
6.8634621506
 20
6.367414175
 40
0.0225
100
AcDbArc
 50
276.3793702084
 51
360.0
  0
ARC
  5
483
100
AcDbEntity
  8
0
100
AcDbCircle
 62
7
  6
CONTINUOUS
 10
7.1660871506
 20
6.367414175
 40
0.0225
100
AcDbArc
 50
180.0
 51
270.0
  0
ARC
  5
484
100
AcDbEntity
  8
0
100
AcDbCircle
 62
7
  6
CONTINUOUS
 10
6.8351496506
 20
6.430789175
 40
0.0225
100
AcDbArc
 50
90.0
 51
180.0
  0
ARC
  5
485
100
AcDbEntity
  8
0
100
AcDbCircle
 62
7
  6
CONTINUOUS
 10
7.1943996506
 20
6.430789175
 40
0.0225
100
AcDbArc
 50
0.0
 51
90.0
  0
ARC
  5
486
100
AcDbEntity
  8
0
100
AcDbCircle
 62
7
  6
CONTINUOUS
 10
6.8672121506
 20
6.3338731553
 40
0.01125
100
AcDbArc
 50
96.3793702084
 51
180.0
  0
ARC
  5
487
100
AcDbEntity
  8
0
100
AcDbCircle
 62
7
  6
CONTINUOUS
 10
6.8972121506
 20
6.368726675
 40
0.01125
100
AcDbArc
 50
90.0
 51
180.0
  0
ARC
  5
488
100
AcDbEntity
  8
0
100
AcDbCircle
 62
7
  6
CONTINUOUS
 10
7.1323371506
 20
6.368726675
 40
0.01125
100
AcDbArc
 50
0.0
 51
90.0
  0
ARC
  5
489
100
AcDbEntity
  8
0
100
AcDbCircle
 62
7
  6
CONTINUOUS
 10
6.2653371506
 20
6.333664175
 40
0.01125
100
AcDbArc
 50
0.0
 51
90.0
  0
ARC
  5
48A
100
AcDbEntity
  8
0
100
AcDbCircle
 62
7
  6
CONTINUOUS
 10
7.1943996506
 20
6.430789175
 40
0.01125
100
AcDbArc
 50
0.0
 51
90.0
  0
ARC
  5
48B
100
AcDbEntity
  8
0
100
AcDbCircle
 62
7
  6
CONTINUOUS
 10
6.8351496506
 20
6.430789175
 40
0.01125
100
AcDbArc
 50
90.0
 51
180.0
  0
ARC
  5
48C
100
AcDbEntity
  8
0
100
AcDbCircle
 62
7
  6
CONTINUOUS
 10
6.7100871506
 20
6.555851675
 40
0.0225
100
AcDbArc
 50
90.0
 51
180.0
  0
ARC
  5
48D
100
AcDbEntity
  8
0
100
AcDbCircle
 62
7
  6
CONTINUOUS
 10
6.5891496506
 20
6.676789175
 40
0.0225
100
AcDbArc
 50
90.0
 51
180.0
  0
ARC
  5
48E
100
AcDbEntity
  8
0
100
AcDbCircle
 62
7
  6
CONTINUOUS
 10
6.7100871506
 20
6.555851675
 40
0.01125
100
AcDbArc
 50
90.0
 51
180.0
  0
ARC
  5
48F
100
AcDbEntity
  8
0
100
AcDbCircle
 62
7
  6
CONTINUOUS
 10
6.5891496506
 20
6.676789175
 40
0.01125
100
AcDbArc
 50
90.0
 51
180.0
  0
ARC
  5
490
100
AcDbEntity
  8
0
100
AcDbCircle
 62
7
  6
CONTINUOUS
 10
7.3194621506
 20
5.946476675
 40
0.0225
100
AcDbArc
 50
270.0
 51
360.0
  0
ARC
  5
491
100
AcDbEntity
  8
0
100
AcDbCircle
 62
7
  6
CONTINUOUS
 10
7.4403996506
 20
5.825539175
 40
0.0225
100
AcDbArc
 50
270.0
 51
360.0
  0
ARC
  5
492
100
AcDbEntity
  8
0
100
AcDbCircle
 62
7
  6
CONTINUOUS
 10
8.5353996506
 20
5.797414175
 40
0.015
100
AcDbArc
 50
180.0
 51
270.0
  0
ARC
  5
493
100
AcDbEntity
  8
0
100
AcDbCircle
 62
7
  6
CONTINUOUS
 10
9.2441496506
 20
5.797414175
 40
0.015
100
AcDbArc
 50
270.0
 51
360.0
  0
ARC
  5
494
100
AcDbEntity
  8
0
100
AcDbCircle
 62
7
  6
CONTINUOUS
 10
8.1403371506
 20
6.168664175
 40
0.01125
100
AcDbArc
 50
270.0
 51
360.0
  0
ARC
  5
495
100
AcDbEntity
  8
0
100
AcDbCircle
 62
7
  6
CONTINUOUS
 10
7.3194621506
 20
5.946476675
 40
0.01125
100
AcDbArc
 50
270.0
 51
360.0
  0
ARC
  5
496
100
AcDbEntity
  8
0
100
AcDbCircle
 62
7
  6
CONTINUOUS
 10
7.4403996506
 20
5.825539175
 40
0.01125
100
AcDbArc
 50
270.0
 51
360.0
  0
ARC
  5
497
100
AcDbEntity
  8
0
100
AcDbCircle
 62
7
  6
CONTINUOUS
 10
8.8897746506
 20
6.251164175
 40
0.2053125
100
AcDbArc
 50
333.0369756238
 51
206.9630542049
  0
ARC
  5
498
100
AcDbEntity
  8
0
100
AcDbCircle
 62
7
  6
CONTINUOUS
 10
8.8897746506
 20
6.251164175
 40
0.1940625
100
AcDbArc
 50
340.4035167375
 51
199.5964832625
  0
ARC
  5
499
100
AcDbEntity
  8
0
100
AcDbCircle
 62
7
  6
CONTINUOUS
 10
8.8897746506
 20
6.251164175
 40
0.1828125
100
AcDbArc
 50
0.0
 51
180.0
  0
ARC
  5
49A
100
AcDbEntity
  8
0
100
AcDbCircle
 62
7
  6
CONTINUOUS
 10
7.3194621506
 20
6.555851675
 40
0.0225
100
AcDbArc
 50
0.0
 51
90.0
  0
ARC
  5
49B
100
AcDbEntity
  8
0
100
AcDbCircle
 62
7
  6
CONTINUOUS
 10
7.4403996506
 20
6.676789175
 40
0.0225
100
AcDbArc
 50
0.0
 51
90.0
  0
ARC
  5
49C
100
AcDbEntity
  8
0
100
AcDbCircle
 62
7
  6
CONTINUOUS
 10
8.5353996506
 20
6.704914175
 40
0.015
100
AcDbArc
 50
90.0
 51
180.0
  0
ARC
  5
49D
100
AcDbEntity
  8
0
100
AcDbCircle
 62
7
  6
CONTINUOUS
 10
9.2441496506
 20
6.704914175
 40
0.015
100
AcDbArc
 50
0.0
 51
90.0
  0
ARC
  5
49E
100
AcDbEntity
  8
0
100
AcDbCircle
 62
7
  6
CONTINUOUS
 10
8.1403371506
 20
6.333664175
 40
0.01125
100
AcDbArc
 50
0.0
 51
90.0
  0
ARC
  5
49F
100
AcDbEntity
  8
0
100
AcDbCircle
 62
7
  6
CONTINUOUS
 10
7.3194621506
 20
6.555851675
 40
0.01125
100
AcDbArc
 50
0.0
 51
90.0
  0
ARC
  5
4A0
100
AcDbEntity
  8
0
100
AcDbCircle
 62
7
  6
CONTINUOUS
 10
7.4403996506
 20
6.676789175
 40
0.01125
100
AcDbArc
 50
0.0
 51
90.0
  0
SPLINE
  5
4A1
100
AcDbEntity
  8
0
100
AcDbSpline
 62
7
  6
CONTINUOUS
 70
0
 71
3
 72
20
 73
16
 74
0
 42
0.0000001
 43
0.0000001
 44
0.0000000001
 40
0.0
 40
0.0
 40
0.0
 40
0.0
 40
0.0567354887
 40
0.1136829695
 40
0.1710491067
 40
0.2290295023
 40
0.2878014249
 40
0.3475150283
 40
0.4082860098
 40
0.4701884149
 40
0.5973233207
 40
0.6626044164
 40
0.7288546691
 40
0.8635435223
 40
1.0
 40
1.0
 40
1.0
 40
1.0
 10
8.7159621506
 20
3.8651013946
 30
0.0
 10
8.7159621506
 20
3.8642989863
 30
0.0
 10
8.7160635845
 20
3.8626893572
 30
0.0
 10
8.7165171856
 20
3.8603070881
 30
0.0
 10
8.7172649292
 20
3.8579815234
 30
0.0
 10
8.7182953223
 20
3.8557386934
 30
0.0
 10
8.7195937958
 20
3.8536011014
 30
0.0
 10
8.7211435219
 20
3.851588551
 30
0.0
 10
8.7229265121
 20
3.8497179681
 30
0.0
 10
8.7256109434
 20
3.8474138467
 30
0.0
 10
8.7286684702
 20
3.845474596
 30
0.0
 10
8.7319874737
 20
3.8439287367
 30
0.0
 10
8.73552535
 20
3.8426284268
 30
0.0
 10
8.7401913502
 20
3.8415346157
 30
0.0
 10
8.7440322507
 20
3.841242728
 30
0.0
 10
8.7459621506
 20
3.841242728
 30
0.0
  0
SPLINE
  5
4A2
100
AcDbEntity
  8
0
100
AcDbSpline
 62
7
  6
CONTINUOUS
 70
0
 71
3
 72
20
 73
16
 74
0
 42
0.0000001
 43
0.0000001
 44
0.0000000001
 40
0.0
 40
0.0
 40
0.0
 40
0.0
 40
0.1364568535
 40
0.271145855
 40
0.3373961163
 40
0.4026771776
 40
0.529811912
 40
0.5917141963
 40
0.6524850464
 40
0.7121985239
 40
0.7709703436
 40
0.8289506752
 40
0.8863168095
 40
0.9432643504
 40
1.0
 40
1.0
 40
1.0
 40
1.0
 10
9.0335871506
 20
3.841242728
 30
0.0
 10
9.0355170558
 20
3.841242728
 30
0.0
 10
9.0393579639
 20
3.841534617
 30
0.0
 10
9.0440239708
 20
3.8426284324
 30
0.0
 10
9.0475618478
 20
3.8439287453
 30
0.0
 10
9.0508808479
 20
3.8454746057
 30
0.0
 10
9.0539383695
 20
3.8474138556
 30
0.0
 10
9.0566227953
 20
3.8497179742
 30
0.0
 10
9.0584057813
 20
3.8515885536
 30
0.0
 10
9.0599555043
 20
3.8536011
 30
0.0
 10
9.061253976
 20
3.8557386882
 30
0.0
 10
9.062284369
 20
3.8579815155
 30
0.0
 10
9.0630321136
 20
3.8603070798
 30
0.0
 10
9.0634857164
 20
3.8626893518
 30
0.0
 10
9.0635871506
 20
3.864298984
 30
0.0
 10
9.0635871506
 20
3.8651013946
 30
0.0
  0
SPLINE
  5
4A3
100
AcDbEntity
  8
0
100
AcDbSpline
 62
7
  6
CONTINUOUS
 70
0
 71
3
 72
20
 73
16
 74
0
 42
0.0000001
 43
0.0000001
 44
0.0000000001
 40
0.0
 40
0.0
 40
0.0
 40
0.0
 40
0.1356159928
 40
0.2695549494
 40
0.3354944967
 40
0.4005237686
 40
0.5273785141
 40
0.5892734867
 40
0.6501350927
 40
0.7100398598
 40
0.7691009798
 40
0.8274595884
 40
0.8852781815
 40
0.9427310597
 40
1.0
 40
1.0
 40
1.0
 40
1.0
 10
9.0528996506
 20
6.1662538798
 30
0.0
 10
9.0544636765
 20
6.1662538798
 30
0.0
 10
9.0575773757
 20
6.1660161938
 30
0.0
 10
9.0613600077
 20
6.1651253754
 30
0.0
 10
9.0642291742
 20
6.1640660389
 30
0.0
 10
9.0669246077
 20
6.1628048109
 30
0.0
 10
9.0694090443
 20
6.1612211312
 30
0.0
 10
9.071591704
 20
6.1593383774
 30
0.0
 10
9.0730439397
 20
6.1578070438
 30
0.0
 10
9.0743075236
 20
6.1561575207
 30
0.0
 10
9.0753673553
 20
6.1544034673
 30
0.0
 10
9.0762091779
 20
6.1525610981
 30
0.0
 10
9.0768205595
 20
6.1506490871
 30
0.0
 10
9.0771916512
 20
6.148689218
 30
0.0
 10
9.0772746506
 20
6.1473646818
 30
0.0
 10
9.0772746506
 20
6.1467042132
 30
0.0
  0
SPLINE
  5
4A4
100
AcDbEntity
  8
0
100
AcDbSpline
 62
7
  6
CONTINUOUS
 70
0
 71
3
 72
20
 73
16
 74
0
 42
0.0000001
 43
0.0000001
 44
0.0000000001
 40
0.0
 40
0.0
 40
0.0
 40
0.0
 40
0.0572687018
 40
0.1147214952
 40
0.1725400965
 40
0.2308987982
 40
0.2899600714
 40
0.3498650216
 40
0.4107268164
 40
0.4726219692
 40
0.5994769604
 40
0.6645062769
 40
0.7304458102
 40
0.8643845588
 40
1.0
 40
1.0
 40
1.0
 40
1.0
 10
8.7022746506
 20
6.1467042132
 30
0.0
 10
8.7022746506
 20
6.1473646791
 30
0.0
 10
8.7023576495
 20
6.1486892115
 30
0.0
 10
8.7027287392
 20
6.1506490773
 30
0.0
 10
8.7033401196
 20
6.1525610889
 30
0.0
 10
8.7041819425
 20
6.1544034612
 30
0.0
 10
8.7052417763
 20
6.1561575191
 30
0.0
 10
8.706505364
 20
6.1578070469
 30
0.0
 10
8.7079576048
 20
6.1593383846
 30
0.0
 10
8.710140271
 20
6.1612211417
 30
0.0
 10
8.7126247136
 20
6.1628048222
 30
0.0
 10
8.7153201512
 20
6.1640660491
 30
0.0
 10
8.7181893168
 20
6.1651253822
 30
0.0
 10
8.7219719407
 20
6.1660161953
 30
0.0
 10
8.7250856311
 20
6.1662538798
 30
0.0
 10
8.7266496506
 20
6.1662538798
 30
0.0
  0
SPLINE
  5
4A5
100
AcDbEntity
  8
0
100
AcDbSpline
 62
7
  6
CONTINUOUS
 70
0
 71
3
 72
20
 73
16
 74
0
 42
0.0000001
 43
0.0000001
 44
0.0000000001
 40
0.0
 40
0.0
 40
0.0
 40
0.0
 40
0.1356159928
 40
0.2695549494
 40
0.3354944967
 40
0.4005237686
 40
0.5273785141
 40
0.5892734867
 40
0.6501350927
 40
0.7100398598
 40
0.7691009798
 40
0.8274595884
 40
0.8852781815
 40
0.9427310597
 40
1.0
 40
1.0
 40
1.0
 40
1.0
 10
8.7266496506
 20
3.8331679482
 30
0.0
 10
8.7250856247
 20
3.8331679482
 30
0.0
 10
8.7219719255
 20
3.8334056343
 30
0.0
 10
8.7181892935
 20
3.8342964526
 30
0.0
 10
8.715320127
 20
3.8353557891
 30
0.0
 10
8.7126246935
 20
3.8366170171
 30
0.0
 10
8.710140257
 20
3.8382006968
 30
0.0
 10
8.7079575973
 20
3.8400834507
 30
0.0
 10
8.7065053615
 20
3.8416147843
 30
0.0
 10
8.7052417776
 20
3.8432643074
 30
0.0
 10
8.704181946
 20
3.8450183607
 30
0.0
 10
8.7033401234
 20
3.8468607299
 30
0.0
 10
8.7027287417
 20
3.8487727409
 30
0.0
 10
8.7023576501
 20
3.85073261
 30
0.0
 10
8.7022746506
 20
3.8520571462
 30
0.0
 10
8.7022746506
 20
3.8527176148
 30
0.0
  0
SPLINE
  5
4A6
100
AcDbEntity
  8
0
100
AcDbSpline
 62
7
  6
CONTINUOUS
 70
0
 71
3
 72
20
 73
16
 74
0
 42
0.0000001
 43
0.0000001
 44
0.0000000001
 40
0.0
 40
0.0
 40
0.0
 40
0.0
 40
0.0572687018
 40
0.1147214952
 40
0.1725400965
 40
0.2308987982
 40
0.2899600714
 40
0.3498650216
 40
0.4107268164
 40
0.4726219692
 40
0.5994769604
 40
0.6645062769
 40
0.7304458102
 40
0.8643845588
 40
1.0
 40
1.0
 40
1.0
 40
1.0
 10
9.0772746506
 20
3.8527176148
 30
0.0
 10
9.0772746506
 20
3.852057149
 30
0.0
 10
9.0771916517
 20
3.8507326165
 30
0.0
 10
9.0768205621
 20
3.8487727507
 30
0.0
 10
9.0762091816
 20
3.8468607392
 30
0.0
 10
9.0753673588
 20
3.8450183668
 30
0.0
 10
9.0743075249
 20
3.8432643089
 30
0.0
 10
9.0730439372
 20
3.8416147811
 30
0.0
 10
9.0715916965
 20
3.8400834434
 30
0.0
 10
9.0694090302
 20
3.8382006863
 30
0.0
 10
9.0669245876
 20
3.8366170058
 30
0.0
 10
9.0642291501
 20
3.8353557789
 30
0.0
 10
9.0613599845
 20
3.8342964459
 30
0.0
 10
9.0575773605
 20
3.8334056327
 30
0.0
 10
9.0544636702
 20
3.8331679482
 30
0.0
 10
9.0528996506
 20
3.8331679482
 30
0.0
  0
SPLINE
  5
4A7
100
AcDbEntity
  8
0
100
AcDbSpline
 62
7
  6
CONTINUOUS
 70
0
 71
3
 72
47
 73
43
 74
0
 42
0.0000001
 43
0.0000001
 44
0.0000000001
 40
0.0
 40
0.0
 40
0.0
 40
0.0
 40
0.0136815091
 40
0.0274251835
 40
0.0412454837
 40
0.0551561406
 40
0.083288612
 40
0.1119233619
 40
0.1264566299
 40
0.1411403391
 40
0.1559800815
 40
0.1709800713
 40
0.2014630054
 40
0.2326036588
 40
0.2643870807
 40
0.2967786126
 40
0.3297257297
 40
0.3631602706
 40
0.3970008391
 40
0.4311553406
 40
0.465523634
 40
0.5000001678
 40
0.5344766991
 40
0.5688449852
 40
0.6029994748
 40
0.6368400266
 40
0.6702745474
 40
0.7032216403
 40
0.7356131452
 40
0.7673965383
 40
0.7985371612
 40
0.8290200648
 40
0.8440200393
 40
0.8588597668
 40
0.8735434615
 40
0.8880767155
 40
0.9167114397
 40
0.944843889
 40
0.9587545366
 40
0.9725748287
 40
0.9863184962
 40
1.0
 40
1.0
 40
1.0
 40
1.0
 10
9.0718586549
 20
6.1590362515
 30
0.0
 10
9.0714854525
 20
6.1611746162
 30
0.0
 10
9.0706134263
 20
6.1654404706
 30
0.0
 10
9.0689381712
 20
6.1717697702
 30
0.0
 10
9.0668972083
 20
6.1780293644
 30
0.0
 10
9.0636839786
 20
6.1862937206
 30
0.0
 10
9.0587627859
 20
6.1963958296
 30
0.0
 10
9.0527523324
 20
6.206004432
 30
0.0
 10
9.047309884
 20
6.2133993315
 30
0.0
 10
9.0428916806
 20
6.2188196474
 30
0.0
 10
9.0381674628
 20
6.2240752121
 30
0.0
 10
9.0314387275
 20
6.2308854311
 30
0.0
 10
9.0223011816
 20
6.2389313845
 30
0.0
 10
9.0103479245
 20
6.2477217227
 30
0.0
 10
8.9974421769
 20
6.2556371928
 30
0.0
 10
8.9836876624
 20
6.2626192571
 30
0.0
 10
8.9691932524
 20
6.2686169842
 30
0.0
 10
8.9540733663
 20
6.2735861254
 30
0.0
 10
8.9384471029
 20
6.2774899516
 30
0.0
 10
8.9224374842
 20
6.2802994247
 30
0.0
 10
8.9061705675
 20
6.2819935493
 30
0.0
 10
8.8897744809
 20
6.2825596823
 30
0.0
 10
8.8733783962
 20
6.2819935265
 30
0.0
 10
8.8571114856
 20
6.2802993772
 30
0.0
 10
8.8411018762
 20
6.2774898845
 30
0.0
 10
8.8254756265
 20
6.2735860351
 30
0.0
 10
8.8103557564
 20
6.2686168766
 30
0.0
 10
8.795861366
 20
6.2626191315
 30
0.0
 10
8.7821068735
 20
6.2556370519
 30
0.0
 10
8.769201149
 20
6.2477215703
 30
0.0
 10
8.757247918
 20
6.2389312207
 30
0.0
 10
8.7481103926
 20
6.2308852623
 30
0.0
 10
8.7413816756
 20
6.2240750388
 30
0.0
 10
8.7366574708
 20
6.218819472
 30
0.0
 10
8.73223928
 20
6.2133991547
 30
0.0
 10
8.7267968487
 20
6.2060042534
 30
0.0
 10
8.7207864156
 20
6.1963956496
 30
0.0
 10
8.7158652433
 20
6.1862935409
 30
0.0
 10
8.7126520291
 20
6.1780291854
 30
0.0
 10
8.7106110773
 20
6.1717695916
 30
0.0
 10
8.7089358332
 20
6.1654402924
 30
0.0
 10
8.7080638142
 20
6.1611744385
 30
0.0
 10
8.7076906154
 20
6.1590360741
 30
0.0
  0
SPLINE
  5
4A8
100
AcDbEntity
  8
0
100
AcDbSpline
 62
7
  6
CONTINUOUS
 70
0
 71
3
 72
21
 73
17
 74
0
 42
0.0000001
 43
0.0000001
 44
0.0000000001
 40
0.0
 40
0.0
 40
0.0
 40
0.0
 40
0.0540406252
 40
0.1084432163
 40
0.1635489232
 40
0.2196597178
 40
0.2770242818
 40
0.3358289355
 40
0.3961934494
 40
0.4581709564
 40
0.5217509397
 40
0.586864311
 40
0.7210457974
 40
0.7898586188
 40
0.8594789227
 40
1.0
 40
1.0
 40
1.0
 40
1.0
 10
9.0635871506
 20
4.0854349276
 30
0.0
 10
9.0635871506
 20
4.0861873249
 30
0.0
 10
9.0634899266
 20
4.0876989256
 30
0.0
 10
9.0630544699
 20
4.0899398556
 30
0.0
 10
9.0623338628
 20
4.0921364833
 30
0.0
 10
9.0613356453
 20
4.0942668396
 30
0.0
 10
9.0600700548
 20
4.0963104846
 30
0.0
 10
9.0585498259
 20
4.0982478606
 30
0.0
 10
9.0567899836
 20
4.100060632
 30
0.0
 10
9.0548077815
 20
4.1017316792
 30
0.0
 10
9.0526221787
 20
4.1032453959
 30
0.0
 10
9.0494347991
 20
4.1050521104
 30
0.0
 10
9.0459571444
 20
4.1064637281
 30
0.0
 10
9.0422932093
 20
4.1074657262
 30
0.0
 10
9.0384758039
 20
4.1081969012
 30
0.0
 10
9.0355435987
 20
4.1084162609
 30
0.0
 10
9.0335871506
 20
4.1084162609
 30
0.0
  0
SPLINE
  5
4A9
100
AcDbEntity
  8
0
100
AcDbSpline
 62
7
  6
CONTINUOUS
 70
0
 71
3
 72
40
 73
36
 74
0
 42
0.0000001
 43
0.0000001
 44
0.0000000001
 40
0.0
 40
0.0
 40
0.0
 40
0.0
 40
0.0046098185
 40
0.0090396219
 40
0.0133523942
 40
0.0176370483
 40
0.0219905636
 40
0.0264970244
 40
0.036227438
 40
0.0415857463
 40
0.0473314631
 40
0.0534983719
 40
0.0601124475
 40
0.0671940176
 40
0.0747593157
 40
0.0828210669
 40
0.0913883583
 40
0.1100564882
 40
0.1307889846
 40
0.1535917269
 40
0.1784524116
 40
0.2053409163
 40
0.2342096392
 40
0.2650075943
 40
0.2976777083
 40
0.3321515313
 40
0.368348799
 40
0.4061853978
 40
0.4455766109
 40
0.5286345813
 40
0.6166879674
 40
0.7088415763
 40
0.804128383
 40
0.9015317671
 40
1.0
 40
1.0
 40
1.0
 40
1.0
 10
3.3473049159
 20
2.9427117376
 30
0.0
 10
3.347545839
 20
2.942598348
 30
0.0
 10
3.3480300504
 20
2.9423995697
 30
0.0
 10
3.3487761169
 20
2.9421956182
 30
0.0
 10
3.3495257855
 20
2.9421023139
 30
0.0
 10
3.3502764789
 20
2.9421286499
 30
0.0
 10
3.3510252275
 20
2.9422699425
 30
0.0
 10
3.3520455172
 20
2.9426136142
 30
0.0
 10
3.3530402943
 20
2.9431768479
 30
0.0
 10
3.3539917688
 20
2.9439149518
 30
0.0
 10
3.3547250197
 20
2.9445933025
 30
0.0
 10
3.3554542178
 20
2.9453776463
 30
0.0
 10
3.3561794741
 20
2.9462675689
 30
0.0
 10
3.3569003928
 20
2.9472624779
 30
0.0
 10
3.3576166038
 20
2.9483619461
 30
0.0
 10
3.358327687
 20
2.9495654912
 30
0.0
 10
3.3592962254
 20
2.9513600691
 30
0.0
 10
3.360483192
 20
2.953865858
 30
0.0
 10
3.361843136
 20
2.9571929739
 30
0.0
 10
3.3631726285
 20
2.9609144494
 30
0.0
 10
3.3644680409
 20
2.9650221484
 30
0.0
 10
3.365725733
 20
2.9695064581
 30
0.0
 10
3.3669427952
 20
2.9743562331
 30
0.0
 10
3.3681155919
 20
2.9795597285
 30
0.0
 10
3.3692406501
 20
2.9851044544
 30
0.0
 10
3.3703147438
 20
2.9909765634
 30
0.0
 10
3.3713351583
 20
2.9971608578
 30
0.0
 10
3.3722991002
 20
3.0036414878
 30
0.0
 10
3.3735264882
 20
3.0128184888
 30
0.0
 10
3.3748882547
 20
3.0249025388
 30
0.0
 10
3.3762313263
 20
3.040051079
 30
0.0
 10
3.3772929711
 20
3.0559298831
 30
0.0
 10
3.3780609116
 20
3.0723661761
 30
0.0
 10
3.3785245758
 20
3.0891786299
 30
0.0
 10
3.3786288108
 20
3.1004928495
 30
0.0
 10
3.3786288613
 20
3.1061805786
 30
0.0
  0
SPLINE
  5
4AA
100
AcDbEntity
  8
0
100
AcDbSpline
 62
7
  6
CONTINUOUS
 70
0
 71
3
 72
44
 73
40
 74
0
 42
0.0000001
 43
0.0000001
 44
0.0000000001
 40
0.0
 40
0.0
 40
0.0
 40
0.0
 40
0.1020163728
 40
0.2028033374
 40
0.3011475571
 40
0.3958852753
 40
0.4859091022
 40
0.5288363611
 40
0.5702114524
 40
0.6099176008
 40
0.6478522507
 40
0.6839216444
 40
0.7180338742
 40
0.7501046742
 40
0.7800651451
 40
0.8078601071
 40
0.8334380183
 40
0.8567615662
 40
0.8778159097
 40
0.8874968251
 40
0.8966173335
 40
0.9051828259
 40
0.913201489
 40
0.9206859439
 40
0.927653271
 40
0.9341260131
 40
0.9401340381
 40
0.9457157414
 40
0.9509199431
 40
0.955807837
 40
0.9604542471
 40
0.9649474662
 40
0.9693852126
 40
0.9738680922
 40
0.9784933016
 40
0.9833492952
 40
0.9885123758
 40
0.9940456067
 40
1.0
 40
1.0
 40
1.0
 40
1.0
 10
3.3786288613
 20
5.8175777436
 30
0.0
 10
3.3786288035
 20
5.8235815624
 30
0.0
 10
3.378512868
 20
5.8355171667
 30
0.0
 10
3.3779968721
 20
5.8532337426
 30
0.0
 10
3.3771427907
 20
5.8705085508
 30
0.0
 10
3.375964316
 20
5.8871293383
 30
0.0
 10
3.3747050658
 20
5.9004713974
 30
0.0
 10
3.3735388625
 20
5.9106645372
 30
0.0
 10
3.3726078698
 20
5.9179032667
 30
0.0
 10
3.3716093296
 20
5.9248362816
 30
0.0
 10
3.3705466358
 20
5.9314437146
 30
0.0
 10
3.3694235445
 20
5.9377070033
 30
0.0
 10
3.3682433809
 20
5.9436083105
 30
0.0
 10
3.3670096173
 20
5.9491309003
 30
0.0
 10
3.3657261367
 20
5.9542598053
 30
0.0
 10
3.3643974873
 20
5.9589815155
 30
0.0
 10
3.3630274152
 20
5.9632833676
 30
0.0
 10
3.3616198911
 20
5.967153617
 30
0.0
 10
3.3603869983
 20
5.9700884205
 30
0.0
 10
3.3593784991
 20
5.9722065362
 30
0.0
 10
3.3586365864
 20
5.9736364668
 30
0.0
 10
3.3578883484
 20
5.9749517099
 30
0.0
 10
3.3571341761
 20
5.9761513334
 30
0.0
 10
3.3563745913
 20
5.9772346196
 30
0.0
 10
3.3556100294
 20
5.9782009701
 30
0.0
 10
3.3548408168
 20
5.9790498268
 30
0.0
 10
3.3540672743
 20
5.9797807326
 30
0.0
 10
3.3532895937
 20
5.9803931771
 30
0.0
 10
3.3525078865
 20
5.9808864642
 30
0.0
 10
3.3517223014
 20
5.9812596421
 30
0.0
 10
3.3509331813
 20
5.9815113502
 30
0.0
 10
3.3501415328
 20
5.9816404049
 30
0.0
 10
3.3493489803
 20
5.9816464933
 30
0.0
 10
3.3485572857
 20
5.9815299236
 30
0.0
 10
3.3477679438
 20
5.9812915385
 30
0.0
 10
3.3469819144
 20
5.9809323998
 30
0.0
 10
3.3461996289
 20
5.9804534922
 30
0.0
 10
3.3454213853
 20
5.9798555106
 30
0.0
 10
3.3449246419
 20
5.9793955091
 30
0.0
 10
3.3446768095
 20
5.9791477656
 30
0.0
  0
SPLINE
  5
4AB
100
AcDbEntity
  8
0
100
AcDbSpline
 62
7
  6
CONTINUOUS
 70
0
 71
3
 72
20
 73
16
 74
0
 42
0.0000001
 43
0.0000001
 44
0.0000000001
 40
0.0
 40
0.0
 40
0.0
 40
0.0
 40
0.140536231
 40
0.2788784842
 40
0.4130740053
 40
0.4781941994
 40
0.5417808542
 40
0.6037648669
 40
0.6641357169
 40
0.7229465672
 40
0.7803171174
 40
0.8364339628
 40
0.8915450986
 40
0.9459541655
 40
1.0
 40
1.0
 40
1.0
 40
1.0
 10
9.0528996506
 20
6.1653765465
 30
0.0
 10
9.0544892688
 20
6.1653765465
 30
0.0
 10
9.0576490954
 20
6.1651401519
 30
0.0
 10
9.0622188062
 20
6.1640869927
 30
0.0
 10
9.0657757253
 20
6.1626432286
 30
0.0
 10
9.0683656309
 20
6.1611752035
 30
0.0
 10
9.0701414015
 20
6.1599453225
 30
0.0
 10
9.0717519481
 20
6.1585875936
 30
0.0
 10
9.0731818186
 20
6.1571147189
 30
0.0
 10
9.074417004
 20
6.155540601
 30
0.0
 10
9.0754453011
 20
6.1538801409
 30
0.0
 10
9.0762563465
 20
6.1521492273
 30
0.0
 10
9.076841853
 20
6.1503644653
 30
0.0
 10
9.0771956511
 20
6.1485437085
 30
0.0
 10
9.0772746506
 20
6.1473155306
 30
0.0
 10
9.0772746506
 20
6.1467042132
 30
0.0
  0
SPLINE
  5
4AC
100
AcDbEntity
  8
0
100
AcDbSpline
 62
7
  6
CONTINUOUS
 70
0
 71
3
 72
20
 73
16
 74
0
 42
0.0000001
 43
0.0000001
 44
0.0000000001
 40
0.0
 40
0.0
 40
0.0
 40
0.0
 40
0.0540458345
 40
0.1084549014
 40
0.1635660372
 40
0.2196828826
 40
0.2770534328
 40
0.3358642831
 40
0.3962351331
 40
0.4582191458
 40
0.5218058006
 40
0.5869259947
 40
0.7211215158
 40
0.859463769
 40
1.0
 40
1.0
 40
1.0
 40
1.0
 10
9.0772746506
 20
4.1026396144
 30
0.0
 10
9.0772746506
 20
4.1032509318
 30
0.0
 10
9.0771956511
 20
4.1044791097
 30
0.0
 10
9.076841853
 20
4.1062998665
 30
0.0
 10
9.0762563465
 20
4.1080846285
 30
0.0
 10
9.0754453011
 20
4.1098155421
 30
0.0
 10
9.074417004
 20
4.1114760022
 30
0.0
 10
9.0731818186
 20
4.1130501201
 30
0.0
 10
9.0717519481
 20
4.1145229948
 30
0.0
 10
9.0701414015
 20
4.1158807237
 30
0.0
 10
9.0683656309
 20
4.1171106047
 30
0.0
 10
9.0657757253
 20
4.1185786298
 30
0.0
 10
9.0622188062
 20
4.1200223939
 30
0.0
 10
9.0576490954
 20
4.1210755531
 30
0.0
 10
9.0544892688
 20
4.1213119477
 30
0.0
 10
9.0528996506
 20
4.1213119477
 30
0.0
  0
SPLINE
  5
4AD
100
AcDbEntity
  8
0
100
AcDbSpline
 62
7
  6
CONTINUOUS
 70
0
 71
3
 72
20
 73
16
 74
0
 42
0.0000001
 43
0.0000001
 44
0.0000000001
 40
0.0
 40
0.0
 40
0.0
 40
0.0
 40
0.0540458345
 40
0.1084549014
 40
0.1635660372
 40
0.2196828826
 40
0.2770534328
 40
0.3358642831
 40
0.3962351331
 40
0.4582191458
 40
0.5218058006
 40
0.5869259947
 40
0.7211215158
 40
0.859463769
 40
1.0
 40
1.0
 40
1.0
 40
1.0
 10
8.7022746506
 20
6.1467042132
 30
0.0
 10
8.7022746506
 20
6.1473155306
 30
0.0
 10
8.7023536501
 20
6.1485437085
 30
0.0
 10
8.7027074483
 20
6.1503644653
 30
0.0
 10
8.7032929547
 20
6.1521492273
 30
0.0
 10
8.7041040002
 20
6.1538801409
 30
0.0
 10
8.7051322972
 20
6.155540601
 30
0.0
 10
8.7063674826
 20
6.1571147189
 30
0.0
 10
8.7077973532
 20
6.1585875936
 30
0.0
 10
8.7094078998
 20
6.1599453225
 30
0.0
 10
8.7111836703
 20
6.1611752035
 30
0.0
 10
8.7137735759
 20
6.1626432286
 30
0.0
 10
8.7173304951
 20
6.1640869927
 30
0.0
 10
8.7219002059
 20
6.1651401519
 30
0.0
 10
8.7250600325
 20
6.1653765465
 30
0.0
 10
8.7266496506
 20
6.1653765465
 30
0.0
  0
SPLINE
  5
4AE
100
AcDbEntity
  8
0
100
AcDbSpline
 62
7
  6
CONTINUOUS
 70
0
 71
3
 72
20
 73
16
 74
0
 42
0.0000001
 43
0.0000001
 44
0.0000000001
 40
0.0
 40
0.0
 40
0.0
 40
0.0
 40
0.140536231
 40
0.2788784842
 40
0.4130740053
 40
0.4781941994
 40
0.5417808542
 40
0.6037648669
 40
0.6641357169
 40
0.7229465672
 40
0.7803171174
 40
0.8364339628
 40
0.8915450986
 40
0.9459541655
 40
1.0
 40
1.0
 40
1.0
 40
1.0
 10
8.7266496506
 20
4.1213119477
 30
0.0
 10
8.7250600325
 20
4.1213119477
 30
0.0
 10
8.7219002059
 20
4.1210755531
 30
0.0
 10
8.7173304951
 20
4.1200223939
 30
0.0
 10
8.7137735759
 20
4.1185786298
 30
0.0
 10
8.7111836703
 20
4.1171106047
 30
0.0
 10
8.7094078998
 20
4.1158807237
 30
0.0
 10
8.7077973532
 20
4.1145229948
 30
0.0
 10
8.7063674826
 20
4.1130501201
 30
0.0
 10
8.7051322972
 20
4.1114760022
 30
0.0
 10
8.7041040002
 20
4.1098155421
 30
0.0
 10
8.7032929547
 20
4.1080846285
 30
0.0
 10
8.7027074483
 20
4.1062998665
 30
0.0
 10
8.7023536501
 20
4.1044791097
 30
0.0
 10
8.7022746506
 20
4.1032509318
 30
0.0
 10
8.7022746506
 20
4.1026396144
 30
0.0
  0
SPLINE
  5
4AF
100
AcDbEntity
  8
0
100
AcDbSpline
 62
7
  6
CONTINUOUS
 70
0
 71
3
 72
15
 73
11
 74
0
 42
0.0000001
 43
0.0000001
 44
0.0000000001
 40
0.0
 40
0.0
 40
0.0
 40
0.0
 40
0.1499772422
 40
0.2966025244
 40
0.4368534847
 40
0.5682959928
 40
0.6894889877
 40
0.8003747055
 40
0.9026661551
 40
1.0
 40
1.0
 40
1.0
 40
1.0
 10
9.0735246506
 20
4.1002291609
 30
0.0
 10
9.0737690089
 20
4.1002291609
 30
0.0
 10
9.0742528386
 20
4.1002594258
 30
0.0
 10
9.0749536665
 20
4.1003945008
 30
0.0
 10
9.0756013682
 20
4.1006141433
 30
0.0
 10
9.0761718693
 20
4.1009106852
 30
0.0
 10
9.076644137
 20
4.1012740972
 30
0.0
 10
9.0769999578
 20
4.1016931016
 30
0.0
 10
9.0772232077
 20
4.1021538624
 30
0.0
 10
9.0772746506
 20
4.1024810286
 30
0.0
 10
9.0772746506
 20
4.1026396148
 30
0.0
  0
SPLINE
  5
4B0
100
AcDbEntity
  8
0
100
AcDbSpline
 62
7
  6
CONTINUOUS
 70
0
 71
3
 72
15
 73
11
 74
0
 42
0.0000001
 43
0.0000001
 44
0.0000000001
 40
0.0
 40
0.0
 40
0.0
 40
0.0
 40
0.1499772549
 40
0.2966025493
 40
0.4368535214
 40
0.5682960404
 40
0.6894890462
 40
0.8003747706
 40
0.9026662375
 40
1.0
 40
1.0
 40
1.0
 40
1.0
 10
9.0735246506
 20
3.8503071613
 30
0.0
 10
9.0737690089
 20
3.8503071613
 30
0.0
 10
9.0742528386
 20
3.8503374262
 30
0.0
 10
9.0749536665
 20
3.8504725012
 30
0.0
 10
9.0756013682
 20
3.8506921438
 30
0.0
 10
9.0761718693
 20
3.8509886857
 30
0.0
 10
9.076644137
 20
3.8513520976
 30
0.0
 10
9.0769999578
 20
3.851771102
 30
0.0
 10
9.0772232076
 20
3.8522318627
 30
0.0
 10
9.0772746506
 20
3.8525590287
 30
0.0
 10
9.0772746506
 20
3.8527176148
 30
0.0
  0
SPLINE
  5
4B1
100
AcDbEntity
  8
0
100
AcDbSpline
 62
7
  6
CONTINUOUS
 70
0
 71
3
 72
15
 73
11
 74
0
 42
0.0000001
 43
0.0000001
 44
0.0000000001
 40
0.0
 40
0.0
 40
0.0
 40
0.0
 40
0.1499772675
 40
0.2966025743
 40
0.4368535582
 40
0.5682960881
 40
0.6894891048
 40
0.8003748356
 40
0.9026663198
 40
1.0
 40
1.0
 40
1.0
 40
1.0
 10
8.7060246506
 20
3.8503071613
 30
0.0
 10
8.7057802924
 20
3.8503071613
 30
0.0
 10
8.7052964627
 20
3.8503374262
 30
0.0
 10
8.7045956348
 20
3.8504725012
 30
0.0
 10
8.703947933
 20
3.8506921438
 30
0.0
 10
8.703377432
 20
3.8509886857
 30
0.0
 10
8.7029051643
 20
3.8513520976
 30
0.0
 10
8.7025493434
 20
3.851771102
 30
0.0
 10
8.7023260937
 20
3.8522318626
 30
0.0
 10
8.7022746506
 20
3.8525590285
 30
0.0
 10
8.7022746506
 20
3.8527176144
 30
0.0
  0
SPLINE
  5
4B2
100
AcDbEntity
  8
0
100
AcDbSpline
 62
7
  6
CONTINUOUS
 70
0
 71
3
 72
15
 73
11
 74
0
 42
0.0000001
 43
0.0000001
 44
0.0000000001
 40
0.0
 40
0.0
 40
0.0
 40
0.0
 40
0.1499772549
 40
0.2966025493
 40
0.4368535214
 40
0.5682960404
 40
0.6894890462
 40
0.8003747706
 40
0.9026662375
 40
1.0
 40
1.0
 40
1.0
 40
1.0
 10
8.7060246506
 20
4.1002291609
 30
0.0
 10
8.7057802924
 20
4.1002291609
 30
0.0
 10
8.7052964627
 20
4.1002594258
 30
0.0
 10
8.7045956348
 20
4.1003945008
 30
0.0
 10
8.703947933
 20
4.1006141433
 30
0.0
 10
8.703377432
 20
4.1009106852
 30
0.0
 10
8.7029051643
 20
4.1012740972
 30
0.0
 10
8.7025493434
 20
4.1016931016
 30
0.0
 10
8.7023260936
 20
4.1021538623
 30
0.0
 10
8.7022746506
 20
4.1024810283
 30
0.0
 10
8.7022746506
 20
4.1026396144
 30
0.0
  0
SPLINE
  5
4B3
100
AcDbEntity
  8
0
100
AcDbSpline
 62
7
  6
CONTINUOUS
 70
0
 71
3
 72
25
 73
21
 74
0
 42
0.0000001
 43
0.0000001
 44
0.0000000001
 40
0.0
 40
0.0
 40
0.0
 40
0.0
 40
0.0624954124
 40
0.1249947637
 40
0.1874919729
 40
0.2187502671
 40
0.2500085678
 40
0.3125075371
 40
0.3750051013
 40
0.4375030584
 40
0.5000007994
 40
0.5624988058
 40
0.6249962611
 40
0.6874943665
 40
0.7499927719
 40
0.7812511136
 40
0.8125091622
 40
0.8750062581
 40
0.9375049058
 40
1.0
 40
1.0
 40
1.0
 40
1.0
 10
3.2440348474
 20
5.8203405955
 30
0.0
 10
3.2428857215
 20
5.8203407864
 30
0.0
 10
3.240585901
 20
5.8204525441
 30
0.0
 10
3.2371693239
 20
5.8209482013
 30
0.0
 10
3.2343739679
 20
5.8216333903
 30
0.0
 10
3.2321869013
 20
5.8223435829
 30
0.0
 10
3.2300377315
 20
5.8231614146
 30
0.0
 10
3.2274305524
 20
5.8243805816
 30
0.0
 10
3.2244620135
 20
5.8261445517
 30
0.0
 10
3.2216842692
 20
5.8281962653
 30
0.0
 10
3.2191246646
 20
5.8305141294
 30
0.0
 10
3.2168058262
 20
5.8330729607
 30
0.0
 10
3.2147554864
 20
5.8358517579
 30
0.0
 10
3.2129915382
 20
5.8388202164
 30
0.0
 10
3.2117718755
 20
5.8414271839
 30
0.0
 10
3.2109541652
 20
5.8435763912
 30
0.0
 10
3.2102443341
 20
5.8457635738
 30
0.0
 10
3.2095596438
 20
5.8485590077
 30
0.0
 10
3.2090633514
 20
5.8519754482
 30
0.0
 10
3.2089513191
 20
5.8542752517
 30
0.0
 10
3.2089510712
 20
5.8554243717
 30
0.0
  0
SPLINE
  5
4B4
100
AcDbEntity
  8
0
100
AcDbSpline
 62
7
  6
CONTINUOUS
 70
0
 71
3
 72
21
 73
17
 74
0
 42
0.0000001
 43
0.0000001
 44
0.0000000001
 40
0.0
 40
0.0
 40
0.0
 40
0.0
 40
0.0540397884
 40
0.1084429154
 40
0.1635483845
 40
0.2196594592
 40
0.2770240591
 40
0.3358287791
 40
0.3961933696
 40
0.4581709852
 40
0.5217510804
 40
0.5868645302
 40
0.7210461236
 40
0.7898593116
 40
0.859479292
 40
1.0
 40
1.0
 40
1.0
 40
1.0
 10
9.0598371506
 20
4.083024474
 30
0.0
 10
9.0598371506
 20
4.0836828114
 30
0.0
 10
9.0597520763
 20
4.0850054574
 30
0.0
 10
9.0593710647
 20
4.086966267
 30
0.0
 10
9.0587405224
 20
4.0888883199
 30
0.0
 10
9.057867088
 20
4.0907523849
 30
0.0
 10
9.0567596907
 20
4.0925405762
 30
0.0
 10
9.0554294906
 20
4.0942357824
 30
0.0
 10
9.0538896259
 20
4.0958219588
 30
0.0
 10
9.0521551968
 20
4.0972841273
 30
0.0
 10
9.0502427916
 20
4.0986086312
 30
0.0
 10
9.0474538319
 20
4.100189508
 30
0.0
 10
9.044410879
 20
4.1014246788
 30
0.0
 10
9.0412049332
 20
4.102301422
 30
0.0
 10
9.0378647093
 20
4.1029412065
 30
0.0
 10
9.035299038
 20
4.1031331407
 30
0.0
 10
9.0335871506
 20
4.1031331407
 30
0.0
  0
SPLINE
  5
4B5
100
AcDbEntity
  8
0
100
AcDbSpline
 62
7
  6
CONTINUOUS
 70
0
 71
3
 72
21
 73
17
 74
0
 42
0.0000001
 43
0.0000001
 44
0.0000000001
 40
0.0
 40
0.0
 40
0.0
 40
0.0
 40
0.1405207079
 40
0.2101406883
 40
0.2789538763
 40
0.4131354698
 40
0.4782489196
 40
0.5418290147
 40
0.6038066303
 40
0.6641712209
 40
0.7229759408
 40
0.7803405407
 40
0.8364516155
 40
0.8915570845
 40
0.9459602116
 40
1.0
 40
1.0
 40
1.0
 40
1.0
 10
9.0335871506
 20
3.8425822744
 30
0.0
 10
9.035299038
 20
3.8425822744
 30
0.0
 10
9.0378647093
 20
3.8427742086
 30
0.0
 10
9.0412049332
 20
3.8434139931
 30
0.0
 10
9.044410879
 20
3.8442907363
 30
0.0
 10
9.0474538319
 20
3.845525907
 30
0.0
 10
9.0502427916
 20
3.8471067839
 30
0.0
 10
9.0521551968
 20
3.8484312878
 30
0.0
 10
9.0538896259
 20
3.8498934563
 30
0.0
 10
9.0554294906
 20
3.8514796327
 30
0.0
 10
9.0567596907
 20
3.8531748389
 30
0.0
 10
9.057867088
 20
3.8549630302
 30
0.0
 10
9.0587405224
 20
3.8568270952
 30
0.0
 10
9.0593710647
 20
3.8587491481
 30
0.0
 10
9.0597520763
 20
3.8607099577
 30
0.0
 10
9.0598371506
 20
3.8620326037
 30
0.0
 10
9.0598371506
 20
3.8626909411
 30
0.0
  0
SPLINE
  5
4B6
100
AcDbEntity
  8
0
100
AcDbSpline
 62
7
  6
CONTINUOUS
 70
0
 71
3
 72
21
 73
17
 74
0
 42
0.0000001
 43
0.0000001
 44
0.0000000001
 40
0.0
 40
0.0
 40
0.0
 40
0.0
 40
0.0540397884
 40
0.1084429154
 40
0.1635483845
 40
0.2196594592
 40
0.2770240591
 40
0.3358287791
 40
0.3961933696
 40
0.4581709852
 40
0.5217510804
 40
0.5868645302
 40
0.7210461236
 40
0.7898593116
 40
0.859479292
 40
1.0
 40
1.0
 40
1.0
 40
1.0
 10
8.7197121506
 20
3.8626909411
 30
0.0
 10
8.7197121506
 20
3.8620326037
 30
0.0
 10
8.7197972249
 20
3.8607099577
 30
0.0
 10
8.7201782366
 20
3.8587491481
 30
0.0
 10
8.7208087788
 20
3.8568270952
 30
0.0
 10
8.7216822132
 20
3.8549630302
 30
0.0
 10
8.7227896105
 20
3.8531748389
 30
0.0
 10
8.7241198107
 20
3.8514796327
 30
0.0
 10
8.7256596753
 20
3.8498934563
 30
0.0
 10
8.7273941044
 20
3.8484312878
 30
0.0
 10
8.7293065097
 20
3.8471067839
 30
0.0
 10
8.7320954694
 20
3.845525907
 30
0.0
 10
8.7351384222
 20
3.8442907363
 30
0.0
 10
8.738344368
 20
3.8434139931
 30
0.0
 10
8.741684592
 20
3.8427742086
 30
0.0
 10
8.7442502633
 20
3.8425822744
 30
0.0
 10
8.7459621506
 20
3.8425822744
 30
0.0
  0
SPLINE
  5
4B7
100
AcDbEntity
  8
0
100
AcDbSpline
 62
7
  6
CONTINUOUS
 70
0
 71
3
 72
21
 73
17
 74
0
 42
0.0000001
 43
0.0000001
 44
0.0000000001
 40
0.0
 40
0.0
 40
0.0
 40
0.0
 40
0.1405207079
 40
0.2101406883
 40
0.2789538763
 40
0.4131354698
 40
0.4782489196
 40
0.5418290147
 40
0.6038066303
 40
0.6641712209
 40
0.7229759408
 40
0.7803405407
 40
0.8364516155
 40
0.8915570845
 40
0.9459602116
 40
1.0
 40
1.0
 40
1.0
 40
1.0
 10
8.7459621506
 20
4.1031331407
 30
0.0
 10
8.7442502633
 20
4.1031331407
 30
0.0
 10
8.741684592
 20
4.1029412065
 30
0.0
 10
8.738344368
 20
4.102301422
 30
0.0
 10
8.7351384222
 20
4.1014246788
 30
0.0
 10
8.7320954694
 20
4.100189508
 30
0.0
 10
8.7293065097
 20
4.0986086312
 30
0.0
 10
8.7273941044
 20
4.0972841273
 30
0.0
 10
8.7256596753
 20
4.0958219588
 30
0.0
 10
8.7241198107
 20
4.0942357824
 30
0.0
 10
8.7227896105
 20
4.0925405762
 30
0.0
 10
8.7216822132
 20
4.0907523849
 30
0.0
 10
8.7208087788
 20
4.0888883199
 30
0.0
 10
8.7201782366
 20
4.086966267
 30
0.0
 10
8.7197972249
 20
4.0850054574
 30
0.0
 10
8.7197121506
 20
4.0836828114
 30
0.0
 10
8.7197121506
 20
4.083024474
 30
0.0
  0
SPLINE
  5
4B8
100
AcDbEntity
  8
0
100
AcDbSpline
 62
7
  6
CONTINUOUS
 70
0
 71
3
 72
15
 73
11
 74
0
 42
0.0000001
 43
0.0000001
 44
0.0000000001
 40
0.0
 40
0.0
 40
0.0
 40
0.0
 40
0.1499772549
 40
0.2966025493
 40
0.4368535214
 40
0.5682960404
 40
0.6894890462
 40
0.8003747706
 40
0.9026662375
 40
1.0
 40
1.0
 40
1.0
 40
1.0
 10
9.0598371506
 20
3.8626909411
 30
0.0
 10
9.0600815089
 20
3.8626909411
 30
0.0
 10
9.0605653386
 20
3.862721206
 30
0.0
 10
9.0612661665
 20
3.862856281
 30
0.0
 10
9.0619138682
 20
3.8630759235
 30
0.0
 10
9.0624843693
 20
3.8633724654
 30
0.0
 10
9.062956637
 20
3.8637358774
 30
0.0
 10
9.0633124578
 20
3.8641548818
 30
0.0
 10
9.0635357076
 20
3.8646156425
 30
0.0
 10
9.0635871506
 20
3.8649428085
 30
0.0
 10
9.0635871506
 20
3.8651013946
 30
0.0
  0
SPLINE
  5
4B9
100
AcDbEntity
  8
0
100
AcDbSpline
 62
7
  6
CONTINUOUS
 70
0
 71
3
 72
15
 73
11
 74
0
 42
0.0000001
 43
0.0000001
 44
0.0000000001
 40
0.0
 40
0.0
 40
0.0
 40
0.0
 40
0.1499772549
 40
0.2966025493
 40
0.4368535214
 40
0.5682960404
 40
0.6894890462
 40
0.8003747706
 40
0.9026662375
 40
1.0
 40
1.0
 40
1.0
 40
1.0
 10
8.7197121506
 20
3.8626909411
 30
0.0
 10
8.7194677924
 20
3.8626909411
 30
0.0
 10
8.7189839627
 20
3.862721206
 30
0.0
 10
8.7182831348
 20
3.862856281
 30
0.0
 10
8.717635433
 20
3.8630759235
 30
0.0
 10
8.717064932
 20
3.8633724654
 30
0.0
 10
8.7165926643
 20
3.8637358774
 30
0.0
 10
8.7162368434
 20
3.8641548818
 30
0.0
 10
8.7160135936
 20
3.8646156425
 30
0.0
 10
8.7159621506
 20
3.8649428085
 30
0.0
 10
8.7159621506
 20
3.8651013946
 30
0.0
  0
SPLINE
  5
4BA
100
AcDbEntity
  8
0
100
AcDbSpline
 62
7
  6
CONTINUOUS
 70
0
 71
3
 72
15
 73
11
 74
0
 42
0.0000001
 43
0.0000001
 44
0.0000000001
 40
0.0
 40
0.0
 40
0.0
 40
0.0
 40
0.1499772549
 40
0.2966025493
 40
0.4368535214
 40
0.5682960404
 40
0.6894890462
 40
0.8003747706
 40
0.9026662375
 40
1.0
 40
1.0
 40
1.0
 40
1.0
 10
8.7197121506
 20
4.083024474
 30
0.0
 10
8.7194677924
 20
4.083024474
 30
0.0
 10
8.7189839627
 20
4.083054739
 30
0.0
 10
8.7182831348
 20
4.0831898139
 30
0.0
 10
8.717635433
 20
4.0834094565
 30
0.0
 10
8.717064932
 20
4.0837059984
 30
0.0
 10
8.7165926643
 20
4.0840694103
 30
0.0
 10
8.7162368434
 20
4.0844884147
 30
0.0
 10
8.7160135936
 20
4.0849491754
 30
0.0
 10
8.7159621506
 20
4.0852763415
 30
0.0
 10
8.7159621506
 20
4.0854349276
 30
0.0
  0
SPLINE
  5
4BB
100
AcDbEntity
  8
0
100
AcDbSpline
 62
7
  6
CONTINUOUS
 70
0
 71
3
 72
15
 73
11
 74
0
 42
0.0000001
 43
0.0000001
 44
0.0000000001
 40
0.0
 40
0.0
 40
0.0
 40
0.0
 40
0.1499772549
 40
0.2966025493
 40
0.4368535214
 40
0.5682960404
 40
0.6894890462
 40
0.8003747706
 40
0.9026662375
 40
1.0
 40
1.0
 40
1.0
 40
1.0
 10
9.0598371506
 20
4.083024474
 30
0.0
 10
9.0600815089
 20
4.083024474
 30
0.0
 10
9.0605653386
 20
4.083054739
 30
0.0
 10
9.0612661665
 20
4.0831898139
 30
0.0
 10
9.0619138682
 20
4.0834094565
 30
0.0
 10
9.0624843693
 20
4.0837059984
 30
0.0
 10
9.062956637
 20
4.0840694103
 30
0.0
 10
9.0633124578
 20
4.0844884147
 30
0.0
 10
9.0635357076
 20
4.0849491754
 30
0.0
 10
9.0635871506
 20
4.0852763415
 30
0.0
 10
9.0635871506
 20
4.0854349276
 30
0.0
  0
SPLINE
  5
4BC
100
AcDbEntity
  8
0
100
AcDbSpline
 62
7
  6
CONTINUOUS
 70
0
 71
3
 72
25
 73
21
 74
0
 42
0.0000001
 43
0.0000001
 44
0.0000000001
 40
0.0
 40
0.0
 40
0.0
 40
0.0
 40
0.0624954265
 40
0.1249948872
 40
0.1874920077
 40
0.2187503835
 40
0.2500086625
 40
0.312507658
 40
0.3750051649
 40
0.4375031556
 40
0.5000008769
 40
0.5624988696
 40
0.6249963073
 40
0.6874944304
 40
0.74999279
 40
0.7812511499
 40
0.8125091871
 40
0.8750062835
 40
0.9375049084
 40
1.0
 40
1.0
 40
1.0
 40
1.0
 10
4.0705982301
 20
5.8554243717
 30
0.0
 10
4.0705980381
 20
5.8542752455
 30
0.0
 10
4.0704864653
 20
5.851975425
 30
0.0
 10
4.0699911772
 20
5.8485587777
 30
0.0
 10
4.0693056646
 20
5.8457634812
 30
0.0
 10
4.0685951481
 20
5.8435765226
 30
0.0
 10
4.0677771306
 20
5.8414274238
 30
0.0
 10
4.0665580141
 20
5.8388202359
 30
0.0
 10
4.0647942814
 20
5.8358515508
 30
0.0
 10
4.0627425584
 20
5.8330738064
 30
0.0
 10
4.0604246986
 20
5.8305141989
 30
0.0
 10
4.0578658581
 20
5.8281953721
 30
0.0
 10
4.0550871083
 20
5.8261449747
 30
0.0
 10
4.0521187116
 20
5.8243809179
 30
0.0
 10
4.0495117111
 20
5.8231613096
 30
0.0
 10
4.0473624557
 20
5.8223437268
 30
0.0
 10
4.0451752349
 20
5.8216340127
 30
0.0
 10
4.0423797925
 20
5.8209493857
 30
0.0
 10
4.0389633785
 20
5.8204529402
 30
0.0
 10
4.036663574
 20
5.8203408368
 30
0.0
 10
4.0355144539
 20
5.8203405955
 30
0.0
  0
SPLINE
  5
4BD
100
AcDbEntity
  8
0
100
AcDbSpline
 62
7
  6
CONTINUOUS
 70
0
 71
3
 72
25
 73
21
 74
0
 42
0.0000001
 43
0.0000001
 44
0.0000000001
 40
0.0
 40
0.0
 40
0.0
 40
0.0
 40
0.0624954124
 40
0.1249947637
 40
0.1874919729
 40
0.2187502671
 40
0.2500085678
 40
0.3125075371
 40
0.3750051013
 40
0.4375030584
 40
0.5000007994
 40
0.5624988058
 40
0.6249962611
 40
0.6874943665
 40
0.7499927719
 40
0.7812511136
 40
0.8125091622
 40
0.8750062581
 40
0.9375049058
 40
1.0
 40
1.0
 40
1.0
 40
1.0
 10
4.0355144539
 20
6.6819877544
 30
0.0
 10
4.0366635797
 20
6.6819875635
 30
0.0
 10
4.0389634002
 20
6.6818758058
 30
0.0
 10
4.0423799774
 20
6.6813801487
 30
0.0
 10
4.0451753333
 20
6.6806949596
 30
0.0
 10
4.0473623999
 20
6.6799847671
 30
0.0
 10
4.0495115698
 20
6.6791669353
 30
0.0
 10
4.0521187488
 20
6.6779477683
 30
0.0
 10
4.0550872877
 20
6.6761837982
 30
0.0
 10
4.057865032
 20
6.6741320847
 30
0.0
 10
4.0604246367
 20
6.6718142206
 30
0.0
 10
4.0627434751
 20
6.6692553893
 30
0.0
 10
4.0647938149
 20
6.666476592
 30
0.0
 10
4.0665577631
 20
6.6635081335
 30
0.0
 10
4.0677774257
 20
6.6609011661
 30
0.0
 10
4.0685951361
 20
6.6587519588
 30
0.0
 10
4.0693049671
 20
6.6565647761
 30
0.0
 10
4.0699896574
 20
6.6537693423
 30
0.0
 10
4.0704859498
 20
6.6503529018
 30
0.0
 10
4.0705979822
 20
6.6480530982
 30
0.0
 10
4.0705982301
 20
6.6469039782
 30
0.0
  0
SPLINE
  5
4BE
100
AcDbEntity
  8
0
100
AcDbSpline
 62
7
  6
CONTINUOUS
 70
0
 71
3
 72
25
 73
21
 74
0
 42
0.0000001
 43
0.0000001
 44
0.0000000001
 40
0.0
 40
0.0
 40
0.0
 40
0.0
 40
0.0624954265
 40
0.1249948872
 40
0.1874920077
 40
0.2187503835
 40
0.2500086625
 40
0.312507658
 40
0.3750051649
 40
0.4375031556
 40
0.5000008769
 40
0.5624988696
 40
0.6249963073
 40
0.6874944304
 40
0.74999279
 40
0.7812511499
 40
0.8125091871
 40
0.8750062835
 40
0.9375049084
 40
1.0
 40
1.0
 40
1.0
 40
1.0
 10
3.2089510712
 20
6.6469039782
 30
0.0
 10
3.2089512631
 20
6.6480531045
 30
0.0
 10
3.209062836
 20
6.650352925
 30
0.0
 10
3.209558124
 20
6.6537695722
 30
0.0
 10
3.2102436366
 20
6.6565648687
 30
0.0
 10
3.2109541531
 20
6.6587518274
 30
0.0
 10
3.2117721707
 20
6.6609009261
 30
0.0
 10
3.2129912871
 20
6.663508114
 30
0.0
 10
3.2147550198
 20
6.6664767991
 30
0.0
 10
3.2168067429
 20
6.6692545435
 30
0.0
 10
3.2191246026
 20
6.671814151
 30
0.0
 10
3.2216834431
 20
6.6741329779
 30
0.0
 10
3.224462193
 20
6.6761833753
 30
0.0
 10
3.2274305896
 20
6.6779474321
 30
0.0
 10
3.2300375901
 20
6.6791670403
 30
0.0
 10
3.2321868455
 20
6.6799846231
 30
0.0
 10
3.2343740663
 20
6.6806943372
 30
0.0
 10
3.2371695088
 20
6.6813789642
 30
0.0
 10
3.2405859227
 20
6.6818754098
 30
0.0
 10
3.2428857273
 20
6.6819875132
 30
0.0
 10
3.2440348474
 20
6.6819877544
 30
0.0
  0
SPLINE
  5
4BF
100
AcDbEntity
  8
0
100
AcDbSpline
 62
7
  6
CONTINUOUS
 70
0
 71
3
 72
47
 73
43
 74
0
 42
0.0000001
 43
0.0000001
 44
0.0000000001
 40
0.0
 40
0.0
 40
0.0
 40
0.0
 40
0.0134456929
 40
0.0269679846
 40
0.0405829542
 40
0.0543057275
 40
0.0821189793
 40
0.1105128993
 40
0.1249552611
 40
0.139567476
 40
0.154354612
 40
0.1693201893
 40
0.1997857668
 40
0.2309709104
 40
0.2628523537
 40
0.2953869855
 40
0.3285141332
 40
0.3621580592
 40
0.3962304525
 40
0.4306329438
 40
0.4652596757
 40
0.4999997711
 40
0.5347398698
 40
0.5693666114
 40
0.6037691188
 40
0.637841534
 40
0.6714854874
 40
0.7046126672
 40
0.737147335
 40
0.7690288174
 40
0.8002140021
 40
0.8306796213
 40
0.8456452193
 40
0.8604323757
 40
0.8750446104
 40
0.8894869915
 40
0.9178809473
 40
0.94569423
 40
0.9594170166
 40
0.9730319977
 40
0.9865542992
 40
1.0
 40
1.0
 40
1.0
 40
1.0
 10
9.0706444504
 20
6.1650381933
 30
0.0
 10
9.0702490127
 20
6.1670994154
 30
0.0
 10
9.0693369721
 20
6.1712117805
 30
0.0
 10
9.0676160342
 20
6.1773116352
 30
0.0
 10
9.0655421549
 20
6.1833467655
 30
0.0
 10
9.0622983377
 20
6.1913250199
 30
0.0
 10
9.0573645506
 20
6.2010871456
 30
0.0
 10
9.051379306
 20
6.2103737226
 30
0.0
 10
9.0459717751
 20
6.2175309962
 30
0.0
 10
9.0415830364
 20
6.2227855513
 30
0.0
 10
9.0368935584
 20
6.2278848624
 30
0.0
 10
9.0302136634
 20
6.2345021483
 30
0.0
 10
9.0211475104
 20
6.2423282432
 30
0.0
 10
9.0092978088
 20
6.2508860938
 30
0.0
 10
8.9965051117
 20
6.2586017705
 30
0.0
 10
8.9828712045
 20
6.2654146614
 30
0.0
 10
8.9685035498
 20
6.2712719404
 30
0.0
 10
8.9535154859
 20
6.276127892
 30
0.0
 10
8.9380251413
 20
6.2799446509
 30
0.0
 10
8.9221545947
 20
6.2826924415
 30
0.0
 10
8.9060288977
 20
6.284349763
 30
0.0
 10
8.8897751197
 20
6.2849036584
 30
0.0
 10
8.8735213379
 20
6.2843498268
 30
0.0
 10
8.8573956299
 20
6.2826925686
 30
0.0
 10
8.8415250649
 20
6.2799448404
 30
0.0
 10
8.8260346948
 20
6.2761281422
 30
0.0
 10
8.8110465986
 20
6.2712722495
 30
0.0
 10
8.7966789047
 20
6.265415027
 30
0.0
 10
8.7830449521
 20
6.2586021897
 30
0.0
 10
8.7702522035
 20
6.2508865634
 30
0.0
 10
8.7584024448
 20
6.2423287595
 30
0.0
 10
8.7493362396
 20
6.2345027004
 30
0.0
 10
8.7426563004
 20
6.2278854408
 30
0.0
 10
8.7379667883
 20
6.2227861482
 30
0.0
 10
8.7335780144
 20
6.2175316104
 30
0.0
 10
8.7281704357
 20
6.2103743583
 30
0.0
 10
8.7221851292
 20
6.2010878054
 30
0.0
 10
8.7172512764
 20
6.191325699
 30
0.0
 10
8.7140074056
 20
6.1833474569
 30
0.0
 10
8.7119334859
 20
6.1773123349
 30
0.0
 10
8.710212507
 20
6.171212487
 30
0.0
 10
8.7093004388
 20
6.1671001252
 30
0.0
 10
8.7089049873
 20
6.1650389044
 30
0.0
  0
SPLINE
  5
4C0
100
AcDbEntity
  8
0
100
AcDbSpline
 62
7
  6
CONTINUOUS
 70
0
 71
3
 72
49
 73
45
 74
0
 42
0.0000001
 43
0.0000001
 44
0.0000000001
 40
0.0
 40
0.0
 40
0.0
 40
0.0
 40
0.0135006962
 40
0.0270249862
 40
0.0405939641
 40
0.0542303172
 40
0.0679546955
 40
0.0817867305
 40
0.0957446176
 40
0.1098448255
 40
0.1241019954
 40
0.1385287978
 40
0.1679210104
 40
0.1980928868
 40
0.2290709819
 40
0.2608500383
 40
0.2933955278
 40
0.3266468205
 40
0.3605207565
 40
0.3949153308
 40
0.4297135118
 40
0.4647869946
 40
0.5
 40
0.5352130054
 40
0.5702864882
 40
0.6050846692
 40
0.6394792435
 40
0.6733531795
 40
0.7066044722
 40
0.7391499617
 40
0.7709290181
 40
0.8019071132
 40
0.8320789896
 40
0.8614712022
 40
0.8758980046
 40
0.8901551745
 40
0.9042553824
 40
0.9182132695
 40
0.9320453045
 40
0.9457696828
 40
0.9594060359
 40
0.9729750138
 40
0.9864993038
 40
1.0
 40
1.0
 40
1.0
 40
1.0
 10
9.0725871506
 20
6.194137508
 30
0.0
 10
9.0725871506
 20
6.1964291514
 30
0.0
 10
9.0724399693
 20
6.2010177967
 30
0.0
 10
9.0717785577
 20
6.2078809832
 30
0.0
 10
9.0706779152
 20
6.214711124
 30
0.0
 10
9.0691409077
 20
6.2214911595
 30
0.0
 10
9.0671712346
 20
6.228204846
 30
0.0
 10
9.0647737976
 20
6.2348358778
 30
0.0
 10
9.0619544881
 20
6.2413682598
 30
0.0
 10
9.0587202333
 20
6.2477861753
 30
0.0
 10
9.0550787829
 20
6.2540743397
 30
0.0
 10
9.0496601759
 20
6.2623148424
 30
0.0
 10
9.0418905981
 20
6.2722168952
 30
0.0
 10
9.0311670516
 20
6.2832627089
 30
0.0
 10
9.019087653
 20
6.2934459676
 30
0.0
 10
9.0057700817
 20
6.3026696952
 30
0.0
 10
8.9913423704
 20
6.3108474748
 30
0.0
 10
8.9759430327
 20
6.3179022651
 30
0.0
 10
8.9597195313
 20
6.3237675575
 30
0.0
 10
8.9428271229
 20
6.3283880265
 30
0.0
 10
8.9254273603
 20
6.3317199321
 30
0.0
 10
8.907686654
 20
6.3337318142
 30
0.0
 10
8.8897746506
 20
6.3344045384
 30
0.0
 10
8.8718626473
 20
6.3337318142
 30
0.0
 10
8.854121941
 20
6.3317199321
 30
0.0
 10
8.8367221784
 20
6.3283880265
 30
0.0
 10
8.8198297699
 20
6.3237675575
 30
0.0
 10
8.8036062686
 20
6.3179022651
 30
0.0
 10
8.7882069308
 20
6.3108474748
 30
0.0
 10
8.7737792195
 20
6.3026696952
 30
0.0
 10
8.7604616483
 20
6.2934459676
 30
0.0
 10
8.7483822497
 20
6.2832627089
 30
0.0
 10
8.7376587031
 20
6.2722168952
 30
0.0
 10
8.7298891253
 20
6.2623148424
 30
0.0
 10
8.7244705184
 20
6.2540743397
 30
0.0
 10
8.720829068
 20
6.2477861753
 30
0.0
 10
8.7175948132
 20
6.2413682598
 30
0.0
 10
8.7147755036
 20
6.2348358778
 30
0.0
 10
8.7123780667
 20
6.228204846
 30
0.0
 10
8.7104083936
 20
6.2214911595
 30
0.0
 10
8.708871386
 20
6.214711124
 30
0.0
 10
8.7077707435
 20
6.2078809832
 30
0.0
 10
8.7071093319
 20
6.2010177967
 30
0.0
 10
8.7069621506
 20
6.1964291514
 30
0.0
 10
8.7069621506
 20
6.194137508
 30
0.0
  0
SPLINE
  5
4C1
100
AcDbEntity
  8
0
100
AcDbSpline
 62
7
  6
CONTINUOUS
 70
0
 71
3
 72
23
 73
19
 74
0
 42
0.0000001
 43
0.0000001
 44
0.0000000001
 40
0.0
 40
0.0
 40
0.0
 40
0.0
 40
0.0625001637
 40
0.1250005301
 40
0.1875008101
 40
0.2500010278
 40
0.3125010178
 40
0.3750007803
 40
0.4375004463
 40
0.5000000499
 40
0.5624996511
 40
0.6249993082
 40
0.6874990579
 40
0.7499990496
 40
0.8124992549
 40
0.8749995235
 40
0.9374998603
 40
1.0
 40
1.0
 40
1.0
 40
1.0
 10
5.396266769
 20
5.961434795
 30
0.0
 10
5.3973554764
 20
5.9614348682
 30
0.0
 10
5.3995342985
 20
5.9615396645
 30
0.0
 10
5.402771528
 20
5.9620081328
 30
0.0
 10
5.4059483434
 20
5.9627890632
 30
0.0
 10
5.4090337179
 20
5.9638763388
 30
0.0
 10
5.4119972184
 20
5.9652620101
 30
0.0
 10
5.414809093
 20
5.966934029
 30
0.0
 10
5.4174418326
 20
5.9688760767
 30
0.0
 10
5.4198671028
 20
5.9710717186
 30
0.0
 10
5.4220627962
 20
5.9734969565
 30
0.0
 10
5.4240046835
 20
5.9761298053
 30
0.0
 10
5.4256769054
 20
5.9789415582
 30
0.0
 10
5.4270624172
 20
5.981905141
 30
0.0
 10
5.4281497189
 20
5.9849904968
 30
0.0
 10
5.428930718
 20
5.9881672967
 30
0.0
 10
5.4293991825
 20
5.9914045282
 30
0.0
 10
5.4295039523
 20
5.9935833496
 30
0.0
 10
5.4295040306
 20
5.9946720566
 30
0.0
  0
SPLINE
  5
4C2
100
AcDbEntity
  8
0
100
AcDbSpline
 62
7
  6
CONTINUOUS
 70
0
 71
3
 72
23
 73
19
 74
0
 42
0.0000001
 43
0.0000001
 44
0.0000000001
 40
0.0
 40
0.0
 40
0.0
 40
0.0
 40
0.0625001637
 40
0.1250005301
 40
0.1875008101
 40
0.2500010278
 40
0.3125010178
 40
0.3750007803
 40
0.4375004463
 40
0.5000000499
 40
0.5624996511
 40
0.6249993082
 40
0.6874990579
 40
0.7499990496
 40
0.8124992549
 40
0.8749995235
 40
0.9374998603
 40
1.0
 40
1.0
 40
1.0
 40
1.0
 10
5.4295040306
 20
6.5076562933
 30
0.0
 10
5.4295039574
 20
6.5087450007
 30
0.0
 10
5.4293991611
 20
6.5109238228
 30
0.0
 10
5.4289306928
 20
6.5141610524
 30
0.0
 10
5.4281497624
 20
6.5173378678
 30
0.0
 10
5.4270624868
 20
6.5204232422
 30
0.0
 10
5.4256768155
 20
6.5233867428
 30
0.0
 10
5.4240047966
 20
6.5261986173
 30
0.0
 10
5.4220627489
 20
6.5288313569
 30
0.0
 10
5.419867107
 20
6.5312566272
 30
0.0
 10
5.4174418691
 20
6.5334523205
 30
0.0
 10
5.4148090203
 20
6.5353942079
 30
0.0
 10
5.4119972674
 20
6.5370664297
 30
0.0
 10
5.4090336846
 20
6.5384519415
 30
0.0
 10
5.4059483288
 20
6.5395392433
 30
0.0
 10
5.4027715288
 20
6.5403202424
 30
0.0
 10
5.3995342974
 20
6.5407887068
 30
0.0
 10
5.3973554759
 20
6.5408934767
 30
0.0
 10
5.396266769
 20
6.540893555
 30
0.0
  0
SPLINE
  5
4C3
100
AcDbEntity
  8
0
100
AcDbSpline
 62
7
  6
CONTINUOUS
 70
0
 71
3
 72
23
 73
19
 74
0
 42
0.0000001
 43
0.0000001
 44
0.0000000001
 40
0.0
 40
0.0
 40
0.0
 40
0.0
 40
0.0625001637
 40
0.1250005301
 40
0.1875008101
 40
0.2500010278
 40
0.3125010178
 40
0.3750007803
 40
0.4375004463
 40
0.5000000499
 40
0.5624996511
 40
0.6249993082
 40
0.6874990579
 40
0.7499990496
 40
0.8124992549
 40
0.8749995235
 40
0.9374998603
 40
1.0
 40
1.0
 40
1.0
 40
1.0
 10
4.8832825323
 20
6.540893555
 30
0.0
 10
4.8821938249
 20
6.5408934818
 30
0.0
 10
4.8800150028
 20
6.5407886854
 30
0.0
 10
4.8767777732
 20
6.5403202171
 30
0.0
 10
4.8736009578
 20
6.5395392868
 30
0.0
 10
4.8705155834
 20
6.5384520112
 30
0.0
 10
4.8675520828
 20
6.5370663399
 30
0.0
 10
4.8647402083
 20
6.535394321
 30
0.0
 10
4.8621074687
 20
6.5334522732
 30
0.0
 10
4.8596821984
 20
6.5312566313
 30
0.0
 10
4.8574865051
 20
6.5288313935
 30
0.0
 10
4.8555446177
 20
6.5261985447
 30
0.0
 10
4.8538723959
 20
6.5233867918
 30
0.0
 10
4.8524868841
 20
6.5204232089
 30
0.0
 10
4.8513995823
 20
6.5173378532
 30
0.0
 10
4.8506185832
 20
6.5141610532
 30
0.0
 10
4.8501501188
 20
6.5109238218
 30
0.0
 10
4.8500453489
 20
6.5087450003
 30
0.0
 10
4.8500452706
 20
6.5076562933
 30
0.0
  0
SPLINE
  5
4C4
100
AcDbEntity
  8
0
100
AcDbSpline
 62
7
  6
CONTINUOUS
 70
0
 71
3
 72
23
 73
19
 74
0
 42
0.0000001
 43
0.0000001
 44
0.0000000001
 40
0.0
 40
0.0
 40
0.0
 40
0.0
 40
0.0625001637
 40
0.1250005301
 40
0.1875008101
 40
0.2500010278
 40
0.3125010178
 40
0.3750007803
 40
0.4375004463
 40
0.5000000499
 40
0.5624996511
 40
0.6249993082
 40
0.6874990579
 40
0.7499990496
 40
0.8124992549
 40
0.8749995235
 40
0.9374998603
 40
1.0
 40
1.0
 40
1.0
 40
1.0
 10
4.8500452706
 20
5.9946720566
 30
0.0
 10
4.8500453438
 20
5.9935833492
 30
0.0
 10
4.8501501402
 20
5.9914045271
 30
0.0
 10
4.8506186085
 20
5.9881672976
 30
0.0
 10
4.8513995388
 20
5.9849904822
 30
0.0
 10
4.8524868144
 20
5.9819051077
 30
0.0
 10
4.8538724857
 20
5.9789416072
 30
0.0
 10
4.8555445046
 20
5.9761297326
 30
0.0
 10
4.8574865524
 20
5.973496993
 30
0.0
 10
4.8596821942
 20
5.9710717228
 30
0.0
 10
4.8621074321
 20
5.9688760294
 30
0.0
 10
4.8647402809
 20
5.9669341421
 30
0.0
 10
4.8675520338
 20
5.9652619202
 30
0.0
 10
4.8705156167
 20
5.9638764084
 30
0.0
 10
4.8736009724
 20
5.9627891067
 30
0.0
 10
4.8767777724
 20
5.9620081076
 30
0.0
 10
4.8800150038
 20
5.9615396431
 30
0.0
 10
4.8821938253
 20
5.9614348733
 30
0.0
 10
4.8832825323
 20
5.961434795
 30
0.0
  0
SPLINE
  5
4C5
100
AcDbEntity
  8
0
100
AcDbSpline
 62
7
  6
CONTINUOUS
 70
0
 71
3
 72
23
 73
19
 74
0
 42
0.0000001
 43
0.0000001
 44
0.0000000001
 40
0.0
 40
0.0
 40
0.0
 40
0.0
 40
0.0623897212
 40
0.1248187348
 40
0.1872824302
 40
0.2497805533
 40
0.312307501
 40
0.3748580396
 40
0.4374247615
 40
0.5000000163
 40
0.5625752561
 40
0.6251419742
 40
0.687692517
 40
0.750219451
 40
0.812717545
 40
0.8751812494
 40
0.937610288
 40
1.0
 40
1.0
 40
1.0
 40
1.0
 10
6.7361243578
 20
5.9946720566
 30
0.0
 10
6.7361139088
 20
5.9939436797
 30
0.0
 10
6.7361616735
 20
5.9924845106
 30
0.0
 10
6.7364427029
 20
5.9903126751
 30
0.0
 10
6.7369345084
 20
5.9881770526
 30
0.0
 10
6.7376356269
 20
5.9860994455
 30
0.0
 10
6.7385423284
 20
5.9841017322
 30
0.0
 10
6.7396476685
 20
5.9822056773
 30
0.0
 10
6.7409418628
 20
5.9804323733
 30
0.0
 10
6.7424121299
 20
5.9788016542
 30
0.0
 10
6.744042848
 20
5.9773313854
 30
0.0
 10
6.7458161565
 20
5.9760371979
 30
0.0
 10
6.7477122073
 20
5.9749318516
 30
0.0
 10
6.7497099202
 20
5.9740251492
 30
0.0
 10
6.7517875292
 20
5.9733240382
 30
0.0
 10
6.7539231503
 20
5.9728322276
 30
0.0
 10
6.7560949861
 20
5.9725511955
 30
0.0
 10
6.7575541555
 20
5.9725034332
 30
0.0
 10
6.7582825323
 20
5.9725138822
 30
0.0
  0
SPLINE
  5
4C6
100
AcDbEntity
  8
0
100
AcDbSpline
 62
7
  6
CONTINUOUS
 70
0
 71
3
 72
23
 73
19
 74
0
 42
0.0000001
 43
0.0000001
 44
0.0000000001
 40
0.0
 40
0.0
 40
0.0
 40
0.0
 40
0.0623897212
 40
0.1248187348
 40
0.1872824302
 40
0.2497805533
 40
0.312307501
 40
0.3748580396
 40
0.4374247615
 40
0.5000000163
 40
0.5625752561
 40
0.6251419742
 40
0.687692517
 40
0.750219451
 40
0.812717545
 40
0.8751812494
 40
0.937610288
 40
1.0
 40
1.0
 40
1.0
 40
1.0
 10
6.7582825323
 20
6.5298144678
 30
0.0
 10
6.7575541554
 20
6.5298249168
 30
0.0
 10
6.7560949863
 20
6.5297771521
 30
0.0
 10
6.7539231507
 20
6.5294961227
 30
0.0
 10
6.7517875282
 20
6.5290043172
 30
0.0
 10
6.7497099211
 20
6.5283031987
 30
0.0
 10
6.7477122079
 20
6.5273964972
 30
0.0
 10
6.745816153
 20
6.5262911571
 30
0.0
 10
6.744042849
 20
6.5249969628
 30
0.0
 10
6.7424121298
 20
6.5235266957
 30
0.0
 10
6.7409418611
 20
6.5218959776
 30
0.0
 10
6.7396476735
 20
6.5201226691
 30
0.0
 10
6.7385423273
 20
6.5182266183
 30
0.0
 10
6.7376356248
 20
6.5162289054
 30
0.0
 10
6.7369345138
 20
6.5141512963
 30
0.0
 10
6.7364427033
 20
6.5120156753
 30
0.0
 10
6.7361616711
 20
6.5098438395
 30
0.0
 10
6.7361139089
 20
6.5083846701
 30
0.0
 10
6.7361243578
 20
6.5076562933
 30
0.0
  0
SPLINE
  5
4C7
100
AcDbEntity
  8
0
100
AcDbSpline
 62
7
  6
CONTINUOUS
 70
0
 71
3
 72
23
 73
19
 74
0
 42
0.0000001
 43
0.0000001
 44
0.0000000001
 40
0.0
 40
0.0
 40
0.0
 40
0.0
 40
0.0623897212
 40
0.1248187348
 40
0.1872824302
 40
0.2497805533
 40
0.312307501
 40
0.3748580396
 40
0.4374247615
 40
0.5000000163
 40
0.5625752561
 40
0.6251419742
 40
0.687692517
 40
0.750219451
 40
0.812717545
 40
0.8751812494
 40
0.937610288
 40
1.0
 40
1.0
 40
1.0
 40
1.0
 10
7.2934249434
 20
6.5076562933
 30
0.0
 10
7.2934353925
 20
6.5083846702
 30
0.0
 10
7.2933876278
 20
6.5098438393
 30
0.0
 10
7.2931065984
 20
6.5120156749
 30
0.0
 10
7.2926147929
 20
6.5141512974
 30
0.0
 10
7.2919136743
 20
6.5162289045
 30
0.0
 10
7.2910069729
 20
6.5182266177
 30
0.0
 10
7.2899016327
 20
6.5201226726
 30
0.0
 10
7.2886074384
 20
6.5218959766
 30
0.0
 10
7.2871371714
 20
6.5235266958
 30
0.0
 10
7.2855064533
 20
6.5249969645
 30
0.0
 10
7.2837331447
 20
6.5262911521
 30
0.0
 10
7.2818370939
 20
6.5273964983
 30
0.0
 10
7.2798393811
 20
6.5283032008
 30
0.0
 10
7.277761772
 20
6.5290043118
 30
0.0
 10
7.2756261509
 20
6.5294961223
 30
0.0
 10
7.2734543151
 20
6.5297771544
 30
0.0
 10
7.2719951458
 20
6.5298249167
 30
0.0
 10
7.271266769
 20
6.5298144678
 30
0.0
  0
SPLINE
  5
4C8
100
AcDbEntity
  8
0
100
AcDbSpline
 62
7
  6
CONTINUOUS
 70
0
 71
3
 72
23
 73
19
 74
0
 42
0.0000001
 43
0.0000001
 44
0.0000000001
 40
0.0
 40
0.0
 40
0.0
 40
0.0
 40
0.0623897212
 40
0.1248187348
 40
0.1872824302
 40
0.2497805533
 40
0.312307501
 40
0.3748580396
 40
0.4374247615
 40
0.5000000163
 40
0.5625752561
 40
0.6251419742
 40
0.687692517
 40
0.750219451
 40
0.812717545
 40
0.8751812494
 40
0.937610288
 40
1.0
 40
1.0
 40
1.0
 40
1.0
 10
5.396266769
 20
5.9725138822
 30
0.0
 10
5.3969951459
 20
5.9725034331
 30
0.0
 10
5.398454315
 20
5.9725511978
 30
0.0
 10
5.4006261505
 20
5.9728322272
 30
0.0
 10
5.402761773
 20
5.9733240327
 30
0.0
 10
5.4048393801
 20
5.9740251513
 30
0.0
 10
5.4068370934
 20
5.9749318527
 30
0.0
 10
5.4087331483
 20
5.9760371929
 30
0.0
 10
5.4105064523
 20
5.9773313872
 30
0.0
 10
5.4121371714
 20
5.9788016542
 30
0.0
 10
5.4136074402
 20
5.9804323723
 30
0.0
 10
5.4149016277
 20
5.9822056809
 30
0.0
 10
5.416006974
 20
5.9841017317
 30
0.0
 10
5.4169136764
 20
5.9860994445
 30
0.0
 10
5.4176147874
 20
5.9881770536
 30
0.0
 10
5.418106598
 20
5.9903126747
 30
0.0
 10
5.4183876301
 20
5.9924845105
 30
0.0
 10
5.4184353924
 20
5.9939436798
 30
0.0
 10
5.4184249434
 20
5.9946720566
 30
0.0
  0
SPLINE
  5
4C9
100
AcDbEntity
  8
0
100
AcDbSpline
 62
7
  6
CONTINUOUS
 70
0
 71
3
 72
23
 73
19
 74
0
 42
0.0000001
 43
0.0000001
 44
0.0000000001
 40
0.0
 40
0.0
 40
0.0
 40
0.0
 40
0.0623897212
 40
0.1248187348
 40
0.1872824302
 40
0.2497805533
 40
0.312307501
 40
0.3748580396
 40
0.4374247615
 40
0.5000000163
 40
0.5625752561
 40
0.6251419742
 40
0.687692517
 40
0.750219451
 40
0.812717545
 40
0.8751812494
 40
0.937610288
 40
1.0
 40
1.0
 40
1.0
 40
1.0
 10
5.4184249434
 20
6.5076562933
 30
0.0
 10
5.4184353925
 20
6.5083846702
 30
0.0
 10
5.4183876278
 20
6.5098438393
 30
0.0
 10
5.4181065984
 20
6.5120156749
 30
0.0
 10
5.4176147929
 20
6.5141512974
 30
0.0
 10
5.4169136743
 20
6.5162289045
 30
0.0
 10
5.4160069729
 20
6.5182266177
 30
0.0
 10
5.4149016327
 20
6.5201226726
 30
0.0
 10
5.4136074384
 20
6.5218959766
 30
0.0
 10
5.4121371714
 20
6.5235266958
 30
0.0
 10
5.4105064533
 20
6.5249969645
 30
0.0
 10
5.4087331447
 20
6.5262911521
 30
0.0
 10
5.4068370939
 20
6.5273964983
 30
0.0
 10
5.4048393811
 20
6.5283032008
 30
0.0
 10
5.402761772
 20
6.5290043118
 30
0.0
 10
5.4006261509
 20
6.5294961223
 30
0.0
 10
5.3984543151
 20
6.5297771544
 30
0.0
 10
5.3969951458
 20
6.5298249167
 30
0.0
 10
5.396266769
 20
6.5298144678
 30
0.0
  0
SPLINE
  5
4CA
100
AcDbEntity
  8
0
100
AcDbSpline
 62
7
  6
CONTINUOUS
 70
0
 71
3
 72
23
 73
19
 74
0
 42
0.0000001
 43
0.0000001
 44
0.0000000001
 40
0.0
 40
0.0
 40
0.0
 40
0.0
 40
0.0623897212
 40
0.1248187348
 40
0.1872824302
 40
0.2497805533
 40
0.312307501
 40
0.3748580396
 40
0.4374247615
 40
0.5000000163
 40
0.5625752561
 40
0.6251419742
 40
0.687692517
 40
0.750219451
 40
0.812717545
 40
0.8751812494
 40
0.937610288
 40
1.0
 40
1.0
 40
1.0
 40
1.0
 10
4.8832825323
 20
6.5298144678
 30
0.0
 10
4.8825541554
 20
6.5298249168
 30
0.0
 10
4.8810949863
 20
6.5297771521
 30
0.0
 10
4.8789231507
 20
6.5294961227
 30
0.0
 10
4.8767875282
 20
6.5290043172
 30
0.0
 10
4.8747099211
 20
6.5283031987
 30
0.0
 10
4.8727122079
 20
6.5273964972
 30
0.0
 10
4.870816153
 20
6.5262911571
 30
0.0
 10
4.869042849
 20
6.5249969628
 30
0.0
 10
4.8674121298
 20
6.5235266957
 30
0.0
 10
4.8659418611
 20
6.5218959776
 30
0.0
 10
4.8646476735
 20
6.5201226691
 30
0.0
 10
4.8635423273
 20
6.5182266183
 30
0.0
 10
4.8626356248
 20
6.5162289054
 30
0.0
 10
4.8619345138
 20
6.5141512963
 30
0.0
 10
4.8614427033
 20
6.5120156753
 30
0.0
 10
4.8611616711
 20
6.5098438395
 30
0.0
 10
4.8611139089
 20
6.5083846701
 30
0.0
 10
4.8611243578
 20
6.5076562933
 30
0.0
  0
SPLINE
  5
4CB
100
AcDbEntity
  8
0
100
AcDbSpline
 62
7
  6
CONTINUOUS
 70
0
 71
3
 72
23
 73
19
 74
0
 42
0.0000001
 43
0.0000001
 44
0.0000000001
 40
0.0
 40
0.0
 40
0.0
 40
0.0
 40
0.0623897212
 40
0.1248187348
 40
0.1872824302
 40
0.2497805533
 40
0.312307501
 40
0.3748580396
 40
0.4374247615
 40
0.5000000163
 40
0.5625752561
 40
0.6251419742
 40
0.687692517
 40
0.750219451
 40
0.812717545
 40
0.8751812494
 40
0.937610288
 40
1.0
 40
1.0
 40
1.0
 40
1.0
 10
4.8611243578
 20
5.9946720566
 30
0.0
 10
4.8611139088
 20
5.9939436797
 30
0.0
 10
4.8611616735
 20
5.9924845106
 30
0.0
 10
4.8614427029
 20
5.9903126751
 30
0.0
 10
4.8619345084
 20
5.9881770526
 30
0.0
 10
4.8626356269
 20
5.9860994455
 30
0.0
 10
4.8635423284
 20
5.9841017322
 30
0.0
 10
4.8646476685
 20
5.9822056773
 30
0.0
 10
4.8659418628
 20
5.9804323733
 30
0.0
 10
4.8674121299
 20
5.9788016542
 30
0.0
 10
4.869042848
 20
5.9773313854
 30
0.0
 10
4.8708161565
 20
5.9760371979
 30
0.0
 10
4.8727122073
 20
5.9749318516
 30
0.0
 10
4.8747099202
 20
5.9740251492
 30
0.0
 10
4.8767875292
 20
5.9733240382
 30
0.0
 10
4.8789231503
 20
5.9728322276
 30
0.0
 10
4.8810949861
 20
5.9725511955
 30
0.0
 10
4.8825541555
 20
5.9725034332
 30
0.0
 10
4.8832825323
 20
5.9725138822
 30
0.0
  0
SPLINE
  5
4CC
100
AcDbEntity
  8
0
100
AcDbSpline
 62
7
  6
CONTINUOUS
 70
0
 71
3
 72
23
 73
19
 74
0
 42
0.0000001
 43
0.0000001
 44
0.0000000001
 40
0.0
 40
0.0
 40
0.0
 40
0.0
 40
0.0623897212
 40
0.1248187348
 40
0.1872824302
 40
0.2497805533
 40
0.312307501
 40
0.3748580396
 40
0.4374247615
 40
0.5000000163
 40
0.5625752561
 40
0.6251419742
 40
0.687692517
 40
0.750219451
 40
0.812717545
 40
0.8751812494
 40
0.937610288
 40
1.0
 40
1.0
 40
1.0
 40
1.0
 10
7.271266769
 20
5.9725138822
 30
0.0
 10
7.2719951459
 20
5.9725034331
 30
0.0
 10
7.273454315
 20
5.9725511978
 30
0.0
 10
7.2756261505
 20
5.9728322272
 30
0.0
 10
7.277761773
 20
5.9733240327
 30
0.0
 10
7.2798393801
 20
5.9740251513
 30
0.0
 10
7.2818370934
 20
5.9749318527
 30
0.0
 10
7.2837331483
 20
5.9760371929
 30
0.0
 10
7.2855064523
 20
5.9773313872
 30
0.0
 10
7.2871371714
 20
5.9788016542
 30
0.0
 10
7.2886074402
 20
5.9804323723
 30
0.0
 10
7.2899016277
 20
5.9822056809
 30
0.0
 10
7.291006974
 20
5.9841017317
 30
0.0
 10
7.2919136764
 20
5.9860994445
 30
0.0
 10
7.2926147874
 20
5.9881770536
 30
0.0
 10
7.293106598
 20
5.9903126747
 30
0.0
 10
7.2933876301
 20
5.9924845105
 30
0.0
 10
7.2934353924
 20
5.9939436798
 30
0.0
 10
7.2934249434
 20
5.9946720566
 30
0.0
  0
SPLINE
  5
4CD
100
AcDbEntity
  8
0
100
AcDbSpline
 62
7
  6
CONTINUOUS
 70
0
 71
3
 72
23
 73
19
 74
0
 42
0.0000001
 43
0.0000001
 44
0.0000000001
 40
0.0
 40
0.0
 40
0.0
 40
0.0
 40
0.0623791419
 40
0.1248054162
 40
0.1872635252
 40
0.2497620038
 40
0.3122910786
 40
0.3748458766
 40
0.4374185363
 40
0.5000002537
 40
0.5625819408
 40
0.6251544986
 40
0.6877091311
 40
0.750238299
 40
0.8127365801
 40
0.8751944305
 40
0.9376205558
 40
1.0
 40
1.0
 40
1.0
 40
1.0
 10
4.0355144539
 20
6.6699854099
 30
0.0
 10
4.0362732103
 20
6.6699966425
 30
0.0
 10
4.0377933612
 20
6.6699476943
 30
0.0
 10
4.0400561461
 20
6.669656459
 30
0.0
 10
4.0422814705
 20
6.6691454716
 30
0.0
 10
4.0444464574
 20
6.668416107
 30
0.0
 10
4.0465284037
 20
6.6674724135
 30
0.0
 10
4.0485044434
 20
6.6663213926
 30
0.0
 10
4.0503524406
 20
6.6649731742
 30
0.0
 10
4.052051758
 20
6.6634412743
 30
0.0
 10
4.0535836905
 20
6.6617419855
 30
0.0
 10
4.0549318774
 20
6.6598939665
 30
0.0
 10
4.0560828519
 20
6.6579179059
 30
0.0
 10
4.0570266004
 20
6.6558359888
 30
0.0
 10
4.0577559442
 20
6.6536709966
 30
0.0
 10
4.0582668974
 20
6.6514456731
 30
0.0
 10
4.0585581305
 20
6.6491828893
 30
0.0
 10
4.0586070891
 20
6.6476627387
 30
0.0
 10
4.0585958856
 20
6.6469039782
 30
0.0
  0
SPLINE
  5
4CE
100
AcDbEntity
  8
0
100
AcDbSpline
 62
7
  6
CONTINUOUS
 70
0
 71
3
 72
23
 73
19
 74
0
 42
0.0000001
 43
0.0000001
 44
0.0000000001
 40
0.0
 40
0.0
 40
0.0
 40
0.0
 40
0.0623789655
 40
0.1248053598
 40
0.1872636421
 40
0.2497622167
 40
0.3122912162
 40
0.3748459816
 40
0.4374186306
 40
0.5000003337
 40
0.5625820102
 40
0.6251545659
 40
0.6877092137
 40
0.7502384064
 40
0.8127366225
 40
0.8751944059
 40
0.9376204921
 40
1.0
 40
1.0
 40
1.0
 40
1.0
 10
3.2209534157
 20
6.6469039782
 30
0.0
 10
3.2209421736
 20
6.6476627324
 30
0.0
 10
3.2209911071
 20
6.6491828835
 30
0.0
 10
3.2212823465
 20
6.6514456703
 30
0.0
 10
3.2217933619
 20
6.6536709935
 30
0.0
 10
3.2225227437
 20
6.6558359759
 30
0.0
 10
3.2234664178
 20
6.6579179305
 30
0.0
 10
3.2246174352
 20
6.6598939712
 30
0.0
 10
3.2259656534
 20
6.6617419676
 30
0.0
 10
3.2274975536
 20
6.6634412842
 30
0.0
 10
3.2291968425
 20
6.664973216
 30
0.0
 10
3.2310448611
 20
6.6663214036
 30
0.0
 10
3.2330209197
 20
6.667472382
 30
0.0
 10
3.235102834
 20
6.6684161368
 30
0.0
 10
3.2372678292
 20
6.6691454691
 30
0.0
 10
3.2394931529
 20
6.6696564103
 30
0.0
 10
3.2417559353
 20
6.6699476465
 30
0.0
 10
3.243276086
 20
6.6699966116
 30
0.0
 10
3.2440348474
 20
6.6699854099
 30
0.0
  0
SPLINE
  5
4CF
100
AcDbEntity
  8
0
100
AcDbSpline
 62
7
  6
CONTINUOUS
 70
0
 71
3
 72
19
 73
15
 74
0
 42
0.0000001
 43
0.0000001
 44
0.0000000001
 40
0.0
 40
0.0
 40
0.0
 40
0.0
 40
0.0622948344
 40
0.1247256181
 40
0.1872725933
 40
0.2499162315
 40
0.3752967517
 40
0.5007753432
 40
0.6261420228
 40
0.7511988628
 40
0.8136126109
 40
0.875888684
 40
0.9380276308
 40
1.0
 40
1.0
 40
1.0
 40
1.0
 10
3.9159531276
 20
5.9565698439
 30
0.0
 10
3.9165969227
 20
5.956707173
 30
0.0
 10
3.9178749992
 20
5.9570365033
 30
0.0
 10
3.9197454802
 20
5.957689212
 30
0.0
 10
3.921558801
 20
5.9584968397
 30
0.0
 10
3.923882248
 20
5.9597718754
 30
0.0
 10
3.926580265
 20
5.9617224408
 30
0.0
 10
3.9293883259
 20
5.9645617434
 30
0.0
 10
3.9316908004
 20
5.9678203407
 30
0.0
 10
3.9331346862
 20
5.9708125666
 30
0.0
 10
3.9339772031
 20
5.9733162379
 30
0.0
 10
3.9344491171
 20
5.9752357766
 30
0.0
 10
3.9347574332
 20
5.9771832932
 30
0.0
 10
3.9348527539
 20
5.9784931915
 30
0.0
 10
3.9348724917
 20
5.9791477655
 30
0.0
  0
SPLINE
  5
4D0
100
AcDbEntity
  8
0
100
AcDbSpline
 62
7
  6
CONTINUOUS
 70
0
 71
3
 72
23
 73
19
 74
0
 42
0.0000001
 43
0.0000001
 44
0.0000000001
 40
0.0
 40
0.0
 40
0.0
 40
0.0
 40
0.0623789655
 40
0.1248053598
 40
0.1872636421
 40
0.2497622167
 40
0.3122912162
 40
0.3748459816
 40
0.4374186306
 40
0.5000003337
 40
0.5625820102
 40
0.6251545659
 40
0.6877092137
 40
0.7502384064
 40
0.8127366225
 40
0.8751944059
 40
0.9376204921
 40
1.0
 40
1.0
 40
1.0
 40
1.0
 10
4.0585958856
 20
5.8554243717
 30
0.0
 10
4.0586071276
 20
5.8546656176
 30
0.0
 10
4.0585581941
 20
5.8531454664
 30
0.0
 10
4.0582669547
 20
5.8508826796
 30
0.0
 10
4.0577559393
 20
5.8486573564
 30
0.0
 10
4.0570265575
 20
5.8464923741
 30
0.0
 10
4.0560828835
 20
5.8444104195
 30
0.0
 10
4.0549318661
 20
5.8424343787
 30
0.0
 10
4.0535836479
 20
5.8405863823
 30
0.0
 10
4.0520517477
 20
5.8388870658
 30
0.0
 10
4.0503524587
 20
5.8373551339
 30
0.0
 10
4.0485044402
 20
5.8360069463
 30
0.0
 10
4.0465283816
 20
5.8348559679
 30
0.0
 10
4.0444464673
 20
5.8339122132
 30
0.0
 10
4.042281472
 20
5.8331828809
 30
0.0
 10
4.0400561483
 20
5.8326719397
 30
0.0
 10
4.0377933659
 20
5.8323807035
 30
0.0
 10
4.0362732152
 20
5.8323317384
 30
0.0
 10
4.0355144539
 20
5.83234294
 30
0.0
  0
SPLINE
  5
4D1
100
AcDbEntity
  8
0
100
AcDbSpline
 62
7
  6
CONTINUOUS
 70
0
 71
3
 72
23
 73
19
 74
0
 42
0.0000001
 43
0.0000001
 44
0.0000000001
 40
0.0
 40
0.0
 40
0.0
 40
0.0
 40
0.0623791419
 40
0.1248054162
 40
0.1872635252
 40
0.2497620038
 40
0.3122910786
 40
0.3748458766
 40
0.4374185363
 40
0.5000002537
 40
0.5625819408
 40
0.6251544986
 40
0.6877091311
 40
0.750238299
 40
0.8127365801
 40
0.8751944305
 40
0.9376205558
 40
1.0
 40
1.0
 40
1.0
 40
1.0
 10
3.2440348474
 20
5.83234294
 30
0.0
 10
3.243276091
 20
5.8323317074
 30
0.0
 10
3.2417559401
 20
5.8323806557
 30
0.0
 10
3.2394931551
 20
5.8326718909
 30
0.0
 10
3.2372678308
 20
5.8331828784
 30
0.0
 10
3.2351028438
 20
5.8339122429
 30
0.0
 10
3.2330208975
 20
5.8348559365
 30
0.0
 10
3.2310448579
 20
5.8360069573
 30
0.0
 10
3.2291968607
 20
5.8373551757
 30
0.0
 10
3.2274975433
 20
5.8388870756
 30
0.0
 10
3.2259656108
 20
5.8405863644
 30
0.0
 10
3.2246174238
 20
5.8424343834
 30
0.0
 10
3.2234664494
 20
5.8444104441
 30
0.0
 10
3.2225227008
 20
5.8464923612
 30
0.0
 10
3.221793357
 20
5.8486573534
 30
0.0
 10
3.2212824038
 20
5.8508826769
 30
0.0
 10
3.2209911707
 20
5.8531454606
 30
0.0
 10
3.2209422122
 20
5.8546656112
 30
0.0
 10
3.2209534157
 20
5.8554243717
 30
0.0
  0
SPLINE
  5
4D2
100
AcDbEntity
  8
0
100
AcDbSpline
 62
7
  6
CONTINUOUS
 70
0
 71
3
 72
19
 73
15
 74
0
 42
0.0000001
 43
0.0000001
 44
0.0000000001
 40
0.0
 40
0.0
 40
0.0
 40
0.0
 40
0.062294831
 40
0.1247256118
 40
0.187272585
 40
0.2499162218
 40
0.3752967407
 40
0.5007753331
 40
0.6261420151
 40
0.751198858
 40
0.8136126076
 40
0.8758886821
 40
0.93802763
 40
1.0
 40
1.0
 40
1.0
 40
1.0
 10
3.3635962326
 20
5.9565698313
 30
0.0
 10
3.3629524359
 20
5.956707159
 30
0.0
 10
3.3616743563
 20
5.9570364867
 30
0.0
 10
3.3598038703
 20
5.9576891923
 30
0.0
 10
3.3579905443
 20
5.9584968177
 30
0.0
 10
3.3556670904
 20
5.9597718512
 30
0.0
 10
3.3529690649
 20
5.9617224156
 30
0.0
 10
3.3501609946
 20
5.9645617197
 30
0.0
 10
3.3478585121
 20
5.9678203207
 30
0.0
 10
3.3464146211
 20
5.9708125514
 30
0.0
 10
3.3455721012
 20
5.9733162269
 30
0.0
 10
3.3451001855
 20
5.9752357692
 30
0.0
 10
3.3447918684
 20
5.9771832894
 30
0.0
 10
3.3446965474
 20
5.9784931902
 30
0.0
 10
3.3446768095
 20
5.9791477656
 30
0.0
  0
SPLINE
  5
4D3
100
AcDbEntity
  8
0
100
AcDbSpline
 62
7
  6
CONTINUOUS
 70
0
 71
3
 72
21
 73
17
 74
0
 42
0.0000001
 43
0.0000001
 44
0.0000000001
 40
0.0
 40
0.0
 40
0.0
 40
0.0
 40
0.0620271955
 40
0.1242286377
 40
0.186593505
 40
0.2491042959
 40
0.3117388447
 40
0.3744709614
 40
0.4999677322
 40
0.6254666924
 40
0.6882030281
 40
0.7508440917
 40
0.8133644242
 40
0.8757381081
 40
0.9379596957
 40
1.0
 40
1.0
 40
1.0
 40
1.0
 10
3.9322443853
 20
2.4353458998
 30
0.0
 10
3.9322220142
 20
2.4346039973
 30
0.0
 10
3.9321055612
 20
2.4331192953
 30
0.0
 10
3.9317186766
 20
2.4309169592
 30
0.0
 10
3.9311229139
 20
2.4287555194
 30
0.0
 10
3.9303238599
 20
2.4266552877
 30
0.0
 10
3.9293287653
 20
2.4246354394
 30
0.0
 10
3.9277538402
 20
2.4220755079
 30
0.0
 10
3.9253439196
 20
2.4191665496
 30
0.0
 10
3.92243515
 20
2.4167563186
 30
0.0
 10
3.9198752254
 20
2.4151810871
 30
0.0
 10
3.9178552434
 20
2.4141857101
 30
0.0
 10
3.9157547787
 20
2.4133864315
 30
0.0
 10
3.9135929396
 20
2.4127903734
 30
0.0
 10
3.9113901074
 20
2.4124033868
 30
0.0
 10
3.9099050128
 20
2.4122868439
 30
0.0
 10
3.9091629536
 20
2.4122644681
 30
0.0
  0
SPLINE
  5
4D4
100
AcDbEntity
  8
0
100
AcDbSpline
 62
7
  6
CONTINUOUS
 70
0
 71
3
 72
21
 73
17
 74
0
 42
0.0000001
 43
0.0000001
 44
0.0000000001
 40
0.0
 40
0.0
 40
0.0
 40
0.0
 40
0.0620271955
 40
0.1242286377
 40
0.186593505
 40
0.2491042959
 40
0.3117388447
 40
0.3744709614
 40
0.4999677322
 40
0.6254666924
 40
0.6882030281
 40
0.7508440917
 40
0.8133644242
 40
0.8757381081
 40
0.9379596957
 40
1.0
 40
1.0
 40
1.0
 40
1.0
 10
3.3703863477
 20
2.4122644681
 30
0.0
 10
3.3696444452
 20
2.4122868392
 30
0.0
 10
3.3681597432
 20
2.4124032921
 30
0.0
 10
3.3659574071
 20
2.4127901768
 30
0.0
 10
3.3637959673
 20
2.4133859395
 30
0.0
 10
3.3616957355
 20
2.4141849935
 30
0.0
 10
3.3596758872
 20
2.4151800881
 30
0.0
 10
3.3571159557
 20
2.4167550132
 30
0.0
 10
3.3542069974
 20
2.4191649338
 30
0.0
 10
3.3517967664
 20
2.4220737034
 30
0.0
 10
3.350221535
 20
2.424633628
 30
0.0
 10
3.3492261579
 20
2.42665361
 30
0.0
 10
3.3484268793
 20
2.4287540747
 30
0.0
 10
3.3478308213
 20
2.4309159138
 30
0.0
 10
3.3474438346
 20
2.433118746
 30
0.0
 10
3.3473272918
 20
2.4346038405
 30
0.0
 10
3.3473049159
 20
2.4353458998
 30
0.0
  0
SPLINE
  5
4D5
100
AcDbEntity
  8
0
100
AcDbSpline
 62
7
  6
CONTINUOUS
 70
0
 71
3
 72
23
 73
19
 74
0
 42
0.0000001
 43
0.0000001
 44
0.0000000001
 40
0.0
 40
0.0
 40
0.0
 40
0.0
 40
0.0625006248
 40
0.1250005458
 40
0.187501036
 40
0.2500012812
 40
0.3125009826
 40
0.3750011135
 40
0.4375003305
 40
0.5000000851
 40
0.5624996912
 40
0.6249989851
 40
0.6874991011
 40
0.7499987648
 40
0.8124990303
 40
0.8749995004
 40
0.9374993977
 40
1.0
 40
1.0
 40
1.0
 40
1.0
 10
6.7250452706
 20
5.9946720566
 30
0.0
 10
6.7250453438
 20
5.9935833413
 30
0.0
 10
6.7251501102
 20
5.9914045144
 30
0.0
 10
6.7256186862
 20
5.9881673015
 30
0.0
 10
6.7263994611
 20
5.98499045
 30
0.0
 10
6.7274868907
 20
5.9819051289
 30
0.0
 10
6.7288724437
 20
5.97894158
 30
0.0
 10
6.7305444668
 20
5.9761297009
 30
0.0
 10
6.7324866625
 20
5.9734970844
 30
0.0
 10
6.7346820885
 20
5.971071618
 30
0.0
 10
6.7371075511
 20
5.968876176
 30
0.0
 10
6.7397402335
 20
5.9669340824
 30
0.0
 10
6.7425520177
 20
5.9652618982
 30
0.0
 10
6.7455156299
 20
5.9638764672
 30
0.0
 10
6.7486009421
 20
5.9627890357
 30
0.0
 10
6.7517777755
 20
5.9620081836
 30
0.0
 10
6.7550149911
 20
5.9615396138
 30
0.0
 10
6.7571938174
 20
5.9614348733
 30
0.0
 10
6.7582825323
 20
5.961434795
 30
0.0
  0
SPLINE
  5
4D6
100
AcDbEntity
  8
0
100
AcDbSpline
 62
7
  6
CONTINUOUS
 70
0
 71
3
 72
23
 73
19
 74
0
 42
0.0000001
 43
0.0000001
 44
0.0000000001
 40
0.0
 40
0.0
 40
0.0
 40
0.0
 40
0.0625006248
 40
0.1250005458
 40
0.187501036
 40
0.2500012812
 40
0.3125009826
 40
0.3750011135
 40
0.4375003305
 40
0.5000000851
 40
0.5624996912
 40
0.6249989851
 40
0.6874991011
 40
0.7499987648
 40
0.8124990303
 40
0.8749995004
 40
0.9374993977
 40
1.0
 40
1.0
 40
1.0
 40
1.0
 10
6.7582825323
 20
6.540893555
 30
0.0
 10
6.757193817
 20
6.5408934818
 30
0.0
 10
6.7550149901
 20
6.5407887153
 30
0.0
 10
6.7517777772
 20
6.5403201394
 30
0.0
 10
6.7486009257
 20
6.5395393645
 30
0.0
 10
6.7455156046
 20
6.5384519349
 30
0.0
 10
6.7425520556
 20
6.5370663819
 30
0.0
 10
6.7397401765
 20
6.5353943588
 30
0.0
 10
6.73710756
 20
6.5334521631
 30
0.0
 10
6.7346820936
 20
6.531256737
 30
0.0
 10
6.7324866517
 20
6.5288312745
 30
0.0
 10
6.730544558
 20
6.5261985921
 30
0.0
 10
6.7288723738
 20
6.5233868079
 30
0.0
 10
6.7274869428
 20
6.5204231957
 30
0.0
 10
6.7263995113
 20
6.5173378835
 30
0.0
 10
6.7256186592
 20
6.5141610501
 30
0.0
 10
6.7251500894
 20
6.5109238345
 30
0.0
 10
6.7250453489
 20
6.5087450082
 30
0.0
 10
6.7250452706
 20
6.5076562933
 30
0.0
  0
SPLINE
  5
4D7
100
AcDbEntity
  8
0
100
AcDbSpline
 62
7
  6
CONTINUOUS
 70
0
 71
3
 72
23
 73
19
 74
0
 42
0.0000001
 43
0.0000001
 44
0.0000000001
 40
0.0
 40
0.0
 40
0.0
 40
0.0
 40
0.0625006248
 40
0.1250005458
 40
0.187501036
 40
0.2500012812
 40
0.3125009826
 40
0.3750011135
 40
0.4375003305
 40
0.5000000851
 40
0.5624996912
 40
0.6249989851
 40
0.6874991011
 40
0.7499987648
 40
0.8124990303
 40
0.8749995004
 40
0.9374993977
 40
1.0
 40
1.0
 40
1.0
 40
1.0
 10
7.3045040306
 20
6.5076562933
 30
0.0
 10
7.3045039574
 20
6.5087450086
 30
0.0
 10
7.304399191
 20
6.5109238355
 30
0.0
 10
7.3039306151
 20
6.5141610484
 30
0.0
 10
7.3031498401
 20
6.5173378999
 30
0.0
 10
7.3020624105
 20
6.520423221
 30
0.0
 10
7.3006768575
 20
6.52338677
 30
0.0
 10
7.2990048344
 20
6.5261986491
 30
0.0
 10
7.2970626388
 20
6.5288312656
 30
0.0
 10
7.2948672127
 20
6.531256732
 30
0.0
 10
7.2924417502
 20
6.5334521739
 30
0.0
 10
7.2898090677
 20
6.5353942676
 30
0.0
 10
7.2869972835
 20
6.5370664518
 30
0.0
 10
7.2840336713
 20
6.5384518828
 30
0.0
 10
7.2809483592
 20
6.5395393143
 30
0.0
 10
7.2777715257
 20
6.5403201663
 30
0.0
 10
7.2745343101
 20
6.5407887362
 30
0.0
 10
7.2723554839
 20
6.5408934767
 30
0.0
 10
7.271266769
 20
6.540893555
 30
0.0
  0
SPLINE
  5
4D8
100
AcDbEntity
  8
0
100
AcDbSpline
 62
7
  6
CONTINUOUS
 70
0
 71
3
 72
23
 73
19
 74
0
 42
0.0000001
 43
0.0000001
 44
0.0000000001
 40
0.0
 40
0.0
 40
0.0
 40
0.0
 40
0.0625006248
 40
0.1250005458
 40
0.187501036
 40
0.2500012812
 40
0.3125009826
 40
0.3750011135
 40
0.4375003305
 40
0.5000000851
 40
0.5624996912
 40
0.6249989851
 40
0.6874991011
 40
0.7499987648
 40
0.8124990303
 40
0.8749995004
 40
0.9374993977
 40
1.0
 40
1.0
 40
1.0
 40
1.0
 10
7.271266769
 20
5.961434795
 30
0.0
 10
7.2723554843
 20
5.9614348682
 30
0.0
 10
7.2745343112
 20
5.9615396346
 30
0.0
 10
7.2777715241
 20
5.9620082105
 30
0.0
 10
7.2809483756
 20
5.9627889855
 30
0.0
 10
7.2840336967
 20
5.9638764151
 30
0.0
 10
7.2869972456
 20
5.9652619681
 30
0.0
 10
7.2898091247
 20
5.9669339912
 30
0.0
 10
7.2924417412
 20
5.9688761868
 30
0.0
 10
7.2948672076
 20
5.9710716129
 30
0.0
 10
7.2970626496
 20
5.9734970754
 30
0.0
 10
7.2990047432
 20
5.9761297579
 30
0.0
 10
7.3006769274
 20
5.9789415421
 30
0.0
 10
7.3020623584
 20
5.9819051543
 30
0.0
 10
7.3031497899
 20
5.9849904664
 30
0.0
 10
7.303930642
 20
5.9881672999
 30
0.0
 10
7.3043992118
 20
5.9914045155
 30
0.0
 10
7.3045039523
 20
5.9935833417
 30
0.0
 10
7.3045040306
 20
5.9946720566
 30
0.0
  0
SPLINE
  5
4D9
100
AcDbEntity
  8
0
100
AcDbSpline
 62
7
  6
CONTINUOUS
 70
0
 71
3
 72
21
 73
17
 74
0
 42
0.0000001
 43
0.0000001
 44
0.0000000001
 40
0.0
 40
0.0
 40
0.0
 40
0.0
 40
0.0620285884
 40
0.1242380552
 40
0.1866049894
 40
0.2491207627
 40
0.3117597583
 40
0.3744959977
 40
0.4999984378
 40
0.6255006556
 40
0.6882368727
 40
0.7508761104
 40
0.813392422
 40
0.8757599931
 40
0.9379707739
 40
1.0
 40
1.0
 40
1.0
 40
1.0
 10
3.8246165908
 20
2.4968108308
 30
0.0
 10
3.8253585098
 20
2.4968332024
 30
0.0
 10
3.826843321
 20
2.4969496923
 30
0.0
 10
3.8290457974
 20
2.4973365787
 30
0.0
 10
3.8312073907
 20
2.4979324653
 30
0.0
 10
3.8333077431
 20
2.4987315862
 30
0.0
 10
3.8353277094
 20
2.499726811
 30
0.0
 10
3.8378877334
 20
2.5013019112
 30
0.0
 10
3.8407967009
 20
2.503712069
 30
0.0
 10
3.84320687
 20
2.5066210259
 30
0.0
 10
3.8447819866
 20
2.5091810398
 30
0.0
 10
3.8457772254
 20
2.5112010095
 30
0.0
 10
3.846576359
 20
2.5133013752
 30
0.0
 10
3.8471722628
 20
2.5154629949
 30
0.0
 10
3.8475591556
 20
2.5176655017
 30
0.0
 10
3.8476756507
 20
2.5191503359
 30
0.0
 10
3.8476980225
 20
2.5198922626
 30
0.0
  0
SPLINE
  5
4DA
100
AcDbEntity
  8
0
100
AcDbSpline
 62
7
  6
CONTINUOUS
 70
0
 71
3
 72
21
 73
17
 74
0
 42
0.0000001
 43
0.0000001
 44
0.0000000001
 40
0.0
 40
0.0
 40
0.0
 40
0.0
 40
0.0620285884
 40
0.1242380552
 40
0.1866049894
 40
0.2491207627
 40
0.3117597583
 40
0.3744959977
 40
0.4999984378
 40
0.6255006556
 40
0.6882368727
 40
0.7508761104
 40
0.813392422
 40
0.8757599931
 40
0.9379707739
 40
1.0
 40
1.0
 40
1.0
 40
1.0
 10
3.8476980225
 20
6.4360061152
 30
0.0
 10
3.847675651
 20
6.4367480342
 30
0.0
 10
3.8475591611
 20
6.4382328454
 30
0.0
 10
3.8471722747
 20
6.4404353217
 30
0.0
 10
3.8465763881
 20
6.442596915
 30
0.0
 10
3.8457772672
 20
6.4446972674
 30
0.0
 10
3.8447820424
 20
6.4467172337
 30
0.0
 10
3.8432069422
 20
6.4492772578
 30
0.0
 10
3.8407967844
 20
6.4521862252
 30
0.0
 10
3.8378878275
 20
6.4545963944
 30
0.0
 10
3.8353278136
 20
6.456171511
 30
0.0
 10
3.8333078439
 20
6.4571667497
 30
0.0
 10
3.8312074782
 20
6.4579658834
 30
0.0
 10
3.8290458585
 20
6.4585617871
 30
0.0
 10
3.8268433517
 20
6.45894868
 30
0.0
 10
3.8253585174
 20
6.4590651751
 30
0.0
 10
3.8246165908
 20
6.4590875469
 30
0.0
  0
SPLINE
  5
4DB
100
AcDbEntity
  8
0
100
AcDbSpline
 62
7
  6
CONTINUOUS
 70
0
 71
3
 72
21
 73
17
 74
0
 42
0.0000001
 43
0.0000001
 44
0.0000000001
 40
0.0
 40
0.0
 40
0.0
 40
0.0
 40
0.0620285884
 40
0.1242380552
 40
0.1866049894
 40
0.2491207627
 40
0.3117597583
 40
0.3744959977
 40
0.4999984378
 40
0.6255006556
 40
0.6882368727
 40
0.7508761104
 40
0.813392422
 40
0.8757599931
 40
0.9379707739
 40
1.0
 40
1.0
 40
1.0
 40
1.0
 10
3.4318512787
 20
2.5198922626
 30
0.0
 10
3.4318736503
 20
2.5191503436
 30
0.0
 10
3.4319901401
 20
2.5176655324
 30
0.0
 10
3.4323770266
 20
2.515463056
 30
0.0
 10
3.4329729132
 20
2.5133014627
 30
0.0
 10
3.4337720341
 20
2.5112011103
 30
0.0
 10
3.4347672588
 20
2.509181144
 30
0.0
 10
3.436342359
 20
2.5066211199
 30
0.0
 10
3.4387525169
 20
2.5037121525
 30
0.0
 10
3.4416614738
 20
2.5013019834
 30
0.0
 10
3.4442214876
 20
2.4997268668
 30
0.0
 10
3.4462414574
 20
2.498731628
 30
0.0
 10
3.4483418231
 20
2.4979324944
 30
0.0
 10
3.4505034427
 20
2.4973365906
 30
0.0
 10
3.4527059495
 20
2.4969496977
 30
0.0
 10
3.4541907838
 20
2.4968332027
 30
0.0
 10
3.4549327104
 20
2.4968108308
 30
0.0
  0
SPLINE
  5
4DC
100
AcDbEntity
  8
0
100
AcDbSpline
 62
7
  6
CONTINUOUS
 70
0
 71
3
 72
21
 73
17
 74
0
 42
0.0000001
 43
0.0000001
 44
0.0000000001
 40
0.0
 40
0.0
 40
0.0
 40
0.0
 40
0.0620285884
 40
0.1242380552
 40
0.1866049894
 40
0.2491207627
 40
0.3117597583
 40
0.3744959977
 40
0.4999984378
 40
0.6255006556
 40
0.6882368727
 40
0.7508761104
 40
0.813392422
 40
0.8757599931
 40
0.9379707739
 40
1.0
 40
1.0
 40
1.0
 40
1.0
 10
3.4549327104
 20
6.4590875469
 30
0.0
 10
3.4541907914
 20
6.4590651753
 30
0.0
 10
3.4527059802
 20
6.4589486855
 30
0.0
 10
3.4505035039
 20
6.458561799
 30
0.0
 10
3.4483419106
 20
6.4579659124
 30
0.0
 10
3.4462415582
 20
6.4571667915
 30
0.0
 10
3.4442215918
 20
6.4561715668
 30
0.0
 10
3.4416615678
 20
6.4545964666
 30
0.0
 10
3.4387526004
 20
6.4521863087
 30
0.0
 10
3.4363424312
 20
6.4492773518
 30
0.0
 10
3.4347673146
 20
6.446717338
 30
0.0
 10
3.4337720758
 20
6.4446973682
 30
0.0
 10
3.4329729422
 20
6.4425970025
 30
0.0
 10
3.4323770385
 20
6.4404353829
 30
0.0
 10
3.4319901456
 20
6.4382328761
 30
0.0
 10
3.4318736505
 20
6.4367480418
 30
0.0
 10
3.4318512787
 20
6.4360061152
 30
0.0
  0
SPLINE
  5
4DD
100
AcDbEntity
  8
0
100
AcDbSpline
 62
7
  6
CONTINUOUS
 70
0
 71
3
 72
18
 73
14
 74
0
 42
0.0000001
 43
0.0000001
 44
0.0000000001
 40
0.0
 40
0.0
 40
0.0
 40
0.0
 40
0.1243029191
 40
0.1866290737
 40
0.2490354073
 40
0.3739704183
 40
0.4991188056
 40
0.5617869385
 40
0.6244711711
 40
0.6871582553
 40
0.7498351798
 40
0.8750122634
 40
1.0
 40
1.0
 40
1.0
 40
1.0
 10
3.9169475483
 20
2.9645545461
 30
0.0
 10
3.9180454583
 20
2.9641402141
 30
0.0
 10
3.9196499704
 20
2.9633912664
 30
0.0
 10
3.9216560958
 20
2.9621623772
 30
0.0
 10
3.9235697669
 20
2.9607829203
 30
0.0
 10
3.9257629908
 20
2.9587925427
 30
0.0
 10
3.9276373378
 20
2.9564961574
 30
0.0
 10
3.9289205266
 20
2.9545075317
 30
0.0
 10
3.9297704925
 20
2.9529471188
 30
0.0
 10
3.9305022409
 20
2.9513278161
 30
0.0
 10
3.9313141886
 20
2.9491043206
 30
0.0
 10
3.9320152268
 20
2.9462236444
 30
0.0
 10
3.9322271336
 20
2.9438612717
 30
0.0
 10
3.9322443858
 20
2.9426814433
 30
0.0
  0
SPLINE
  5
4DE
100
AcDbEntity
  8
0
100
AcDbSpline
 62
7
  6
CONTINUOUS
 70
0
 71
3
 72
13
 73
9
 74
0
 42
0.0000001
 43
0.0000001
 44
0.0000000001
 40
0.0
 40
0.0
 40
0.0
 40
0.0
 40
0.2488715711
 40
0.3742994887
 40
0.5
 40
0.6257005113
 40
0.7511284289
 40
1.0
 40
1.0
 40
1.0
 40
1.0
 10
8.8371974891
 20
6.1662604263
 30
0.0
 10
8.8457694008
 20
6.16822129
 30
0.0
 10
8.8588471082
 20
6.1704271294
 30
0.0
 10
8.8764580252
 20
6.1718991705
 30
0.0
 10
8.8897746506
 20
6.1722690792
 30
0.0
 10
8.9030912761
 20
6.1718991705
 30
0.0
 10
8.920702193
 20
6.1704271294
 30
0.0
 10
8.9337799004
 20
6.16822129
 30
0.0
 10
8.9423518121
 20
6.1662604263
 30
0.0
  0
SPLINE
  5
4DF
100
AcDbEntity
  8
0
100
AcDbSpline
 62
7
  6
CONTINUOUS
 70
0
 71
3
 72
22
 73
18
 74
0
 42
0.0000001
 43
0.0000001
 44
0.0000000001
 40
0.0
 40
0.0
 40
0.0
 40
0.0
 40
0.062506205
 40
0.1250752477
 40
0.1876633183
 40
0.2502865737
 40
0.3755191188
 40
0.5007497669
 40
0.5633666482
 40
0.6259325977
 40
0.6884397526
 40
0.7508933017
 40
0.8132570992
 40
0.8755456039
 40
0.9067372077
 40
0.9379625836
 40
1.0
 40
1.0
 40
1.0
 40
1.0
 10
3.3473049154
 20
2.9426814428
 30
0.0
 10
3.3473130768
 20
2.9432717045
 30
0.0
 10
3.3473731261
 20
2.9444527043
 30
0.0
 10
3.3475960744
 20
2.9462125615
 30
0.0
 10
3.3479520179
 20
2.9479517051
 30
0.0
 10
3.3485981781
 20
2.9502288545
 30
0.0
 10
3.3497215011
 20
2.9529765354
 30
0.0
 10
3.3512381469
 20
2.9555281106
 30
0.0
 10
3.3526654308
 20
2.9574160641
 30
0.0
 10
3.3538371091
 20
2.9587484218
 30
0.0
 10
3.3551034056
 20
2.959988931
 30
0.0
 10
3.3564582491
 20
2.96112918
 30
0.0
 10
3.3578924129
 20
2.9621641533
 30
0.0
 10
3.359148105
 20
2.9629349567
 30
0.0
 10
3.3601870937
 20
2.9634901634
 30
0.0
 10
3.3612452947
 20
2.9640022778
 30
0.0
 10
3.3620580999
 20
2.9643436773
 30
0.0
 10
3.3626046614
 20
2.964554719
 30
0.0
  0
SPLINE
  5
4E0
100
AcDbEntity
  8
0
100
AcDbSpline
 62
7
  6
CONTINUOUS
 70
0
 71
3
 72
47
 73
43
 74
0
 42
0.0000001
 43
0.0000001
 44
0.0000000001
 40
0.0
 40
0.0
 40
0.0
 40
0.0
 40
0.0134444695
 40
0.0269628886
 40
0.0405716844
 40
0.0542864035
 40
0.0820793376
 40
0.1104502003
 40
0.1248809899
 40
0.1394819856
 40
0.1542585331
 40
0.1692144108
 40
0.1996639737
 40
0.2308388667
 40
0.2627166413
 40
0.2952544942
 40
0.328391619
 40
0.3620517498
 40
0.3961457175
 40
0.4305740434
 40
0.4652295496
 40
0.4999999274
 40
0.5347703063
 40
0.5694258157
 40
0.6038541466
 40
0.6379481214
 40
0.6716082609
 40
0.704745396
 40
0.7372832604
 40
0.7691610475
 40
0.8003359535
 40
0.8307855297
 40
0.845741414
 40
0.860517968
 40
0.8751189699
 40
0.8895497656
 40
0.9179206396
 40
0.9457135834
 40
0.9594283066
 40
0.973037106
 40
0.9865555281
 40
1.0
 40
1.0
 40
1.0
 40
1.0
 10
8.7077481504
 20
6.1590893348
 30
0.0
 10
8.7081239573
 20
6.1611763785
 30
0.0
 10
8.7089989852
 20
6.1653411106
 30
0.0
 10
8.7106715332
 20
6.1715214463
 30
0.0
 10
8.7127039828
 20
6.1776382068
 30
0.0
 10
8.7159015057
 20
6.1857264435
 30
0.0
 10
8.7207951949
 20
6.1956281231
 30
0.0
 10
8.726764106
 20
6.2050526722
 30
0.0
 10
8.7321716901
 20
6.2123184146
 30
0.0
 10
8.7365671817
 20
6.217653795
 30
0.0
 10
8.7412699557
 20
6.2228326192
 30
0.0
 10
8.7479765445
 20
6.2295546524
 30
0.0
 10
8.7570922159
 20
6.2375069685
 30
0.0
 10
8.7690238357
 20
6.2462051541
 30
0.0
 10
8.7819199476
 20
6.2540495013
 30
0.0
 10
8.7956766671
 20
6.2609776174
 30
0.0
 10
8.8101842078
 20
6.2669351387
 30
0.0
 10
8.8253267076
 20
6.2718750041
 30
0.0
 10
8.8409833461
 20
6.2757582145
 30
0.0
 10
8.8570292039
 20
6.2785541101
 30
0.0
 10
8.873336285
 20
6.280240547
 30
0.0
 10
8.8897745008
 20
6.2808041757
 30
0.0
 10
8.9062127177
 20
6.2802405676
 30
0.0
 10
8.9225198025
 20
6.278554151
 30
0.0
 10
8.9385656662
 20
6.2757582754
 30
0.0
 10
8.9542223129
 20
6.2718750845
 30
0.0
 10
8.9693648231
 20
6.266935238
 30
0.0
 10
8.9838723765
 20
6.2609777348
 30
0.0
 10
8.9976291107
 20
6.2540496359
 30
0.0
 10
9.0105252392
 20
6.2462053049
 30
0.0
 10
9.0224568774
 20
6.2375071342
 30
0.0
 10
9.0315725657
 20
6.2295548296
 30
0.0
 10
9.0382791689
 20
6.2228328048
 30
0.0
 10
9.0429819538
 20
6.2176539865
 30
0.0
 10
9.0473774568
 20
6.2123186116
 30
0.0
 10
9.0527850563
 20
6.205052876
 30
0.0
 10
9.0587539874
 20
6.1956283346
 30
0.0
 10
9.0636476978
 20
6.1857266611
 30
0.0
 10
9.0668452379
 20
6.1776384282
 30
0.0
 10
9.0688777006
 20
6.1715216702
 30
0.0
 10
9.0705502617
 20
6.1653413367
 30
0.0
 10
9.0714252985
 20
6.1611766055
 30
0.0
 10
9.0718011098
 20
6.1590895623
 30
0.0
  0
SPLINE
  5
4E1
100
AcDbEntity
  8
0
100
AcDbSpline
 62
7
  6
CONTINUOUS
 70
0
 71
3
 72
23
 73
19
 74
0
 42
0.0000001
 43
0.0000001
 44
0.0000000001
 40
0.0
 40
0.0
 40
0.0
 40
0.0
 40
0.0625006248
 40
0.1250005458
 40
0.187501036
 40
0.2500012812
 40
0.3125009826
 40
0.3750011135
 40
0.4375003305
 40
0.5000000851
 40
0.5624996912
 40
0.6249989851
 40
0.6874991011
 40
0.7499987648
 40
0.8124990303
 40
0.8749995004
 40
0.9374993977
 40
1.0
 40
1.0
 40
1.0
 40
1.0
 10
1.8832825323
 20
6.540893555
 30
0.0
 10
1.882193817
 20
6.5408934818
 30
0.0
 10
1.8800149901
 20
6.5407887153
 30
0.0
 10
1.8767777772
 20
6.5403201394
 30
0.0
 10
1.8736009257
 20
6.5395393645
 30
0.0
 10
1.8705156046
 20
6.5384519349
 30
0.0
 10
1.8675520556
 20
6.5370663819
 30
0.0
 10
1.8647401765
 20
6.5353943588
 30
0.0
 10
1.86210756
 20
6.5334521631
 30
0.0
 10
1.8596820936
 20
6.531256737
 30
0.0
 10
1.8574866517
 20
6.5288312745
 30
0.0
 10
1.855544558
 20
6.5261985921
 30
0.0
 10
1.8538723738
 20
6.5233868079
 30
0.0
 10
1.8524869428
 20
6.5204231957
 30
0.0
 10
1.8513995113
 20
6.5173378835
 30
0.0
 10
1.8506186592
 20
6.5141610501
 30
0.0
 10
1.8501500894
 20
6.5109238345
 30
0.0
 10
1.8500453489
 20
6.5087450082
 30
0.0
 10
1.8500452706
 20
6.5076562933
 30
0.0
  0
SPLINE
  5
4E2
100
AcDbEntity
  8
0
100
AcDbSpline
 62
7
  6
CONTINUOUS
 70
0
 71
3
 72
23
 73
19
 74
0
 42
0.0000001
 43
0.0000001
 44
0.0000000001
 40
0.0
 40
0.0
 40
0.0
 40
0.0
 40
0.0625006248
 40
0.1250005458
 40
0.187501036
 40
0.2500012812
 40
0.3125009826
 40
0.3750011135
 40
0.4375003305
 40
0.5000000851
 40
0.5624996912
 40
0.6249989851
 40
0.6874991011
 40
0.7499987648
 40
0.8124990303
 40
0.8749995004
 40
0.9374993977
 40
1.0
 40
1.0
 40
1.0
 40
1.0
 10
1.8500452706
 20
5.9946720566
 30
0.0
 10
1.8500453438
 20
5.9935833413
 30
0.0
 10
1.8501501102
 20
5.9914045144
 30
0.0
 10
1.8506186862
 20
5.9881673015
 30
0.0
 10
1.8513994611
 20
5.98499045
 30
0.0
 10
1.8524868907
 20
5.9819051289
 30
0.0
 10
1.8538724437
 20
5.97894158
 30
0.0
 10
1.8555444668
 20
5.9761297009
 30
0.0
 10
1.8574866625
 20
5.9734970844
 30
0.0
 10
1.8596820885
 20
5.971071618
 30
0.0
 10
1.8621075511
 20
5.968876176
 30
0.0
 10
1.8647402335
 20
5.9669340824
 30
0.0
 10
1.8675520177
 20
5.9652618982
 30
0.0
 10
1.8705156299
 20
5.9638764672
 30
0.0
 10
1.8736009421
 20
5.9627890357
 30
0.0
 10
1.8767777755
 20
5.9620081836
 30
0.0
 10
1.8800149911
 20
5.9615396138
 30
0.0
 10
1.8821938174
 20
5.9614348733
 30
0.0
 10
1.8832825323
 20
5.961434795
 30
0.0
  0
SPLINE
  5
4E3
100
AcDbEntity
  8
0
100
AcDbSpline
 62
7
  6
CONTINUOUS
 70
0
 71
3
 72
23
 73
19
 74
0
 42
0.0000001
 43
0.0000001
 44
0.0000000001
 40
0.0
 40
0.0
 40
0.0
 40
0.0
 40
0.0625006248
 40
0.1250005458
 40
0.187501036
 40
0.2500012812
 40
0.3125009826
 40
0.3750011135
 40
0.4375003305
 40
0.5000000851
 40
0.5624996912
 40
0.6249989851
 40
0.6874991011
 40
0.7499987648
 40
0.8124990303
 40
0.8749995004
 40
0.9374993977
 40
1.0
 40
1.0
 40
1.0
 40
1.0
 10
2.396266769
 20
5.961434795
 30
0.0
 10
2.3973554843
 20
5.9614348682
 30
0.0
 10
2.3995343112
 20
5.9615396346
 30
0.0
 10
2.4027715241
 20
5.9620082105
 30
0.0
 10
2.4059483756
 20
5.9627889855
 30
0.0
 10
2.4090336967
 20
5.9638764151
 30
0.0
 10
2.4119972456
 20
5.9652619681
 30
0.0
 10
2.4148091247
 20
5.9669339912
 30
0.0
 10
2.4174417412
 20
5.9688761868
 30
0.0
 10
2.4198672076
 20
5.9710716129
 30
0.0
 10
2.4220626496
 20
5.9734970754
 30
0.0
 10
2.4240047432
 20
5.9761297579
 30
0.0
 10
2.4256769274
 20
5.9789415421
 30
0.0
 10
2.4270623584
 20
5.9819051543
 30
0.0
 10
2.4281497899
 20
5.9849904664
 30
0.0
 10
2.428930642
 20
5.9881672999
 30
0.0
 10
2.4293992118
 20
5.9914045155
 30
0.0
 10
2.4295039523
 20
5.9935833417
 30
0.0
 10
2.4295040306
 20
5.9946720566
 30
0.0
  0
SPLINE
  5
4E4
100
AcDbEntity
  8
0
100
AcDbSpline
 62
7
  6
CONTINUOUS
 70
0
 71
3
 72
23
 73
19
 74
0
 42
0.0000001
 43
0.0000001
 44
0.0000000001
 40
0.0
 40
0.0
 40
0.0
 40
0.0
 40
0.0625006248
 40
0.1250005458
 40
0.187501036
 40
0.2500012812
 40
0.3125009826
 40
0.3750011135
 40
0.4375003305
 40
0.5000000851
 40
0.5624996912
 40
0.6249989851
 40
0.6874991011
 40
0.7499987648
 40
0.8124990303
 40
0.8749995004
 40
0.9374993977
 40
1.0
 40
1.0
 40
1.0
 40
1.0
 10
2.4295040306
 20
6.5076562933
 30
0.0
 10
2.4295039574
 20
6.5087450086
 30
0.0
 10
2.429399191
 20
6.5109238355
 30
0.0
 10
2.4289306151
 20
6.5141610484
 30
0.0
 10
2.4281498401
 20
6.5173378999
 30
0.0
 10
2.4270624105
 20
6.520423221
 30
0.0
 10
2.4256768575
 20
6.52338677
 30
0.0
 10
2.4240048344
 20
6.5261986491
 30
0.0
 10
2.4220626388
 20
6.5288312656
 30
0.0
 10
2.4198672127
 20
6.531256732
 30
0.0
 10
2.4174417502
 20
6.5334521739
 30
0.0
 10
2.4148090677
 20
6.5353942676
 30
0.0
 10
2.4119972835
 20
6.5370664518
 30
0.0
 10
2.4090336713
 20
6.5384518828
 30
0.0
 10
2.4059483592
 20
6.5395393143
 30
0.0
 10
2.4027715257
 20
6.5403201663
 30
0.0
 10
2.3995343101
 20
6.5407887362
 30
0.0
 10
2.3973554839
 20
6.5408934767
 30
0.0
 10
2.396266769
 20
6.540893555
 30
0.0
  0
SPLINE
  5
4E5
100
AcDbEntity
  8
0
100
AcDbSpline
 62
7
  6
CONTINUOUS
 70
0
 71
3
 72
19
 73
15
 74
0
 42
0.0000001
 43
0.0000001
 44
0.0000000001
 40
0.0
 40
0.0
 40
0.0
 40
0.0
 40
0.1405577436
 40
0.2789233666
 40
0.3467136364
 40
0.4132580328
 40
0.5418563431
 40
0.6640798712
 40
0.722901163
 40
0.7802818425
 40
0.8364086277
 40
0.8915285318
 40
0.9459469035
 40
1.0
 40
1.0
 40
1.0
 40
1.0
 10
8.7266496506
 20
4.1160288275
 30
0.0
 10
8.7253046096
 20
4.1160288275
 30
0.0
 10
8.7226313988
 20
4.1158289819
 30
0.0
 10
8.719384718
 20
4.1150804908
 30
0.0
 10
8.7169280794
 20
4.1141923491
 30
0.0
 10
8.7146384291
 20
4.1131434139
 30
0.0
 10
8.7120458593
 20
4.111529632
 30
0.0
 10
8.7098535256
 20
4.1095042551
 30
0.0
 10
8.7084426983
 20
4.1077061204
 30
0.0
 10
8.7075725267
 20
4.1063010443
 30
0.0
 10
8.706886285
 20
4.1048364309
 30
0.0
 10
8.7063908465
 20
4.1033262442
 30
0.0
 10
8.7060914982
 20
4.1017856226
 30
0.0
 10
8.7060246506
 20
4.1007464118
 30
0.0
 10
8.7060246506
 20
4.1002291609
 30
0.0
  0
SPLINE
  5
4E6
100
AcDbEntity
  8
0
100
AcDbSpline
 62
7
  6
CONTINUOUS
 70
0
 71
3
 72
19
 73
15
 74
0
 42
0.0000001
 43
0.0000001
 44
0.0000000001
 40
0.0
 40
0.0
 40
0.0
 40
0.0
 40
0.0540530971
 40
0.1084714697
 40
0.1635913742
 40
0.2197181598
 40
0.2770988395
 40
0.3359201313
 40
0.4581436594
 40
0.5867419701
 40
0.6532863665
 40
0.7210766362
 40
0.8594422582
 40
1.0
 40
1.0
 40
1.0
 40
1.0
 10
9.0735246506
 20
4.1002291609
 30
0.0
 10
9.0735246506
 20
4.1007464118
 30
0.0
 10
9.0734578031
 20
4.1017856226
 30
0.0
 10
9.0731584547
 20
4.1033262443
 30
0.0
 10
9.0726630162
 20
4.104836431
 30
0.0
 10
9.0719767745
 20
4.1063010444
 30
0.0
 10
9.0711066029
 20
4.1077061205
 30
0.0
 10
9.0696957756
 20
4.1095042552
 30
0.0
 10
9.0675034419
 20
4.1115296321
 30
0.0
 10
9.0649108721
 20
4.113143414
 30
0.0
 10
9.0626212217
 20
4.1141923491
 30
0.0
 10
9.0601645831
 20
4.1150804908
 30
0.0
 10
9.0569179024
 20
4.1158289819
 30
0.0
 10
9.0542446916
 20
4.1160288275
 30
0.0
 10
9.0528996506
 20
4.1160288275
 30
0.0
  0
SPLINE
  5
4E7
100
AcDbEntity
  8
0
100
AcDbSpline
 62
7
  6
CONTINUOUS
 70
0
 71
3
 72
19
 73
15
 74
0
 42
0.0000001
 43
0.0000001
 44
0.0000000001
 40
0.0
 40
0.0
 40
0.0
 40
0.0
 40
0.1405577436
 40
0.2789233666
 40
0.3467136364
 40
0.4132580328
 40
0.5418563431
 40
0.6640798712
 40
0.722901163
 40
0.7802818425
 40
0.8364086277
 40
0.8915285318
 40
0.9459469035
 40
1.0
 40
1.0
 40
1.0
 40
1.0
 10
9.0528996506
 20
3.8345074947
 30
0.0
 10
9.0542446916
 20
3.8345074947
 30
0.0
 10
9.0569179025
 20
3.8347073403
 30
0.0
 10
9.0601645832
 20
3.8354558314
 30
0.0
 10
9.0626212218
 20
3.8363439731
 30
0.0
 10
9.0649108722
 20
3.8373929082
 30
0.0
 10
9.0675034419
 20
3.8390066901
 30
0.0
 10
9.0696957756
 20
3.8410320671
 30
0.0
 10
9.071106603
 20
3.8428302018
 30
0.0
 10
9.0719767746
 20
3.8442352778
 30
0.0
 10
9.0726630162
 20
3.8456998912
 30
0.0
 10
9.0731584547
 20
3.8472100779
 30
0.0
 10
9.0734578031
 20
3.8487506995
 30
0.0
 10
9.0735246506
 20
3.8497899103
 30
0.0
 10
9.0735246506
 20
3.8503071613
 30
0.0
  0
SPLINE
  5
4E8
100
AcDbEntity
  8
0
100
AcDbSpline
 62
7
  6
CONTINUOUS
 70
0
 71
3
 72
19
 73
15
 74
0
 42
0.0000001
 43
0.0000001
 44
0.0000000001
 40
0.0
 40
0.0
 40
0.0
 40
0.0
 40
0.0540530971
 40
0.1084714697
 40
0.1635913742
 40
0.2197181598
 40
0.2770988395
 40
0.3359201313
 40
0.4581436594
 40
0.5867419701
 40
0.6532863665
 40
0.7210766362
 40
0.8594422582
 40
1.0
 40
1.0
 40
1.0
 40
1.0
 10
8.7060246506
 20
3.8503071613
 30
0.0
 10
8.7060246506
 20
3.8497899103
 30
0.0
 10
8.7060914982
 20
3.8487506995
 30
0.0
 10
8.7063908465
 20
3.8472100779
 30
0.0
 10
8.706886285
 20
3.8456998912
 30
0.0
 10
8.7075725267
 20
3.8442352778
 30
0.0
 10
8.7084426983
 20
3.8428302017
 30
0.0
 10
8.7098535257
 20
3.841032067
 30
0.0
 10
8.7120458594
 20
3.8390066901
 30
0.0
 10
8.7146384291
 20
3.8373929082
 30
0.0
 10
8.7169280795
 20
3.8363439731
 30
0.0
 10
8.7193847181
 20
3.8354558314
 30
0.0
 10
8.7226313988
 20
3.8347073403
 30
0.0
 10
8.7253046097
 20
3.8345074947
 30
0.0
 10
8.7266496506
 20
3.8345074947
 30
0.0
  0
SPLINE
  5
4E9
100
AcDbEntity
  8
0
100
AcDbSpline
 62
7
  6
CONTINUOUS
 70
0
 71
3
 72
23
 73
19
 74
0
 42
0.0000001
 43
0.0000001
 44
0.0000000001
 40
0.0
 40
0.0
 40
0.0
 40
0.0
 40
0.0623897212
 40
0.1248187348
 40
0.1872824302
 40
0.2497805533
 40
0.312307501
 40
0.3748580396
 40
0.4374247615
 40
0.5000000163
 40
0.5625752561
 40
0.6251419742
 40
0.687692517
 40
0.750219451
 40
0.812717545
 40
0.8751812494
 40
0.937610288
 40
1.0
 40
1.0
 40
1.0
 40
1.0
 10
1.8832825323
 20
6.5298144678
 30
0.0
 10
1.8825541554
 20
6.5298249168
 30
0.0
 10
1.8810949863
 20
6.5297771521
 30
0.0
 10
1.8789231507
 20
6.5294961227
 30
0.0
 10
1.8767875282
 20
6.5290043172
 30
0.0
 10
1.8747099211
 20
6.5283031987
 30
0.0
 10
1.8727122079
 20
6.5273964972
 30
0.0
 10
1.870816153
 20
6.5262911571
 30
0.0
 10
1.869042849
 20
6.5249969628
 30
0.0
 10
1.8674121298
 20
6.5235266957
 30
0.0
 10
1.8659418611
 20
6.5218959776
 30
0.0
 10
1.8646476735
 20
6.5201226691
 30
0.0
 10
1.8635423273
 20
6.5182266183
 30
0.0
 10
1.8626356248
 20
6.5162289054
 30
0.0
 10
1.8619345138
 20
6.5141512963
 30
0.0
 10
1.8614427033
 20
6.5120156753
 30
0.0
 10
1.8611616711
 20
6.5098438395
 30
0.0
 10
1.8611139089
 20
6.5083846701
 30
0.0
 10
1.8611243578
 20
6.5076562933
 30
0.0
  0
SPLINE
  5
4EA
100
AcDbEntity
  8
0
100
AcDbSpline
 62
7
  6
CONTINUOUS
 70
0
 71
3
 72
23
 73
19
 74
0
 42
0.0000001
 43
0.0000001
 44
0.0000000001
 40
0.0
 40
0.0
 40
0.0
 40
0.0
 40
0.0623897212
 40
0.1248187348
 40
0.1872824302
 40
0.2497805533
 40
0.312307501
 40
0.3748580396
 40
0.4374247615
 40
0.5000000163
 40
0.5625752561
 40
0.6251419742
 40
0.687692517
 40
0.750219451
 40
0.812717545
 40
0.8751812494
 40
0.937610288
 40
1.0
 40
1.0
 40
1.0
 40
1.0
 10
1.8611243578
 20
5.9946720566
 30
0.0
 10
1.8611139088
 20
5.9939436797
 30
0.0
 10
1.8611616735
 20
5.9924845106
 30
0.0
 10
1.8614427029
 20
5.9903126751
 30
0.0
 10
1.8619345084
 20
5.9881770526
 30
0.0
 10
1.8626356269
 20
5.9860994455
 30
0.0
 10
1.8635423284
 20
5.9841017322
 30
0.0
 10
1.8646476685
 20
5.9822056773
 30
0.0
 10
1.8659418628
 20
5.9804323733
 30
0.0
 10
1.8674121299
 20
5.9788016542
 30
0.0
 10
1.869042848
 20
5.9773313854
 30
0.0
 10
1.8708161565
 20
5.9760371979
 30
0.0
 10
1.8727122073
 20
5.9749318516
 30
0.0
 10
1.8747099202
 20
5.9740251492
 30
0.0
 10
1.8767875292
 20
5.9733240382
 30
0.0
 10
1.8789231503
 20
5.9728322276
 30
0.0
 10
1.8810949861
 20
5.9725511955
 30
0.0
 10
1.8825541555
 20
5.9725034332
 30
0.0
 10
1.8832825323
 20
5.9725138822
 30
0.0
  0
SPLINE
  5
4EB
100
AcDbEntity
  8
0
100
AcDbSpline
 62
7
  6
CONTINUOUS
 70
0
 71
3
 72
23
 73
19
 74
0
 42
0.0000001
 43
0.0000001
 44
0.0000000001
 40
0.0
 40
0.0
 40
0.0
 40
0.0
 40
0.0623897212
 40
0.1248187348
 40
0.1872824302
 40
0.2497805533
 40
0.312307501
 40
0.3748580396
 40
0.4374247615
 40
0.5000000163
 40
0.5625752561
 40
0.6251419742
 40
0.687692517
 40
0.750219451
 40
0.812717545
 40
0.8751812494
 40
0.937610288
 40
1.0
 40
1.0
 40
1.0
 40
1.0
 10
2.396266769
 20
5.9725138822
 30
0.0
 10
2.3969951459
 20
5.9725034331
 30
0.0
 10
2.398454315
 20
5.9725511978
 30
0.0
 10
2.4006261505
 20
5.9728322272
 30
0.0
 10
2.402761773
 20
5.9733240327
 30
0.0
 10
2.4048393801
 20
5.9740251513
 30
0.0
 10
2.4068370934
 20
5.9749318527
 30
0.0
 10
2.4087331483
 20
5.9760371929
 30
0.0
 10
2.4105064523
 20
5.9773313872
 30
0.0
 10
2.4121371714
 20
5.9788016542
 30
0.0
 10
2.4136074402
 20
5.9804323723
 30
0.0
 10
2.4149016277
 20
5.9822056809
 30
0.0
 10
2.416006974
 20
5.9841017317
 30
0.0
 10
2.4169136764
 20
5.9860994445
 30
0.0
 10
2.4176147874
 20
5.9881770536
 30
0.0
 10
2.418106598
 20
5.9903126747
 30
0.0
 10
2.4183876301
 20
5.9924845105
 30
0.0
 10
2.4184353924
 20
5.9939436798
 30
0.0
 10
2.4184249434
 20
5.9946720566
 30
0.0
  0
SPLINE
  5
4EC
100
AcDbEntity
  8
0
100
AcDbSpline
 62
7
  6
CONTINUOUS
 70
0
 71
3
 72
23
 73
19
 74
0
 42
0.0000001
 43
0.0000001
 44
0.0000000001
 40
0.0
 40
0.0
 40
0.0
 40
0.0
 40
0.0623897212
 40
0.1248187348
 40
0.1872824302
 40
0.2497805533
 40
0.312307501
 40
0.3748580396
 40
0.4374247615
 40
0.5000000163
 40
0.5625752561
 40
0.6251419742
 40
0.687692517
 40
0.750219451
 40
0.812717545
 40
0.8751812494
 40
0.937610288
 40
1.0
 40
1.0
 40
1.0
 40
1.0
 10
2.4184249434
 20
6.5076562933
 30
0.0
 10
2.4184353925
 20
6.5083846702
 30
0.0
 10
2.4183876278
 20
6.5098438393
 30
0.0
 10
2.4181065984
 20
6.5120156749
 30
0.0
 10
2.4176147929
 20
6.5141512974
 30
0.0
 10
2.4169136743
 20
6.5162289045
 30
0.0
 10
2.4160069729
 20
6.5182266177
 30
0.0
 10
2.4149016327
 20
6.5201226726
 30
0.0
 10
2.4136074384
 20
6.5218959766
 30
0.0
 10
2.4121371714
 20
6.5235266958
 30
0.0
 10
2.4105064533
 20
6.5249969645
 30
0.0
 10
2.4087331447
 20
6.5262911521
 30
0.0
 10
2.4068370939
 20
6.5273964983
 30
0.0
 10
2.4048393811
 20
6.5283032008
 30
0.0
 10
2.402761772
 20
6.5290043118
 30
0.0
 10
2.4006261509
 20
6.5294961223
 30
0.0
 10
2.3984543151
 20
6.5297771544
 30
0.0
 10
2.3969951458
 20
6.5298249167
 30
0.0
 10
2.396266769
 20
6.5298144678
 30
0.0
  0
SPLINE
  5
4ED
100
AcDbEntity
  8
0
100
AcDbSpline
 62
7
  6
CONTINUOUS
 70
0
 71
3
 72
21
 73
17
 74
0
 42
0.0000001
 43
0.0000001
 44
0.0000000001
 40
0.0
 40
0.0
 40
0.0
 40
0.0
 40
0.1405210773
 40
0.2101413812
 40
0.2789542026
 40
0.413135689
 40
0.4782490603
 40
0.5418290436
 40
0.6038065506
 40
0.6641710645
 40
0.7229757182
 40
0.7803402822
 40
0.8364510768
 40
0.8915567837
 40
0.9459593748
 40
1.0
 40
1.0
 40
1.0
 40
1.0
 10
8.7459621506
 20
4.1084162609
 30
0.0
 10
8.7440057025
 20
4.1084162609
 30
0.0
 10
8.7410734974
 20
4.1081969012
 30
0.0
 10
8.7372560919
 20
4.1074657262
 30
0.0
 10
8.7335921569
 20
4.1064637281
 30
0.0
 10
8.7301145022
 20
4.1050521104
 30
0.0
 10
8.7269271225
 20
4.1032453959
 30
0.0
 10
8.7247415198
 20
4.1017316792
 30
0.0
 10
8.7227593176
 20
4.100060632
 30
0.0
 10
8.7209994753
 20
4.0982478606
 30
0.0
 10
8.7194792465
 20
4.0963104846
 30
0.0
 10
8.718213656
 20
4.0942668396
 30
0.0
 10
8.7172154384
 20
4.0921364833
 30
0.0
 10
8.7164948313
 20
4.0899398556
 30
0.0
 10
8.7160593746
 20
4.0876989256
 30
0.0
 10
8.7159621506
 20
4.0861873249
 30
0.0
 10
8.7159621506
 20
4.0854349276
 30
0.0
  0
SPLINE
  5
4EE
100
AcDbEntity
  8
0
100
AcDbSpline
 62
7
  6
CONTINUOUS
 70
0
 71
3
 72
44
 73
40
 74
0
 42
0.0000001
 43
0.0000001
 44
0.0000000001
 40
0.0
 40
0.0
 40
0.0
 40
0.0
 40
0.0059543557
 40
0.0114876939
 40
0.016650906
 40
0.0215069872
 40
0.0261322286
 40
0.0306151014
 40
0.0350528488
 40
0.0395461237
 40
0.0441926636
 40
0.0490807395
 40
0.0542851262
 40
0.0598669502
 40
0.0658749389
 40
0.072347377
 40
0.0793140743
 40
0.0867978575
 40
0.0948162495
 40
0.1033821773
 40
0.1125036413
 40
0.1221857367
 40
0.1432414821
 40
0.1665623547
 40
0.1921374123
 40
0.2199333846
 40
0.2498958508
 40
0.2819663418
 40
0.3160773484
 40
0.3521482771
 40
0.3900842395
 40
0.4297891804
 40
0.4711618032
 40
0.5140893981
 40
0.6041149656
 40
0.698851721
 40
0.7971964844
 40
0.8979836597
 40
1.0
 40
1.0
 40
1.0
 40
1.0
 10
3.9348724917
 20
5.9791477656
 30
0.0
 10
3.9346246529
 20
5.9793954995
 30
0.0
 10
3.9341279032
 20
5.9798554985
 30
0.0
 10
3.9333496696
 20
5.9804535111
 30
0.0
 10
3.9325673929
 20
5.9809324692
 30
0.0
 10
3.9317813659
 20
5.9812916501
 30
0.0
 10
3.9309920232
 20
5.9815300589
 30
0.0
 10
3.9302003241
 20
5.9816466208
 30
0.0
 10
3.9294077675
 20
5.9816404882
 30
0.0
 10
3.9286161181
 20
5.9815113648
 30
0.0
 10
3.9278270018
 20
5.9812595738
 30
0.0
 10
3.9270414224
 20
5.9808863173
 30
0.0
 10
3.9262597214
 20
5.9803929683
 30
0.0
 10
3.9254820478
 20
5.9797804911
 30
0.0
 10
3.9247085108
 20
5.9790496001
 30
0.0
 10
3.9239392978
 20
5.9782008226
 30
0.0
 10
3.9231747103
 20
5.9772346136
 30
0.0
 10
3.9224150971
 20
5.9761514595
 30
0.0
 10
3.9216609105
 20
5.9749518785
 30
0.0
 10
3.920912692
 20
5.9736365475
 30
0.0
 10
3.9201708039
 20
5.9722064336
 30
0.0
 10
3.9191623659
 20
5.9700880578
 30
0.0
 10
3.9179296214
 20
5.9671532044
 30
0.0
 10
3.9165218673
 20
5.9632833025
 30
0.0
 10
3.9151516353
 20
5.9589817753
 30
0.0
 10
3.9138231178
 20
5.9542600163
 30
0.0
 10
3.9125397708
 20
5.9491309161
 30
0.0
 10
3.9113059483
 20
5.9436083137
 30
0.0
 10
3.9101256522
 20
5.9377070319
 30
0.0
 10
3.9090026996
 20
5.9314436203
 30
0.0
 10
3.9079400932
 20
5.924836077
 30
0.0
 10
3.9069414801
 20
5.9179032146
 30
0.0
 10
3.9060102778
 20
5.9106647101
 30
0.0
 10
3.9048441805
 20
5.9004715803
 30
0.0
 10
3.9035850897
 20
5.8871294436
 30
0.0
 10
3.9024063948
 20
5.8705085947
 30
0.0
 10
3.9015524583
 20
5.8532337906
 30
0.0
 10
3.9010364873
 20
5.8355171742
 30
0.0
 10
3.9009204944
 20
5.8235815602
 30
0.0
 10
3.9009204399
 20
5.8175777436
 30
0.0
  0
SPLINE
  5
4EF
100
AcDbEntity
  8
0
100
AcDbSpline
 62
7
  6
CONTINUOUS
 70
0
 71
3
 72
44
 73
40
 74
0
 42
0.0000001
 43
0.0000001
 44
0.0000000001
 40
0.0
 40
0.0
 40
0.0
 40
0.0
 40
0.0984526934
 40
0.1958404734
 40
0.2911114834
 40
0.383251094
 40
0.4712894254
 40
0.5134895724
 40
0.5543351335
 40
0.5937222625
 40
0.6315527922
 40
0.6677421531
 40
0.7022090719
 40
0.734874836
 40
0.7656672564
 40
0.7945288264
 40
0.821411442
 40
0.8462701795
 40
0.8690711363
 40
0.8897986271
 40
0.908461183
 40
0.917025909
 40
0.9250852071
 40
0.9326485326
 40
0.9397294988
 40
0.9463449218
 40
0.9525128837
 40
0.958255711
 40
0.9636053391
 40
0.9686144337
 40
0.9733474122
 40
0.9756320266
 40
0.9778702092
 40
0.9822298094
 40
0.9865118137
 40
0.9886673944
 40
0.9908540357
 40
0.9953477912
 40
1.0
 40
1.0
 40
1.0
 40
1.0
 10
3.9009204399
 20
3.1061805786
 30
0.0
 10
3.9009204942
 20
3.100492744
 30
0.0
 10
3.9010246803
 20
3.0891783264
 30
0.0
 10
3.9014883743
 20
3.0723656229
 30
0.0
 10
3.9022564718
 20
3.0559290387
 30
0.0
 10
3.9033180635
 20
3.0400500843
 30
0.0
 10
3.904452619
 20
3.0272517491
 30
0.0
 10
3.9055042384
 20
3.0174237199
 30
0.0
 10
3.9063462323
 20
3.0104005818
 30
0.0
 10
3.9072503337
 20
3.0036397599
 30
0.0
 10
3.9082142853
 20
2.9971590223
 30
0.0
 10
3.9092348495
 20
2.9909748527
 30
0.0
 10
3.9103090617
 20
2.9851028221
 30
0.0
 10
3.9114340121
 20
2.9795580462
 30
0.0
 10
3.9126068295
 20
2.9743545984
 30
0.0
 10
3.9138240405
 20
2.9695050568
 30
0.0
 10
3.9150818926
 20
2.9650208406
 30
0.0
 10
3.9163771898
 20
2.9609128959
 30
0.0
 10
3.9177065241
 20
2.9571911558
 30
0.0
 10
3.9190666178
 20
2.9538641825
 30
0.0
 10
3.9202536832
 20
2.95135874
 30
0.0
 10
3.9212222521
 20
2.9495644654
 30
0.0
 10
3.9219333682
 20
2.9483611221
 30
0.0
 10
3.9226496337
 20
2.9472617621
 30
0.0
 10
3.9233706273
 20
2.9462667278
 30
0.0
 10
3.9240957629
 20
2.945376342
 30
0.0
 10
3.9248248152
 20
2.9445915566
 30
0.0
 10
3.9255576335
 20
2.943913644
 30
0.0
 10
3.9262950262
 20
2.9433442758
 30
0.0
 10
3.9270361046
 20
2.9428820339
 30
0.0
 10
3.9276633843
 20
2.9425796
 30
0.0
 10
3.92816361
 20
2.9423898197
 30
0.0
 10
3.9286538879
 20
2.9422374115
 30
0.0
 10
3.9292726934
 20
2.9421134937
 30
0.0
 10
3.9299002319
 20
2.9420972489
 30
0.0
 10
3.9303954086
 20
2.9421583357
 30
0.0
 10
3.9308950184
 20
2.9422658251
 30
0.0
 10
3.9315176004
 20
2.9424741677
 30
0.0
 10
3.9320011987
 20
2.9426879316
 30
0.0
 10
3.9322443853
 20
2.942802373
 30
0.0
  0
ENDSEC
  0
SECTION
  2
OBJECTS
  0
DICTIONARY
  5
C
100
AcDbDictionary
280
0
281
1
  3
ACAD_GROUP
350
D
  3
ACAD_MLINESTYLE
350
17
  3
ACAD_LAYOUT
350
1A
  3
ACAD_PLOTSETTINGS
350
19
  3
ACAD_PLOTSTYLENAME
350
E
  0
DICTIONARY
  5
D
102
{ACAD_REACTORS
330
C
102
}
100
AcDbDictionary
280
0
281
1
  0
ACDBDICTIONARYWDFLT
  5
E
102
{ACAD_REACTORS
330
C
102
}
100
AcDbDictionary
281
1
  3
Normal
350
F
100
AcDbDictionaryWithDefault
340
F
  0
DICTIONARY
  5
17
102
{ACAD_REACTORS
330
C
102
}
100
AcDbDictionary
280
0
281
1
  3
Standard
350
18
  0
DICTIONARY
  5
19
102
{ACAD_REACTORS
330
C
102
}
100
AcDbDictionary
281
1
  0
DICTIONARY
  5
1A
102
{ACAD_REACTORS
330
C
102
}
100
AcDbDictionary
281
1
  3
Model
350
4F0
  3
Layout1
350
4F1
  0
ACDBPLACEHOLDER
  5
F
102
{ACAD_REACTORS
330
E
102
}
  0
MLINESTYLE
  5
18
102
{ACAD_REACTORS
330
17
102
}
100
AcDbMlineStyle
  2
STANDARD
 70
0
  3

 62
256
 51
90.0
 52
90.0
 71
2
 49
0.5
 62
256
  6
BYLAYER
 49
-0.5
 62
256
  6
BYLAYER
  0
LAYOUT
  5
4F0
102
{ACAD_REACTORS
330
1A
102
}
100
AcDbPlotSettings
  1

  2
none_device
  4
ANSI_A_(11.00_x_8.50_Inches)
  6

 40
0.0
 41
0.0
 42
0.0
 43
0.0
 44
279.4
 45
215.9
 46
0.0
 47
0.0
 48
0.0
 49
0.0
140
0.0
141
0.0
142
1.0
143
1.0
 70
1024
 72
0
 73
0
 74
0
  7

 75
0
147
1.0
148
0.0
149
0.0
100
AcDbLayout
  1
Model
 70
0
 71
0
 10
0.0
 20
0.0
 11
11.0
 21
8.5
 12
0.0
 22
0.0
 32
0.0
 14
0.0
 24
0.0
 34
0.0
 15
0.0
 25
0.0
 35
0.0
146
0.0
 13
0.0
 23
0.0
 33
0.0
 16
1.0
 26
0.0
 36
0.0
 17
0.0
 27
1.0
 37
0.0
 76
0
330
202
345
0
346
0
  0
LAYOUT
  5
4F1
102
{ACAD_REACTORS
330
1A
102
}
100
AcDbPlotSettings
  1

  2
none_device
  4
ANSI_A_(11.00_x_8.50_Inches)
  6

 40
0.0
 41
0.0
 42
0.0
 43
0.0
 44
279.4
 45
215.9
 46
0.0
 47
0.0
 48
0.0
 49
0.0
140
0.0
141
0.0
142
1.0
143
1.0
 70
0
 72
0
 73
0
 74
0
  7

 75
0
147
1.0
148
0.0
149
0.0
100
AcDbLayout
  1
Layout1
 70
0
 71
1
 10
0.0
 20
0.0
 11
11.0
 21
8.5
 12
0.0
 22
0.0
 32
0.0
 14
0.0
 24
0.0
 34
0.0
 15
0.0
 25
0.0
 35
0.0
146
0.0
 13
0.0
 23
0.0
 33
0.0
 16
1.0
 26
0.0
 36
0.0
 17
0.0
 27
1.0
 37
0.0
 76
0
330
203
345
0
346
0
  0
ENDSEC
  0
EOF
