999
DXF file: E:\BT Custom\CADOUTPUT\_FRONT.dxf
999
Pro/ENGINEER 2018400 by Parametric Technology Corporation
  0
SECTION
  2
HEADER
  9
$ACADVER
  1
AC1018
  9
$DWGCODEPAGE
  3
ANSI_1252
  9
$EXTMAX
 10
22.0
 20
17.0
 30
0.0
  9
$EXTMIN
 10
0.0
 20
0.0
 30
0.0
  9
$LIMMIN
 10
0.0
 20
0.0
  9
$LIMMAX
 10
22.0
 20
17.0
  9
$VIEWCTR
 10
11.0
 20
8.5
  9
$VIEWSIZE
 40
17.0
  9
$CLAYER
  8
0
  9
$LTSCALE
 40
1.21
  9
$CELTYPE
  6
BYLAYER
  9
$DIMSCALE
 40
1.0
  9
$DIMASZ
 40
0.1
  9
$DIMEXO
 40
0.0625
  9
$DIMDLI
 40
0.836
  9
$DIMEXE
 40
0.125
  9
$DIMCEN
 40
0.198
  9
$DIMLFAC
 40
1.0
  9
$DIMBLK
  1
_FILLED
  9
$DIMALT
 70
1
  9
$DIMALTD
 70
2
  9
$DIMALTTD
 70
2
  9
$DIMALTF
 40
25.4
  9
$DIMTXT
 40
0.08
  9
$DIMTOL
 70
1
  9
$DIMLIM
 70
0
  9
$DIMTFAC
 40
1.0
  9
$DIMTP
 40
0.001
  9
$DIMTM
 40
0.001
  9
$DIMGAP
 40
0.09
  9
$DIMDSEP
 70
46
  9
$AUNITS
 70
0
  9
$PDMODE
 70
3
  9
$PDSIZE
 40
0.06
  9
$HANDSEED
  5
47B
  9
$TILEMODE
 70
1
  9
$MEASUREMENT
 70
0
  9
$INSUNITS
 70
1
  0
ENDSEC
  0
SECTION
  2
CLASSES
  0
CLASS
  1
ACDBDICTIONARYWDFLT
  2
AcDbDictionaryWithDefault
  3
AutoCAD 2000
 90
0
 91
1
280
0
281
0
  0
CLASS
  1
ACDBPLACEHOLDER
  2
AcDbPlaceHolder
  3
AutoCAD 2000
 90
0
 91
1
280
0
281
0
  0
CLASS
  1
LAYOUT
  2
AcDbLayout
  3
AutoCAD 2000
 90
0
 91
0
280
0
281
0
  0
ENDSEC
  0
SECTION
  2
TABLES
  0
TABLE
  2
VPORT
  5
8
100
AcDbSymbolTable
 70
2
  0
VPORT
  5
1F4
100
AcDbSymbolTableRecord
100
AcDbViewportTableRecord
  2
*ACTIVE
 70
0
 10
0.0
 20
0.0
 11
1.0
 21
1.0
 12
11.0
 22
8.5
 13
0.0
 23
0.0
 14
1.0
 24
1.0
 15
0.0
 25
0.0
 16
0.0
 26
0.0
 36
1.0
 17
0.0
 27
0.0
 37
0.0
 40
17.0
 41
1.2941176471
 42
50.0
 43
0.0
 44
0.0
 50
0.0
 51
0.0
 71
0
 72
100
 73
1
 74
1
 75
0
 76
0
 77
0
 78
0
  0
ENDTAB
  0
TABLE
  2
LTYPE
  5
5
100
AcDbSymbolTable
 70
6
  0
LTYPE
  5
14
100
AcDbSymbolTableRecord
100
AcDbLinetypeTableRecord
  2
BYBLOCK
 70
0
  3

 72
65
 73
0
 40
0.0
  0
LTYPE
  5
15
100
AcDbSymbolTableRecord
100
AcDbLinetypeTableRecord
  2
BYLAYER
 70
0
  3

 72
65
 73
0
 40
0.0
  0
LTYPE
  5
16
100
AcDbSymbolTableRecord
100
AcDbLinetypeTableRecord
  2
CONTINUOUS
 70
64
  3
Solid line
 72
65
 73
0
 40
0.0
  0
LTYPE
  5
1F5
100
AcDbSymbolTableRecord
100
AcDbLinetypeTableRecord
  2
CENTER
 70
64
  3
____ _ ____ _ ____ _ ____ _ ____ _ ____ _ ____
 72
65
 73
4
 40
0.6
 49
0.375
 74
0
 49
-0.075
 74
0
 49
0.075
 74
0
 49
-0.075
 74
0
  0
LTYPE
  5
1F6
100
AcDbSymbolTableRecord
100
AcDbLinetypeTableRecord
  2
HIDDEN
 70
64
  3
- - - - - - - - - - - - - - - - - - - -
 72
65
 73
2
 40
0.2
 49
0.1
 74
0
 49
-0.1
 74
0
  0
LTYPE
  5
1F7
100
AcDbSymbolTableRecord
100
AcDbLinetypeTableRecord
  2
PHANTOM
 70
64
  3
_____ _ _ _____ _ _ _____ _ _ _____
 72
65
 73
6
 40
0.8
 49
0.45
 74
0
 49
-0.05
 74
0
 49
0.1
 74
0
 49
-0.05
 74
0
 49
0.1
 74
0
 49
-0.05
 74
0
  0
LTYPE
  5
1F8
100
AcDbSymbolTableRecord
100
AcDbLinetypeTableRecord
  2
DOT
 70
64
  3
. . . . . . . . . . . . . . . . . . . .
 72
65
 73
2
 40
0.2
 49
0.1
 74
0
 49
-0.1
 74
0
  0
LTYPE
  5
1F9
100
AcDbSymbolTableRecord
100
AcDbLinetypeTableRecord
  2
DASHED
 70
64
  3
- - - - - - - - - - - - - - - - - - - -
 72
65
 73
2
 40
0.2
 49
0.1
 74
0
 49
-0.1
 74
0
  0
ENDTAB
  0
TABLE
  2
LAYER
  5
2
100
AcDbSymbolTable
 70
36
  0
LAYER
  5
10
100
AcDbSymbolTableRecord
100
AcDbLayerTableRecord
  2
0
 70
0
 62
7
  6
CONTINUOUS
370
-3
390
F
  0
LAYER
  5
1FA
100
AcDbSymbolTableRecord
100
AcDbLayerTableRecord
  2
DEFAULT_1
 70
0
 62
7
  6
CENTER
370
-3
390
F
  0
LAYER
  5
1FB
100
AcDbSymbolTableRecord
100
AcDbLayerTableRecord
  2
DEFAULT_2
 70
0
 62
8
  6
HIDDEN
370
-3
390
F
  0
LAYER
  5
1FC
100
AcDbSymbolTableRecord
100
AcDbLayerTableRecord
  2
DEFAULT_3
 70
0
 62
7
  6
PHANTOM
370
-3
390
F
  0
LAYER
  5
1FD
100
AcDbSymbolTableRecord
100
AcDbLayerTableRecord
  2
ALL_FEATURES
 70
0
 62
7
  6
CONTINUOUS
370
-3
390
F
  0
LAYER
  5
1FE
100
AcDbSymbolTableRecord
100
AcDbLayerTableRecord
  2
AXES_FEATURES
 70
0
 62
7
  6
CONTINUOUS
370
-3
390
F
  0
LAYER
  5
1FF
100
AcDbSymbolTableRecord
100
AcDbLayerTableRecord
  2
DIMENSIONS
 70
0
 62
7
  6
CONTINUOUS
370
-3
390
F
  0
ENDTAB
  0
TABLE
  2
STYLE
  5
3
100
AcDbSymbolTable
 70
1
  0
STYLE
  5
11
100
AcDbSymbolTableRecord
100
AcDbTextStyleTableRecord
  2
STANDARD
 70
0
 40
0.0
 41
0.8
 50
0.0
 71
0
 42
0.2
  3
txt
  4

  0
STYLE
  5
200
100
AcDbSymbolTableRecord
100
AcDbTextStyleTableRecord
  2
TEXTSTYLE_1
 70
0
 40
0.0
 41
0.8
 50
0.0
 71
0
 42
0.2
  3
gdt
  4

  0
ENDTAB
  0
TABLE
  2
VIEW
  5
6
100
AcDbSymbolTable
 70
0
  0
ENDTAB
  0
TABLE
  2
UCS
  5
7
100
AcDbSymbolTable
 70
0
  0
ENDTAB
  0
TABLE
  2
APPID
  5
9
100
AcDbSymbolTable
 70
1
  0
APPID
  5
201
100
AcDbSymbolTableRecord
100
AcDbRegAppTableRecord
  2
ACAD
 70
0
  0
ENDTAB
  0
TABLE
  2
BLOCK_RECORD
  5
1
100
AcDbSymbolTable
 70
0
  0
BLOCK_RECORD
  5
202
100
AcDbSymbolTableRecord
100
AcDbBlockTableRecord
  2
*Model_Space
  0
BLOCK_RECORD
  5
203
100
AcDbSymbolTableRecord
100
AcDbBlockTableRecord
  2
*Paper_Space
  0
BLOCK_RECORD
  5
204
100
AcDbSymbolTableRecord
100
AcDbBlockTableRecord
  2
_FILLED
  0
ENDTAB
  0
TABLE
  2
DIMSTYLE
  5
A
100
AcDbSymbolTable
 70
1
100
AcDbDimStyleTable
 71
0
  0
DIMSTYLE
105
205
100
AcDbSymbolTableRecord
100
AcDbDimStyleTableRecord
  2
STANDARD
 70
0
  3

  4

 40
1.0
 41
0.1
 42
0.0625
 43
0.38
 44
0.125
 45
0.0
 46
0.0
 47
0.001
 48
0.001
140
0.08
141
0.09
142
0.0
143
25.4
144
1.0
145
0.0
146
1.0
147
0.09
 71
1.0
 72
0.0
 73
1
 74
1
 75
0
 76
0
 77
0
 78
4
 79
1
170
1
171
2
172
0
173
0
174
0
175
0
176
0
177
0
178
0
270
2
179
3
271
3
272
3
273
2
274
2
275
0
280
0
281
0
282
0
283
1
284
4
285
0
286
0
287
3
288
0
340
11
278
46
341
204
342
204
343
204
344
204
  0
ENDTAB
  0
ENDSEC
  0
SECTION
  2
BLOCKS
  0
BLOCK
  5
20
100
AcDbEntity
  8
0
100
AcDbBlockBegin
  2
*Model_Space
 70
0
 10
0.0
 20
0.0
 30
0.0
  3
*Model_Space
  1

  0
ENDBLK
  5
21
100
AcDbEntity
  8
0
100
AcDbBlockEnd
  0
BLOCK
  5
1C
100
AcDbEntity
  8
0
100
AcDbBlockBegin
  2
*Paper_Space
 70
0
 10
0.0
 20
0.0
 30
0.0
  3
*Paper_Space
  1

  0
ENDBLK
  5
1D
100
AcDbEntity
  8
0
100
AcDbBlockEnd
  0
BLOCK
  5
206
100
AcDbEntity
  8
0
100
AcDbBlockBegin
  2
_FILLED
 70
64
 10
0.0
 20
0.0
  3
_FILLED
  1

  0
SOLID
  5
207
100
AcDbEntity
  8
0
  6
BYBLOCK
 62
0
100
AcDbTrace
 10
0.0
 20
0.0
 11
-1.0
 21
0.2
 12
-1.0
 22
-0.2
 13
-1.0
 23
-0.2
  0
ENDBLK
  5
208
100
AcDbEntity
  8
0
  6
BYBLOCK
 62
0
100
AcDbBlockEnd
  0
ENDSEC
  0
SECTION
  2
ENTITIES
  0
LINE
  5
209
100
AcDbEntity
  8
0
100
AcDbLine
 62
7
  6
CONTINUOUS
 10
9.2857394937
 20
8.3431579036
 11
9.2857394937
 21
8.0920808799
  0
LINE
  5
20A
100
AcDbEntity
  8
0
100
AcDbLine
 62
7
  6
CONTINUOUS
 10
8.7419357259
 20
7.5580581609
 11
11.0131113133
 21
7.5580581609
  0
LINE
  5
20B
100
AcDbEntity
  8
0
100
AcDbLine
 62
7
  6
CONTINUOUS
 10
9.4179484303
 20
8.9669616676
 11
9.4469254455
 21
8.6690529011
  0
LINE
  5
20C
100
AcDbEntity
  8
0
100
AcDbLine
 62
7
  6
CONTINUOUS
 10
9.3908999598
 20
9.381105551
 11
9.3908999598
 21
9.3537425797
  0
LINE
  5
20D
100
AcDbEntity
  8
0
100
AcDbLine
 62
7
  6
CONTINUOUS
 10
9.3931688235
 20
9.381105551
 11
9.3931688235
 21
9.3537425797
  0
LINE
  5
20E
100
AcDbEntity
  8
0
100
AcDbLine
 62
7
  6
CONTINUOUS
 10
9.3976959724
 20
9.381105551
 11
9.3976959724
 21
9.3537425797
  0
LINE
  5
20F
100
AcDbEntity
  8
0
100
AcDbLine
 62
7
  6
CONTINUOUS
 10
9.4044602987
 20
9.381105551
 11
9.4044602987
 21
9.3537425797
  0
LINE
  5
210
100
AcDbEntity
  8
0
100
AcDbLine
 62
7
  6
CONTINUOUS
 10
9.4134302642
 20
9.381105551
 11
9.4134302642
 21
9.3537425797
  0
LINE
  5
211
100
AcDbEntity
  8
0
100
AcDbLine
 62
7
  6
CONTINUOUS
 10
9.4245640467
 20
9.381105551
 11
9.4245640467
 21
9.3537425797
  0
LINE
  5
212
100
AcDbEntity
  8
0
100
AcDbLine
 62
7
  6
CONTINUOUS
 10
9.4378097353
 20
9.381105551
 11
9.4378097353
 21
9.3537425797
  0
LINE
  5
213
100
AcDbEntity
  8
0
100
AcDbLine
 62
7
  6
CONTINUOUS
 10
9.4531055726
 20
9.381105551
 11
9.4531055726
 21
9.3537425797
  0
LINE
  5
214
100
AcDbEntity
  8
0
100
AcDbLine
 62
7
  6
CONTINUOUS
 10
9.4703802423
 20
9.381105551
 11
9.4703802423
 21
9.3537425797
  0
LINE
  5
215
100
AcDbEntity
  8
0
100
AcDbLine
 62
9
  6
CONTINUOUS
 10
8.7756284145
 20
7.6987303305
 11
10.9794186247
 21
7.6987303305
  0
LINE
  5
216
100
AcDbEntity
  8
0
100
AcDbLine
 62
9
  6
CONTINUOUS
 10
8.808829455
 20
7.7435889967
 11
10.9462175842
 21
7.7435889967
  0
LINE
  5
217
100
AcDbEntity
  8
0
100
AcDbLine
 62
9
  6
CONTINUOUS
 10
10.8756497901
 20
7.7859444465
 11
8.8793972491
 21
7.7859444465
  0
LINE
  5
218
100
AcDbEntity
  8
0
100
AcDbLine
 62
7
  6
CONTINUOUS
 10
9.4662211695
 20
8.5118315667
 11
9.4469254455
 21
8.6690529011
  0
LINE
  5
219
100
AcDbEntity
  8
0
100
AcDbLine
 62
7
  6
CONTINUOUS
 10
9.4895532018
 20
9.381105551
 11
9.4895532018
 21
9.3537425797
  0
LINE
  5
21A
100
AcDbEntity
  8
0
100
AcDbLine
 62
7
  6
CONTINUOUS
 10
9.5105350581
 20
9.381105551
 11
9.5105350581
 21
9.3537425797
  0
LINE
  5
21B
100
AcDbEntity
  8
0
100
AcDbLine
 62
7
  6
CONTINUOUS
 10
9.533227984
 20
9.381105551
 11
9.533227984
 21
9.3537425797
  0
LINE
  5
21C
100
AcDbEntity
  8
0
100
AcDbLine
 62
7
  6
CONTINUOUS
 10
9.5345235196
 20
9.5748408433
 11
9.5345235196
 21
9.423264797
  0
LINE
  5
21D
100
AcDbEntity
  8
0
100
AcDbLine
 62
7
  6
CONTINUOUS
 10
9.5567235423
 20
9.3256303033
 11
9.5567235423
 21
9.4089828665
  0
LINE
  5
21E
100
AcDbEntity
  8
0
100
AcDbLine
 62
7
  6
CONTINUOUS
 10
9.5575261746
 20
9.381105551
 11
9.5575261746
 21
9.3537425797
  0
LINE
  5
21F
100
AcDbEntity
  8
0
100
AcDbLine
 62
7
  6
CONTINUOUS
 10
9.5809121857
 20
9.3256299614
 11
9.5809121857
 21
9.4089828665
  0
LINE
  5
220
100
AcDbEntity
  8
0
100
AcDbLine
 62
7
  6
CONTINUOUS
 10
9.5816315066
 20
8.3431579036
 11
9.5816315066
 21
8.0920808799
  0
LINE
  5
221
100
AcDbEntity
  8
0
100
AcDbLine
 62
7
  6
CONTINUOUS
 10
9.5833163406
 20
9.381105551
 11
9.5833163406
 21
9.3537425797
  0
LINE
  5
222
100
AcDbEntity
  8
0
100
AcDbLine
 62
7
  6
CONTINUOUS
 10
9.6064837682
 20
9.32563028
 11
9.6064837682
 21
9.4089828665
  0
LINE
  5
223
100
AcDbEntity
  8
0
100
AcDbLine
 62
7
  6
CONTINUOUS
 10
9.6104782362
 20
9.381105551
 11
9.6104782362
 21
9.3537425797
  0
LINE
  5
224
100
AcDbEntity
  8
0
100
AcDbLine
 62
7
  6
CONTINUOUS
 10
9.6125235196
 20
10.1032808433
 11
9.6125235196
 21
9.6120808433
  0
LINE
  5
225
100
AcDbEntity
  8
0
100
AcDbLine
 62
7
  6
CONTINUOUS
 10
9.6333190631
 20
9.3256299389
 11
9.6333190631
 21
9.4089828665
  0
LINE
  5
226
100
AcDbEntity
  8
0
100
AcDbLine
 62
7
  6
CONTINUOUS
 10
9.6388852202
 20
9.381105551
 11
9.6388852202
 21
9.3537425797
  0
LINE
  5
227
100
AcDbEntity
  8
0
100
AcDbLine
 62
7
  6
CONTINUOUS
 10
9.6612929518
 20
9.3256300916
 11
9.6612929518
 21
9.4089828665
  0
LINE
  5
228
100
AcDbEntity
  8
0
100
AcDbLine
 62
9
  6
CONTINUOUS
 10
8.9472954959
 20
7.8179698128
 11
10.8077515433
 21
7.8179698128
  0
LINE
  5
229
100
AcDbEntity
  8
0
100
AcDbLine
 62
9
  6
CONTINUOUS
 10
9.1158749885
 20
7.9525164013
 11
10.6391720506
 21
7.9525164013
  0
LINE
  5
22A
100
AcDbEntity
  8
0
100
AcDbLine
 62
7
  6
CONTINUOUS
 10
9.6684048462
 20
9.381105551
 11
9.6684048462
 21
9.3537425797
  0
LINE
  5
22B
100
AcDbEntity
  8
0
100
AcDbLine
 62
7
  6
CONTINUOUS
 10
9.6902750074
 20
9.3256299879
 11
9.6902750074
 21
9.4089828665
  0
LINE
  5
22C
100
AcDbEntity
  8
0
100
AcDbLine
 62
7
  6
CONTINUOUS
 10
9.6988994799
 20
9.381105551
 11
9.6988994799
 21
9.3537425797
  0
LINE
  5
22D
100
AcDbEntity
  8
0
100
AcDbLine
 62
7
  6
CONTINUOUS
 10
9.7201301019
 20
9.3256299741
 11
9.7201301019
 21
9.4089828665
  0
LINE
  5
22E
100
AcDbEntity
  8
0
100
AcDbLine
 62
7
  6
CONTINUOUS
 10
9.7302269413
 20
9.381105551
 11
9.7302269413
 21
9.3537425797
  0
LINE
  5
22F
100
AcDbEntity
  8
0
100
AcDbLine
 62
7
  6
CONTINUOUS
 10
9.7507190371
 20
9.3256300181
 11
9.7507190371
 21
9.4089828665
  0
LINE
  5
230
100
AcDbEntity
  8
0
100
AcDbLine
 62
7
  6
CONTINUOUS
 10
9.7622411674
 20
9.381105551
 11
9.7622411674
 21
9.3537425797
  0
LINE
  5
231
100
AcDbEntity
  8
0
100
AcDbLine
 62
7
  6
CONTINUOUS
 10
9.7818991934
 20
9.3256299709
 11
9.7818991934
 21
9.4089828665
  0
LINE
  5
232
100
AcDbEntity
  8
0
100
AcDbLine
 62
7
  6
CONTINUOUS
 10
9.7947928931
 20
9.381105551
 11
9.7947928931
 21
9.3537425797
  0
LINE
  5
233
100
AcDbEntity
  8
0
100
AcDbLine
 62
7
  6
CONTINUOUS
 10
9.8135251945
 20
9.3256299393
 11
9.8135251945
 21
9.4089828665
  0
LINE
  5
234
100
AcDbEntity
  8
0
100
AcDbLine
 62
7
  6
CONTINUOUS
 10
9.8277303471
 20
9.381105551
 11
9.8277303471
 21
9.3537425797
  0
LINE
  5
235
100
AcDbEntity
  8
0
100
AcDbLine
 62
7
  6
CONTINUOUS
 10
9.8454495853
 20
9.3256299418
 11
9.8454495853
 21
9.4089828665
  0
LINE
  5
236
100
AcDbEntity
  8
0
100
AcDbLine
 62
7
  6
CONTINUOUS
 10
10.5692438822
 20
8.0920808799
 11
9.185803157
 21
8.0920808799
  0
LINE
  5
237
100
AcDbEntity
  8
0
100
AcDbLine
 62
7
  6
CONTINUOUS
 10
9.8608999598
 20
9.381105551
 11
9.8608999598
 21
9.3537425797
  0
LINE
  5
238
100
AcDbEntity
  8
0
100
AcDbLine
 62
9
  6
CONTINUOUS
 10
9.8775235195
 20
9.423264797
 11
9.8775235196
 21
9.4089826554
  0
LINE
  5
239
100
AcDbEntity
  8
0
100
AcDbLine
 62
7
  6
CONTINUOUS
 10
9.8775235196
 20
9.32562995
 11
9.8775235196
 21
9.4089828665
  0
LINE
  5
23A
100
AcDbEntity
  8
0
100
AcDbLine
 62
7
  6
CONTINUOUS
 10
9.8941470793
 20
9.381105551
 11
9.8941470793
 21
9.3537425797
  0
LINE
  5
23B
100
AcDbEntity
  8
0
100
AcDbLine
 62
7
  6
CONTINUOUS
 10
9.9095974539
 20
9.3256299407
 11
9.9095974539
 21
9.4089828665
  0
LINE
  5
23C
100
AcDbEntity
  8
0
100
AcDbLine
 62
7
  6
CONTINUOUS
 10
9.9273166921
 20
9.381105551
 11
9.9273166921
 21
9.3537425797
  0
LINE
  5
23D
100
AcDbEntity
  8
0
100
AcDbLine
 62
7
  6
CONTINUOUS
 10
9.9415218447
 20
9.3256299377
 11
9.9415218447
 21
9.4089828665
  0
LINE
  5
23E
100
AcDbEntity
  8
0
100
AcDbLine
 62
7
  6
CONTINUOUS
 10
9.9602541461
 20
9.381105551
 11
9.9602541461
 21
9.3537425797
  0
LINE
  5
23F
100
AcDbEntity
  8
0
100
AcDbLine
 62
7
  6
CONTINUOUS
 10
9.9731478457
 20
9.3256299896
 11
9.9731478457
 21
9.4089828665
  0
LINE
  5
240
100
AcDbEntity
  8
0
100
AcDbLine
 62
7
  6
CONTINUOUS
 10
9.9928058717
 20
9.381105551
 11
9.9928058717
 21
9.3537425797
  0
LINE
  5
241
100
AcDbEntity
  8
0
100
AcDbLine
 62
7
  6
CONTINUOUS
 10
10.004328002
 20
9.3256300213
 11
10.004328002
 21
9.4089828665
  0
LINE
  5
242
100
AcDbEntity
  8
0
100
AcDbLine
 62
7
  6
CONTINUOUS
 10
10.0248200978
 20
9.381105551
 11
10.0248200978
 21
9.3537425797
  0
LINE
  5
243
100
AcDbEntity
  8
0
100
AcDbLine
 62
7
  6
CONTINUOUS
 10
10.0349169373
 20
9.3256299478
 11
10.0349169373
 21
9.4089828665
  0
LINE
  5
244
100
AcDbEntity
  8
0
100
AcDbLine
 62
9
  6
CONTINUOUS
 10
9.3689475683
 20
8.3575738411
 11
10.3860994708
 21
8.3575738411
  0
LINE
  5
245
100
AcDbEntity
  8
0
100
AcDbLine
 62
7
  6
CONTINUOUS
 10
10.4693075455
 20
8.3431579036
 11
10.3860994708
 21
8.3575738411
  0
LINE
  5
246
100
AcDbEntity
  8
0
100
AcDbLine
 62
7
  6
CONTINUOUS
 10
10.0561475593
 20
9.381105551
 11
10.0561475593
 21
9.3537425797
  0
LINE
  5
247
100
AcDbEntity
  8
0
100
AcDbLine
 62
7
  6
CONTINUOUS
 10
10.0647720318
 20
9.3256300391
 11
10.0647720318
 21
9.4089828665
  0
LINE
  5
248
100
AcDbEntity
  8
0
100
AcDbLine
 62
7
  6
CONTINUOUS
 10
10.086642193
 20
9.381105551
 11
10.086642193
 21
9.3537425797
  0
LINE
  5
249
100
AcDbEntity
  8
0
100
AcDbLine
 62
7
  6
CONTINUOUS
 10
10.0937540873
 20
9.3256300599
 11
10.0937540873
 21
9.4089828665
  0
LINE
  5
24A
100
AcDbEntity
  8
0
100
AcDbLine
 62
7
  6
CONTINUOUS
 10
10.1161618189
 20
9.381105551
 11
10.1161618189
 21
9.3537425797
  0
LINE
  5
24B
100
AcDbEntity
  8
0
100
AcDbLine
 62
7
  6
CONTINUOUS
 10
10.1217279761
 20
9.325630013
 11
10.1217279761
 21
9.4089828665
  0
LINE
  5
24C
100
AcDbEntity
  8
0
100
AcDbLine
 62
7
  6
CONTINUOUS
 10
10.1425235196
 20
10.1032808433
 11
10.1425235196
 21
9.6120808433
  0
LINE
  5
24D
100
AcDbEntity
  8
0
100
AcDbLine
 62
7
  6
CONTINUOUS
 10
10.1445688029
 20
9.381105551
 11
10.1445688029
 21
9.3537425797
  0
LINE
  5
24E
100
AcDbEntity
  8
0
100
AcDbLine
 62
7
  6
CONTINUOUS
 10
10.148563271
 20
9.3256302229
 11
10.148563271
 21
9.4089828665
  0
LINE
  5
24F
100
AcDbEntity
  8
0
100
AcDbLine
 62
7
  6
CONTINUOUS
 10
10.1717306986
 20
9.381105551
 11
10.1717306986
 21
9.3537425797
  0
LINE
  5
250
100
AcDbEntity
  8
0
100
AcDbLine
 62
7
  6
CONTINUOUS
 10
10.1734155325
 20
8.3431579036
 11
10.1734155325
 21
8.0920808799
  0
LINE
  5
251
100
AcDbEntity
  8
0
100
AcDbLine
 62
7
  6
CONTINUOUS
 10
10.1741348534
 20
9.3256301415
 11
10.1741348534
 21
9.4089828665
  0
LINE
  5
252
100
AcDbEntity
  8
0
100
AcDbLine
 62
7
  6
CONTINUOUS
 10
10.1975208645
 20
9.381105551
 11
10.1975208645
 21
9.3537425797
  0
LINE
  5
253
100
AcDbEntity
  8
0
100
AcDbLine
 62
7
  6
CONTINUOUS
 10
10.1983234969
 20
9.3256301591
 11
10.1983234969
 21
9.4089828665
  0
LINE
  5
254
100
AcDbEntity
  8
0
100
AcDbLine
 62
9
  6
CONTINUOUS
 10
9.4364298898
 20
8.3885954986
 11
10.3186171494
 21
8.3885954986
  0
LINE
  5
255
100
AcDbEntity
  8
0
100
AcDbLine
 62
9
  6
CONTINUOUS
 10
9.4630054827
 20
8.4296668185
 11
10.2920415564
 21
8.4296668185
  0
LINE
  5
256
100
AcDbEntity
  8
0
100
AcDbLine
 62
9
  6
CONTINUOUS
 10
9.4662211695
 20
8.5118315667
 11
10.2888258696
 21
8.5118315667
  0
LINE
  5
257
100
AcDbEntity
  8
0
100
AcDbLine
 62
7
  6
CONTINUOUS
 10
10.2205235196
 20
9.5748408433
 11
10.2205235196
 21
9.423264797
  0
LINE
  5
258
100
AcDbEntity
  8
0
100
AcDbLine
 62
7
  6
CONTINUOUS
 10
10.2218190551
 20
9.381105551
 11
10.2218190551
 21
9.3537425797
  0
LINE
  5
259
100
AcDbEntity
  8
0
100
AcDbLine
 62
7
  6
CONTINUOUS
 10
10.244511981
 20
9.381105551
 11
10.244511981
 21
9.3537425797
  0
LINE
  5
25A
100
AcDbEntity
  8
0
100
AcDbLine
 62
7
  6
CONTINUOUS
 10
10.2654938373
 20
9.381105551
 11
10.2654938373
 21
9.3537425797
  0
LINE
  5
25B
100
AcDbEntity
  8
0
100
AcDbLine
 62
7
  6
CONTINUOUS
 10
10.2846667969
 20
9.381105551
 11
10.2846667969
 21
9.3537425797
  0
LINE
  5
25C
100
AcDbEntity
  8
0
100
AcDbLine
 62
7
  6
CONTINUOUS
 10
10.3019414666
 20
9.381105551
 11
10.3019414666
 21
9.3537425797
  0
LINE
  5
25D
100
AcDbEntity
  8
0
100
AcDbLine
 62
7
  6
CONTINUOUS
 10
10.3172373038
 20
9.381105551
 11
10.3172373038
 21
9.3537425797
  0
LINE
  5
25E
100
AcDbEntity
  8
0
100
AcDbLine
 62
7
  6
CONTINUOUS
 10
10.3304829925
 20
9.381105551
 11
10.3304829925
 21
9.3537425797
  0
LINE
  5
25F
100
AcDbEntity
  8
0
100
AcDbLine
 62
7
  6
CONTINUOUS
 10
10.3416167749
 20
9.381105551
 11
10.3416167749
 21
9.3537425797
  0
LINE
  5
260
100
AcDbEntity
  8
0
100
AcDbLine
 62
7
  6
CONTINUOUS
 10
10.3505867404
 20
9.381105551
 11
10.3505867404
 21
9.3537425797
  0
LINE
  5
261
100
AcDbEntity
  8
0
100
AcDbLine
 62
7
  6
CONTINUOUS
 10
10.3573510668
 20
9.381105551
 11
10.3573510668
 21
9.3537425797
  0
LINE
  5
262
100
AcDbEntity
  8
0
100
AcDbLine
 62
7
  6
CONTINUOUS
 10
10.3618782156
 20
9.381105551
 11
10.3618782156
 21
9.3537425797
  0
LINE
  5
263
100
AcDbEntity
  8
0
100
AcDbLine
 62
7
  6
CONTINUOUS
 10
10.3641470793
 20
9.381105551
 11
10.3641470793
 21
9.3537425797
  0
LINE
  5
264
100
AcDbEntity
  8
0
100
AcDbLine
 62
7
  6
CONTINUOUS
 10
10.3370986089
 20
8.9669616676
 11
10.3081215936
 21
8.6690529011
  0
LINE
  5
265
100
AcDbEntity
  8
0
100
AcDbLine
 62
7
  6
CONTINUOUS
 10
10.2888258696
 20
8.5118315667
 11
10.3081215936
 21
8.6690529011
  0
LINE
  5
266
100
AcDbEntity
  8
0
100
AcDbLine
 62
7
  6
CONTINUOUS
 10
9.2857394937
 20
8.3431579036
 11
9.3689475683
 21
8.3575738411
  0
LINE
  5
267
100
AcDbEntity
  8
0
100
AcDbLine
 62
9
  6
CONTINUOUS
 10
10.3081215936
 20
8.6690529011
 11
9.4469254455
 21
8.6690529011
  0
LINE
  5
268
100
AcDbEntity
  8
0
100
AcDbLine
 62
7
  6
CONTINUOUS
 10
10.4693075455
 20
8.3431579036
 11
10.4693075455
 21
8.0920808799
  0
LINE
  5
269
100
AcDbEntity
  8
0
100
AcDbLine
 62
9
  6
CONTINUOUS
 10
10.6470422091
 20
10.2548789343
 11
10.6470422086
 21
10.8396828009
  0
LINE
  5
26A
100
AcDbEntity
  8
0
100
AcDbLine
 62
9
  6
CONTINUOUS
 10
10.7080640319
 20
10.2251322263
 11
10.7080639056
 21
10.8694294123
  0
LINE
  5
26B
100
AcDbEntity
  8
0
100
AcDbLine
 62
7
  6
CONTINUOUS
 10
10.7584489596
 20
10.2472808433
 11
10.7584489596
 21
10.8472808433
  0
LINE
  5
26C
100
AcDbEntity
  8
0
100
AcDbLine
 62
9
  6
CONTINUOUS
 10
9.4179484303
 20
8.9669616676
 11
10.3370986089
 21
8.9669616676
  0
LINE
  5
26D
100
AcDbEntity
  8
0
100
AcDbLine
 62
9
  6
CONTINUOUS
 10
10.3250960371
 20
9.2628164922
 11
9.4299510021
 21
9.2628164922
  0
LINE
  5
26E
100
AcDbEntity
  8
0
100
AcDbLine
 62
9
  6
CONTINUOUS
 10
9.5328297554
 20
9.3264315867
 11
9.5128162574
 21
9.3264323824
  0
LINE
  5
26F
100
AcDbEntity
  8
0
100
AcDbLine
 62
9
  6
CONTINUOUS
 10
9.4923637404
 20
9.3264313934
 11
9.4756619068
 21
9.3264318903
  0
LINE
  5
270
100
AcDbEntity
  8
0
100
AcDbLine
 62
9
  6
CONTINUOUS
 10
9.5797169448
 20
9.326431626
 11
9.556764636
 21
9.3264322989
  0
LINE
  5
271
100
AcDbEntity
  8
0
100
AcDbLine
 62
9
  6
CONTINUOUS
 10
10.320901828
 20
9.3264314
 11
10.309730911
 21
9.3264318799
  0
LINE
  5
272
100
AcDbEntity
  8
0
100
AcDbLine
 62
9
  6
CONTINUOUS
 10
9.5555224494
 20
9.3264314173
 11
9.5339896834
 21
9.3264317723
  0
LINE
  5
273
100
AcDbEntity
  8
0
100
AcDbLine
 62
9
  6
CONTINUOUS
 10
10.2422304361
 20
9.3264315476
 11
10.2222180652
 21
9.3264321912
  0
LINE
  5
274
100
AcDbEntity
  8
0
100
AcDbLine
 62
9
  6
CONTINUOUS
 10
10.2617026376
 20
9.3264313123
 11
10.2433034255
 21
9.326431882
  0
LINE
  5
275
100
AcDbEntity
  8
0
100
AcDbLine
 62
9
  6
CONTINUOUS
 10
10.2210568834
 20
9.3264314708
 11
10.199524958
 21
9.3264320607
  0
LINE
  5
276
100
AcDbEntity
  8
0
100
AcDbLine
 62
9
  6
CONTINUOUS
 10
10.1982822008
 20
9.3264314764
 11
10.1753305816
 21
9.3264319641
  0
LINE
  5
277
100
AcDbEntity
  8
0
100
AcDbLine
 62
9
  6
CONTINUOUS
 10
10.1740115708
 20
9.3264315426
 11
10.1497479121
 21
9.3264320389
  0
LINE
  5
278
100
AcDbEntity
  8
0
100
AcDbLine
 62
9
  6
CONTINUOUS
 10
9.689157182
 20
9.3264315809
 11
9.6616566295
 21
9.3264318861
  0
LINE
  5
279
100
AcDbEntity
  8
0
100
AcDbLine
 62
9
  6
CONTINUOUS
 10
9.6052995428
 20
9.3264314171
 11
9.5810351744
 21
9.3264316511
  0
LINE
  5
27A
100
AcDbEntity
  8
0
100
AcDbLine
 62
9
  6
CONTINUOUS
 10
9.6321516757
 20
9.326431641
 11
9.6066880186
 21
9.3264318669
  0
LINE
  5
27B
100
AcDbEntity
  8
0
100
AcDbLine
 62
9
  6
CONTINUOUS
 10
10.295192277
 20
9.3264312938
 11
10.28026795
 21
9.326431591
  0
LINE
  5
27C
100
AcDbEntity
  8
0
100
AcDbLine
 62
9
  6
CONTINUOUS
 10
10.1483585652
 20
9.3264314303
 11
10.1228955116
 21
9.3264317221
  0
LINE
  5
27D
100
AcDbEntity
  8
0
100
AcDbLine
 62
9
  6
CONTINUOUS
 10
10.1214432742
 20
9.3264315843
 11
10.0948996604
 21
9.3264318512
  0
LINE
  5
27E
100
AcDbEntity
  8
0
100
AcDbLine
 62
9
  6
CONTINUOUS
 10
10.0933904237
 20
9.3264315312
 11
10.0658900398
 21
9.3264317822
  0
LINE
  5
27F
100
AcDbEntity
  8
0
100
AcDbLine
 62
9
  6
CONTINUOUS
 10
9.7808944469
 20
9.3264315863
 11
9.7513080992
 21
9.3264317495
  0
LINE
  5
280
100
AcDbEntity
  8
0
100
AcDbLine
 62
9
  6
CONTINUOUS
 10
10.0344008033
 20
9.3264316069
 11
10.0053755537
 21
9.3264317636
  0
LINE
  5
281
100
AcDbEntity
  8
0
100
AcDbLine
 62
9
  6
CONTINUOUS
 10
9.7190449514
 20
9.3264315915
 11
9.6907159368
 21
9.3264317015
  0
LINE
  5
282
100
AcDbEntity
  8
0
100
AcDbLine
 62
9
  6
CONTINUOUS
 10
10.0037389816
 20
9.3264315514
 11
9.9741526836
 21
9.3264316891
  0
LINE
  5
283
100
AcDbEntity
  8
0
100
AcDbLine
 62
9
  6
CONTINUOUS
 10
9.7496715775
 20
9.3264315501
 11
9.7206462613
 21
9.3264316514
  0
LINE
  5
284
100
AcDbEntity
  8
0
100
AcDbLine
 62
9
  6
CONTINUOUS
 10
9.660147686
 20
9.3264315146
 11
9.6336036504
 21
9.3264315972
  0
LINE
  5
285
100
AcDbEntity
  8
0
100
AcDbLine
 62
9
  6
CONTINUOUS
 10
9.4590722111
 20
9.3264312883
 11
9.4459935396
 21
9.3264315892
  0
LINE
  5
286
100
AcDbEntity
  8
0
100
AcDbLine
 62
9
  6
CONTINUOUS
 10
10.064330978
 20
9.3264315488
 11
10.0360020594
 21
9.3264316204
  0
LINE
  5
287
100
AcDbEntity
  8
0
100
AcDbLine
 62
9
  6
CONTINUOUS
 10
9.8125677608
 20
9.3264316073
 11
9.7825583038
 21
9.3264316649
  0
LINE
  5
288
100
AcDbEntity
  8
0
100
AcDbLine
 62
9
  6
CONTINUOUS
 10
9.9088077359
 20
9.3264315986
 11
9.8783732135
 21
9.326431625
  0
LINE
  5
289
100
AcDbEntity
  8
0
100
AcDbLine
 62
9
  6
CONTINUOUS
 10
9.9724886958
 20
9.3264315727
 11
9.9424792715
 21
9.3264315947
  0
LINE
  5
28A
100
AcDbEntity
  8
0
100
AcDbLine
 62
9
  6
CONTINUOUS
 10
9.8766738295
 20
9.326431595
 11
9.8462393047
 21
9.3264315984
  0
LINE
  5
28B
100
AcDbEntity
  8
0
100
AcDbLine
 62
9
  6
CONTINUOUS
 10
9.9407957647
 20
9.3264316016
 11
9.9105031196
 21
9.3264316027
  0
LINE
  5
28C
100
AcDbEntity
  8
0
100
AcDbLine
 62
9
  6
CONTINUOUS
 10
9.8445439185
 20
9.3264315965
 11
9.8142512756
 21
9.3264315934
  0
LINE
  5
28D
100
AcDbEntity
  8
0
100
AcDbLine
 62
7
  6
CONTINUOUS
 10
9.4451304552
 20
9.423264797
 11
10.3099165839
 21
9.423264797
  0
LINE
  5
28E
100
AcDbEntity
  8
0
100
AcDbLine
 62
9
  6
CONTINUOUS
 10
9.4453164425
 20
9.3264316664
 11
9.4341442337
 21
9.3264326263
  0
LINE
  5
28F
100
AcDbEntity
  8
0
100
AcDbLine
 62
9
  6
CONTINUOUS
 10
9.4335758253
 20
9.3264313293
 11
9.4243634498
 21
9.3264318139
  0
LINE
  5
290
100
AcDbEntity
  8
0
100
AcDbLine
 62
9
  6
CONTINUOUS
 10
9.5117437314
 20
9.3264314365
 11
9.4933433823
 21
9.3264323213
  0
LINE
  5
291
100
AcDbEntity
  8
0
100
AcDbLine
 62
9
  6
CONTINUOUS
 10
10.3438713916
 20
9.3264313097
 11
10.3386979905
 21
9.3264318628
  0
LINE
  5
292
100
AcDbEntity
  8
0
100
AcDbLine
 62
9
  6
CONTINUOUS
 10
10.3383518427
 20
9.3264315566
 11
10.3311428213
 21
9.3264323154
  0
LINE
  5
293
100
AcDbEntity
  8
0
100
AcDbLine
 62
9
  6
CONTINUOUS
 10
10.3306831011
 20
9.3264314515
 11
10.3214721201
 21
9.3264323236
  0
LINE
  5
294
100
AcDbEntity
  8
0
100
AcDbLine
 62
9
  6
CONTINUOUS
 10
10.3090533898
 20
9.3264315943
 11
10.295976219
 21
9.3264326621
  0
LINE
  5
295
100
AcDbEntity
  8
0
100
AcDbLine
 62
9
  6
CONTINUOUS
 10
10.2793850704
 20
9.3264316741
 11
10.2626849712
 21
9.3264327202
  0
LINE
  5
296
100
AcDbEntity
  8
0
100
AcDbLine
 62
9
  6
CONTINUOUS
 10
9.4109440309
 20
9.3264313816
 11
9.4078293875
 21
9.3264318523
  0
LINE
  5
297
100
AcDbEntity
  8
0
100
AcDbLine
 62
9
  6
CONTINUOUS
 10
9.4747789346
 20
9.3264315923
 11
9.4598535269
 21
9.3264326778
  0
LINE
  5
298
100
AcDbEntity
  8
0
100
AcDbLine
 62
9
  6
CONTINUOUS
 10
10.3483727224
 20
9.3264313069
 11
10.3441045474
 21
9.3264327142
  0
LINE
  5
299
100
AcDbEntity
  8
0
100
AcDbLine
 62
9
  6
CONTINUOUS
 10
9.4239051306
 20
9.3264315752
 11
9.4166944308
 21
9.3264323949
  0
LINE
  5
29A
100
AcDbEntity
  8
0
100
AcDbLine
 62
9
  6
CONTINUOUS
 10
9.4163494145
 20
9.3264314336
 11
9.4111745074
 21
9.3264323526
  0
LINE
  5
29B
100
AcDbEntity
  8
0
100
AcDbLine
 62
9
  6
CONTINUOUS
 10
9.4068020226
 20
9.3264313455
 11
9.406672918
 21
9.3264326048
  0
LINE
  5
29C
100
AcDbEntity
  8
0
100
AcDbLine
 62
9
  6
CONTINUOUS
 10
10.2205235196
 20
9.5748408433
 11
9.5345235196
 21
9.5748408433
  0
LINE
  5
29D
100
AcDbEntity
  8
0
100
AcDbLine
 62
7
  6
CONTINUOUS
 10
10.1832820343
 20
9.6120808433
 11
9.5717650048
 21
9.6120808433
  0
LINE
  5
29E
100
AcDbEntity
  8
0
100
AcDbLine
 62
7
  6
CONTINUOUS
 10
9.5545235196
 20
10.1032808433
 11
10.2005235196
 21
10.1032808433
  0
LINE
  5
29F
100
AcDbEntity
  8
0
100
AcDbLine
 62
9
  6
CONTINUOUS
 10
9.5251076014
 20
10.1512651306
 11
10.2299393853
 21
10.1512652233
  0
LINE
  5
2A0
100
AcDbEntity
  8
0
100
AcDbLine
 62
9
  6
CONTINUOUS
 10
9.5337988421
 20
10.2165706158
 11
10.2212481925
 21
10.2165706157
  0
LINE
  5
2A1
100
AcDbEntity
  8
0
100
AcDbLine
 62
7
  6
CONTINUOUS
 10
10.7584489596
 20
10.2772808433
 11
13.0099085527
 21
10.1972808433
  0
LINE
  5
2A2
100
AcDbEntity
  8
0
100
AcDbLine
 62
7
  6
CONTINUOUS
 10
10.7584489596
 20
10.8172808433
 11
13.0099085527
 21
10.8972808433
  0
LINE
  5
2A3
100
AcDbEntity
  8
0
100
AcDbLine
 62
9
  6
CONTINUOUS
 10
10.3345315283
 20
10.8297866881
 11
9.414210462
 21
10.8297877938
  0
LINE
  5
2A4
100
AcDbEntity
  8
0
100
AcDbLine
 62
9
  6
CONTINUOUS
 10
10.3658673669
 20
10.8898250213
 11
9.3891797921
 21
10.8898249058
  0
LINE
  5
2A5
100
AcDbEntity
  8
0
100
AcDbLine
 62
9
  6
CONTINUOUS
 10
9.4095547543
 20
10.9397122408
 11
10.3454920849
 21
10.9397124001
  0
LINE
  5
2A6
100
AcDbEntity
  8
0
100
AcDbLine
 62
9
  6
CONTINUOUS
 10
9.5322812125
 20
10.9544189042
 11
10.2227658811
 21
10.9544190062
  0
LINE
  5
2A7
100
AcDbEntity
  8
0
100
AcDbLine
 62
7
  6
CONTINUOUS
 10
13.0099085527
 20
10.9272808433
 11
13.0099085527
 21
10.1672808433
  0
LINE
  5
2A8
100
AcDbEntity
  8
0
100
AcDbLine
 62
9
  6
CONTINUOUS
 10
13.0888718764
 20
10.1582332243
 11
13.0888718764
 21
10.9363284624
  0
ARC
  5
2A9
100
AcDbEntity
  8
0
100
AcDbCircle
 62
7
  6
CONTINUOUS
 10
9.3457047848
 20
7.4878191462
 40
0.6078409296
100
AcDbArc
 50
159.6970355866
 51
173.3643665394
  0
ARC
  5
2AA
100
AcDbEntity
  8
0
100
AcDbCircle
 62
7
  6
CONTINUOUS
 10
8.7341593122
 20
8.2579014772
 40
0.4888424103
100
AcDbArc
 50
295.8490587855
 51
321.3390445145
  0
ARC
  5
2AB
100
AcDbEntity
  8
0
100
AcDbCircle
 62
7
  6
CONTINUOUS
 10
9.035381169
 20
7.4460982148
 40
0.3739337434
100
AcDbArc
 50
114.6543569553
 51
127.2907938915
  0
ARC
  5
2AC
100
AcDbEntity
  8
0
100
AcDbCircle
 62
7
  6
CONTINUOUS
 10
8.8238864688
 20
8.1861168054
 40
0.3739337434
100
AcDbArc
 50
321.3390445146
 51
345.43503933
  0
ARC
  5
2AD
100
AcDbEntity
  8
0
100
AcDbCircle
 62
7
  6
CONTINUOUS
 10
9.1495235222
 20
8.4830808816
 40
0.3180000027
100
AcDbArc
 50
350.3302611379
 51
5.1872496666
  0
ARC
  5
2AE
100
AcDbEntity
  8
0
100
AcDbCircle
 62
7
  6
CONTINUOUS
 10
8.8694155128
 20
7.6640319129
 40
0.1
100
AcDbArc
 50
127.2907938912
 51
159.6970355865
  0
ARC
  5
2AF
100
AcDbEntity
  8
0
100
AcDbCircle
 62
7
  6
CONTINUOUS
 10
8.5035828078
 20
9.0407505054
 40
1.8349999961
100
AcDbArc
 50
357.6954064276
 51
6.9507932379
  0
ARC
  5
2B0
100
AcDbEntity
  8
0
100
AcDbCircle
 62
7
  6
CONTINUOUS
 10
9.306613065
 20
8.5820808804
 40
0.2330000021
100
AcDbArc
 50
285.5173434455
 51
303.859188203
  0
ARC
  5
2B1
100
AcDbEntity
  8
0
100
AcDbCircle
 62
7
  6
CONTINUOUS
 10
9.3401473788
 20
9.2995423112
 40
0.1747501187
100
AcDbArc
 50
8.5856503831
 51
8.8516725475
  0
ARC
  5
2B2
100
AcDbEntity
  8
0
100
AcDbCircle
 62
7
  6
CONTINUOUS
 10
9.3536524315
 20
9.2644258767
 40
0.0822636075
100
AcDbArc
 50
48.0733711269
 51
48.9159364105
  0
ARC
  5
2B3
100
AcDbEntity
  8
0
100
AcDbCircle
 62
7
  6
CONTINUOUS
 10
9.3529222399
 20
9.2685832579
 40
0.0789663286
100
AcDbArc
 50
46.2549893538
 51
47.1033232541
  0
ARC
  5
2B4
100
AcDbEntity
  8
0
100
AcDbCircle
 62
7
  6
CONTINUOUS
 10
9.354130436
 20
9.2727265173
 40
0.0759461202
100
AcDbArc
 50
44.1543336669
 51
45.0034000635
  0
ARC
  5
2B5
100
AcDbEntity
  8
0
100
AcDbCircle
 62
7
  6
CONTINUOUS
 10
9.4018863553
 20
8.4400808817
 40
0.0620000037
100
AcDbArc
 50
303.859188203
 51
350.3302611379
  0
ARC
  5
2B6
100
AcDbEntity
  8
0
100
AcDbCircle
 62
7
  6
CONTINUOUS
 10
9.3846513614
 20
9.2983125622
 40
0.1122704955
100
AcDbArc
 50
14.0826091619
 51
14.5049641362
  0
ARC
  5
2B7
100
AcDbEntity
  8
0
100
AcDbCircle
 62
7
  6
CONTINUOUS
 10
9.4974909236
 20
9.2381625735
 40
0.1056366739
100
AcDbArc
 50
55.8943798714
 51
56.6779676807
  0
ARC
  5
2B8
100
AcDbEntity
  8
0
100
AcDbCircle
 62
7
  6
CONTINUOUS
 10
9.4748490629
 20
9.238249549
 40
0.1055357881
100
AcDbArc
 50
55.8907712743
 51
56.67470343
  0
ARC
  5
2B9
100
AcDbEntity
  8
0
100
AcDbCircle
 62
7
  6
CONTINUOUS
 10
9.4538075126
 20
9.2387171464
 40
0.1051211869
100
AcDbArc
 50
55.770452852
 51
56.5554291123
  0
ARC
  5
2BA
100
AcDbEntity
  8
0
100
AcDbCircle
 62
7
  6
CONTINUOUS
 10
9.5218479119
 20
9.2388322354
 40
0.1049877788
100
AcDbArc
 50
55.7654250438
 51
56.5508299231
  0
ARC
  5
2BB
100
AcDbEntity
  8
0
100
AcDbCircle
 62
7
  6
CONTINUOUS
 10
9.5475866177
 20
9.2398736173
 40
0.1040340307
100
AcDbArc
 50
55.5189589753
 51
56.3067423926
  0
ARC
  5
2BC
100
AcDbEntity
  8
0
100
AcDbCircle
 62
7
  6
CONTINUOUS
 10
9.4346636141
 20
9.2398909953
 40
0.1040122994
100
AcDbArc
 50
55.5194881994
 51
56.3072553291
  0
ARC
  5
2BD
100
AcDbEntity
  8
0
100
AcDbCircle
 62
7
  6
CONTINUOUS
 10
9.417377908
 20
9.2415627901
 40
0.1024577103
100
AcDbArc
 50
55.1356285582
 51
55.9277853541
  0
ARC
  5
2BE
100
AcDbEntity
  8
0
100
AcDbCircle
 62
7
  6
CONTINUOUS
 10
9.4019853595
 20
9.2436132446
 40
0.1005873007
100
AcDbArc
 50
54.6253080468
 51
55.4222669883
  0
ARC
  5
2BF
100
AcDbEntity
  8
0
100
AcDbCircle
 62
7
  6
CONTINUOUS
 10
9.3887693032
 20
9.2463834858
 40
0.0980063364
100
AcDbArc
 50
53.9579138161
 51
54.7620419106
  0
ARC
  5
2C0
100
AcDbEntity
  8
0
100
AcDbCircle
 62
7
  6
CONTINUOUS
 10
9.3774317515
 20
9.2492617208
 40
0.0954324855
100
AcDbArc
 50
53.1528808705
 51
53.963692506
  0
ARC
  5
2C1
100
AcDbEntity
  8
0
100
AcDbCircle
 62
7
  6
CONTINUOUS
 10
9.3683800026
 20
9.2527795322
 40
0.0922368229
100
AcDbArc
 50
52.1687104238
 51
52.9880758509
  0
ARC
  5
2C2
100
AcDbEntity
  8
0
100
AcDbCircle
 62
7
  6
CONTINUOUS
 10
9.391391623
 20
9.2960639283
 40
0.0895749368
100
AcDbArc
 50
19.2731475577
 51
19.8172739646
  0
ARC
  5
2C3
100
AcDbEntity
  8
0
100
AcDbCircle
 62
7
  6
CONTINUOUS
 10
9.3613105922
 20
9.2563886164
 40
0.0890802045
100
AcDbArc
 50
51.0137233265
 51
51.8410071934
  0
ARC
  5
2C4
100
AcDbEntity
  8
0
100
AcDbCircle
 62
7
  6
CONTINUOUS
 10
9.3564458631
 20
9.2603423679
 40
0.0856609641
100
AcDbArc
 50
49.6555861914
 51
50.4908600854
  0
ARC
  5
2C5
100
AcDbEntity
  8
0
100
AcDbCircle
 62
7
  6
CONTINUOUS
 10
9.3560183604
 20
9.2718297798
 40
0.07448003
100
AcDbArc
 50
353.0492067621
 51
46.2486714046
  0
ARC
  5
2C6
100
AcDbEntity
  8
0
100
AcDbCircle
 62
7
  6
CONTINUOUS
 10
9.3923565886
 20
9.2953277469
 40
0.0743192732
100
AcDbArc
 50
24.0627679155
 51
24.7418922254
  0
ARC
  5
2C7
100
AcDbEntity
  8
0
100
AcDbCircle
 62
7
  6
CONTINUOUS
 10
9.3571880032
 20
9.2767870016
 40
0.0733429885
100
AcDbArc
 50
41.7558136853
 51
42.6012697588
  0
ARC
  5
2C8
100
AcDbEntity
  8
0
100
AcDbCircle
 62
7
  6
CONTINUOUS
 10
9.3821684211
 20
9.290805021
 40
0.0730949139
100
AcDbArc
 50
28.4527751332
 51
29.1697719757
  0
ARC
  5
2C9
100
AcDbEntity
  8
0
100
AcDbCircle
 62
7
  6
CONTINUOUS
 10
9.3619016905
 20
9.2806953506
 40
0.0713730606
100
AcDbArc
 50
39.0191020007
 51
39.8526977637
  0
ARC
  5
2CA
100
AcDbEntity
  8
0
100
AcDbCircle
 62
7
  6
CONTINUOUS
 10
9.3749960211
 20
9.2877688456
 40
0.0706639831
100
AcDbArc
 50
32.3980467469
 51
33.1716902123
  0
ARC
  5
2CB
100
AcDbEntity
  8
0
100
AcDbCircle
 62
7
  6
CONTINUOUS
 10
9.3679807327
 20
9.2843828246
 40
0.0703356434
100
AcDbArc
 50
35.9043593986
 51
36.7147352263
  0
ARC
  5
2CC
100
AcDbEntity
  8
0
100
AcDbCircle
 62
7
  6
CONTINUOUS
 10
9.4859793124
 20
9.3686889569
 40
0.0736039144
100
AcDbArc
 50
162.4715664603
 51
170.2880620895
  0
ARC
  5
2CD
100
AcDbEntity
  8
0
100
AcDbCircle
 62
7
  6
CONTINUOUS
 10
9.4705678393
 20
9.3684152035
 40
0.0673145738
100
AcDbArc
 50
160.5256270961
 51
169.1333973978
  0
ARC
  5
2CE
100
AcDbEntity
  8
0
100
AcDbCircle
 62
7
  6
CONTINUOUS
 10
9.462947092
 20
9.3671164902
 40
0.0666075829
100
AcDbArc
 50
191.5829613351
 51
193.2258167045
  0
ARC
  5
2CF
100
AcDbEntity
  8
0
100
AcDbCircle
 62
7
  6
CONTINUOUS
 10
9.4587840508
 20
9.368153153
 40
0.0624461204
100
AcDbArc
 50
158.7027639967
 51
168.0289649197
  0
ARC
  5
2D0
100
AcDbEntity
  8
0
100
AcDbCircle
 62
7
  6
CONTINUOUS
 10
9.4537751364
 20
9.3672548496
 40
0.0620943363
100
AcDbArc
 50
192.568621176
 51
193.8391979996
  0
ARC
  5
2D1
100
AcDbEntity
  8
0
100
AcDbCircle
 62
7
  6
CONTINUOUS
 10
9.4998477894
 20
9.355751084
 40
0.0613391842
100
AcDbArc
 50
199.9720434754
 51
204.1825614567
  0
ARC
  5
2D2
100
AcDbEntity
  8
0
100
AcDbCircle
 62
7
  6
CONTINUOUS
 10
9.4476860989
 20
9.3673642685
 40
0.0583970506
100
AcDbArc
 50
193.4895491332
 51
195.6499071352
  0
ARC
  5
2D3
100
AcDbEntity
  8
0
100
AcDbCircle
 62
7
  6
CONTINUOUS
 10
9.4497566789
 20
9.3680564645
 40
0.05807292
100
AcDbArc
 50
165.6065746539
 51
167.0146596436
  0
ARC
  5
2D4
100
AcDbEntity
  8
0
100
AcDbCircle
 62
7
  6
CONTINUOUS
 10
9.4478578009
 20
9.364134018
 40
0.0574830563
100
AcDbArc
 50
128.7202040443
 51
140.7012733816
  0
ARC
  5
2D5
100
AcDbEntity
  8
0
100
AcDbCircle
 62
7
  6
CONTINUOUS
 10
9.4490101536
 20
9.3685738899
 40
0.05719252
100
AcDbArc
 50
146.2590197345
 51
157.0695274439
  0
ARC
  5
2D6
100
AcDbEntity
  8
0
100
AcDbCircle
 62
7
  6
CONTINUOUS
 10
9.4815541275
 20
9.3568658482
 40
0.0563529412
100
AcDbArc
 50
203.04963796
 51
208.2241761617
  0
ARC
  5
2D7
100
AcDbEntity
  8
0
100
AcDbCircle
 62
7
  6
CONTINUOUS
 10
9.4449615763
 20
9.3661830085
 40
0.0561479857
100
AcDbArc
 50
130.3353788817
 51
142.2712812302
  0
ARC
  5
2D8
100
AcDbEntity
  8
0
100
AcDbCircle
 62
7
  6
CONTINUOUS
 10
9.4448445194
 20
9.3677253258
 40
0.0556328141
100
AcDbArc
 50
131.1911115815
 51
132.1323222231
  0
ARC
  5
2D9
100
AcDbEntity
  8
0
100
AcDbCircle
 62
7
  6
CONTINUOUS
 10
9.444661484
 20
9.3674893174
 40
0.055491209
100
AcDbArc
 50
194.343119806
 51
196.735244134
  0
ARC
  5
2DA
100
AcDbEntity
  8
0
100
AcDbCircle
 62
7
  6
CONTINUOUS
 10
9.4443490616
 20
9.3666060521
 40
0.0554046818
100
AcDbArc
 50
142.2296886592
 51
153.7454179412
  0
ARC
  5
2DB
100
AcDbEntity
  8
0
100
AcDbCircle
 62
7
  6
CONTINUOUS
 10
9.4444955251
 20
9.368128562
 40
0.055099534
100
AcDbArc
 50
128.3212124613
 51
131.1941647834
  0
ARC
  5
2DC
100
AcDbEntity
  8
0
100
AcDbCircle
 62
7
  6
CONTINUOUS
 10
9.4442954569
 20
9.3678505703
 40
0.0550161806
100
AcDbArc
 50
163.6831027251
 51
165.2657820506
  0
ARC
  5
2DD
100
AcDbEntity
  8
0
100
AcDbCircle
 62
7
  6
CONTINUOUS
 10
9.4444588402
 20
9.3682602781
 40
0.0549776968
100
AcDbArc
 50
132.2081529643
 51
144.1727245379
  0
ARC
  5
2DE
100
AcDbEntity
  8
0
100
AcDbCircle
 62
7
  6
CONTINUOUS
 10
9.4438273635
 20
9.3671963994
 40
0.0546081104
100
AcDbArc
 50
196.6948922729
 51
205.0636655825
  0
ARC
  5
2DF
100
AcDbEntity
  8
0
100
AcDbCircle
 62
7
  6
CONTINUOUS
 10
9.4438451278
 20
9.3679700482
 40
0.0545502726
100
AcDbArc
 50
165.2668474444
 51
166.066457693
  0
ARC
  5
2E0
100
AcDbEntity
  8
0
100
AcDbCircle
 62
7
  6
CONTINUOUS
 10
9.4441227487
 20
9.3685603493
 40
0.0545296568
100
AcDbArc
 50
132.158223185
 51
144.2216201862
  0
ARC
  5
2E1
100
AcDbEntity
  8
0
100
AcDbCircle
 62
7
  6
CONTINUOUS
 10
9.4430845382
 20
9.3671991732
 40
0.0540082436
100
AcDbArc
 50
153.7163055486
 51
162.5055037073
  0
ARC
  5
2E2
100
AcDbEntity
  8
0
100
AcDbCircle
 62
7
  6
CONTINUOUS
 10
9.4437643481
 20
9.3690643562
 40
0.0539119795
100
AcDbArc
 50
116.4721664361
 51
128.3282424984
  0
ARC
  5
2E3
100
AcDbEntity
  8
0
100
AcDbCircle
 62
7
  6
CONTINUOUS
 10
9.4445335694
 20
9.3676279192
 40
0.0532084558
100
AcDbArc
 50
195.1271006836
 51
196.8683225509
  0
ARC
  5
2E4
100
AcDbEntity
  8
0
100
AcDbCircle
 62
7
  6
CONTINUOUS
 10
9.4442625772
 20
9.3675198447
 40
0.0529177687
100
AcDbArc
 50
196.8414817259
 51
206.301397538
  0
ARC
  5
2E5
100
AcDbEntity
  8
0
100
AcDbCircle
 62
7
  6
CONTINUOUS
 10
9.4451926874
 20
9.3637961461
 40
0.0528405675
100
AcDbArc
 50
224.2429575676
 51
225.000769558
  0
ARC
  5
2E6
100
AcDbEntity
  8
0
100
AcDbCircle
 62
7
  6
CONTINUOUS
 10
9.44204554
 20
9.3663556997
 40
0.0526379266
100
AcDbArc
 50
205.0563592234
 51
216.7276330307
  0
ARC
  5
2E7
100
AcDbEntity
  8
0
100
AcDbCircle
 62
7
  6
CONTINUOUS
 10
9.4415467698
 20
9.3677008904
 40
0.0523907826
100
AcDbArc
 50
162.523259505
 51
164.2907892188
  0
ARC
  5
2E8
100
AcDbEntity
  8
0
100
AcDbCircle
 62
7
  6
CONTINUOUS
 10
9.4436772879
 20
9.3672703985
 40
0.0522825555
100
AcDbArc
 50
206.3405373954
 51
218.3036746599
  0
ARC
  5
2E9
100
AcDbEntity
  8
0
100
AcDbCircle
 62
7
  6
CONTINUOUS
 10
9.4447682016
 20
9.3633951752
 40
0.0522567135
100
AcDbArc
 50
213.1748639986
 51
224.2527312886
  0
ARC
  5
2EA
100
AcDbEntity
  8
0
100
AcDbCircle
 62
7
  6
CONTINUOUS
 10
9.4432957081
 20
9.3669810195
 40
0.0520810041
100
AcDbArc
 50
152.3941958605
 51
162.4039304461
  0
ARC
  5
2EB
100
AcDbEntity
  8
0
100
AcDbCircle
 62
7
  6
CONTINUOUS
 10
9.4409810507
 20
9.367861521
 40
0.0518027026
100
AcDbArc
 50
164.2924033109
 51
165.1871303961
  0
ARC
  5
2EC
100
AcDbEntity
  8
0
100
AcDbCircle
 62
7
  6
CONTINUOUS
 10
9.449217826
 20
9.3613688966
 40
0.0516520481
100
AcDbArc
 50
210.9542189302
 51
220.4365807777
  0
ARC
  5
2ED
100
AcDbEntity
  8
0
100
AcDbCircle
 62
7
  6
CONTINUOUS
 10
9.4472942599
 20
9.3678168137
 40
0.0515563419
100
AcDbArc
 50
198.6380955955
 51
207.4343390258
  0
ARC
  5
2EE
100
AcDbEntity
  8
0
100
AcDbCircle
 62
7
  6
CONTINUOUS
 10
9.4470767632
 20
9.3677530089
 40
0.051329861
100
AcDbArc
 50
195.8398193391
 51
198.6481985593
  0
ARC
  5
2EF
100
AcDbEntity
  8
0
100
AcDbCircle
 62
7
  6
CONTINUOUS
 10
9.4487703684
 20
9.3609975367
 40
0.0510706115
100
AcDbArc
 50
220.4450763907
 51
222.5950658633
  0
ARC
  5
2F0
100
AcDbEntity
  8
0
100
AcDbCircle
 62
7
  6
CONTINUOUS
 10
9.4767194553
 20
9.3542337166
 40
0.0508483083
100
AcDbArc
 50
208.1872669098
 51
213.1440382681
  0
ARC
  5
2F1
100
AcDbEntity
  8
0
100
AcDbCircle
 62
7
  6
CONTINUOUS
 10
9.4528259183
 20
9.3680766818
 40
0.050445016
100
AcDbArc
 50
196.5082253923
 51
208.4268841808
  0
ARC
  5
2F2
100
AcDbEntity
  8
0
100
AcDbCircle
 62
7
  6
CONTINUOUS
 10
9.4550777497
 20
9.3584604227
 40
0.0499907914
100
AcDbArc
 50
216.4413494336
 51
219.8424971893
  0
ARC
  5
2F3
100
AcDbEntity
  8
0
100
AcDbCircle
 62
7
  6
CONTINUOUS
 10
9.4411732603
 20
9.3676826369
 40
0.0498457679
100
AcDbArc
 50
162.4351546453
 51
164.3780407742
  0
ARC
  5
2F4
100
AcDbEntity
  8
0
100
AcDbCircle
 62
7
  6
CONTINUOUS
 10
9.4643004335
 20
9.3562045948
 40
0.0498136452
100
AcDbArc
 50
212.3210920644
 51
216.7043499516
  0
ARC
  5
2F5
100
AcDbEntity
  8
0
100
AcDbCircle
 62
7
  6
CONTINUOUS
 10
9.4608029781
 20
9.3683121404
 40
0.0495625475
100
AcDbArc
 50
197.0953713883
 51
209.2988850742
  0
ARC
  5
2F6
100
AcDbEntity
  8
0
100
AcDbCircle
 62
7
  6
CONTINUOUS
 10
9.4711108584
 20
9.3685021659
 40
0.0488308414
100
AcDbArc
 50
197.5933652298
 51
210.019582413
  0
ARC
  5
2F7
100
AcDbEntity
  8
0
100
AcDbCircle
 62
7
  6
CONTINUOUS
 10
9.4441109192
 20
9.3674807971
 40
0.0483733523
100
AcDbArc
 50
160.5290541143
 51
163.6408005393
  0
ARC
  5
2F8
100
AcDbEntity
  8
0
100
AcDbCircle
 62
7
  6
CONTINUOUS
 10
9.7616782777
 20
9.2983248632
 40
0.1828167071
100
AcDbArc
 50
171.1561521418
 51
171.4102889732
  0
ARC
  5
2F9
100
AcDbEntity
  8
0
100
AcDbCircle
 62
7
  6
CONTINUOUS
 10
9.7155646902
 20
9.2982650211
 40
0.1124611264
100
AcDbArc
 50
165.4953902581
 51
165.9167877375
  0
ARC
  5
2FA
100
AcDbEntity
  8
0
100
AcDbCircle
 62
7
  6
CONTINUOUS
 10
9.574778028
 20
9.2416081473
 40
0.1024046593
100
AcDbArc
 50
55.1336718428
 51
55.9259790038
  0
ARC
  5
2FB
100
AcDbEntity
  8
0
100
AcDbCircle
 62
7
  6
CONTINUOUS
 10
9.6031340045
 20
9.2437335011
 40
0.1004465763
100
AcDbArc
 50
54.6194957091
 51
55.4169275591
  0
ARC
  5
2FC
100
AcDbEntity
  8
0
100
AcDbCircle
 62
7
  6
CONTINUOUS
 10
9.6325988553
 20
9.2463654678
 40
0.0980275608
100
AcDbArc
 50
53.9588105266
 51
54.7628155023
  0
ARC
  5
2FD
100
AcDbEntity
  8
0
100
AcDbCircle
 62
7
  6
CONTINUOUS
 10
9.6629898209
 20
9.2493997037
 40
0.0952683884
100
AcDbArc
 50
53.1457015124
 51
53.9570960498
  0
ARC
  5
2FE
100
AcDbEntity
  8
0
100
AcDbCircle
 62
7
  6
CONTINUOUS
 10
9.6941441246
 20
9.2527777474
 40
0.0922397641
100
AcDbArc
 50
52.1681467426
 51
52.9874881902
  0
ARC
  5
2FF
100
AcDbEntity
  8
0
100
AcDbCircle
 62
7
  6
CONTINUOUS
 10
9.7195248611
 20
9.2954806767
 40
0.091325887
100
AcDbArc
 50
160.1898638072
 51
160.7234354541
  0
ARC
  5
300
100
AcDbEntity
  8
0
100
AcDbCircle
 62
7
  6
CONTINUOUS
 10
9.725916846
 20
9.2564767733
 40
0.0889729619
100
AcDbArc
 50
51.0084116032
 51
51.836100192
  0
ARC
  5
301
100
AcDbEntity
  8
0
100
AcDbCircle
 62
7
  6
CONTINUOUS
 10
9.7580993602
 20
9.260389984
 40
0.0856053437
100
AcDbArc
 50
49.6498075884
 51
50.4855269229
  0
ARC
  5
302
100
AcDbEntity
  8
0
100
AcDbCircle
 62
7
  6
CONTINUOUS
 10
9.733365193
 20
9.2934225536
 40
0.0789413292
100
AcDbArc
 50
155.2822478996
 51
155.9211571092
  0
ARC
  5
303
100
AcDbEntity
  8
0
100
AcDbCircle
 62
7
  6
CONTINUOUS
 10
9.7545401692
 20
9.29080484
 40
0.0730944729
100
AcDbArc
 50
150.8297595141
 51
151.5468347746
  0
ARC
  5
304
100
AcDbEntity
  8
0
100
AcDbCircle
 62
7
  6
CONTINUOUS
 10
9.7798026018
 20
9.2877725173
 40
0.0706681985
100
AcDbArc
 50
146.835207971
 51
147.60812102
  0
ARC
  5
305
100
AcDbEntity
  8
0
100
AcDbCircle
 62
7
  6
CONTINUOUS
 10
9.7714523913
 20
9.3496069263
 40
0.4502019564
100
AcDbArc
 50
357.0493075299
 51
358.1251829726
  0
ARC
  5
306
100
AcDbEntity
  8
0
100
AcDbCircle
 62
7
  6
CONTINUOUS
 10
9.5717635196
 20
9.5748408433
 40
0.03724
100
AcDbArc
 50
90.0
 51
180.0
  0
ARC
  5
307
100
AcDbEntity
  8
0
100
AcDbCircle
 62
7
  6
CONTINUOUS
 10
9.9827653924
 20
9.3495671352
 40
0.4493717596
100
AcDbArc
 50
181.8831364728
 51
182.951127558
  0
ARC
  5
308
100
AcDbEntity
  8
0
100
AcDbCircle
 62
7
  6
CONTINUOUS
 10
10.0003075316
 20
9.2993867176
 40
0.1757971988
100
AcDbArc
 50
8.5853415995
 51
8.8496913561
  0
ARC
  5
309
100
AcDbEntity
  8
0
100
AcDbCircle
 62
7
  6
CONTINUOUS
 10
10.0405453786
 20
9.2985364493
 40
0.1113639872
100
AcDbArc
 50
14.0808160012
 51
14.5064846484
  0
ARC
  5
30A
100
AcDbEntity
  8
0
100
AcDbCircle
 62
7
  6
CONTINUOUS
 10
10.2074150832
 20
9.239943659
 40
0.1039505797
100
AcDbArc
 50
123.6938565716
 51
124.4823155819
  0
ARC
  5
30B
100
AcDbEntity
  8
0
100
AcDbCircle
 62
7
  6
CONTINUOUS
 10
10.1802720812
 20
9.2416003074
 40
0.1024129077
100
AcDbArc
 50
124.0728595528
 51
124.8652063179
  0
ARC
  5
30C
100
AcDbEntity
  8
0
100
AcDbCircle
 62
7
  6
CONTINUOUS
 10
10.1518988733
 20
9.2437553969
 40
0.1004204987
100
AcDbArc
 50
124.5833668558
 51
125.3811604222
  0
ARC
  5
30D
100
AcDbEntity
  8
0
100
AcDbCircle
 62
7
  6
CONTINUOUS
 10
10.1224410691
 20
9.2463735261
 40
0.0980169001
100
AcDbArc
 50
125.2363943279
 51
126.040580476
  0
ARC
  5
30E
100
AcDbEntity
  8
0
100
AcDbCircle
 62
7
  6
CONTINUOUS
 10
10.0920520874
 20
9.2494074938
 40
0.0952590567
100
AcDbArc
 50
126.0432095781
 51
126.8546489045
  0
ARC
  5
30F
100
AcDbEntity
  8
0
100
AcDbCircle
 62
7
  6
CONTINUOUS
 10
10.0608894972
 20
9.2527953056
 40
0.0922176694
100
AcDbArc
 50
127.0123904356
 51
127.8319589341
  0
ARC
  5
310
100
AcDbEntity
  8
0
100
AcDbCircle
 62
7
  6
CONTINUOUS
 10
10.037188026
 20
9.2960711399
 40
0.0895585292
100
AcDbArc
 50
19.2718649178
 51
19.8160293373
  0
ARC
  5
311
100
AcDbEntity
  8
0
100
AcDbCircle
 62
7
  6
CONTINUOUS
 10
10.0291278203
 20
9.2564791623
 40
0.0889696267
100
AcDbArc
 50
128.1635754968
 51
128.991361158
  0
ARC
  5
312
100
AcDbEntity
  8
0
100
AcDbCircle
 62
7
  6
CONTINUOUS
 10
9.9969483839
 20
9.2603891334
 40
0.0856064472
100
AcDbArc
 50
129.5144798884
 51
130.3501839973
  0
ARC
  5
313
100
AcDbEntity
  8
0
100
AcDbCircle
 62
7
  6
CONTINUOUS
 10
9.7905014719
 20
9.2644503979
 40
0.08223279
100
AcDbArc
 50
48.0715558101
 51
48.9142062963
  0
ARC
  5
314
100
AcDbEntity
  8
0
100
AcDbCircle
 62
7
  6
CONTINUOUS
 10
9.9645451664
 20
9.2644508778
 40
0.0822321643
100
AcDbArc
 50
131.0858045855
 51
131.9284603859
  0
ARC
  5
315
100
AcDbEntity
  8
0
100
AcDbCircle
 62
7
  6
CONTINUOUS
 10
9.822914508
 20
9.2685878513
 40
0.0789680009
100
AcDbArc
 50
46.2483848952
 51
47.0958844833
  0
ARC
  5
316
100
AcDbEntity
  8
0
100
AcDbCircle
 62
7
  6
CONTINUOUS
 10
9.9321308755
 20
9.2685897163
 40
0.0789655088
100
AcDbArc
 50
132.9041521948
 51
133.7516831062
  0
ARC
  5
317
100
AcDbEntity
  8
0
100
AcDbCircle
 62
7
  6
CONTINUOUS
 10
10.0216670317
 20
9.2934161499
 40
0.0789574543
100
AcDbArc
 50
24.0786783977
 51
24.7173027002
  0
ARC
  5
318
100
AcDbEntity
  8
0
100
AcDbCircle
 62
7
  6
CONTINUOUS
 10
9.8999405679
 20
9.2727286465
 40
0.0759461272
100
AcDbArc
 50
134.9992029549
 51
135.8480658062
  0
ARC
  5
319
100
AcDbEntity
  8
0
100
AcDbCircle
 62
7
  6
CONTINUOUS
 10
9.8551064554
 20
9.2727286663
 40
0.075946124
100
AcDbArc
 50
44.1519145293
 51
45.0007760378
  0
ARC
  5
31A
100
AcDbEntity
  8
0
100
AcDbCircle
 62
7
  6
CONTINUOUS
 10
9.8682426894
 20
9.2767905618
 40
0.0733436366
100
AcDbArc
 50
137.4039233794
 51
138.2487492487
  0
ARC
  5
31B
100
AcDbEntity
  8
0
100
AcDbCircle
 62
7
  6
CONTINUOUS
 10
9.8868048059
 20
9.2767910461
 40
0.0733429729
100
AcDbArc
 50
41.7512049391
 51
42.5960385939
  0
ARC
  5
31C
100
AcDbEntity
  8
0
100
AcDbCircle
 62
7
  6
CONTINUOUS
 10
10.0004881463
 20
9.2907936947
 40
0.0731162692
100
AcDbArc
 50
28.4538887304
 51
29.1707886891
  0
ARC
  5
31D
100
AcDbEntity
  8
0
100
AcDbCircle
 62
7
  6
CONTINUOUS
 10
9.9176813619
 20
9.2806921984
 40
0.0713858243
100
AcDbArc
 50
39.0136715821
 51
39.8465739657
  0
ARC
  5
31E
100
AcDbEntity
  8
0
100
AcDbCircle
 62
7
  6
CONTINUOUS
 10
9.8373572745
 20
9.2806995068
 40
0.0713746829
100
AcDbArc
 50
140.1536339174
 51
140.9866523818
  0
ARC
  5
31F
100
AcDbEntity
  8
0
100
AcDbCircle
 62
7
  6
CONTINUOUS
 10
9.9752441916
 20
9.2877728816
 40
0.0706681969
100
AcDbArc
 50
32.3915048203
 51
33.1643847011
  0
ARC
  5
320
100
AcDbEntity
  8
0
100
AcDbCircle
 62
7
  6
CONTINUOUS
 10
9.9473486206
 20
9.2843767886
 40
0.0703454271
100
AcDbArc
 50
35.9046443613
 51
36.7147437677
  0
ARC
  5
321
100
AcDbEntity
  8
0
100
AcDbCircle
 62
7
  6
CONTINUOUS
 10
9.8076906022
 20
9.2843826984
 40
0.0703356283
100
AcDbArc
 50
143.2852105888
 51
144.0955232078
  0
ARC
  5
322
100
AcDbEntity
  8
0
100
AcDbCircle
 62
7
  6
CONTINUOUS
 10
10.1832835196
 20
9.5748408433
 40
0.03724
100
AcDbArc
 50
0.0
 51
90.0
  0
ARC
  5
323
100
AcDbEntity
  8
0
100
AcDbCircle
 62
7
  6
CONTINUOUS
 10
7.3775222904
 20
11.0581185624
 40
3.6003821792
100
AcDbArc
 50
294.6543569551
 51
295.8490587856
  0
ARC
  5
324
100
AcDbEntity
  8
0
100
AcDbCircle
 62
7
  6
CONTINUOUS
 10
9.3187992654
 20
12.2164895735
 40
1.2799987953
100
AcDbArc
 50
274.0658422643
 51
279.6008240785
  0
ARC
  5
325
100
AcDbEntity
  8
0
100
AcDbCircle
 62
7
  6
CONTINUOUS
 10
9.314413572
 20
10.8234169274
 40
0.1000000234
100
AcDbArc
 50
3.6527129172
 51
41.6118442192
  0
ARC
  5
326
100
AcDbEntity
  8
0
100
AcDbCircle
 62
7
  6
CONTINUOUS
 10
9.4358596416
 20
10.1963738612
 40
0.0999999795
100
AcDbArc
 50
333.1865282521
 51
11.6520418152
  0
ARC
  5
327
100
AcDbEntity
  8
0
100
AcDbCircle
 62
7
  6
CONTINUOUS
 10
9.5545655033
 20
10.1363556005
 40
0.0330669627
100
AcDbArc
 50
180.0727289283
 51
269.9272710727
  0
ARC
  5
328
100
AcDbEntity
  8
0
100
AcDbCircle
 62
7
  6
CONTINUOUS
 10
10.2004815358
 20
10.1363556005
 40
0.0330669627
100
AcDbArc
 50
270.0727289316
 51
359.9272710673
  0
ARC
  5
329
100
AcDbEntity
  8
0
100
AcDbCircle
 62
7
  6
CONTINUOUS
 10
10.4093422544
 20
7.4878191462
 40
0.6078409296
100
AcDbArc
 50
6.6356334606
 51
20.3029644134
  0
ARC
  5
32A
100
AcDbEntity
  8
0
100
AcDbCircle
 62
7
  6
CONTINUOUS
 10
10.7196658702
 20
7.4460982148
 40
0.3739337434
100
AcDbArc
 50
52.7092061085
 51
65.3456430447
  0
ARC
  5
32B
100
AcDbEntity
  8
0
100
AcDbCircle
 62
7
  6
CONTINUOUS
 10
10.3531606839
 20
8.4400808817
 40
0.0620000037
100
AcDbArc
 50
189.6697388621
 51
236.140811797
  0
ARC
  5
32C
100
AcDbEntity
  8
0
100
AcDbCircle
 62
7
  6
CONTINUOUS
 10
10.2801859644
 20
9.2382577682
 40
0.1055224434
100
AcDbArc
 50
123.321841232
 51
124.1062590749
  0
ARC
  5
32D
100
AcDbEntity
  8
0
100
AcDbCircle
 62
7
  6
CONTINUOUS
 10
10.2574949254
 20
9.2382608799
 40
0.1055208458
100
AcDbArc
 50
123.3237484732
 51
124.1080838871
  0
ARC
  5
32E
100
AcDbEntity
  8
0
100
AcDbCircle
 62
7
  6
CONTINUOUS
 10
10.2331985791
 20
9.2388251872
 40
0.1049934464
100
AcDbArc
 50
123.4464603781
 51
124.2321084875
  0
ARC
  5
32F
100
AcDbEntity
  8
0
100
AcDbCircle
 62
7
  6
CONTINUOUS
 10
10.3011732711
 20
9.238827929
 40
0.1049920852
100
AcDbArc
 50
123.4481437615
 51
124.2337486917
  0
ARC
  5
330
100
AcDbEntity
  8
0
100
AcDbCircle
 62
7
  6
CONTINUOUS
 10
10.3203472257
 20
9.2399365718
 40
0.1039544229
100
AcDbArc
 50
123.689222105
 51
124.4782158132
  0
ARC
  5
331
100
AcDbEntity
  8
0
100
AcDbCircle
 62
7
  6
CONTINUOUS
 10
10.2684653036
 20
9.3685396083
 40
0.0742229121
100
AcDbArc
 50
9.747124985
 51
17.7073435815
  0
ARC
  5
332
100
AcDbEntity
  8
0
100
AcDbCircle
 62
7
  6
CONTINUOUS
 10
10.2841677039
 20
9.3683281702
 40
0.0676368973
100
AcDbArc
 50
10.8892614258
 51
19.6879817107
  0
ARC
  5
333
100
AcDbEntity
  8
0
100
AcDbCircle
 62
7
  6
CONTINUOUS
 10
10.2920707646
 20
9.3671224298
 40
0.0666373637
100
AcDbArc
 50
346.7801245867
 51
348.4170736975
  0
ARC
  5
334
100
AcDbEntity
  8
0
100
AcDbCircle
 62
7
  6
CONTINUOUS
 10
10.2960238576
 20
9.3680941311
 40
0.0626924108
100
AcDbArc
 50
13.8035124995
 51
21.5431412092
  0
ARC
  5
335
100
AcDbEntity
  8
0
100
AcDbCircle
 62
7
  6
CONTINUOUS
 10
10.2963668305
 20
9.3681763894
 40
0.0623397168
100
AcDbArc
 50
11.9699390778
 51
13.8053031058
  0
ARC
  5
336
100
AcDbEntity
  8
0
100
AcDbCircle
 62
7
  6
CONTINUOUS
 10
10.3012361054
 20
9.3672628097
 40
0.062131008
100
AcDbArc
 50
346.1654553457
 51
347.4313977161
  0
ARC
  5
337
100
AcDbEntity
  8
0
100
AcDbCircle
 62
7
  6
CONTINUOUS
 10
10.2551419717
 20
9.3557765216
 40
0.0614017814
100
AcDbArc
 50
335.8057498083
 51
340.1010348215
  0
ARC
  5
338
100
AcDbEntity
  8
0
100
AcDbCircle
 62
7
  6
CONTINUOUS
 10
10.3073367584
 20
9.3673699446
 40
0.0584218885
100
AcDbArc
 50
344.3576132001
 51
346.5104564836
  0
ARC
  5
339
100
AcDbEntity
  8
0
100
AcDbCircle
 62
7
  6
CONTINUOUS
 10
10.305317393
 20
9.3680626686
 40
0.0580451845
100
AcDbArc
 50
12.9853689024
 51
14.4052863197
  0
ARC
  5
33A
100
AcDbEntity
  8
0
100
AcDbCircle
 62
7
  6
CONTINUOUS
 10
10.3070256373
 20
9.3639693936
 40
0.0577138384
100
AcDbArc
 50
39.0651488248
 51
51.2553070436
  0
ARC
  5
33B
100
AcDbEntity
  8
0
100
AcDbCircle
 62
7
  6
CONTINUOUS
 10
10.3057384138
 20
9.3684129095
 40
0.0575298311
100
AcDbArc
 50
23.2417981265
 51
33.9496807813
  0
ARC
  5
33C
100
AcDbEntity
  8
0
100
AcDbCircle
 62
7
  6
CONTINUOUS
 10
10.273403899
 20
9.3569071723
 40
0.0564506884
100
AcDbArc
 50
331.772834204
 51
337.0153955304
  0
ARC
  5
33D
100
AcDbEntity
  8
0
100
AcDbCircle
 62
7
  6
CONTINUOUS
 10
10.3101452123
 20
9.3662391867
 40
0.0560664901
100
AcDbArc
 50
37.4620898971
 51
49.6740056363
  0
ARC
  5
33E
100
AcDbEntity
  8
0
100
AcDbCircle
 62
7
  6
CONTINUOUS
 10
10.3102025198
 20
9.3677253258
 40
0.0556328141
100
AcDbArc
 50
47.8676777768
 51
48.8088884184
  0
ARC
  5
33F
100
AcDbEntity
  8
0
100
AcDbCircle
 62
7
  6
CONTINUOUS
 10
10.310510289
 20
9.3664886399
 40
0.055624987
100
AcDbArc
 50
25.9815014025
 51
37.4868602314
  0
ARC
  5
340
100
AcDbEntity
  8
0
100
AcDbCircle
 62
7
  6
CONTINUOUS
 10
10.3104165614
 20
9.3674813965
 40
0.055459207
100
AcDbArc
 50
343.2565559301
 51
345.6568728579
  0
ARC
  5
341
100
AcDbEntity
  8
0
100
AcDbCircle
 62
7
  6
CONTINUOUS
 10
10.3105515141
 20
9.368128562
 40
0.055099534
100
AcDbArc
 50
48.8058352167
 51
51.6787875387
  0
ARC
  5
342
100
AcDbEntity
  8
0
100
AcDbCircle
 62
7
  6
CONTINUOUS
 10
10.3107709002
 20
9.3678551522
 40
0.0549963298
100
AcDbArc
 50
14.7407882832
 51
16.3364222234
  0
ARC
  5
343
100
AcDbEntity
  8
0
100
AcDbCircle
 62
7
  6
CONTINUOUS
 10
10.310599883
 20
9.3682710656
 40
0.0549618567
100
AcDbArc
 50
35.9542038317
 51
47.7933139805
  0
ARC
  5
344
100
AcDbEntity
  8
0
100
AcDbCircle
 62
7
  6
CONTINUOUS
 10
10.3112240166
 20
9.3671957976
 40
0.0546037492
100
AcDbArc
 50
334.822014515
 51
343.2972471313
  0
ARC
  5
345
100
AcDbEntity
  8
0
100
AcDbCircle
 62
7
  6
CONTINUOUS
 10
10.3109161259
 20
9.3685520644
 40
0.0545412782
100
AcDbArc
 50
35.6504930448
 51
47.8412604033
  0
ARC
  5
346
100
AcDbEntity
  8
0
100
AcDbCircle
 62
7
  6
CONTINUOUS
 10
10.3112290166
 20
9.3679767632
 40
0.054522348
100
AcDbArc
 50
13.9335522804
 51
14.7396929724
  0
ARC
  5
347
100
AcDbEntity
  8
0
100
AcDbCircle
 62
7
  6
CONTINUOUS
 10
10.3116629514
 20
9.3670798475
 40
0.0543298275
100
AcDbArc
 50
17.5003508889
 51
25.9535566778
  0
ARC
  5
348
100
AcDbEntity
  8
0
100
AcDbCircle
 62
7
  6
CONTINUOUS
 10
10.311282691
 20
9.3690643562
 40
0.0539119795
100
AcDbArc
 50
51.6717575015
 51
63.5278335639
  0
ARC
  5
349
100
AcDbEntity
  8
0
100
AcDbCircle
 62
7
  6
CONTINUOUS
 10
10.3107550399
 20
9.3675344443
 40
0.0529501167
100
AcDbArc
 50
333.5696897524
 51
344.8728076699
  0
ARC
  5
34A
100
AcDbEntity
  8
0
100
AcDbCircle
 62
7
  6
CONTINUOUS
 10
10.3098790014
 20
9.3637714784
 40
0.0528057488
100
AcDbArc
 50
314.9988592383
 51
315.7544050514
  0
ARC
  5
34B
100
AcDbEntity
  8
0
100
AcDbCircle
 62
7
  6
CONTINUOUS
 10
10.3130074533
 20
9.3663509729
 40
0.052630341
100
AcDbArc
 50
323.1670905079
 51
334.8283591714
  0
ARC
  5
34C
100
AcDbEntity
  8
0
100
AcDbCircle
 62
7
  6
CONTINUOUS
 10
10.3134835695
 20
9.3676967422
 40
0.052407985
100
AcDbArc
 50
15.7021009524
 51
17.4556793207
  0
ARC
  5
34D
100
AcDbEntity
  8
0
100
AcDbCircle
 62
7
  6
CONTINUOUS
 10
10.3113788502
 20
9.3672583955
 40
0.0522686464
100
AcDbArc
 50
321.6145597971
 51
333.5362909606
  0
ARC
  5
34E
100
AcDbEntity
  8
0
100
AcDbCircle
 62
7
  6
CONTINUOUS
 10
10.3102762919
 20
9.3633962515
 40
0.0522593391
100
AcDbArc
 50
315.7451869167
 51
326.9257957057
  0
ARC
  5
34F
100
AcDbEntity
  8
0
100
AcDbCircle
 62
7
  6
CONTINUOUS
 10
10.3140407155
 20
9.3678548499
 40
0.0518288412
100
AcDbArc
 50
14.812856449
 51
15.7005270187
  0
ARC
  5
350
100
AcDbEntity
  8
0
100
AcDbCircle
 62
7
  6
CONTINUOUS
 10
10.3058164468
 20
9.3613792263
 40
0.0516683813
100
AcDbArc
 50
319.5600656631
 51
329.1435013355
  0
ARC
  5
351
100
AcDbEntity
  8
0
100
AcDbCircle
 62
7
  6
CONTINUOUS
 10
10.30774499
 20
9.3678209883
 40
0.0515650271
100
AcDbArc
 50
332.4433449643
 51
341.352431659
  0
ARC
  5
352
100
AcDbEntity
  8
0
100
AcDbCircle
 62
7
  6
CONTINUOUS
 10
10.3079900818
 20
9.3677474702
 40
0.0513092954
100
AcDbArc
 50
341.3427070861
 51
344.1600940007
  0
ARC
  5
353
100
AcDbEntity
  8
0
100
AcDbCircle
 62
7
  6
CONTINUOUS
 10
10.3062796197
 20
9.3609948231
 40
0.051066524
100
AcDbArc
 50
317.4053034313
 51
319.5512319185
  0
ARC
  5
354
100
AcDbEntity
  8
0
100
AcDbCircle
 62
7
  6
CONTINUOUS
 10
10.2783842735
 20
9.3541960592
 40
0.0507803231
100
AcDbArc
 50
326.8554429135
 51
331.8102319818
  0
ARC
  5
355
100
AcDbEntity
  8
0
100
AcDbCircle
 62
7
  6
CONTINUOUS
 10
10.3022081226
 20
9.3680829039
 40
0.0504592465
100
AcDbArc
 50
331.44826529
 51
343.4891946596
  0
ARC
  5
356
100
AcDbEntity
  8
0
100
AcDbCircle
 62
7
  6
CONTINUOUS
 10
10.2999927626
 20
9.3584406984
 40
0.0499602517
100
AcDbArc
 50
320.1566480717
 51
323.552964314
  0
ARC
  5
357
100
AcDbEntity
  8
0
100
AcDbCircle
 62
7
  6
CONTINUOUS
 10
10.3138523814
 20
9.367676715
 40
0.0498679696
100
AcDbArc
 50
15.6218915065
 51
17.5498312638
  0
ARC
  5
358
100
AcDbEntity
  8
0
100
AcDbCircle
 62
7
  6
CONTINUOUS
 10
10.2907471899
 20
9.3562041796
 40
0.0498128237
100
AcDbArc
 50
323.2963401703
 51
327.6688880103
  0
ARC
  5
359
100
AcDbEntity
  8
0
100
AcDbCircle
 62
7
  6
CONTINUOUS
 10
10.2942385313
 20
9.3683143864
 40
0.0495684932
100
AcDbArc
 50
330.5764563854
 51
342.9040261283
  0
ARC
  5
35A
100
AcDbEntity
  8
0
100
AcDbCircle
 62
7
  6
CONTINUOUS
 10
10.310920238
 20
9.3674762977
 40
0.0483898585
100
AcDbArc
 50
16.359014682
 51
19.4474889021
  0
ARC
  5
35B
100
AcDbEntity
  8
0
100
AcDbCircle
 62
7
  6
CONTINUOUS
 10
10.4188362855
 20
9.2989420807
 40
0.1787321933
100
AcDbArc
 50
171.1526158398
 51
171.4125771399
  0
ARC
  5
35C
100
AcDbEntity
  8
0
100
AcDbCircle
 62
7
  6
CONTINUOUS
 10
10.3645500429
 20
9.2997989796
 40
0.1062389266
100
AcDbArc
 50
165.4813247395
 51
165.9277249595
  0
ARC
  5
35D
100
AcDbEntity
  8
0
100
AcDbCircle
 62
7
  6
CONTINUOUS
 10
10.3376457841
 20
9.2416020435
 40
0.1024120191
100
AcDbArc
 50
124.0740068605
 51
124.8662613399
  0
ARC
  5
35E
100
AcDbEntity
  8
0
100
AcDbCircle
 62
7
  6
CONTINUOUS
 10
10.3529693087
 20
9.2437468363
 40
0.10042489
100
AcDbArc
 50
124.5774388997
 51
125.3758479256
  0
ARC
  5
35F
100
AcDbEntity
  8
0
100
AcDbCircle
 62
7
  6
CONTINUOUS
 10
10.3662807808
 20
9.2463718382
 40
0.0980176774
100
AcDbArc
 50
125.2352053897
 51
126.0394635192
  0
ARC
  5
360
100
AcDbEntity
  8
0
100
AcDbCircle
 62
7
  6
CONTINUOUS
 10
10.3775176137
 20
9.2494016034
 40
0.0952618202
100
AcDbArc
 50
126.0386305494
 51
126.850629848
  0
ARC
  5
361
100
AcDbEntity
  8
0
100
AcDbCircle
 62
7
  6
CONTINUOUS
 10
10.3866520377
 20
9.2527893403
 40
0.0922201024
100
AcDbArc
 50
127.0075651348
 51
127.8275582757
  0
ARC
  5
362
100
AcDbEntity
  8
0
100
AcDbCircle
 62
7
  6
CONTINUOUS
 10
10.3646744722
 20
9.2957049886
 40
0.0906553012
100
AcDbArc
 50
160.1878749985
 51
160.7253968735
  0
ARC
  5
363
100
AcDbEntity
  8
0
100
AcDbCircle
 62
7
  6
CONTINUOUS
 10
10.3936726503
 20
9.2564785463
 40
0.0889699299
100
AcDbArc
 50
128.1629606392
 51
128.9909005758
  0
ARC
  5
364
100
AcDbEntity
  8
0
100
AcDbCircle
 62
7
  6
CONTINUOUS
 10
10.3985652581
 20
9.2603799111
 40
0.0856092554
100
AcDbArc
 50
129.5056718
 51
130.3422688553
  0
ARC
  5
365
100
AcDbEntity
  8
0
100
AcDbCircle
 62
7
  6
CONTINUOUS
 10
10.4013754345
 20
9.2644507211
 40
0.0822322035
100
AcDbArc
 50
131.0856727667
 51
131.9283242688
  0
ARC
  5
366
100
AcDbEntity
  8
0
100
AcDbCircle
 62
7
  6
CONTINUOUS
 10
10.4021247993
 20
9.2685832578
 40
0.0789663286
100
AcDbArc
 50
132.8966767451
 51
133.7450106452
  0
ARC
  5
367
100
AcDbEntity
  8
0
100
AcDbCircle
 62
7
  6
CONTINUOUS
 10
10.400914099
 20
9.2727335178
 40
0.0759393453
100
AcDbArc
 50
134.9992658772
 51
135.8482188106
  0
ARC
  5
368
100
AcDbEntity
  8
0
100
AcDbCircle
 62
7
  6
CONTINUOUS
 10
10.3990286787
 20
9.2718297798
 40
0.07448003
100
AcDbArc
 50
133.7513285954
 51
186.9507932379
  0
ARC
  5
369
100
AcDbEntity
  8
0
100
AcDbCircle
 62
7
  6
CONTINUOUS
 10
10.3979488011
 20
9.2767003679
 40
0.0734677849
100
AcDbArc
 50
137.3961289049
 51
138.2402848381
  0
ARC
  5
36A
100
AcDbEntity
  8
0
100
AcDbCircle
 62
7
  6
CONTINUOUS
 10
10.3729032285
 20
9.2907894475
 40
0.0731240488
100
AcDbArc
 50
150.8286577663
 51
151.5455717399
  0
ARC
  5
36B
100
AcDbEntity
  8
0
100
AcDbCircle
 62
7
  6
CONTINUOUS
 10
10.3611096383
 20
9.2960445616
 40
0.0725835599
100
AcDbArc
 50
155.2499050767
 51
155.9451057689
  0
ARC
  5
36C
100
AcDbEntity
  8
0
100
AcDbCircle
 62
7
  6
CONTINUOUS
 10
10.3931649477
 20
9.2806855506
 40
0.0713942667
100
AcDbArc
 50
140.1520266627
 51
140.9848794058
  0
ARC
  5
36D
100
AcDbEntity
  8
0
100
AcDbCircle
 62
7
  6
CONTINUOUS
 10
10.3800878219
 20
9.2877479491
 40
0.0707061525
100
AcDbArc
 50
146.8312606459
 51
147.6037656655
  0
ARC
  5
36E
100
AcDbEntity
  8
0
100
AcDbCircle
 62
7
  6
CONTINUOUS
 10
10.3871250411
 20
9.2843341931
 40
0.070411905
100
AcDbArc
 50
143.2816136327
 51
144.0914267377
  0
ARC
  5
36F
100
AcDbEntity
  8
0
100
AcDbCircle
 62
7
  6
CONTINUOUS
 10
10.6055235169
 20
8.4830808816
 40
0.3180000027
100
AcDbArc
 50
174.8127503334
 51
189.6697388621
  0
ARC
  5
370
100
AcDbEntity
  8
0
100
AcDbCircle
 62
7
  6
CONTINUOUS
 10
10.4484339742
 20
8.5820808804
 40
0.2330000021
100
AcDbArc
 50
236.140811797
 51
254.4826565545
  0
ARC
  5
371
100
AcDbEntity
  8
0
100
AcDbCircle
 62
7
  6
CONTINUOUS
 10
11.0208877269
 20
8.2579014772
 40
0.4888424103
100
AcDbArc
 50
218.6609554855
 51
244.1509412145
  0
ARC
  5
372
100
AcDbEntity
  8
0
100
AcDbCircle
 62
7
  6
CONTINUOUS
 10
10.9311605704
 20
8.1861168054
 40
0.3739337434
100
AcDbArc
 50
194.56496067
 51
218.6609554854
  0
ARC
  5
373
100
AcDbEntity
  8
0
100
AcDbCircle
 62
7
  6
CONTINUOUS
 10
10.8856315264
 20
7.6640319129
 40
0.1
100
AcDbArc
 50
20.3029644135
 51
52.7092061088
  0
ARC
  5
374
100
AcDbEntity
  8
0
100
AcDbCircle
 62
7
  6
CONTINUOUS
 10
11.2514642314
 20
9.0407505054
 40
1.8349999961
100
AcDbArc
 50
173.0492067621
 51
182.3045935724
  0
ARC
  5
375
100
AcDbEntity
  8
0
100
AcDbCircle
 62
7
  6
CONTINUOUS
 10
12.3775247487
 20
11.0581185624
 40
3.6003821792
100
AcDbArc
 50
244.1509412144
 51
245.3456430449
  0
ARC
  5
376
100
AcDbEntity
  8
0
100
AcDbCircle
 62
7
  6
CONTINUOUS
 10
11.4134489596
 20
10.5472808433
 40
1.72
100
AcDbArc
 50
346.9271076843
 51
13.0728923157
  0
ARC
  5
377
100
AcDbEntity
  8
0
100
AcDbCircle
 62
7
  6
CONTINUOUS
 10
10.4362477738
 20
12.2164895735
 40
1.2799987953
100
AcDbArc
 50
260.3991759214
 51
265.9341577357
  0
ARC
  5
378
100
AcDbEntity
  8
0
100
AcDbCircle
 62
7
  6
CONTINUOUS
 10
10.6271182691
 20
10.9580171874
 40
0.1200000078
100
AcDbArc
 50
279.5572384738
 51
312.4190580375
  0
ARC
  5
379
100
AcDbEntity
  8
0
100
AcDbCircle
 62
7
  6
CONTINUOUS
 10
10.6271182691
 20
10.1365444993
 40
0.1200000078
100
AcDbArc
 50
47.5809419627
 51
80.4427615263
  0
ARC
  5
37A
100
AcDbEntity
  8
0
100
AcDbCircle
 62
7
  6
CONTINUOUS
 10
10.3191873976
 20
10.1963738612
 40
0.0999999795
100
AcDbArc
 50
168.3479581848
 51
206.8134717479
  0
ARC
  5
37B
100
AcDbEntity
  8
0
100
AcDbCircle
 62
7
  6
CONTINUOUS
 10
10.4406323003
 20
10.823417741
 40
0.0999986107
100
AcDbArc
 50
138.3880603541
 51
151.8358329121
  0
ARC
  5
37C
100
AcDbEntity
  8
0
100
AcDbCircle
 62
7
  6
CONTINUOUS
 10
10.2970806076
 20
10.2823819898
 40
0.0600306098
100
AcDbArc
 50
75.3017094733
 51
167.0743882525
  0
ARC
  5
37D
100
AcDbEntity
  8
0
100
AcDbCircle
 62
7
  6
CONTINUOUS
 10
10.4053746512
 20
10.8423008335
 40
0.0600033862
100
AcDbArc
 50
151.8413480646
 51
285.9090140851
  0
ARC
  5
37E
100
AcDbEntity
  8
0
100
AcDbCircle
 62
7
  6
CONTINUOUS
 10
13.0499085527
 20
10.9272808433
 40
0.04
100
AcDbArc
 50
13.0728923158
 51
180.0
  0
ARC
  5
37F
100
AcDbEntity
  8
0
100
AcDbCircle
 62
7
  6
CONTINUOUS
 10
13.0499085527
 20
10.1672808433
 40
0.04
100
AcDbArc
 50
180.0
 51
346.9271076842
  0
LINE
  5
380
100
AcDbEntity
  8
0
100
AcDbLine
 62
7
  6
CONTINUOUS
 10
10.2210574719
 20
9.3264320883
 11
10.2210164228
 21
9.3256302548
  0
SPLINE
  5
381
100
AcDbEntity
  8
0
100
AcDbSpline
 62
7
  6
CONTINUOUS
 70
0
 71
3
 72
9
 73
5
 74
0
 42
0.0000001
 43
0.0000001
 44
0.0000000001
 40
0.0
 40
0.0
 40
0.0
 40
0.0
 40
0.4998024267
 40
1.0
 40
1.0
 40
1.0
 40
1.0
 10
10.3353350591
 20
9.4173094216
 30
0.0
 10
10.3314164841
 20
9.4192624575
 30
0.0
 10
10.3230852166
 20
9.4222444809
 30
0.0
 10
10.3142983533
 20
9.423264797
 30
0.0
 10
10.3099165839
 20
9.423264797
 30
0.0
  0
SPLINE
  5
382
100
AcDbEntity
  8
0
100
AcDbSpline
 62
7
  6
CONTINUOUS
 70
0
 71
3
 72
9
 73
5
 74
0
 42
0.0000001
 43
0.0000001
 44
0.0000000001
 40
0.0
 40
0.0
 40
0.0
 40
0.0
 40
0.4998024267
 40
1.0
 40
1.0
 40
1.0
 40
1.0
 10
9.41971198
 20
9.4173094216
 30
0.0
 10
9.4236305551
 20
9.4192624575
 30
0.0
 10
9.4319618226
 20
9.4222444809
 30
0.0
 10
9.4407486859
 20
9.423264797
 30
0.0
 10
9.4451304552
 20
9.423264797
 30
0.0
  0
LINE
  5
383
100
AcDbEntity
  8
0
100
AcDbLine
 62
7
  6
CONTINUOUS
 10
10.221413351
 20
9.3348781681
 11
10.2218190551
 21
9.3537425797
  0
SPLINE
  5
384
100
AcDbEntity
  8
0
100
AcDbSpline
 62
7
  6
CONTINUOUS
 70
0
 71
3
 72
9
 73
5
 74
0
 42
0.0000001
 43
0.0000001
 44
0.0000000001
 40
0.0
 40
0.0
 40
0.0
 40
0.0
 40
0.5691421896
 40
1.0
 40
1.0
 40
1.0
 40
1.0
 10
10.2218190551
 20
9.381105551
 30
0.0
 10
10.2217556799
 20
9.3863963339
 30
0.0
 10
10.221575426
 20
9.3956916722
 30
0.0
 10
10.2212299212
 20
9.4049829908
 30
0.0
 10
10.2210164228
 20
9.4089828665
 30
0.0
  0
LINE
  5
385
100
AcDbEntity
  8
0
100
AcDbLine
 62
7
  6
CONTINUOUS
 10
10.2422307331
 20
9.3264316386
 11
10.2432966751
 21
9.3348773931
  0
SPLINE
  5
386
100
AcDbEntity
  8
0
100
AcDbSpline
 62
7
  6
CONTINUOUS
 70
0
 71
3
 72
9
 73
5
 74
0
 42
0.0000001
 43
0.0000001
 44
0.0000000001
 40
0.0
 40
0.0
 40
0.0
 40
0.0
 40
0.4646252056
 40
1.0
 40
1.0
 40
1.0
 40
1.0
 10
10.2432966751
 20
9.3348773931
 30
0.0
 10
10.2435917438
 20
9.3377906808
 30
0.0
 10
10.2440933375
 20
9.3440745366
 30
0.0
 10
10.2443949945
 20
9.3503705332
 30
0.0
 10
10.244511981
 20
9.3537425797
 30
0.0
  0
SPLINE
  5
387
100
AcDbEntity
  8
0
100
AcDbSpline
 62
7
  6
CONTINUOUS
 70
0
 71
3
 72
11
 73
7
 74
0
 42
0.0000001
 43
0.0000001
 44
0.0000000001
 40
0.0
 40
0.0
 40
0.0
 40
0.0
 40
0.2996451227
 40
0.5679752198
 40
0.8016398039
 40
1.0
 40
1.0
 40
1.0
 40
1.0
 10
10.244511981
 20
9.381105551
 30
0.0
 10
10.2444117173
 20
9.3839000121
 30
0.0
 10
10.2441580383
 20
9.3891948795
 30
0.0
 10
10.2436089813
 20
9.3966564303
 30
0.0
 10
10.2429437088
 20
9.4031590149
 30
0.0
 10
10.2424000649
 20
9.4071550025
 30
0.0
 10
10.2421078262
 20
9.4089828665
 30
0.0
  0
LINE
  5
388
100
AcDbEntity
  8
0
100
AcDbLine
 62
7
  6
CONTINUOUS
 10
10.2617037524
 20
9.3264326061
 11
10.2634749288
 21
9.3348790606
  0
SPLINE
  5
389
100
AcDbEntity
  8
0
100
AcDbSpline
 62
7
  6
CONTINUOUS
 70
0
 71
3
 72
9
 73
5
 74
0
 42
0.0000001
 43
0.0000001
 44
0.0000000001
 40
0.0
 40
0.0
 40
0.0
 40
0.0
 40
0.4655596406
 40
1.0
 40
1.0
 40
1.0
 40
1.0
 10
10.2634749288
 20
9.3348790606
 30
0.0
 10
10.2639636407
 20
9.3377833756
 30
0.0
 10
10.2647967215
 20
9.3440586099
 30
0.0
 10
10.2652992792
 20
9.3503672946
 30
0.0
 10
10.2654938373
 20
9.3537425797
 30
0.0
  0
SPLINE
  5
38A
100
AcDbEntity
  8
0
100
AcDbSpline
 62
7
  6
CONTINUOUS
 70
0
 71
3
 72
11
 73
7
 74
0
 42
0.0000001
 43
0.0000001
 44
0.0000000001
 40
0.0
 40
0.0
 40
0.0
 40
0.0
 40
0.2980612813
 40
0.5657214034
 40
0.7998445906
 40
1.0
 40
1.0
 40
1.0
 40
1.0
 10
10.2654938373
 20
9.381105551
 30
0.0
 10
10.2653270968
 20
9.383902593
 30
0.0
 10
10.2649047254
 20
9.3892058157
 30
0.0
 10
10.2639913445
 20
9.3966717523
 30
0.0
 10
10.2628843194
 20
9.4031794484
 30
0.0
 10
10.261982445
 20
9.4071643183
 30
0.0
 10
10.2614993693
 20
9.4089828665
 30
0.0
  0
SPLINE
  5
38B
100
AcDbEntity
  8
0
100
AcDbSpline
 62
7
  6
CONTINUOUS
 70
0
 71
3
 72
9
 73
5
 74
0
 42
0.0000001
 43
0.0000001
 44
0.0000000001
 40
0.0
 40
0.0
 40
0.0
 40
0.0
 40
0.2433432932
 40
1.0
 40
1.0
 40
1.0
 40
1.0
 10
9.4066730835
 20
9.3264324284
 30
0.0
 10
9.4060091302
 20
9.3270495328
 30
0.0
 10
9.4033435656
 20
9.3296520624
 30
0.0
 10
9.4009479286
 20
9.3325331315
 30
0.0
 10
9.399329068
 20
9.3348403874
 30
0.0
  0
SPLINE
  5
38C
100
AcDbEntity
  8
0
100
AcDbSpline
 62
7
  6
CONTINUOUS
 70
0
 71
3
 72
9
 73
5
 74
0
 42
0.0000001
 43
0.0000001
 44
0.0000000001
 40
0.0
 40
0.0
 40
0.0
 40
0.0
 40
0.2418245196
 40
1.0
 40
1.0
 40
1.0
 40
1.0
 10
9.4086191981
 20
9.4089828665
 30
0.0
 10
9.4079699548
 20
9.408350983
 30
0.0
 10
9.4053550293
 20
9.40566699
 30
0.0
 10
9.4030298009
 20
9.4027023252
 30
0.0
 10
9.4014513097
 20
9.4003408651
 30
0.0
  0
SPLINE
  5
38D
100
AcDbEntity
  8
0
100
AcDbSpline
 62
7
  6
CONTINUOUS
 70
0
 71
3
 72
9
 73
5
 74
0
 42
0.0000001
 43
0.0000001
 44
0.0000000001
 40
0.0
 40
0.0
 40
0.0
 40
0.0
 40
0.2402385475
 40
1.0
 40
1.0
 40
1.0
 40
1.0
 10
9.4119011249
 20
9.4089828665
 30
0.0
 10
9.4113028848
 20
9.408349583
 30
0.0
 10
9.4088831699
 20
9.4056475387
 30
0.0
 10
9.4067534811
 20
9.4026881301
 30
0.0
 10
9.4053109321
 20
9.4003408651
 30
0.0
  0
SPLINE
  5
38E
100
AcDbEntity
  8
0
100
AcDbSpline
 62
7
  6
CONTINUOUS
 70
0
 71
3
 72
9
 73
5
 74
0
 42
0.0000001
 43
0.0000001
 44
0.0000000001
 40
0.0
 40
0.0
 40
0.0
 40
0.0
 40
0.2415559266
 40
1.0
 40
1.0
 40
1.0
 40
1.0
 10
9.4053109321
 20
9.4003408651
 30
0.0
 10
9.4048643223
 20
9.3996141573
 30
0.0
 10
9.4030833627
 20
9.3965644103
 30
0.0
 10
9.401582075
 20
9.3933520039
 30
0.0
 10
9.4006088857
 20
9.3908568864
 30
0.0
  0
SPLINE
  5
38F
100
AcDbEntity
  8
0
100
AcDbSpline
 62
7
  6
CONTINUOUS
 70
0
 71
3
 72
9
 73
5
 74
0
 42
0.0000001
 43
0.0000001
 44
0.0000000001
 40
0.0
 40
0.0
 40
0.0
 40
0.0
 40
0.2291404738
 40
1.0
 40
1.0
 40
1.0
 40
1.0
 10
9.4173539984
 20
9.4089828665
 30
0.0
 10
9.4163154591
 20
9.4077716718
 30
0.0
 10
9.4120508128
 20
9.4022587217
 30
0.0
 10
9.4088955576
 20
9.3959165738
 30
0.0
 10
9.4071042851
 20
9.3908568864
 30
0.0
  0
SPLINE
  5
390
100
AcDbEntity
  8
0
100
AcDbSpline
 62
7
  6
CONTINUOUS
 70
0
 71
3
 72
9
 73
5
 74
0
 42
0.0000001
 43
0.0000001
 44
0.0000000001
 40
0.0
 40
0.0
 40
0.0
 40
0.0
 40
0.2291534
 40
1.0
 40
1.0
 40
1.0
 40
1.0
 10
10.2793851431
 20
9.3264314265
 30
0.0
 10
10.2796130172
 20
9.3270639302
 30
0.0
 10
10.2805626632
 20
9.3298401792
 30
0.0
 10
10.2813366772
 20
9.3326752124
 30
0.0
 10
10.2818529981
 20
9.3348770276
 30
0.0
  0
SPLINE
  5
391
100
AcDbEntity
  8
0
100
AcDbSpline
 62
7
  6
CONTINUOUS
 70
0
 71
3
 72
9
 73
5
 74
0
 42
0.0000001
 43
0.0000001
 44
0.0000000001
 40
0.0
 40
0.0
 40
0.0
 40
0.0
 40
0.4668935109
 40
1.0
 40
1.0
 40
1.0
 40
1.0
 10
10.2818529981
 20
9.3348770276
 30
0.0
 10
10.2825311963
 20
9.3377691574
 30
0.0
 10
10.2836920541
 20
9.3440329571
 30
0.0
 10
10.2843952299
 20
9.3503616086
 30
0.0
 10
10.2846667969
 20
9.3537425797
 30
0.0
  0
SPLINE
  5
392
100
AcDbEntity
  8
0
100
AcDbSpline
 62
7
  6
CONTINUOUS
 70
0
 71
3
 72
9
 73
5
 74
0
 42
0.0000001
 43
0.0000001
 44
0.0000000001
 40
0.0
 40
0.0
 40
0.0
 40
0.0
 40
0.2365909489
 40
1.0
 40
1.0
 40
1.0
 40
1.0
 10
9.4249523945
 20
9.4089828665
 30
0.0
 10
9.4244645598
 20
9.4083462051
 30
0.0
 10
9.4224725256
 20
9.4056019844
 30
0.0
 10
9.4207615386
 20
9.4026570719
 30
0.0
 10
9.4196069286
 20
9.4003408499
 30
0.0
  0
SPLINE
  5
393
100
AcDbEntity
  8
0
100
AcDbSpline
 62
7
  6
CONTINUOUS
 70
0
 71
3
 72
9
 73
5
 74
0
 42
0.0000001
 43
0.0000001
 44
0.0000000001
 40
0.0
 40
0.0
 40
0.0
 40
0.0
 40
0.2390549865
 40
1.0
 40
1.0
 40
1.0
 40
1.0
 10
9.4196069286
 20
9.4003408499
 30
0.0
 10
9.4192433276
 20
9.3996114428
 30
0.0
 10
9.4177842117
 20
9.3965296461
 30
0.0
 10
9.4165755286
 20
9.3933303698
 30
0.0
 10
9.4157930041
 20
9.3908569141
 30
0.0
  0
SPLINE
  5
394
100
AcDbEntity
  8
0
100
AcDbSpline
 62
7
  6
CONTINUOUS
 70
0
 71
3
 72
11
 73
7
 74
0
 42
0.0000001
 43
0.0000001
 44
0.0000000001
 40
0.0
 40
0.0
 40
0.0
 40
0.0
 40
0.2958043748
 40
0.5625196899
 40
0.7973054963
 40
1.0
 40
1.0
 40
1.0
 40
1.0
 10
10.2846667969
 20
9.381105551
 30
0.0
 10
10.2844341351
 20
9.3839063785
 30
0.0
 10
10.2838437686
 20
9.3892217406
 30
0.0
 10
10.2825687924
 20
9.3966936647
 30
0.0
 10
10.2810229667
 20
9.403208017
 30
0.0
 10
10.279769169
 20
9.4071768007
 30
0.0
 10
10.2791006397
 20
9.4089828665
 30
0.0
  0
SPLINE
  5
395
100
AcDbEntity
  8
0
100
AcDbSpline
 62
7
  6
CONTINUOUS
 70
0
 71
3
 72
9
 73
5
 74
0
 42
0.0000001
 43
0.0000001
 44
0.0000000001
 40
0.0
 40
0.0
 40
0.0
 40
0.0
 40
0.2345832095
 40
1.0
 40
1.0
 40
1.0
 40
1.0
 10
9.4346608862
 20
9.4089828665
 30
0.0
 10
9.4342320828
 20
9.4083442482
 30
0.0
 10
9.4324721395
 20
9.4055764522
 30
0.0
 10
9.4309813692
 20
9.4026408847
 30
0.0
 10
9.429976662
 20
9.4003408651
 30
0.0
  0
SPLINE
  5
396
100
AcDbEntity
  8
0
100
AcDbSpline
 62
7
  6
CONTINUOUS
 70
0
 71
3
 72
9
 73
5
 74
0
 42
0.0000001
 43
0.0000001
 44
0.0000000001
 40
0.0
 40
0.0
 40
0.0
 40
0.0
 40
0.4719961113
 40
1.0
 40
1.0
 40
1.0
 40
1.0
 10
9.429976662
 20
9.4003408651
 30
0.0
 10
9.4287155196
 20
9.3974538031
 30
0.0
 10
9.4264903241
 20
9.3911372311
 30
0.0
 10
9.4250891813
 20
9.3845905437
 30
0.0
 10
9.4245640467
 20
9.381105551
 30
0.0
  0
SPLINE
  5
397
100
AcDbEntity
  8
0
100
AcDbSpline
 62
7
  6
CONTINUOUS
 70
0
 71
3
 72
9
 73
5
 74
0
 42
0.0000001
 43
0.0000001
 44
0.0000000001
 40
0.0
 40
0.0
 40
0.0
 40
0.0
 40
0.2325250311
 40
1.0
 40
1.0
 40
1.0
 40
1.0
 10
9.4464342079
 20
9.4089828665
 30
0.0
 10
9.4460667386
 20
9.408342163
 30
0.0
 10
9.4445507932
 20
9.4055499425
 30
0.0
 10
9.4432852878
 20
9.4026248928
 30
0.0
 10
9.4424330585
 20
9.4003408651
 30
0.0
  0
SPLINE
  5
398
100
AcDbEntity
  8
0
100
AcDbSpline
 62
7
  6
CONTINUOUS
 70
0
 71
3
 72
9
 73
5
 74
0
 42
0.0000001
 43
0.0000001
 44
0.0000000001
 40
0.0
 40
0.0
 40
0.0
 40
0.0
 40
0.4696417743
 40
1.0
 40
1.0
 40
1.0
 40
1.0
 10
9.4424330585
 20
9.4003408651
 30
0.0
 10
9.4413486645
 20
9.3974346217
 30
0.0
 10
9.4394449297
 20
9.3910920535
 30
0.0
 10
9.4382569199
 20
9.3845798805
 30
0.0
 10
9.4378097353
 20
9.381105551
 30
0.0
  0
SPLINE
  5
399
100
AcDbEntity
  8
0
100
AcDbSpline
 62
7
  6
CONTINUOUS
 70
0
 71
3
 72
11
 73
7
 74
0
 42
0.0000001
 43
0.0000001
 44
0.0000000001
 40
0.0
 40
0.0
 40
0.0
 40
0.0
 40
0.2058333804
 40
0.441485852
 40
0.7070211398
 40
1.0
 40
1.0
 40
1.0
 40
1.0
 10
9.4602174669
 20
9.4089828665
 30
0.0
 10
9.4593700229
 20
9.4071910466
 30
0.0
 10
9.4577728212
 20
9.4032421869
 30
0.0
 10
9.4557929569
 20
9.3967203811
 30
0.0
 10
9.4541604006
 20
9.3892415835
 30
0.0
 10
9.4534033457
 20
9.3839110933
 30
0.0
 10
9.4531055726
 20
9.381105551
 30
0.0
  0
SPLINE
  5
39A
100
AcDbEntity
  8
0
100
AcDbSpline
 62
7
  6
CONTINUOUS
 70
0
 71
3
 72
11
 73
7
 74
0
 42
0.0000001
 43
0.0000001
 44
0.0000000001
 40
0.0
 40
0.0
 40
0.0
 40
0.0
 40
0.2027059055
 40
0.4375200381
 40
0.7042141593
 40
1.0
 40
1.0
 40
1.0
 40
1.0
 10
9.4759463994
 20
9.4089828665
 30
0.0
 10
9.4752778324
 20
9.4071766986
 30
0.0
 10
9.4740238715
 20
9.4032075675
 30
0.0
 10
9.4724781195
 20
9.3966930135
 30
0.0
 10
9.471203083
 20
9.3892212083
 30
0.0
 10
9.4706128896
 20
9.3839062039
 30
0.0
 10
9.4703802423
 20
9.381105551
 30
0.0
  0
SPLINE
  5
39B
100
AcDbEntity
  8
0
100
AcDbSpline
 62
7
  6
CONTINUOUS
 70
0
 71
3
 72
11
 73
7
 74
0
 42
0.0000001
 43
0.0000001
 44
0.0000000001
 40
0.0
 40
0.0
 40
0.0
 40
0.0
 40
0.2001665796
 40
0.4343182739
 40
0.7019571873
 40
1.0
 40
1.0
 40
1.0
 40
1.0
 10
9.4935476699
 20
9.4089828665
 30
0.0
 10
9.4930645672
 20
9.4071642165
 30
0.0
 10
9.4921625737
 20
9.4031789896
 30
0.0
 10
9.4910556044
 20
9.3966711062
 30
0.0
 10
9.4901421786
 20
9.3892052801
 30
0.0
 10
9.4897199321
 20
9.3839024201
 30
0.0
 10
9.4895532018
 20
9.381105551
 30
0.0
  0
SPLINE
  5
39C
100
AcDbEntity
  8
0
100
AcDbSpline
 62
7
  6
CONTINUOUS
 70
0
 71
3
 72
9
 73
5
 74
0
 42
0.0000001
 43
0.0000001
 44
0.0000000001
 40
0.0
 40
0.0
 40
0.0
 40
0.0
 40
0.2309392358
 40
1.0
 40
1.0
 40
1.0
 40
1.0
 10
10.2951934242
 20
9.3264324849
 30
0.0
 10
10.2954837547
 20
9.3270632298
 30
0.0
 10
10.2966883722
 20
9.3298185297
 30
0.0
 10
10.2976832418
 20
9.3326638186
 30
0.0
 10
10.2983468614
 20
9.3348788517
 30
0.0
  0
SPLINE
  5
39D
100
AcDbEntity
  8
0
100
AcDbSpline
 62
7
  6
CONTINUOUS
 70
0
 71
3
 72
9
 73
5
 74
0
 42
0.0000001
 43
0.0000001
 44
0.0000000001
 40
0.0
 40
0.0
 40
0.0
 40
0.0
 40
0.4686068871
 40
1.0
 40
1.0
 40
1.0
 40
1.0
 10
10.2983468614
 20
9.3348788517
 30
0.0
 10
10.2992086618
 20
9.3377553739
 30
0.0
 10
10.3006907652
 20
9.3440025793
 30
0.0
 10
10.301593826
 20
9.3503551906
 30
0.0
 10
10.3019414666
 20
9.3537425797
 30
0.0
  0
SPLINE
  5
39E
100
AcDbEntity
  8
0
100
AcDbSpline
 62
7
  6
CONTINUOUS
 70
0
 71
3
 72
11
 73
7
 74
0
 42
0.0000001
 43
0.0000001
 44
0.0000000001
 40
0.0
 40
0.0
 40
0.0
 40
0.0
 40
0.1983712013
 40
0.4320644217
 40
0.7003733001
 40
1.0
 40
1.0
 40
1.0
 40
1.0
 10
9.5129392129
 20
9.4089828665
 30
0.0
 10
9.512646958
 20
9.407154901
 30
0.0
 10
9.5121032417
 20
9.4031585493
 30
0.0
 10
9.5114380039
 20
9.3966557877
 30
0.0
 10
9.5108889193
 20
9.3891943417
 30
0.0
 10
9.5106353157
 20
9.3838998405
 30
0.0
 10
9.5105350581
 20
9.381105551
 30
0.0
  0
SPLINE
  5
39F
100
AcDbEntity
  8
0
100
AcDbSpline
 62
7
  6
CONTINUOUS
 70
0
 71
3
 72
11
 73
7
 74
0
 42
0.0000001
 43
0.0000001
 44
0.0000000001
 40
0.0
 40
0.0
 40
0.0
 40
0.0
 40
0.2929974761
 40
0.5585539388
 40
0.7941783041
 40
1.0
 40
1.0
 40
1.0
 40
1.0
 10
10.3019414666
 20
9.381105551
 30
0.0
 10
10.3016436747
 20
9.3839112702
 30
0.0
 10
10.3008863998
 20
9.3892421118
 30
0.0
 10
10.2992539176
 20
9.3967210383
 30
0.0
 10
10.297273965
 20
9.403242625
 30
0.0
 10
10.2956769678
 20
9.4071911492
 30
0.0
 10
10.2948295722
 20
9.4089828665
 30
0.0
  0
SPLINE
  5
3A0
100
AcDbEntity
  8
0
100
AcDbSpline
 62
7
  6
CONTINUOUS
 70
0
 71
3
 72
9
 73
5
 74
0
 42
0.0000001
 43
0.0000001
 44
0.0000000001
 40
0.0
 40
0.0
 40
0.0
 40
0.0
 40
0.4308974327
 40
1.0
 40
1.0
 40
1.0
 40
1.0
 10
9.5340306164
 20
9.4089828665
 30
0.0
 10
9.5338170984
 20
9.4049826229
 30
0.0
 10
9.5334715971
 20
9.395691304
 30
0.0
 10
9.5332913549
 20
9.3863959656
 30
0.0
 10
9.533227984
 20
9.381105551
 30
0.0
  0
LINE
  5
3A1
100
AcDbEntity
  8
0
100
AcDbLine
 62
7
  6
CONTINUOUS
 10
10.3090537966
 20
9.3264317898
 11
10.3111502973
 21
9.3306121375
  0
SPLINE
  5
3A2
100
AcDbEntity
  8
0
100
AcDbSpline
 62
7
  6
CONTINUOUS
 70
0
 71
3
 72
9
 73
5
 74
0
 42
0.0000001
 43
0.0000001
 44
0.0000000001
 40
0.0
 40
0.0
 40
0.0
 40
0.0
 40
0.4706085458
 40
1.0
 40
1.0
 40
1.0
 40
1.0
 10
10.3128777152
 20
9.3348776536
 30
0.0
 10
10.313916544
 20
9.3377368134
 30
0.0
 10
10.315712732
 20
9.3439646712
 30
0.0
 10
10.3168146782
 20
9.3503467703
 30
0.0
 10
10.3172373038
 20
9.3537425797
 30
0.0
  0
SPLINE
  5
3A3
100
AcDbEntity
  8
0
100
AcDbSpline
 62
7
  6
CONTINUOUS
 70
0
 71
3
 72
9
 73
5
 74
0
 42
0.0000001
 43
0.0000001
 44
0.0000000001
 40
0.0
 40
0.0
 40
0.0
 40
0.0
 40
0.5308497642
 40
1.0
 40
1.0
 40
1.0
 40
1.0
 10
10.3172373038
 20
9.381105551
 30
0.0
 10
10.316784879
 20
9.3846205941
 30
0.0
 10
10.3155799185
 20
9.3912025821
 30
0.0
 10
10.3136427287
 20
9.3976101522
 30
0.0
 10
10.3125387964
 20
9.4005412835
 30
0.0
  0
SPLINE
  5
3A4
100
AcDbEntity
  8
0
100
AcDbSpline
 62
7
  6
CONTINUOUS
 70
0
 71
3
 72
9
 73
5
 74
0
 42
0.0000001
 43
0.0000001
 44
0.0000000001
 40
0.0
 40
0.0
 40
0.0
 40
0.0
 40
0.2674505568
 40
1.0
 40
1.0
 40
1.0
 40
1.0
 10
10.3125387964
 20
9.4005412835
 30
0.0
 10
10.3122460952
 20
9.4013184558
 30
0.0
 10
10.3110999198
 20
9.4042041547
 30
0.0
 10
10.3097445128
 20
9.4070097157
 30
0.0
 10
10.3086128313
 20
9.4089828665
 30
0.0
  0
SPLINE
  5
3A5
100
AcDbEntity
  8
0
100
AcDbSpline
 62
7
  6
CONTINUOUS
 70
0
 71
3
 72
9
 73
5
 74
0
 42
0.0000001
 43
0.0000001
 44
0.0000000001
 40
0.0
 40
0.0
 40
0.0
 40
0.0
 40
0.4728039161
 40
1.0
 40
1.0
 40
1.0
 40
1.0
 10
10.3253729566
 20
9.3348640946
 30
0.0
 10
10.3265826969
 20
9.3377059924
 30
0.0
 10
10.3286865783
 20
9.3439149467
 30
0.0
 10
10.3299864391
 20
9.3503345732
 30
0.0
 10
10.3304829925
 20
9.3537425797
 30
0.0
  0
SPLINE
  5
3A6
100
AcDbEntity
  8
0
100
AcDbSpline
 62
7
  6
CONTINUOUS
 70
0
 71
3
 72
9
 73
5
 74
0
 42
0.0000001
 43
0.0000001
 44
0.0000000001
 40
0.0
 40
0.0
 40
0.0
 40
0.0
 40
0.5284533185
 40
1.0
 40
1.0
 40
1.0
 40
1.0
 10
10.3304829925
 20
9.381105551
 30
0.0
 10
10.3299516682
 20
9.3846316207
 30
0.0
 10
10.3285302765
 20
9.3912492815
 30
0.0
 10
10.326265906
 20
9.3976302687
 30
0.0
 10
10.324982175
 20
9.4005416977
 30
0.0
  0
SPLINE
  5
3A7
100
AcDbEntity
  8
0
100
AcDbSpline
 62
7
  6
CONTINUOUS
 70
0
 71
3
 72
9
 73
5
 74
0
 42
0.0000001
 43
0.0000001
 44
0.0000000001
 40
0.0
 40
0.0
 40
0.0
 40
0.0
 40
0.2654924285
 40
1.0
 40
1.0
 40
1.0
 40
1.0
 10
10.324982175
 20
9.4005416977
 30
0.0
 10
10.3246387661
 20
9.4013205295
 30
0.0
 10
10.3232868103
 20
9.4042275284
 30
0.0
 10
10.3216988704
 20
9.4070278321
 30
0.0
 10
10.320386153
 20
9.4089828665
 30
0.0
  0
SPLINE
  5
3A8
100
AcDbEntity
  8
0
100
AcDbSpline
 62
7
  6
CONTINUOUS
 70
0
 71
3
 72
9
 73
5
 74
0
 42
0.0000001
 43
0.0000001
 44
0.0000000001
 40
0.0
 40
0.0
 40
0.0
 40
0.0
 40
0.4741849374
 40
1.0
 40
1.0
 40
1.0
 40
1.0
 10
10.3328376088
 20
9.3295637209
 30
0.0
 10
10.3341859947
 20
9.331691592
 30
0.0
 10
10.3366999884
 20
9.3363937209
 30
0.0
 10
10.3385526075
 20
9.3413907942
 30
0.0
 10
10.3393660357
 20
9.3440631474
 30
0.0
  0
SPLINE
  5
3A9
100
AcDbEntity
  8
0
100
AcDbSpline
 62
7
  6
CONTINUOUS
 70
0
 71
3
 72
9
 73
5
 74
0
 42
0.0000001
 43
0.0000001
 44
0.0000000001
 40
0.0
 40
0.0
 40
0.0
 40
0.0
 40
0.2427094909
 40
1.0
 40
1.0
 40
1.0
 40
1.0
 10
10.3393660357
 20
9.3440631474
 30
0.0
 10
10.3396002473
 20
9.3448326018
 30
0.0
 10
10.3405100062
 20
9.3480195004
 30
0.0
 10
10.3412051605
 20
9.3512669953
 30
0.0
 10
10.3416167749
 20
9.3537425797
 30
0.0
  0
SPLINE
  5
3AA
100
AcDbEntity
  8
0
100
AcDbSpline
 62
7
  6
CONTINUOUS
 70
0
 71
3
 72
9
 73
5
 74
0
 42
0.0000001
 43
0.0000001
 44
0.0000000001
 40
0.0
 40
0.0
 40
0.0
 40
0.0
 40
0.2612468666
 40
1.0
 40
1.0
 40
1.0
 40
1.0
 10
10.3391717201
 20
9.3911148901
 30
0.0
 10
10.338901055
 20
9.3919591805
 30
0.0
 10
10.3378042693
 20
9.3951710322
 30
0.0
 10
10.336466559
 20
9.3983016446
 30
0.0
 10
10.3353396589
 20
9.4005412835
 30
0.0
  0
SPLINE
  5
3AB
100
AcDbEntity
  8
0
100
AcDbSpline
 62
7
  6
CONTINUOUS
 70
0
 71
3
 72
9
 73
5
 74
0
 42
0.0000001
 43
0.0000001
 44
0.0000000001
 40
0.0
 40
0.0
 40
0.0
 40
0.0
 40
0.2635645765
 40
1.0
 40
1.0
 40
1.0
 40
1.0
 10
10.3353396589
 20
9.4005412835
 30
0.0
 10
10.3349468911
 20
9.4013218834
 30
0.0
 10
10.3333924197
 20
9.4042504417
 30
0.0
 10
10.3315796923
 20
9.4070447663
 30
0.0
 10
10.3300946446
 20
9.4089828665
 30
0.0
  0
SPLINE
  5
3AC
100
AcDbEntity
  8
0
100
AcDbSpline
 62
7
  6
CONTINUOUS
 70
0
 71
3
 72
9
 73
5
 74
0
 42
0.0000001
 43
0.0000001
 44
0.0000000001
 40
0.0
 40
0.0
 40
0.0
 40
0.0
 40
0.4756673976
 40
1.0
 40
1.0
 40
1.0
 40
1.0
 10
10.3401811073
 20
9.3287603398
 30
0.0
 10
10.3418079576
 20
9.3309623637
 30
0.0
 10
10.344853593
 20
9.335877763
 30
0.0
 10
10.3470949683
 20
9.3412062806
 30
0.0
 10
10.3480680436
 20
9.3440630029
 30
0.0
  0
SPLINE
  5
3AD
100
AcDbEntity
  8
0
100
AcDbSpline
 62
7
  6
CONTINUOUS
 70
0
 71
3
 72
9
 73
5
 74
0
 42
0.0000001
 43
0.0000001
 44
0.0000000001
 40
0.0
 40
0.0
 40
0.0
 40
0.0
 40
0.2434191547
 40
1.0
 40
1.0
 40
1.0
 40
1.0
 10
10.3480680436
 20
9.3440630029
 30
0.0
 10
10.3483298431
 20
9.3448315853
 30
0.0
 10
10.3493451472
 20
9.3480093025
 30
0.0
 10
10.3501251088
 20
9.3512615154
 30
0.0
 10
10.3505867404
 20
9.3537425797
 30
0.0
  0
SPLINE
  5
3AE
100
AcDbEntity
  8
0
100
AcDbSpline
 62
7
  6
CONTINUOUS
 70
0
 71
3
 72
9
 73
5
 74
0
 42
0.0000001
 43
0.0000001
 44
0.0000000001
 40
0.0
 40
0.0
 40
0.0
 40
0.0
 40
0.272147675
 40
1.0
 40
1.0
 40
1.0
 40
1.0
 10
10.3478506315
 20
9.3911148901
 30
0.0
 10
10.3472190853
 20
9.3928753249
 30
0.0
 10
10.3446232085
 20
9.3992387664
 30
0.0
 10
10.3409489998
 20
9.4051856095
 30
0.0
 10
10.3376930408
 20
9.4089828665
 30
0.0
  0
SPLINE
  5
3AF
100
AcDbEntity
  8
0
100
AcDbSpline
 62
7
  6
CONTINUOUS
 70
0
 71
3
 72
9
 73
5
 74
0
 42
0.0000001
 43
0.0000001
 44
0.0000000001
 40
0.0
 40
0.0
 40
0.0
 40
0.0
 40
0.2415053585
 40
1.0
 40
1.0
 40
1.0
 40
1.0
 10
10.3501714043
 20
9.3348790495
 30
0.0
 10
10.3505927756
 20
9.3355832051
 30
0.0
 10
10.352269478
 20
9.3385392436
 30
0.0
 10
10.3536707577
 20
9.3416502756
 30
0.0
 10
10.3545762475
 20
9.3440632345
 30
0.0
  0
SPLINE
  5
3B0
100
AcDbEntity
  8
0
100
AcDbSpline
 62
7
  6
CONTINUOUS
 70
0
 71
3
 72
9
 73
5
 74
0
 42
0.0000001
 43
0.0000001
 44
0.0000000001
 40
0.0
 40
0.0
 40
0.0
 40
0.0
 40
0.244994347
 40
1.0
 40
1.0
 40
1.0
 40
1.0
 10
10.3545762475
 20
9.3440632345
 30
0.0
 10
10.3548107529
 20
9.344688147
 30
0.0
 10
10.3557253433
 20
9.3472546965
 30
0.0
 10
10.3564717941
 20
9.3498807978
 30
0.0
 10
10.3569422136
 20
9.3518832256
 30
0.0
  0
SPLINE
  5
3B1
100
AcDbEntity
  8
0
100
AcDbSpline
 62
7
  6
CONTINUOUS
 70
0
 71
3
 72
9
 73
5
 74
0
 42
0.0000001
 43
0.0000001
 44
0.0000000001
 40
0.0
 40
0.0
 40
0.0
 40
0.0
 40
0.2588323502
 40
1.0
 40
1.0
 40
1.0
 40
1.0
 10
10.3543366609
 20
9.3911148901
 30
0.0
 10
10.3540020284
 20
9.3919615609
 30
0.0
 10
10.3526367783
 20
9.3952035368
 30
0.0
 10
10.350986495
 20
9.3983259639
 30
0.0
 10
10.3496122729
 20
9.4005412835
 30
0.0
  0
SPLINE
  5
3B2
100
AcDbEntity
  8
0
100
AcDbSpline
 62
7
  6
CONTINUOUS
 70
0
 71
3
 72
9
 73
5
 74
0
 42
0.0000001
 43
0.0000001
 44
0.0000000001
 40
0.0
 40
0.0
 40
0.0
 40
0.0
 40
0.2600131016
 40
1.0
 40
1.0
 40
1.0
 40
1.0
 10
10.3496122729
 20
9.4005412835
 30
0.0
 10
10.3491259819
 20
9.4013252107
 30
0.0
 10
10.3471825393
 20
9.404293915
 30
0.0
 10
10.3449488112
 20
9.4070743601
 30
0.0
 10
10.3431459142
 20
9.4089828665
 30
0.0
  0
SPLINE
  5
3B3
100
AcDbEntity
  8
0
100
AcDbSpline
 62
7
  6
CONTINUOUS
 70
0
 71
3
 72
9
 73
5
 74
0
 42
0.0000001
 43
0.0000001
 44
0.0000000001
 40
0.0
 40
0.0
 40
0.0
 40
0.0
 40
0.2426942474
 40
1.0
 40
1.0
 40
1.0
 40
1.0
 10
10.3540677628
 20
9.3348770368
 30
0.0
 10
10.3545253904
 20
9.3355800929
 30
0.0
 10
10.3563409665
 20
9.3385220758
 30
0.0
 10
10.3578708641
 20
9.3416394341
 30
0.0
 10
10.3588600766
 20
9.3440629574
 30
0.0
  0
SPLINE
  5
3B4
100
AcDbEntity
  8
0
100
AcDbSpline
 62
7
  6
CONTINUOUS
 70
0
 71
3
 72
9
 73
5
 74
0
 42
0.0000001
 43
0.0000001
 44
0.0000000001
 40
0.0
 40
0.0
 40
0.0
 40
0.0
 40
0.2584493022
 40
1.0
 40
1.0
 40
1.0
 40
1.0
 10
10.3534610401
 20
9.4005412835
 30
0.0
 10
10.3529310897
 20
9.4013267389
 30
0.0
 10
10.3508040926
 20
9.4043133941
 30
0.0
 10
10.3483760823
 20
9.4070867181
 30
0.0
 10
10.3464278411
 20
9.4089828665
 30
0.0
  0
LINE
  5
3B5
100
AcDbEntity
  8
0
100
AcDbLine
 62
7
  6
CONTINUOUS
 10
9.5340306164
 20
9.3256300177
 11
9.5339895838
 21
9.3264316251
  0
SPLINE
  5
3B6
100
AcDbEntity
  8
0
100
AcDbSpline
 62
7
  6
CONTINUOUS
 70
0
 71
3
 72
9
 73
5
 74
0
 42
0.0000001
 43
0.0000001
 44
0.0000000001
 40
0.0
 40
0.0
 40
0.0
 40
0.0
 40
0.2433162447
 40
1.0
 40
1.0
 40
1.0
 40
1.0
 10
10.3483739557
 20
9.3264324284
 30
0.0
 10
10.3490406115
 20
9.3270520446
 30
0.0
 10
10.3517170658
 20
9.3296657252
 30
0.0
 10
10.3541212693
 20
9.3325602997
 30
0.0
 10
10.355744865
 20
9.3348787542
 30
0.0
  0
SPLINE
  5
3B7
100
AcDbEntity
  8
0
100
AcDbSpline
 62
7
  6
CONTINUOUS
 70
0
 71
3
 72
9
 73
5
 74
0
 42
0.0000001
 43
0.0000001
 44
0.0000000001
 40
0.0
 40
0.0
 40
0.0
 40
0.0
 40
0.2433741762
 40
1.0
 40
1.0
 40
1.0
 40
1.0
 10
10.3483741267
 20
9.3264325988
 30
0.0
 10
10.3490353694
 20
9.3270471893
 30
0.0
 10
10.3516899971
 20
9.3296384904
 30
0.0
 10
10.354077039
 20
9.3325059792
 30
0.0
 10
10.3556910414
 20
9.3348020247
 30
0.0
  0
SPLINE
  5
3B8
100
AcDbEntity
  8
0
100
AcDbSpline
 62
7
  6
CONTINUOUS
 70
0
 71
3
 72
21
 73
17
 74
0
 42
0.0000001
 43
0.0000001
 44
0.0000000001
 40
0.0
 40
0.0
 40
0.0
 40
0.0
 40
0.1248135601
 40
0.1874302948
 40
0.2499756127
 40
0.3124239272
 40
0.3748741954
 40
0.4374222502
 40
0.500039833
 40
0.5626388282
 40
0.6251458252
 40
0.6875770464
 40
0.7500596713
 40
0.8126413848
 40
0.875263206
 40
1.0
 40
1.0
 40
1.0
 40
1.0
 10
10.345492356
 20
10.9397123239
 30
0.0
 10
10.348264808
 20
10.9395152053
 30
0.0
 10
10.3524128633
 20
10.9386194084
 30
0.0
 10
10.3575169753
 20
10.9363705405
 30
0.0
 10
10.3610890684
 20
10.9341763004
 30
0.0
 10
10.3643156661
 20
10.9315056035
 30
0.0
 10
10.3671167263
 20
10.9283909671
 30
0.0
 10
10.3694561887
 20
10.9249135852
 30
0.0
 10
10.371303367
 20
10.9211481567
 30
0.0
 10
10.3726255167
 20
10.9171688686
 30
0.0
 10
10.3733906679
 20
10.9130494198
 30
0.0
 10
10.3735582927
 20
10.9088641739
 30
0.0
 10
10.3731174795
 20
10.9046983476
 30
0.0
 10
10.3721058874
 20
10.9006285465
 30
0.0
 10
10.3700439322
 20
10.8954472098
 30
0.0
 10
10.3677119708
 20
10.8919017276
 30
0.0
 10
10.3658673445
 20
10.8898249033
 30
0.0
  0
SPLINE
  5
3B9
100
AcDbEntity
  8
0
100
AcDbSpline
 62
7
  6
CONTINUOUS
 70
0
 71
3
 72
9
 73
5
 74
0
 42
0.0000001
 43
0.0000001
 44
0.0000000001
 40
0.0
 40
0.0
 40
0.0
 40
0.0
 40
0.2433471021
 40
1.0
 40
1.0
 40
1.0
 40
1.0
 10
9.4066729124
 20
9.3264325988
 30
0.0
 10
9.4060089658
 20
9.3270497025
 30
0.0
 10
9.4033434427
 20
9.3296521561
 30
0.0
 10
9.4009478193
 20
9.3325331428
 30
0.0
 10
9.3993290622
 20
9.3348403795
 30
0.0
  0
SPLINE
  5
3BA
100
AcDbEntity
  8
0
100
AcDbSpline
 62
7
  6
CONTINUOUS
 70
0
 71
3
 72
9
 73
5
 74
0
 42
0.0000001
 43
0.0000001
 44
0.0000000001
 40
0.0
 40
0.0
 40
0.0
 40
0.0
 40
0.2426860143
 40
1.0
 40
1.0
 40
1.0
 40
1.0
 10
9.4010290998
 20
9.3348005065
 30
0.0
 10
9.4005708837
 20
9.3355018127
 30
0.0
 10
9.398752604
 20
9.3384367166
 30
0.0
 10
9.3972192006
 20
9.341547187
 30
0.0
 10
9.3962268946
 20
9.3439657128
 30
0.0
  0
SPLINE
  5
3BB
100
AcDbEntity
  8
0
100
AcDbSpline
 62
7
  6
CONTINUOUS
 70
0
 71
3
 72
9
 73
5
 74
0
 42
0.0000001
 43
0.0000001
 44
0.0000000001
 40
0.0
 40
0.0
 40
0.0
 40
0.0
 40
0.2414953489
 40
1.0
 40
1.0
 40
1.0
 40
1.0
 10
9.404922137
 20
9.3348015103
 30
0.0
 10
9.4045001681
 20
9.3355039787
 30
0.0
 10
9.4028207144
 20
9.3384531854
 30
0.0
 10
9.401415982
 20
9.3415576116
 30
0.0
 10
9.4005075606
 20
9.3439657936
 30
0.0
  0
SPLINE
  5
3BC
100
AcDbEntity
  8
0
100
AcDbSpline
 62
7
  6
CONTINUOUS
 70
0
 71
3
 72
9
 73
5
 74
0
 42
0.0000001
 43
0.0000001
 44
0.0000000001
 40
0.0
 40
0.0
 40
0.0
 40
0.0
 40
0.244921184
 40
1.0
 40
1.0
 40
1.0
 40
1.0
 10
9.4005075606
 20
9.3439657936
 30
0.0
 10
9.4002692273
 20
9.3445976039
 30
0.0
 10
9.3993397649
 20
9.3471935496
 30
0.0
 10
9.3985825322
 20
9.3498507805
 30
0.0
 10
9.3981062145
 20
9.3518773727
 30
0.0
  0
SPLINE
  5
3BD
100
AcDbEntity
  8
0
100
AcDbSpline
 62
7
  6
CONTINUOUS
 70
0
 71
3
 72
9
 73
5
 74
0
 42
0.0000001
 43
0.0000001
 44
0.0000000001
 40
0.0
 40
0.0
 40
0.0
 40
0.0
 40
0.4757859375
 40
1.0
 40
1.0
 40
1.0
 40
1.0
 10
9.4148618914
 20
9.3287659121
 30
0.0
 10
9.4132451665
 20
9.330954707
 30
0.0
 10
9.4102170659
 20
9.3358375511
 30
0.0
 10
9.4079834926
 20
9.3411293542
 30
0.0
 10
9.4070123014
 20
9.3439658118
 30
0.0
  0
SPLINE
  5
3BE
100
AcDbEntity
  8
0
100
AcDbSpline
 62
7
  6
CONTINUOUS
 70
0
 71
3
 72
9
 73
5
 74
0
 42
0.0000001
 43
0.0000001
 44
0.0000000001
 40
0.0
 40
0.0
 40
0.0
 40
0.0
 40
0.2433347034
 40
1.0
 40
1.0
 40
1.0
 40
1.0
 10
9.4070123014
 20
9.3439658118
 30
0.0
 10
9.4067466797
 20
9.3447415858
 30
0.0
 10
9.4057165636
 20
9.3479504859
 30
0.0
 10
9.4049267159
 20
9.3512357955
 30
0.0
 10
9.4044602987
 20
9.3537425797
 30
0.0
  0
SPLINE
  5
3BF
100
AcDbEntity
  8
0
100
AcDbSpline
 62
7
  6
CONTINUOUS
 70
0
 71
3
 72
9
 73
5
 74
0
 42
0.0000001
 43
0.0000001
 44
0.0000000001
 40
0.0
 40
0.0
 40
0.0
 40
0.0
 40
0.4743281761
 40
1.0
 40
1.0
 40
1.0
 40
1.0
 10
9.4222046621
 20
9.3295710581
 30
0.0
 10
9.4208655895
 20
9.3316850487
 30
0.0
 10
9.4183677188
 20
9.3363536012
 30
0.0
 10
9.4165222822
 20
9.3413137166
 30
0.0
 10
9.4157108501
 20
9.3439656401
 30
0.0
  0
SPLINE
  5
3C0
100
AcDbEntity
  8
0
100
AcDbSpline
 62
7
  6
CONTINUOUS
 70
0
 71
3
 72
9
 73
5
 74
0
 42
0.0000001
 43
0.0000001
 44
0.0000000001
 40
0.0
 40
0.0
 40
0.0
 40
0.0
 40
0.2426138466
 40
1.0
 40
1.0
 40
1.0
 40
1.0
 10
9.4157108501
 20
9.3439656401
 30
0.0
 10
9.4154732004
 20
9.344742327
 30
0.0
 10
9.4145500866
 20
9.347960734
 30
0.0
 10
9.4138461487
 20
9.3512413137
 30
0.0
 10
9.4134302642
 20
9.3537425797
 30
0.0
  0
SPLINE
  5
3C1
100
AcDbEntity
  8
0
100
AcDbSpline
 62
7
  6
CONTINUOUS
 70
0
 71
3
 72
9
 73
5
 74
0
 42
0.0000001
 43
0.0000001
 44
0.0000000001
 40
0.0
 40
0.0
 40
0.0
 40
0.0
 40
0.472672434
 40
1.0
 40
1.0
 40
1.0
 40
1.0
 10
9.4297000671
 20
9.3348020681
 30
0.0
 10
9.4284834439
 20
9.3376515878
 30
0.0
 10
9.4263686944
 20
9.3438807542
 30
0.0
 10
9.425062424
 20
9.3503220549
 30
0.0
 10
9.4245640467
 20
9.3537425797
 30
0.0
  0
LINE
  5
3C2
100
AcDbEntity
  8
0
100
AcDbLine
 62
7
  6
CONTINUOUS
 10
9.4459933898
 20
9.3264314131
 11
9.4438914353
 21
9.3306237692
  0
SPLINE
  5
3C3
100
AcDbEntity
  8
0
100
AcDbSpline
 62
7
  6
CONTINUOUS
 70
0
 71
3
 72
9
 73
5
 74
0
 42
0.0000001
 43
0.0000001
 44
0.0000000001
 40
0.0
 40
0.0
 40
0.0
 40
0.0
 40
0.4704122728
 40
1.0
 40
1.0
 40
1.0
 40
1.0
 10
9.4421975811
 20
9.3347999744
 30
0.0
 10
9.4411512453
 20
9.3376688179
 30
0.0
 10
9.4393424339
 20
9.3439219416
 30
0.0
 10
9.4382343162
 20
9.3503310594
 30
0.0
 10
9.4378097353
 20
9.3537425797
 30
0.0
  0
SPLINE
  5
3C4
100
AcDbEntity
  8
0
100
AcDbSpline
 62
7
  6
CONTINUOUS
 70
0
 71
3
 72
9
 73
5
 74
0
 42
0.0000001
 43
0.0000001
 44
0.0000000001
 40
0.0
 40
0.0
 40
0.0
 40
0.0
 40
0.231086902
 40
1.0
 40
1.0
 40
1.0
 40
1.0
 10
9.4598535315
 20
9.3264326833
 30
0.0
 10
9.4595656007
 20
9.3270582211
 30
0.0
 10
9.45837125
 20
9.3297888197
 30
0.0
 10
9.4573830708
 20
9.3326079411
 30
0.0
 10
9.4567231907
 20
9.3348021723
 30
0.0
  0
SPLINE
  5
3C5
100
AcDbEntity
  8
0
100
AcDbSpline
 62
7
  6
CONTINUOUS
 70
0
 71
3
 72
9
 73
5
 74
0
 42
0.0000001
 43
0.0000001
 44
0.0000000001
 40
0.0
 40
0.0
 40
0.0
 40
0.0
 40
0.4683972128
 40
1.0
 40
1.0
 40
1.0
 40
1.0
 10
9.4567231907
 20
9.3348021723
 30
0.0
 10
9.4558551852
 20
9.3376884615
 30
0.0
 10
9.4543628031
 20
9.3439608203
 30
0.0
 10
9.4534547966
 20
9.3503397616
 30
0.0
 10
9.4531055726
 20
9.3537425797
 30
0.0
  0
SPLINE
  5
3C6
100
AcDbEntity
  8
0
100
AcDbSpline
 62
7
  6
CONTINUOUS
 70
0
 71
3
 72
9
 73
5
 74
0
 42
0.0000001
 43
0.0000001
 44
0.0000000001
 40
0.0
 40
0.0
 40
0.0
 40
0.0
 40
0.229312892
 40
1.0
 40
1.0
 40
1.0
 40
1.0
 10
9.4756618067
 20
9.3264317639
 30
0.0
 10
9.4754358193
 20
9.3270590405
 30
0.0
 10
9.4744942893
 20
9.3298102864
 30
0.0
 10
9.4737253955
 20
9.3326193631
 30
0.0
 10
9.4732119709
 20
9.3348005775
 30
0.0
  0
SPLINE
  5
3C7
100
AcDbEntity
  8
0
100
AcDbSpline
 62
7
  6
CONTINUOUS
 70
0
 71
3
 72
9
 73
5
 74
0
 42
0.0000001
 43
0.0000001
 44
0.0000000001
 40
0.0
 40
0.0
 40
0.0
 40
0.0
 40
0.4666730638
 40
1.0
 40
1.0
 40
1.0
 40
1.0
 10
9.4732119709
 20
9.3348005775
 30
0.0
 10
9.4725288671
 20
9.3377026505
 30
0.0
 10
9.4713600451
 20
9.3439917016
 30
0.0
 10
9.4706530382
 20
9.350346308
 30
0.0
 10
9.4703802423
 20
9.3537425797
 30
0.0
  0
LINE
  5
3C8
100
AcDbEntity
  8
0
100
AcDbLine
 62
7
  6
CONTINUOUS
 10
9.4933433408
 20
9.3264322666
 11
9.4915852002
 21
9.334801444
  0
SPLINE
  5
3C9
100
AcDbEntity
  8
0
100
AcDbSpline
 62
7
  6
CONTINUOUS
 70
0
 71
3
 72
9
 73
5
 74
0
 42
0.0000001
 43
0.0000001
 44
0.0000000001
 40
0.0
 40
0.0
 40
0.0
 40
0.0
 40
0.4653229633
 40
1.0
 40
1.0
 40
1.0
 40
1.0
 10
9.4915852002
 20
9.334801444
 30
0.0
 10
9.491092887
 20
9.3377160088
 30
0.0
 10
9.4902539487
 20
9.3440169907
 30
0.0
 10
9.4897486531
 20
9.3503518013
 30
0.0
 10
9.4895532018
 20
9.3537425797
 30
0.0
  0
LINE
  5
3CA
100
AcDbEntity
  8
0
100
AcDbLine
 62
7
  6
CONTINUOUS
 10
9.5128162251
 20
9.3264323376
 11
9.5117580459
 21
9.3348015702
  0
SPLINE
  5
3CB
100
AcDbEntity
  8
0
100
AcDbSpline
 62
7
  6
CONTINUOUS
 70
0
 71
3
 72
9
 73
5
 74
0
 42
0.0000001
 43
0.0000001
 44
0.0000000001
 40
0.0
 40
0.0
 40
0.0
 40
0.0
 40
0.4643890846
 40
1.0
 40
1.0
 40
1.0
 40
1.0
 10
9.5117580459
 20
9.3348015702
 30
0.0
 10
9.511460837
 20
9.3377250006
 30
0.0
 10
9.5109558432
 20
9.3440340907
 30
0.0
 10
9.5106525679
 20
9.3503554502
 30
0.0
 10
9.5105350581
 20
9.3537425797
 30
0.0
  0
LINE
  5
3CC
100
AcDbEntity
  8
0
100
AcDbLine
 62
7
  6
CONTINUOUS
 10
9.5336363246
 20
9.3348003232
 11
9.533227984
 21
9.3537425797
  0
SPLINE
  5
3CD
100
AcDbEntity
  8
0
100
AcDbSpline
 62
7
  6
CONTINUOUS
 70
0
 71
3
 72
15
 73
11
 74
0
 42
0.0000001
 43
0.0000001
 44
0.0000000001
 40
0.0
 40
0.0
 40
0.0
 40
0.0
 40
0.12565367
 40
0.250982417
 40
0.3760203818
 40
0.5008295025
 40
0.6255103137
 40
0.750200716
 40
0.8750062384
 40
1.0
 40
1.0
 40
1.0
 40
1.0
 10
9.8775235196
 20
10.9772808433
 30
0.0
 10
9.8920352633
 20
10.9772808433
 30
0.0
 10
9.9210213486
 20
10.9772354433
 30
0.0
 10
9.9644466087
 20
10.9767996703
 30
0.0
 10
10.0077653019
 20
10.9757657172
 30
0.0
 10
10.0509826695
 20
10.973901353
 30
0.0
 10
10.0941035067
 20
10.9709791702
 30
0.0
 10
10.1371168987
 20
10.9667536965
 30
0.0
 10
10.1800231806
 20
10.9612698552
 30
0.0
 10
10.2085323638
 20
10.9568266246
 30
0.0
 10
10.222765706
 20
10.9544190276
 30
0.0
  0
SPLINE
  5
3CE
100
AcDbEntity
  8
0
100
AcDbSpline
 62
7
  6
CONTINUOUS
 70
0
 71
3
 72
15
 73
11
 74
0
 42
0.0000001
 43
0.0000001
 44
0.0000000001
 40
0.0
 40
0.0
 40
0.0
 40
0.0
 40
0.12565367
 40
0.250982417
 40
0.3760203818
 40
0.5008295025
 40
0.6255103137
 40
0.750200716
 40
0.8750062384
 40
1.0
 40
1.0
 40
1.0
 40
1.0
 10
9.8775235196
 20
10.9772808433
 30
0.0
 10
9.8630117758
 20
10.9772808433
 30
0.0
 10
9.8340256906
 20
10.9772354433
 30
0.0
 10
9.7906004305
 20
10.9767996703
 30
0.0
 10
9.7472817372
 20
10.9757657172
 30
0.0
 10
9.7040643697
 20
10.973901353
 30
0.0
 10
9.6609435324
 20
10.9709791702
 30
0.0
 10
9.6179301405
 20
10.9667536965
 30
0.0
 10
9.5750238585
 20
10.9612698552
 30
0.0
 10
9.5465146753
 20
10.9568266246
 30
0.0
 10
9.5322813331
 20
10.9544190276
 30
0.0
  0
SPLINE
  5
3CF
100
AcDbEntity
  8
0
100
AcDbSpline
 62
7
  6
CONTINUOUS
 70
0
 71
3
 72
21
 73
17
 74
0
 42
0.0000001
 43
0.0000001
 44
0.0000000001
 40
0.0
 40
0.0
 40
0.0
 40
0.0
 40
0.1248135601
 40
0.1874302948
 40
0.2499756127
 40
0.3124239272
 40
0.3748741954
 40
0.4374222502
 40
0.500039833
 40
0.5626388282
 40
0.6251458252
 40
0.6875770464
 40
0.7500596713
 40
0.8126413848
 40
0.875263206
 40
1.0
 40
1.0
 40
1.0
 40
1.0
 10
9.4095546831
 20
10.9397123239
 30
0.0
 10
9.4067822312
 20
10.9395152053
 30
0.0
 10
9.4026341759
 20
10.9386194084
 30
0.0
 10
9.3975300638
 20
10.9363705405
 30
0.0
 10
9.3939579708
 20
10.9341763004
 30
0.0
 10
9.3907313731
 20
10.9315056035
 30
0.0
 10
9.3879303128
 20
10.9283909671
 30
0.0
 10
9.3855908505
 20
10.9249135852
 30
0.0
 10
9.3837436722
 20
10.9211481567
 30
0.0
 10
9.3824215225
 20
10.9171688686
 30
0.0
 10
9.3816563712
 20
10.9130494198
 30
0.0
 10
9.3814887465
 20
10.9088641739
 30
0.0
 10
9.3819295597
 20
10.9046983476
 30
0.0
 10
9.3829411517
 20
10.9006285465
 30
0.0
 10
9.385003107
 20
10.8954472098
 30
0.0
 10
9.3873350683
 20
10.8919017276
 30
0.0
 10
9.3891796946
 20
10.8898249033
 30
0.0
  0
SPLINE
  5
3D0
100
AcDbEntity
  8
0
100
AcDbSpline
 62
7
  6
CONTINUOUS
 70
0
 71
3
 72
9
 73
5
 74
0
 42
0.0000001
 43
0.0000001
 44
0.0000000001
 40
0.0
 40
0.0
 40
0.0
 40
0.0
 40
0.500543351
 40
1.0
 40
1.0
 40
1.0
 40
1.0
 10
10.2299395044
 20
10.1512651269
 30
0.0
 10
10.2311051365
 20
10.1489588994
 30
0.0
 10
10.2329146957
 20
10.1440706427
 30
0.0
 10
10.233556293
 20
10.13889207
 30
0.0
 10
10.233556293
 20
10.1363136167
 30
0.0
  0
SPLINE
  5
3D1
100
AcDbEntity
  8
0
100
AcDbSpline
 62
7
  6
CONTINUOUS
 70
0
 71
3
 72
9
 73
5
 74
0
 42
0.0000001
 43
0.0000001
 44
0.0000000001
 40
0.0
 40
0.0
 40
0.0
 40
0.0
 40
0.2500924469
 40
1.0
 40
1.0
 40
1.0
 40
1.0
 10
10.2385713323
 20
10.2958099317
 30
0.0
 10
10.2370619792
 20
10.2892187366
 30
0.0
 10
10.2310789363
 20
10.2628518877
 30
0.0
 10
10.2253432184
 20
10.2364281382
 30
0.0
 10
10.2212482417
 20
10.2165705545
 30
0.0
  0
SPLINE
  5
3D2
100
AcDbEntity
  8
0
100
AcDbSpline
 62
7
  6
CONTINUOUS
 70
0
 71
3
 72
13
 73
9
 74
0
 42
0.0000001
 43
0.0000001
 44
0.0000000001
 40
0.0
 40
0.0
 40
0.0
 40
0.0
 40
0.1251685405
 40
0.2505993947
 40
0.5000001637
 40
0.7494007825
 40
0.8748315538
 40
1.0
 40
1.0
 40
1.0
 40
1.0
 10
10.7283873006
 20
10.2172195078
 30
0.0
 10
10.7303484052
 20
10.2172195078
 30
0.0
 10
10.7342864967
 20
10.2176285785
 30
0.0
 10
10.7418085938
 20
10.219934714
 30
0.0
 10
10.7502246479
 20
10.2254433569
 30
0.0
 10
10.7557334752
 20
10.2338592908
 30
0.0
 10
10.758039763
 20
10.241381336
 30
0.0
 10
10.7584489169
 20
10.2453194156
 30
0.0
 10
10.7584489596
 20
10.2472805187
 30
0.0
  0
SPLINE
  5
3D3
100
AcDbEntity
  8
0
100
AcDbSpline
 62
7
  6
CONTINUOUS
 70
0
 71
3
 72
9
 73
5
 74
0
 42
0.0000001
 43
0.0000001
 44
0.0000000001
 40
0.0
 40
0.0
 40
0.0
 40
0.0
 40
0.50011463
 40
1.0
 40
1.0
 40
1.0
 40
1.0
 10
10.7080640359
 20
10.2251320692
 30
0.0
 10
10.7107934555
 20
10.2226381786
 30
0.0
 10
10.7172490438
 20
10.2186687925
 30
0.0
 10
10.7246918044
 20
10.2172195078
 30
0.0
 10
10.7283873006
 20
10.2172195078
 30
0.0
  0
SPLINE
  5
3D4
100
AcDbEntity
  8
0
100
AcDbSpline
 62
7
  6
CONTINUOUS
 70
0
 71
3
 72
13
 73
9
 74
0
 42
0.0000001
 43
0.0000001
 44
0.0000000001
 40
0.0
 40
0.0
 40
0.0
 40
0.0
 40
0.124822505
 40
0.2494737402
 40
0.3742243668
 40
0.4991805437
 40
0.7495871297
 40
1.0
 40
1.0
 40
1.0
 40
1.0
 10
9.4142101418
 20
10.8297877587
 30
0.0
 10
9.4158680941
 20
10.8038166458
 30
0.0
 10
9.4207760633
 20
10.752003117
 30
0.0
 10
9.4320711956
 20
10.6747794872
 30
0.0
 10
9.4464223174
 20
10.5980457313
 30
0.0
 10
9.4685037929
 20
10.4961326514
 30
0.0
 10
9.4994386259
 20
10.3693863676
 30
0.0
 10
9.5232544637
 20
10.2677027106
 30
0.0
 10
9.5337987975
 20
10.2165705545
 30
0.0
  0
SPLINE
  5
3D5
100
AcDbEntity
  8
0
100
AcDbSpline
 62
7
  6
CONTINUOUS
 70
0
 71
3
 72
13
 73
9
 74
0
 42
0.0000001
 43
0.0000001
 44
0.0000000001
 40
0.0
 40
0.0
 40
0.0
 40
0.0
 40
0.1251685405
 40
0.2505993947
 40
0.5000001637
 40
0.7494007825
 40
0.8748315538
 40
1.0
 40
1.0
 40
1.0
 40
1.0
 10
10.7283873006
 20
10.8773421789
 30
0.0
 10
10.7303484052
 20
10.8773421789
 30
0.0
 10
10.7342864967
 20
10.8769331082
 30
0.0
 10
10.7418085938
 20
10.8746269727
 30
0.0
 10
10.7502246479
 20
10.8691183298
 30
0.0
 10
10.7557334752
 20
10.8607023959
 30
0.0
 10
10.758039763
 20
10.8531803507
 30
0.0
 10
10.7584489169
 20
10.8492422711
 30
0.0
 10
10.7584489596
 20
10.8472811679
 30
0.0
  0
SPLINE
  5
3D6
100
AcDbEntity
  8
0
100
AcDbSpline
 62
7
  6
CONTINUOUS
 70
0
 71
3
 72
9
 73
5
 74
0
 42
0.0000001
 43
0.0000001
 44
0.0000000001
 40
0.0
 40
0.0
 40
0.0
 40
0.0
 40
0.50011463
 40
1.0
 40
1.0
 40
1.0
 40
1.0
 10
10.7080640359
 20
10.8694296175
 30
0.0
 10
10.7107934555
 20
10.8719235081
 30
0.0
 10
10.7172490438
 20
10.8758928942
 30
0.0
 10
10.7246918044
 20
10.8773421789
 30
0.0
 10
10.7283873006
 20
10.8773421789
 30
0.0
  0
SPLINE
  5
3D7
100
AcDbEntity
  8
0
100
AcDbSpline
 62
7
  6
CONTINUOUS
 70
0
 71
3
 72
9
 73
5
 74
0
 42
0.0000001
 43
0.0000001
 44
0.0000000001
 40
0.0
 40
0.0
 40
0.0
 40
0.0
 40
0.500543351
 40
1.0
 40
1.0
 40
1.0
 40
1.0
 10
9.5251075348
 20
10.1512651269
 30
0.0
 10
9.5239419027
 20
10.1489588994
 30
0.0
 10
9.5221323434
 20
10.1440706427
 30
0.0
 10
9.5214907462
 20
10.13889207
 30
0.0
 10
9.5214907462
 20
10.1363136167
 30
0.0
  0
SPLINE
  5
3D8
100
AcDbEntity
  8
0
100
AcDbSpline
 62
7
  6
CONTINUOUS
 70
0
 71
3
 72
11
 73
7
 74
0
 42
0.0000001
 43
0.0000001
 44
0.0000000001
 40
0.0
 40
0.0
 40
0.0
 40
0.0
 40
0.5013943525
 40
0.7510416622
 40
0.8755897948
 40
1.0
 40
1.0
 40
1.0
 40
1.0
 10
10.4218219445
 20
10.7845966193
 30
0.0
 10
10.4591063384
 20
10.7952275733
 30
0.0
 10
10.5149955216
 20
10.8110570852
 30
0.0
 10
10.5808592874
 20
10.8268077204
 30
0.0
 10
10.6186159599
 20
10.8346247666
 30
0.0
 10
10.637555594
 20
10.8380859176
 30
0.0
 10
10.6470421069
 20
10.8396831616
 30
0.0
  0
SPLINE
  5
3D9
100
AcDbEntity
  8
0
100
AcDbSpline
 62
7
  6
CONTINUOUS
 70
0
 71
3
 72
13
 73
9
 74
0
 42
0.0000001
 43
0.0000001
 44
0.0000000001
 40
0.0
 40
0.0
 40
0.0
 40
0.0
 40
0.2507543936
 40
0.5014265295
 40
0.7512565837
 40
0.8757448341
 40
0.937895278
 40
1.0
 40
1.0
 40
1.0
 40
1.0
 10
10.3123114233
 20
10.3404454642
 30
0.0
 10
10.3402532892
 20
10.333100387
 30
0.0
 10
10.3958727749
 20
10.3174540078
 30
0.0
 10
10.4790492939
 20
10.2935114647
 30
0.0
 10
10.5486916963
 20
10.2751254215
 30
0.0
 10
10.5977770815
 20
10.2641530688
 30
0.0
 10
10.6258929353
 20
10.2585915916
 30
0.0
 10
10.6399859112
 20
10.2560665766
 30
0.0
 10
10.6470421069
 20
10.2548785251
 30
0.0
  0
SPLINE
  5
3DA
100
AcDbEntity
  8
0
100
AcDbSpline
 62
7
  6
CONTINUOUS
 70
0
 71
3
 72
11
 73
7
 74
0
 42
0.0000001
 43
0.0000001
 44
0.0000000001
 40
0.0
 40
0.0
 40
0.0
 40
0.0
 40
0.2491697121
 40
0.498903417
 40
0.749210322
 40
1.0
 40
1.0
 40
1.0
 40
1.0
 10
10.2626849632
 20
9.3264327308
 30
0.0
 10
10.2651500339
 20
9.3280767286
 30
0.0
 10
10.2698943351
 20
9.3316722914
 30
0.0
 10
10.2761572883
 20
9.3380608142
 30
0.0
 10
10.281269097
 20
9.3454358785
 30
0.0
 10
10.2837212235
 20
9.3509142019
 30
0.0
 10
10.2846667969
 20
9.3537425797
 30
0.0
  0
SPLINE
  5
3DB
100
AcDbEntity
  8
0
100
AcDbSpline
 62
7
  6
CONTINUOUS
 70
0
 71
3
 72
9
 73
5
 74
0
 42
0.0000001
 43
0.0000001
 44
0.0000000001
 40
0.0
 40
0.0
 40
0.0
 40
0.0
 40
0.2445506066
 40
1.0
 40
1.0
 40
1.0
 40
1.0
 10
9.4077132463
 20
9.3264317589
 30
0.0
 10
9.4070038051
 20
9.3270503497
 30
0.0
 10
9.4041653982
 20
9.3296503499
 30
0.0
 10
9.4015962563
 20
9.3325475414
 30
0.0
 10
9.3998569091
 20
9.3348776003
 30
0.0
  0
SPLINE
  5
3DC
100
AcDbEntity
  8
0
100
AcDbSpline
 62
7
  6
CONTINUOUS
 70
0
 71
3
 72
9
 73
5
 74
0
 42
0.0000001
 43
0.0000001
 44
0.0000000001
 40
0.0
 40
0.0
 40
0.0
 40
0.0
 40
0.2545705833
 40
1.0
 40
1.0
 40
1.0
 40
1.0
 10
9.3971437804
 20
9.3911146175
 30
0.0
 10
9.3975874032
 20
9.3919657961
 30
0.0
 10
9.3994191868
 20
9.3952623696
 30
0.0
 10
9.4015946956
 20
9.398366254
 30
0.0
 10
9.4033742914
 20
9.4005416977
 30
0.0
  0
SPLINE
  5
3DD
100
AcDbEntity
  8
0
100
AcDbSpline
 62
7
  6
CONTINUOUS
 70
0
 71
3
 72
9
 73
5
 74
0
 42
0.0000001
 43
0.0000001
 44
0.0000000001
 40
0.0
 40
0.0
 40
0.0
 40
0.0
 40
0.2456366753
 40
1.0
 40
1.0
 40
1.0
 40
1.0
 10
9.4109434801
 20
9.326431781
 30
0.0
 10
9.4101955937
 20
9.3270486227
 30
0.0
 10
9.4072125022
 20
9.329633046
 30
0.0
 10
9.4044944667
 20
9.3325276758
 30
0.0
 10
9.402649252
 20
9.3348641355
 30
0.0
  0
SPLINE
  5
3DE
100
AcDbEntity
  8
0
100
AcDbSpline
 62
7
  6
CONTINUOUS
 70
0
 71
3
 72
11
 73
7
 74
0
 42
0.0000001
 43
0.0000001
 44
0.0000000001
 40
0.0
 40
0.0
 40
0.0
 40
0.0
 40
0.2491657663
 40
0.4989430767
 40
0.7492277072
 40
1.0
 40
1.0
 40
1.0
 40
1.0
 10
10.2614993693
 20
9.4089828665
 30
0.0
 10
10.2640677147
 20
9.4073158334
 30
0.0
 10
10.2690034676
 20
9.4036425805
 30
0.0
 10
10.2755634328
 20
9.3971329814
 30
0.0
 10
10.2810068701
 20
9.3896301322
 30
0.0
 10
10.283659803
 20
9.3840180497
 30
0.0
 10
10.2846667969
 20
9.381105551
 30
0.0
  0
SPLINE
  5
3DF
100
AcDbEntity
  8
0
100
AcDbSpline
 62
7
  6
CONTINUOUS
 70
0
 71
3
 72
9
 73
5
 74
0
 42
0.0000001
 43
0.0000001
 44
0.0000000001
 40
0.0
 40
0.0
 40
0.0
 40
0.0
 40
0.2520968838
 40
1.0
 40
1.0
 40
1.0
 40
1.0
 10
9.398504008
 20
9.3836050292
 30
0.0
 10
9.3987345444
 20
9.3842573936
 30
0.0
 10
9.3997035521
 20
9.3868256374
 30
0.0
 10
9.4008825001
 20
9.3893139834
 30
0.0
 10
9.4018675058
 20
9.3911148901
 30
0.0
  0
SPLINE
  5
3E0
100
AcDbEntity
  8
0
100
AcDbSpline
 62
7
  6
CONTINUOUS
 70
0
 71
3
 72
9
 73
5
 74
0
 42
0.0000001
 43
0.0000001
 44
0.0000000001
 40
0.0
 40
0.0
 40
0.0
 40
0.0
 40
0.5091799326
 40
1.0
 40
1.0
 40
1.0
 40
1.0
 10
9.4018675058
 20
9.3911148901
 30
0.0
 10
9.403803748
 20
9.3946549623
 30
0.0
 10
9.4084192155
 20
9.4011874318
 30
0.0
 10
9.414264698
 20
9.4066197299
 30
0.0
 10
9.4173539984
 20
9.4089828665
 30
0.0
  0
SPLINE
  5
3E1
100
AcDbEntity
  8
0
100
AcDbSpline
 62
7
  6
CONTINUOUS
 70
0
 71
3
 72
9
 73
5
 74
0
 42
0.0000001
 43
0.0000001
 44
0.0000000001
 40
0.0
 40
0.0
 40
0.0
 40
0.0
 40
0.4905532323
 40
1.0
 40
1.0
 40
1.0
 40
1.0
 10
9.4163484216
 20
9.3264323182
 30
0.0
 10
9.4133708691
 20
9.3287725697
 30
0.0
 10
9.4077188575
 20
9.3341128931
 30
0.0
 10
9.403348605
 20
9.3405727459
 30
0.0
 10
9.4015359744
 20
9.3440631678
 30
0.0
  0
SPLINE
  5
3E2
100
AcDbEntity
  8
0
100
AcDbSpline
 62
7
  6
CONTINUOUS
 70
0
 71
3
 72
11
 73
7
 74
0
 42
0.0000001
 43
0.0000001
 44
0.0000000001
 40
0.0
 40
0.0
 40
0.0
 40
0.0
 40
0.2578382697
 40
0.5104047527
 40
0.7576384446
 40
1.0
 40
1.0
 40
1.0
 40
1.0
 10
9.4044602987
 20
9.381105551
 30
0.0
 10
9.4053439098
 20
9.3839948433
 30
0.0
 10
9.4076585129
 20
9.3895543975
 30
0.0
 10
9.4124614214
 20
9.3970664411
 30
0.0
 10
9.4182607789
 20
9.4035903241
 30
0.0
 10
9.4226626995
 20
9.4073026708
 30
0.0
 10
9.4249523945
 20
9.4089828665
 30
0.0
  0
SPLINE
  5
3E3
100
AcDbEntity
  8
0
100
AcDbSpline
 62
7
  6
CONTINUOUS
 70
0
 71
3
 72
9
 73
5
 74
0
 42
0.0000001
 43
0.0000001
 44
0.0000000001
 40
0.0
 40
0.0
 40
0.0
 40
0.0
 40
0.4927485334
 40
1.0
 40
1.0
 40
1.0
 40
1.0
 10
9.4239048377
 20
9.3264315803
 30
0.0
 10
9.4208130042
 20
9.3287626556
 30
0.0
 10
9.4149447589
 20
9.3340728059
 30
0.0
 10
9.4103609772
 20
9.3405576073
 30
0.0
 10
9.4084632947
 20
9.3440629926
 30
0.0
  0
SPLINE
  5
3E4
100
AcDbEntity
  8
0
100
AcDbSpline
 62
7
  6
CONTINUOUS
 70
0
 71
3
 72
11
 73
7
 74
0
 42
0.0000001
 43
0.0000001
 44
0.0000000001
 40
0.0
 40
0.0
 40
0.0
 40
0.0
 40
0.2558550827
 40
0.5077735292
 40
0.7557108687
 40
1.0
 40
1.0
 40
1.0
 40
1.0
 10
9.4134302642
 20
9.381105551
 30
0.0
 10
9.4143477189
 20
9.3840011513
 30
0.0
 10
9.4167550215
 20
9.3895753659
 30
0.0
 10
9.4217348278
 20
9.397085511
 30
0.0
 10
9.4277445553
 20
9.4036056227
 30
0.0
 10
9.4322942261
 20
9.407306605
 30
0.0
 10
9.4346608862
 20
9.4089828665
 30
0.0
  0
SPLINE
  5
3E5
100
AcDbEntity
  8
0
100
AcDbSpline
 62
7
  6
CONTINUOUS
 70
0
 71
3
 72
9
 73
5
 74
0
 42
0.0000001
 43
0.0000001
 44
0.0000000001
 40
0.0
 40
0.0
 40
0.0
 40
0.0
 40
0.4946406952
 40
1.0
 40
1.0
 40
1.0
 40
1.0
 10
9.4335744725
 20
9.3264326621
 30
0.0
 10
9.4303828137
 20
9.3287554206
 30
0.0
 10
9.4243254842
 20
9.3340366409
 30
0.0
 10
9.4195536864
 20
9.3405406727
 30
0.0
 10
9.4175805314
 20
9.3440579404
 30
0.0
  0
SPLINE
  5
3E6
100
AcDbEntity
  8
0
100
AcDbSpline
 62
7
  6
CONTINUOUS
 70
0
 71
3
 72
11
 73
7
 74
0
 42
0.0000001
 43
0.0000001
 44
0.0000000001
 40
0.0
 40
0.0
 40
0.0
 40
0.0
 40
0.2541601096
 40
0.5055320043
 40
0.7540739932
 40
1.0
 40
1.0
 40
1.0
 40
1.0
 10
9.4245640467
 20
9.381105551
 30
0.0
 10
9.4255109544
 20
9.3840067157
 30
0.0
 10
9.4279990918
 20
9.3895935763
 30
0.0
 10
9.4331320256
 20
9.3971017259
 30
0.0
 10
9.4393236871
 20
9.4036183829
 30
0.0
 10
9.4440009609
 20
9.4073098401
 30
0.0
 10
9.4464342079
 20
9.4089828665
 30
0.0
  0
SPLINE
  5
3E7
100
AcDbEntity
  8
0
100
AcDbSpline
 62
7
  6
CONTINUOUS
 70
0
 71
3
 72
9
 73
5
 74
0
 42
0.0000001
 43
0.0000001
 44
0.0000000001
 40
0.0
 40
0.0
 40
0.0
 40
0.0
 40
0.4962260868
 40
1.0
 40
1.0
 40
1.0
 40
1.0
 10
9.4453163664
 20
9.3264314191
 30
0.0
 10
9.4420350517
 20
9.3287494611
 30
0.0
 10
9.4358113398
 20
9.334014559
 30
0.0
 10
9.4308702089
 20
9.3405403685
 30
0.0
 10
9.4288304564
 20
9.3440722933
 30
0.0
  0
SPLINE
  5
3E8
100
AcDbEntity
  8
0
100
AcDbSpline
 62
7
  6
CONTINUOUS
 70
0
 71
3
 72
9
 73
5
 74
0
 42
0.0000001
 43
0.0000001
 44
0.0000000001
 40
0.0
 40
0.0
 40
0.0
 40
0.0
 40
0.2494406079
 40
1.0
 40
1.0
 40
1.0
 40
1.0
 10
10.280268091
 20
9.3264314133
 30
0.0
 10
10.281169802
 20
9.3270413445
 30
0.0
 10
10.2847283684
 20
9.3295676858
 30
0.0
 10
10.2880450529
 20
9.3324439409
 30
0.0
 10
10.2903207889
 20
9.3347999533
 30
0.0
  0
SPLINE
  5
3E9
100
AcDbEntity
  8
0
100
AcDbSpline
 62
7
  6
CONTINUOUS
 70
0
 71
3
 72
9
 73
5
 74
0
 42
0.0000001
 43
0.0000001
 44
0.0000000001
 40
0.0
 40
0.0
 40
0.0
 40
0.0
 40
0.2496309361
 40
1.0
 40
1.0
 40
1.0
 40
1.0
 10
10.2903207889
 20
9.3347999533
 30
0.0
 10
10.2909871505
 20
9.3354898209
 30
0.0
 10
10.2935845447
 20
9.3383215763
 30
0.0
 10
10.295879488
 20
9.3414342271
 30
0.0
 10
10.2973787558
 20
9.3438968409
 30
0.0
  0
SPLINE
  5
3EA
100
AcDbEntity
  8
0
100
AcDbSpline
 62
7
  6
CONTINUOUS
 70
0
 71
3
 72
9
 73
5
 74
0
 42
0.0000001
 43
0.0000001
 44
0.0000000001
 40
0.0
 40
0.0
 40
0.0
 40
0.0
 40
0.2498945911
 40
1.0
 40
1.0
 40
1.0
 40
1.0
 10
10.2973787558
 20
9.3438968409
 30
0.0
 10
10.2978493772
 20
9.3446698573
 30
0.0
 10
10.2996464595
 20
9.347814681
 30
0.0
 10
10.3010910836
 20
9.3511625619
 30
0.0
 10
10.3019414666
 20
9.3537425797
 30
0.0
  0
SPLINE
  5
3EB
100
AcDbEntity
  8
0
100
AcDbSpline
 62
7
  6
CONTINUOUS
 70
0
 71
3
 72
11
 73
7
 74
0
 42
0.0000001
 43
0.0000001
 44
0.0000000001
 40
0.0
 40
0.0
 40
0.0
 40
0.0
 40
0.2527527629
 40
0.5036757611
 40
0.7527219807
 40
1.0
 40
1.0
 40
1.0
 40
1.0
 10
9.4378097353
 20
9.381105551
 30
0.0
 10
9.438781506
 20
9.3840114641
 30
0.0
 10
9.4413379557
 20
9.3896089152
 30
0.0
 10
9.4465995576
 20
9.3971151359
 30
0.0
 10
9.4529439837
 20
9.4036287536
 30
0.0
 10
9.4577282854
 20
9.4073124404
 30
0.0
 10
9.4602174669
 20
9.4089828665
 30
0.0
  0
SPLINE
  5
3EC
100
AcDbEntity
  8
0
100
AcDbSpline
 62
7
  6
CONTINUOUS
 70
0
 71
3
 72
9
 73
5
 74
0
 42
0.0000001
 43
0.0000001
 44
0.0000000001
 40
0.0
 40
0.0
 40
0.0
 40
0.0
 40
0.2490777694
 40
1.0
 40
1.0
 40
1.0
 40
1.0
 10
9.4590710471
 20
9.3264325015
 30
0.0
 10
9.4581788026
 20
9.3270477219
 30
0.0
 10
9.4546543939
 20
9.3295993495
 30
0.0
 10
9.4513782407
 20
9.3325028445
 30
0.0
 10
9.4491353731
 20
9.3348788803
 30
0.0
  0
SPLINE
  5
3ED
100
AcDbEntity
  8
0
100
AcDbSpline
 62
7
  6
CONTINUOUS
 70
0
 71
3
 72
9
 73
5
 74
0
 42
0.0000001
 43
0.0000001
 44
0.0000000001
 40
0.0
 40
0.0
 40
0.0
 40
0.0
 40
0.2492485876
 40
1.0
 40
1.0
 40
1.0
 40
1.0
 10
9.4491353731
 20
9.3348788803
 30
0.0
 10
9.4484778227
 20
9.3355754721
 30
0.0
 10
9.4459131167
 20
9.3384382483
 30
0.0
 10
9.4436566116
 20
9.3415803032
 30
0.0
 10
9.4421868473
 20
9.3440632112
 30
0.0
  0
SPLINE
  5
3EE
100
AcDbEntity
  8
0
100
AcDbSpline
 62
7
  6
CONTINUOUS
 70
0
 71
3
 72
9
 73
5
 74
0
 42
0.0000001
 43
0.0000001
 44
0.0000000001
 40
0.0
 40
0.0
 40
0.0
 40
0.0
 40
0.2495861446
 40
1.0
 40
1.0
 40
1.0
 40
1.0
 10
9.4421868473
 20
9.3440632112
 30
0.0
 10
9.4417361378
 20
9.3448246056
 30
0.0
 10
9.4400131506
 20
9.3479233531
 30
0.0
 10
9.4386282118
 20
9.3512113686
 30
0.0
 10
9.4378097353
 20
9.3537425797
 30
0.0
  0
SPLINE
  5
3EF
100
AcDbEntity
  8
0
100
AcDbSpline
 62
7
  6
CONTINUOUS
 70
0
 71
3
 72
11
 73
7
 74
0
 42
0.0000001
 43
0.0000001
 44
0.0000000001
 40
0.0
 40
0.0
 40
0.0
 40
0.0
 40
0.2516309469
 40
0.50219948
 40
0.7516490285
 40
1.0
 40
1.0
 40
1.0
 40
1.0
 10
9.4531055726
 20
9.381105551
 30
0.0
 10
9.4540974445
 20
9.3840153334
 30
0.0
 10
9.4567091905
 20
9.3896212721
 30
0.0
 10
9.4620744022
 20
9.3971257821
 30
0.0
 10
9.4685417827
 20
9.4036368839
 30
0.0
 10
9.4734121751
 20
9.4073144601
 30
0.0
 10
9.4759463994
 20
9.4089828665
 30
0.0
  0
SPLINE
  5
3F0
100
AcDbEntity
  8
0
100
AcDbSpline
 62
7
  6
CONTINUOUS
 70
0
 71
3
 72
9
 73
5
 74
0
 42
0.0000001
 43
0.0000001
 44
0.0000000001
 40
0.0
 40
0.0
 40
0.0
 40
0.0
 40
0.2494358904
 40
1.0
 40
1.0
 40
1.0
 40
1.0
 10
9.4747785456
 20
9.3264318022
 30
0.0
 10
9.4738694838
 20
9.3270467163
 30
0.0
 10
9.4702823311
 20
9.3295944234
 30
0.0
 10
9.4669411901
 20
9.3324980073
 30
0.0
 10
9.4646513706
 20
9.3348776749
 30
0.0
  0
SPLINE
  5
3F1
100
AcDbEntity
  8
0
100
AcDbSpline
 62
7
  6
CONTINUOUS
 70
0
 71
3
 72
9
 73
5
 74
0
 42
0.0000001
 43
0.0000001
 44
0.0000000001
 40
0.0
 40
0.0
 40
0.0
 40
0.0
 40
0.2496379705
 40
1.0
 40
1.0
 40
1.0
 40
1.0
 10
9.4646513706
 20
9.3348776749
 30
0.0
 10
9.4639905095
 20
9.335564467
 30
0.0
 10
9.4614145621
 20
9.3383829502
 30
0.0
 10
9.4591381033
 20
9.3414785246
 30
0.0
 10
9.4576500021
 20
9.3439265829
 30
0.0
  0
SPLINE
  5
3F2
100
AcDbEntity
  8
0
100
AcDbSpline
 62
7
  6
CONTINUOUS
 70
0
 71
3
 72
9
 73
5
 74
0
 42
0.0000001
 43
0.0000001
 44
0.0000000001
 40
0.0
 40
0.0
 40
0.0
 40
0.0
 40
0.2498893675
 40
1.0
 40
1.0
 40
1.0
 40
1.0
 10
9.4576500021
 20
9.3439265829
 30
0.0
 10
9.457181427
 20
9.3446974303
 30
0.0
 10
9.4553920461
 20
9.3478332989
 30
0.0
 10
9.4539532387
 20
9.3511708049
 30
0.0
 10
9.4531055726
 20
9.3537425797
 30
0.0
  0
SPLINE
  5
3F3
100
AcDbEntity
  8
0
100
AcDbSpline
 62
7
  6
CONTINUOUS
 70
0
 71
3
 72
11
 73
7
 74
0
 42
0.0000001
 43
0.0000001
 44
0.0000000001
 40
0.0
 40
0.0
 40
0.0
 40
0.0
 40
0.2483663125
 40
0.4978413647
 40
0.7483890595
 40
1.0
 40
1.0
 40
1.0
 40
1.0
 10
10.2791006397
 20
9.4089828665
 30
0.0
 10
10.281635026
 20
9.4073143535
 30
0.0
 10
10.2865059288
 20
9.4036365799
 30
0.0
 10
10.2929732397
 20
9.3971250488
 30
0.0
 10
10.2983385757
 20
9.3896208147
 30
0.0
 10
10.3009496714
 20
9.3840151081
 30
0.0
 10
10.3019414666
 20
9.381105551
 30
0.0
  0
SPLINE
  5
3F4
100
AcDbEntity
  8
0
100
AcDbSpline
 62
7
  6
CONTINUOUS
 70
0
 71
3
 72
11
 73
7
 74
0
 42
0.0000001
 43
0.0000001
 44
0.0000000001
 40
0.0
 40
0.0
 40
0.0
 40
0.0
 40
0.2507922953
 40
0.5010978181
 40
0.7508496814
 40
1.0
 40
1.0
 40
1.0
 40
1.0
 10
9.4703802423
 20
9.381105551
 30
0.0
 10
9.4713873143
 20
9.3840182757
 30
0.0
 10
9.4740409168
 20
9.3896305818
 30
0.0
 10
9.479484223
 20
9.3971337134
 30
0.0
 10
9.4860442497
 20
9.4036428863
 30
0.0
 10
9.4909794893
 20
9.4073159404
 30
0.0
 10
9.4935476699
 20
9.4089828665
 30
0.0
  0
SPLINE
  5
3F5
100
AcDbEntity
  8
0
100
AcDbSpline
 62
7
  6
CONTINUOUS
 70
0
 71
3
 72
11
 73
7
 74
0
 42
0.0000001
 43
0.0000001
 44
0.0000000001
 40
0.0
 40
0.0
 40
0.0
 40
0.0
 40
0.2491731717
 40
0.4989195299
 40
0.7492189409
 40
1.0
 40
1.0
 40
1.0
 40
1.0
 10
9.4923633007
 20
9.3264317637
 30
0.0
 10
9.4898980545
 20
9.3280758
 30
0.0
 10
9.4851539584
 20
9.3316724071
 30
0.0
 10
9.4788904396
 20
9.338060828
 30
0.0
 10
9.4737769378
 20
9.3454352874
 30
0.0
 10
9.4713258235
 20
9.3509141786
 30
0.0
 10
9.4703802423
 20
9.3537425797
 30
0.0
  0
SPLINE
  5
3F6
100
AcDbEntity
  8
0
100
AcDbSpline
 62
7
  6
CONTINUOUS
 70
0
 71
3
 72
11
 73
7
 74
0
 42
0.0000001
 43
0.0000001
 44
0.0000000001
 40
0.0
 40
0.0
 40
0.0
 40
0.0
 40
0.2502346885
 40
0.5003661221
 40
0.7503193543
 40
1.0
 40
1.0
 40
1.0
 40
1.0
 10
9.4895532018
 20
9.381105551
 30
0.0
 10
9.4905704672
 20
9.3840202576
 30
0.0
 10
9.4932521332
 20
9.3896368193
 30
0.0
 10
9.4987477007
 20
9.3971389801
 30
0.0
 10
9.5053697088
 20
9.4036468336
 30
0.0
 10
9.5103483101
 20
9.4073169103
 30
0.0
 10
9.5129392129
 20
9.4089828665
 30
0.0
  0
SPLINE
  5
3F7
100
AcDbEntity
  8
0
100
AcDbSpline
 62
7
  6
CONTINUOUS
 70
0
 71
3
 72
11
 73
7
 74
0
 42
0.0000001
 43
0.0000001
 44
0.0000000001
 40
0.0
 40
0.0
 40
0.0
 40
0.0
 40
0.2497158258
 40
0.4996587719
 40
0.749774164
 40
1.0
 40
1.0
 40
1.0
 40
1.0
 10
9.5117429532
 20
9.3264323027
 30
0.0
 10
9.5092559205
 20
9.328075418
 30
0.0
 10
9.5044699573
 20
9.3316682455
 30
0.0
 10
9.4981474989
 20
9.3380554647
 30
0.0
 10
9.4929859543
 20
9.3454299335
 30
0.0
 10
9.4905082701
 20
9.3509125029
 30
0.0
 10
9.4895532018
 20
9.3537425797
 30
0.0
  0
SPLINE
  5
3F8
100
AcDbEntity
  8
0
100
AcDbSpline
 62
7
  6
CONTINUOUS
 70
0
 71
3
 72
9
 73
5
 74
0
 42
0.0000001
 43
0.0000001
 44
0.0000000001
 40
0.0
 40
0.0
 40
0.0
 40
0.0
 40
0.4996077249
 40
1.0
 40
1.0
 40
1.0
 40
1.0
 10
10.4693075455
 20
8.3431579036
 30
0.0
 10
10.4553001132
 20
8.3441719704
 30
0.0
 10
10.4273581681
 20
8.3473782687
 30
0.0
 10
10.3994914127
 20
8.3510530237
 30
0.0
 10
10.3855101909
 20
8.3525963537
 30
0.0
  0
SPLINE
  5
3F9
100
AcDbEntity
  8
0
100
AcDbSpline
 62
7
  6
CONTINUOUS
 70
0
 71
3
 72
20
 73
16
 74
0
 42
0.0000001
 43
0.0000001
 44
0.0000000001
 40
0.0
 40
0.0
 40
0.0
 40
0.0
 40
0.062557662
 40
0.1250378306
 40
0.1874452213
 40
0.2497950061
 40
0.3121137345
 40
0.3744389109
 40
0.4368051073
 40
0.499235042
 40
0.561740469
 40
0.6243220963
 40
0.7496425226
 40
0.874960258
 40
1.0
 40
1.0
 40
1.0
 40
1.0
 10
10.3855101909
 20
8.3525963537
 30
0.0
 10
10.3810968094
 20
8.3530835288
 30
0.0
 10
10.3722688671
 20
8.3539994581
 30
0.0
 10
10.3590105154
 20
8.3551170023
 30
0.0
 10
10.345745033
 20
8.3559379856
 30
0.0
 10
10.3324745624
 20
8.3564319925
 30
0.0
 10
10.3192010307
 20
8.3565636478
 30
0.0
 10
10.3059282071
 20
8.3563088865
 30
0.0
 10
10.2926591733
 20
8.3557050416
 30
0.0
 10
10.2793957008
 20
8.3547847157
 30
0.0
 10
10.2661402965
 20
8.3535764268
 30
0.0
 10
10.2484705339
 20
8.351654759
 30
0.0
 10
10.2264123913
 20
8.3488775005
 30
0.0
 10
10.1999564504
 20
8.3455517595
 30
0.0
 10
10.1822673792
 20
8.3437987322
 30
0.0
 10
10.1734155325
 20
8.3431579036
 30
0.0
  0
SPLINE
  5
3FA
100
AcDbEntity
  8
0
100
AcDbSpline
 62
7
  6
CONTINUOUS
 70
0
 71
3
 72
11
 73
7
 74
0
 42
0.0000001
 43
0.0000001
 44
0.0000000001
 40
0.0
 40
0.0
 40
0.0
 40
0.0
 40
0.2499563194
 40
0.5000011511
 40
0.7500550209
 40
1.0
 40
1.0
 40
1.0
 40
1.0
 10
9.5105350581
 20
9.381105551
 30
0.0
 10
9.5115574381
 20
9.3840212541
 30
0.0
 10
9.5142531949
 20
9.389639941
 30
0.0
 10
9.5197749453
 20
9.3971416041
 30
0.0
 10
9.5264280037
 20
9.403648795
 30
0.0
 10
9.5314283273
 20
9.4073173905
 30
0.0
 10
9.5340306164
 20
9.4089828665
 30
0.0
  0
SPLINE
  5
3FB
100
AcDbEntity
  8
0
100
AcDbSpline
 62
7
  6
CONTINUOUS
 70
0
 71
3
 72
11
 73
7
 74
0
 42
0.0000001
 43
0.0000001
 44
0.0000000001
 40
0.0
 40
0.0
 40
0.0
 40
0.0
 40
0.2499843634
 40
0.5000285877
 40
0.750051411
 40
1.0
 40
1.0
 40
1.0
 40
1.0
 10
9.5328295575
 20
9.3264315473
 30
0.0
 10
9.5303314824
 20
9.3280741999
 30
0.0
 10
9.5255246492
 20
9.3316657465
 30
0.0
 10
9.5191723227
 20
9.3380524251
 30
0.0
 10
9.513985607
 20
9.3454266819
 30
0.0
 10
9.5114949262
 20
9.3509115407
 30
0.0
 10
9.5105350581
 20
9.3537425797
 30
0.0
  0
SPLINE
  5
3FC
100
AcDbEntity
  8
0
100
AcDbSpline
 62
7
  6
CONTINUOUS
 70
0
 71
3
 72
11
 73
7
 74
0
 42
0.0000001
 43
0.0000001
 44
0.0000000001
 40
0.0
 40
0.0
 40
0.0
 40
0.0
 40
0.234681535
 40
0.4792712666
 40
0.7346794822
 40
1.0
 40
1.0
 40
1.0
 40
1.0
 10
9.9105031316
 20
9.3264314177
 30
0.0
 10
9.9124219312
 20
9.3281044717
 30
0.0
 10
9.9161192977
 20
9.3317870263
 30
0.0
 10
9.9208981713
 20
9.3382029163
 30
0.0
 10
9.9247785867
 20
9.3455795025
 30
0.0
 10
9.926603704
 20
9.3509541661
 30
0.0
 10
9.9273166921
 20
9.3537425797
 30
0.0
  0
SPLINE
  5
3FD
100
AcDbEntity
  8
0
100
AcDbSpline
 62
7
  6
CONTINUOUS
 70
0
 71
3
 72
11
 73
7
 74
0
 42
0.0000001
 43
0.0000001
 44
0.0000000001
 40
0.0
 40
0.0
 40
0.0
 40
0.0
 40
0.2499563194
 40
0.5000011511
 40
0.7500550209
 40
1.0
 40
1.0
 40
1.0
 40
1.0
 10
9.533227984
 20
9.381105551
 30
0.0
 10
9.534250364
 20
9.3840212541
 30
0.0
 10
9.5369461208
 20
9.389639941
 30
0.0
 10
9.5424678712
 20
9.3971416041
 30
0.0
 10
9.5491209296
 20
9.403648795
 30
0.0
 10
9.5541212532
 20
9.4073173905
 30
0.0
 10
9.5567235423
 20
9.4089828665
 30
0.0
  0
SPLINE
  5
3FE
100
AcDbEntity
  8
0
100
AcDbSpline
 62
7
  6
CONTINUOUS
 70
0
 71
3
 72
11
 73
7
 74
0
 42
0.0000001
 43
0.0000001
 44
0.0000000001
 40
0.0
 40
0.0
 40
0.0
 40
0.0
 40
0.2499846856
 40
0.5000283654
 40
0.7500514826
 40
1.0
 40
1.0
 40
1.0
 40
1.0
 10
9.5555218152
 20
9.3264321747
 30
0.0
 10
9.5530238248
 20
9.3280748253
 30
0.0
 10
9.5482170504
 20
9.3316661805
 30
0.0
 10
9.5418648847
 20
9.3380527279
 30
0.0
 10
9.536678498
 20
9.3454269229
 30
0.0
 10
9.5341878277
 20
9.3509116132
 30
0.0
 10
9.533227984
 20
9.3537425797
 30
0.0
  0
SPLINE
  5
3FF
100
AcDbEntity
  8
0
100
AcDbSpline
 62
7
  6
CONTINUOUS
 70
0
 71
3
 72
9
 73
5
 74
0
 42
0.0000001
 43
0.0000001
 44
0.0000000001
 40
0.0
 40
0.0
 40
0.0
 40
0.0
 40
0.4308974327
 40
1.0
 40
1.0
 40
1.0
 40
1.0
 10
9.5567235423
 20
9.4089828665
 30
0.0
 10
9.5569370603
 20
9.4049826229
 30
0.0
 10
9.5572825615
 20
9.395691304
 30
0.0
 10
9.5574628038
 20
9.3863959656
 30
0.0
 10
9.5575261746
 20
9.381105551
 30
0.0
  0
SPLINE
  5
400
100
AcDbEntity
  8
0
100
AcDbSpline
 62
7
  6
CONTINUOUS
 70
0
 71
3
 72
11
 73
7
 74
0
 42
0.0000001
 43
0.0000001
 44
0.0000000001
 40
0.0
 40
0.0
 40
0.0
 40
0.0
 40
0.2502346524
 40
0.5003661468
 40
0.7503193935
 40
1.0
 40
1.0
 40
1.0
 40
1.0
 10
9.5575261746
 20
9.381105551
 30
0.0
 10
9.5585434398
 20
9.3840202571
 30
0.0
 10
9.5612251172
 20
9.3896368133
 30
0.0
 10
9.5667206777
 20
9.3971389773
 30
0.0
 10
9.5733426801
 20
9.4036468378
 30
0.0
 10
9.5783212834
 20
9.4073169106
 30
0.0
 10
9.5809121857
 20
9.4089828665
 30
0.0
  0
SPLINE
  5
401
100
AcDbEntity
  8
0
100
AcDbSpline
 62
7
  6
CONTINUOUS
 70
0
 71
3
 72
11
 73
7
 74
0
 42
0.0000001
 43
0.0000001
 44
0.0000000001
 40
0.0
 40
0.0
 40
0.0
 40
0.0
 40
0.2497121161
 40
0.4996601981
 40
0.7497743395
 40
1.0
 40
1.0
 40
1.0
 40
1.0
 10
9.5797168592
 20
9.3264314284
 30
0.0
 10
9.5772297501
 20
9.3280745293
 30
0.0
 10
9.5724441525
 20
9.3316682464
 30
0.0
 10
9.566121373
 20
9.3380553635
 30
0.0
 10
9.5609582423
 20
9.3454292654
 30
0.0
 10
9.5584812743
 20
9.3509124099
 30
0.0
 10
9.5575261746
 20
9.3537425797
 30
0.0
  0
SPLINE
  5
402
100
AcDbEntity
  8
0
100
AcDbSpline
 62
7
  6
CONTINUOUS
 70
0
 71
3
 72
11
 73
7
 74
0
 42
0.0000001
 43
0.0000001
 44
0.0000000001
 40
0.0
 40
0.0
 40
0.0
 40
0.0
 40
0.1983712013
 40
0.4320644217
 40
0.7003733001
 40
1.0
 40
1.0
 40
1.0
 40
1.0
 10
9.5809121857
 20
9.4089828665
 30
0.0
 10
9.5812044407
 20
9.407154901
 30
0.0
 10
9.581748157
 20
9.4031585493
 30
0.0
 10
9.5824133948
 20
9.3966557877
 30
0.0
 10
9.5829624793
 20
9.3891943417
 30
0.0
 10
9.583216083
 20
9.3838998405
 30
0.0
 10
9.5833163406
 20
9.381105551
 30
0.0
  0
SPLINE
  5
403
100
AcDbEntity
  8
0
100
AcDbSpline
 62
7
  6
CONTINUOUS
 70
0
 71
3
 72
11
 73
7
 74
0
 42
0.0000001
 43
0.0000001
 44
0.0000000001
 40
0.0
 40
0.0
 40
0.0
 40
0.0
 40
0.2507935424
 40
0.5010978621
 40
0.7508511204
 40
1.0
 40
1.0
 40
1.0
 40
1.0
 10
9.5833163406
 20
9.381105551
 30
0.0
 10
9.5843234181
 20
9.3840182915
 30
0.0
 10
9.5869763893
 20
9.3896309138
 30
0.0
 10
9.5924204226
 20
9.397133649
 30
0.0
 10
9.5989806859
 20
9.4036424501
 30
0.0
 10
9.6039156013
 20
9.4073159493
 30
0.0
 10
9.6064837682
 20
9.4089828665
 30
0.0
  0
SPLINE
  5
404
100
AcDbEntity
  8
0
100
AcDbSpline
 62
7
  6
CONTINUOUS
 70
0
 71
3
 72
11
 73
7
 74
0
 42
0.0000001
 43
0.0000001
 44
0.0000000001
 40
0.0
 40
0.0
 40
0.0
 40
0.0
 40
0.2491766661
 40
0.4989181477
 40
0.7492178671
 40
1.0
 40
1.0
 40
1.0
 40
1.0
 10
9.6052991344
 20
9.3264319499
 30
0.0
 10
9.602833877
 20
9.3280760099
 30
0.0
 10
9.5980894228
 20
9.3316720239
 30
0.0
 10
9.5918259802
 20
9.3380605774
 30
0.0
 10
9.5867136004
 20
9.3454356106
 30
0.0
 10
9.5842619197
 20
9.3509141848
 30
0.0
 10
9.5833163406
 20
9.3537425797
 30
0.0
  0
SPLINE
  5
405
100
AcDbEntity
  8
0
100
AcDbSpline
 62
7
  6
CONTINUOUS
 70
0
 71
3
 72
11
 73
7
 74
0
 42
0.0000001
 43
0.0000001
 44
0.0000000001
 40
0.0
 40
0.0
 40
0.0
 40
0.0
 40
0.2001665711
 40
0.4343183382
 40
0.7019572663
 40
1.0
 40
1.0
 40
1.0
 40
1.0
 10
9.6064837682
 20
9.4089828665
 30
0.0
 10
9.6069668709
 20
9.4071642166
 30
0.0
 10
9.6078688643
 20
9.403178989
 30
0.0
 10
9.6089758331
 20
9.3966711048
 30
0.0
 10
9.6098892588
 20
9.3892052787
 30
0.0
 10
9.610311506
 20
9.3839024194
 30
0.0
 10
9.6104782362
 20
9.381105551
 30
0.0
  0
SPLINE
  5
406
100
AcDbEntity
  8
0
100
AcDbSpline
 62
7
  6
CONTINUOUS
 70
0
 71
3
 72
11
 73
7
 74
0
 42
0.0000001
 43
0.0000001
 44
0.0000000001
 40
0.0
 40
0.0
 40
0.0
 40
0.0
 40
0.2516309469
 40
0.50219948
 40
0.7516490285
 40
1.0
 40
1.0
 40
1.0
 40
1.0
 10
9.6104782362
 20
9.381105551
 30
0.0
 10
9.6114701082
 20
9.3840153334
 30
0.0
 10
9.6140818541
 20
9.3896212721
 30
0.0
 10
9.6194470658
 20
9.3971257821
 30
0.0
 10
9.6259144463
 20
9.4036368839
 30
0.0
 10
9.6307848387
 20
9.4073144601
 30
0.0
 10
9.6333190631
 20
9.4089828665
 30
0.0
  0
SPLINE
  5
407
100
AcDbEntity
  8
0
100
AcDbSpline
 62
7
  6
CONTINUOUS
 70
0
 71
3
 72
11
 73
7
 74
0
 42
0.0000001
 43
0.0000001
 44
0.0000000001
 40
0.0
 40
0.0
 40
0.0
 40
0.0
 40
0.2483637008
 40
0.4978042104
 40
0.7483840036
 40
1.0
 40
1.0
 40
1.0
 40
1.0
 10
9.6321516187
 20
9.3264314068
 30
0.0
 10
9.6297189365
 20
9.3280769099
 30
0.0
 10
9.6250365114
 20
9.3316776517
 30
0.0
 10
9.6188616013
 20
9.3380684667
 30
0.0
 10
9.6138229249
 20
9.3454443253
 30
0.0
 10
9.6114096491
 20
9.3509167214
 30
0.0
 10
9.6104782362
 20
9.3537425797
 30
0.0
  0
SPLINE
  5
408
100
AcDbEntity
  8
0
100
AcDbSpline
 62
7
  6
CONTINUOUS
 70
0
 71
3
 72
11
 73
7
 74
0
 42
0.0000001
 43
0.0000001
 44
0.0000000001
 40
0.0
 40
0.0
 40
0.0
 40
0.0
 40
0.2027059055
 40
0.4375200381
 40
0.7042141593
 40
1.0
 40
1.0
 40
1.0
 40
1.0
 10
9.6333190631
 20
9.4089828665
 30
0.0
 10
9.6339876301
 20
9.4071766986
 30
0.0
 10
9.635241591
 20
9.4032075675
 30
0.0
 10
9.636787343
 20
9.3966930135
 30
0.0
 10
9.6380623795
 20
9.3892212083
 30
0.0
 10
9.6386525729
 20
9.3839062039
 30
0.0
 10
9.6388852202
 20
9.381105551
 30
0.0
  0
SPLINE
  5
409
100
AcDbEntity
  8
0
100
AcDbSpline
 62
7
  6
CONTINUOUS
 70
0
 71
3
 72
11
 73
7
 74
0
 42
0.0000001
 43
0.0000001
 44
0.0000000001
 40
0.0
 40
0.0
 40
0.0
 40
0.0
 40
0.252752719
 40
0.5036757813
 40
0.7527220219
 40
1.0
 40
1.0
 40
1.0
 40
1.0
 10
9.6388852202
 20
9.381105551
 30
0.0
 10
9.6398569907
 20
9.3840114634
 30
0.0
 10
9.6424134515
 20
9.3896089095
 30
0.0
 10
9.6476750466
 20
9.3971151332
 30
0.0
 10
9.6540194669
 20
9.4036287576
 30
0.0
 10
9.6588037709
 20
9.4073124408
 30
0.0
 10
9.6612929518
 20
9.4089828665
 30
0.0
  0
SPLINE
  5
40A
100
AcDbEntity
  8
0
100
AcDbSpline
 62
7
  6
CONTINUOUS
 70
0
 71
3
 72
11
 73
7
 74
0
 42
0.0000001
 43
0.0000001
 44
0.0000000001
 40
0.0
 40
0.0
 40
0.0
 40
0.0
 40
0.2472716304
 40
0.496313729
 40
0.7472683863
 40
1.0
 40
1.0
 40
1.0
 40
1.0
 10
9.6601475346
 20
9.3264315789
 30
0.0
 10
9.6577581838
 20
9.3280790129
 30
0.0
 10
9.6531586539
 20
9.3316865228
 30
0.0
 10
9.6471011836
 20
9.3380796572
 30
0.0
 10
9.6421594901
 20
9.3454557614
 30
0.0
 10
9.6397978682
 20
9.3509201352
 30
0.0
 10
9.6388852202
 20
9.3537425797
 30
0.0
  0
SPLINE
  5
40B
100
AcDbEntity
  8
0
100
AcDbSpline
 62
7
  6
CONTINUOUS
 70
0
 71
3
 72
11
 73
7
 74
0
 42
0.0000001
 43
0.0000001
 44
0.0000000001
 40
0.0
 40
0.0
 40
0.0
 40
0.0
 40
0.2058333804
 40
0.441485852
 40
0.7070211398
 40
1.0
 40
1.0
 40
1.0
 40
1.0
 10
9.6612929518
 20
9.4089828665
 30
0.0
 10
9.6621403959
 20
9.4071910466
 30
0.0
 10
9.6637375975
 20
9.4032421869
 30
0.0
 10
9.6657174619
 20
9.3967203811
 30
0.0
 10
9.6673500182
 20
9.3892415835
 30
0.0
 10
9.6681070731
 20
9.3839110933
 30
0.0
 10
9.6684048462
 20
9.381105551
 30
0.0
  0
SPLINE
  5
40C
100
AcDbEntity
  8
0
100
AcDbSpline
 62
7
  6
CONTINUOUS
 70
0
 71
3
 72
11
 73
7
 74
0
 42
0.0000001
 43
0.0000001
 44
0.0000000001
 40
0.0
 40
0.0
 40
0.0
 40
0.0
 40
0.2541601579
 40
0.5055319866
 40
0.7540739508
 40
1.0
 40
1.0
 40
1.0
 40
1.0
 10
9.6684048462
 20
9.381105551
 30
0.0
 10
9.6693517541
 20
9.3840067164
 30
0.0
 10
9.6718398806
 20
9.389593582
 30
0.0
 10
9.6769728211
 20
9.3971017286
 30
0.0
 10
9.6831644883
 20
9.4036183789
 30
0.0
 10
9.6878417599
 20
9.4073098397
 30
0.0
 10
9.6902750074
 20
9.4089828665
 30
0.0
  0
SPLINE
  5
40D
100
AcDbEntity
  8
0
100
AcDbSpline
 62
7
  6
CONTINUOUS
 70
0
 71
3
 72
11
 73
7
 74
0
 42
0.0000001
 43
0.0000001
 44
0.0000000001
 40
0.0
 40
0.0
 40
0.0
 40
0.0
 40
0.245902983
 40
0.4944386087
 40
0.7458704695
 40
1.0
 40
1.0
 40
1.0
 40
1.0
 10
9.6891570833
 20
9.3264315
 30
0.0
 10
9.6868214576
 20
9.3280814784
 30
0.0
 10
9.6823240117
 20
9.3316963339
 30
0.0
 10
9.6764126613
 20
9.33809294
 30
0.0
 10
9.6715936808
 20
9.3454705299
 30
0.0
 10
9.6692942891
 20
9.3509242872
 30
0.0
 10
9.6684048462
 20
9.3537425797
 30
0.0
  0
SPLINE
  5
40E
100
AcDbEntity
  8
0
100
AcDbSpline
 62
7
  6
CONTINUOUS
 70
0
 71
3
 72
11
 73
7
 74
0
 42
0.0000001
 43
0.0000001
 44
0.0000000001
 40
0.0
 40
0.0
 40
0.0
 40
0.0
 40
0.2093795187
 40
0.4460124707
 40
0.7102407058
 40
1.0
 40
1.0
 40
1.0
 40
1.0
 10
9.6902750074
 20
9.4089828665
 30
0.0
 10
9.6912940662
 20
9.4072060797
 30
0.0
 10
9.6932236298
 20
9.403280611
 30
0.0
 10
9.6956308406
 20
9.3967519173
 30
0.0
 10
9.697615279
 20
9.3892657363
 30
0.0
 10
9.69853762
 20
9.3839169642
 30
0.0
 10
9.6988994799
 20
9.381105551
 30
0.0
  0
SPLINE
  5
40F
100
AcDbEntity
  8
0
100
AcDbSpline
 62
7
  6
CONTINUOUS
 70
0
 71
3
 72
11
 73
7
 74
0
 42
0.0000001
 43
0.0000001
 44
0.0000000001
 40
0.0
 40
0.0
 40
0.0
 40
0.0
 40
0.2558550811
 40
0.5077735304
 40
0.755710874
 40
1.0
 40
1.0
 40
1.0
 40
1.0
 10
9.6988994799
 20
9.381105551
 30
0.0
 10
9.6998169345
 20
9.3840011512
 30
0.0
 10
9.7022242372
 20
9.3895753659
 30
0.0
 10
9.707204044
 20
9.3970855106
 30
0.0
 10
9.7132137714
 20
9.4036056223
 30
0.0
 10
9.7177634418
 20
9.407306605
 30
0.0
 10
9.7201301019
 20
9.4089828665
 30
0.0
  0
SPLINE
  5
410
100
AcDbEntity
  8
0
100
AcDbSpline
 62
7
  6
CONTINUOUS
 70
0
 71
3
 72
11
 73
7
 74
0
 42
0.0000001
 43
0.0000001
 44
0.0000000001
 40
0.0
 40
0.0
 40
0.0
 40
0.0
 40
0.2442450167
 40
0.4921792197
 40
0.744189211
 40
1.0
 40
1.0
 40
1.0
 40
1.0
 10
9.7190448729
 20
9.3264314957
 30
0.0
 10
9.7167732471
 20
9.3280846028
 30
0.0
 10
9.7123980446
 20
9.331709148
 30
0.0
 10
9.7066606132
 20
9.338109364
 30
0.0
 10
9.7019863641
 20
9.3454876933
 30
0.0
 10
9.6997614201
 20
9.3509291608
 30
0.0
 10
9.6988994799
 20
9.3537425797
 30
0.0
  0
SPLINE
  5
411
100
AcDbEntity
  8
0
100
AcDbSpline
 62
7
  6
CONTINUOUS
 70
0
 71
3
 72
11
 73
7
 74
0
 42
0.0000001
 43
0.0000001
 44
0.0000000001
 40
0.0
 40
0.0
 40
0.0
 40
0.0
 40
0.2131796691
 40
0.4508985019
 40
0.7137349277
 40
1.0
 40
1.0
 40
1.0
 40
1.0
 10
9.7201301019
 20
9.4089828665
 30
0.0
 10
9.7213131918
 20
9.4072208867
 30
0.0
 10
9.7235624614
 20
9.4033207479
 30
0.0
 10
9.7263878707
 20
9.3967862869
 30
0.0
 10
9.7287168459
 20
9.3892929127
 30
0.0
 10
9.729802294
 20
9.3839236721
 30
0.0
 10
9.7302269413
 20
9.381105551
 30
0.0
  0
SPLINE
  5
412
100
AcDbEntity
  8
0
100
AcDbSpline
 62
7
  6
CONTINUOUS
 70
0
 71
3
 72
11
 73
7
 74
0
 42
0.0000001
 43
0.0000001
 44
0.0000000001
 40
0.0
 40
0.0
 40
0.0
 40
0.0
 40
0.2578382697
 40
0.5104047527
 40
0.7576384446
 40
1.0
 40
1.0
 40
1.0
 40
1.0
 10
9.7302269413
 20
9.381105551
 30
0.0
 10
9.7311105524
 20
9.3839948433
 30
0.0
 10
9.7334251555
 20
9.3895543975
 30
0.0
 10
9.738228064
 20
9.3970664411
 30
0.0
 10
9.7440274216
 20
9.4035903241
 30
0.0
 10
9.7484293421
 20
9.4073026708
 30
0.0
 10
9.7507190371
 20
9.4089828665
 30
0.0
  0
SPLINE
  5
413
100
AcDbEntity
  8
0
100
AcDbSpline
 62
7
  6
CONTINUOUS
 70
0
 71
3
 72
11
 73
7
 74
0
 42
0.0000001
 43
0.0000001
 44
0.0000000001
 40
0.0
 40
0.0
 40
0.0
 40
0.0
 40
0.242295895
 40
0.4895314903
 40
0.7422252534
 40
1.0
 40
1.0
 40
1.0
 40
1.0
 10
9.7496714856
 20
9.3264315746
 30
0.0
 10
9.7474738473
 20
9.3280884748
 30
0.0
 10
9.7432402265
 20
9.3317245519
 30
0.0
 10
9.7377039271
 20
9.3381286726
 30
0.0
 10
9.7331968258
 20
9.3455074307
 30
0.0
 10
9.7310572632
 20
9.3509346894
 30
0.0
 10
9.7302269413
 20
9.3537425797
 30
0.0
  0
SPLINE
  5
414
100
AcDbEntity
  8
0
100
AcDbSpline
 62
7
  6
CONTINUOUS
 70
0
 71
3
 72
11
 73
7
 74
0
 42
0.0000001
 43
0.0000001
 44
0.0000000001
 40
0.0
 40
0.0
 40
0.0
 40
0.0
 40
0.2170868808
 40
0.4559599765
 40
0.7173758129
 40
1.0
 40
1.0
 40
1.0
 40
1.0
 10
9.7507190371
 20
9.4089828665
 30
0.0
 10
9.7520584276
 20
9.4072348601
 30
0.0
 10
9.7546133663
 20
9.4033608418
 30
0.0
 10
9.7578453024
 20
9.3968222113
 30
0.0
 10
9.760509645
 20
9.3893223181
 30
0.0
 10
9.7617553061
 20
9.3839310573
 30
0.0
 10
9.7622411674
 20
9.381105551
 30
0.0
  0
SPLINE
  5
415
100
AcDbEntity
  8
0
100
AcDbSpline
 62
7
  6
CONTINUOUS
 70
0
 71
3
 72
11
 73
7
 74
0
 42
0.0000001
 43
0.0000001
 44
0.0000000001
 40
0.0
 40
0.0
 40
0.0
 40
0.0
 40
0.2601081408
 40
0.5134275959
 40
0.7598611544
 40
1.0
 40
1.0
 40
1.0
 40
1.0
 10
9.7622411674
 20
9.381105551
 30
0.0
 10
9.763086771
 20
9.3839878806
 30
0.0
 10
9.7652975271
 20
9.3895308485
 30
0.0
 10
9.7699006093
 20
9.3970444984
 30
0.0
 10
9.7754620445
 20
9.4035723132
 30
0.0
 10
9.7796965337
 20
9.4072979588
 30
0.0
 10
9.7818991934
 20
9.4089828665
 30
0.0
  0
SPLINE
  5
416
100
AcDbEntity
  8
0
100
AcDbSpline
 62
7
  6
CONTINUOUS
 70
0
 71
3
 72
11
 73
7
 74
0
 42
0.0000001
 43
0.0000001
 44
0.0000000001
 40
0.0
 40
0.0
 40
0.0
 40
0.0
 40
0.2400520839
 40
0.4864985745
 40
0.7399804409
 40
1.0
 40
1.0
 40
1.0
 40
1.0
 10
9.7808944074
 20
9.3264314422
 30
0.0
 10
9.7787804347
 20
9.3280928844
 30
0.0
 10
9.77470774
 20
9.3317430666
 30
0.0
 10
9.7693987242
 20
9.338150985
 30
0.0
 10
9.7650792218
 20
9.3455292092
 30
0.0
 10
9.7630359735
 20
9.3509407534
 30
0.0
 10
9.7622411674
 20
9.3537425797
 30
0.0
  0
SPLINE
  5
417
100
AcDbEntity
  8
0
100
AcDbSpline
 62
7
  6
CONTINUOUS
 70
0
 71
3
 72
10
 73
6
 74
0
 42
0.0000001
 43
0.0000001
 44
0.0000000001
 40
0.0
 40
0.0
 40
0.0
 40
0.0
 40
0.2211243242
 40
0.5885752862
 40
1.0
 40
1.0
 40
1.0
 40
1.0
 10
9.7818991934
 20
9.4089828665
 30
0.0
 10
9.7833870509
 20
9.4072476552
 30
0.0
 10
9.7870166084
 20
9.4023389893
 30
0.0
 10
9.7917292852
 20
9.393068654
 30
0.0
 10
9.7939892756
 20
9.3852818208
 30
0.0
 10
9.7947928931
 20
9.381105551
 30
0.0
  0
SPLINE
  5
418
100
AcDbEntity
  8
0
100
AcDbSpline
 62
7
  6
CONTINUOUS
 70
0
 71
3
 72
9
 73
5
 74
0
 42
0.0000001
 43
0.0000001
 44
0.0000000001
 40
0.0
 40
0.0
 40
0.0
 40
0.0
 40
0.5166246566
 40
1.0
 40
1.0
 40
1.0
 40
1.0
 10
9.7947928931
 20
9.381105551
 30
0.0
 10
9.7963688638
 20
9.3867428844
 30
0.0
 10
9.8013781602
 20
9.3971785556
 30
0.0
 10
9.8092542908
 20
9.405554421
 30
0.0
 10
9.8135251945
 20
9.4089828665
 30
0.0
  0
SPLINE
  5
419
100
AcDbEntity
  8
0
100
AcDbSpline
 62
7
  6
CONTINUOUS
 70
0
 71
3
 72
11
 73
7
 74
0
 42
0.0000001
 43
0.0000001
 44
0.0000000001
 40
0.0
 40
0.0
 40
0.0
 40
0.0
 40
0.2375155145
 40
0.4830767632
 40
0.7374647809
 40
1.0
 40
1.0
 40
1.0
 40
1.0
 10
9.8125677388
 20
9.3264314149
 30
0.0
 10
9.8105467907
 20
9.3280982298
 30
0.0
 10
9.8066525557
 20
9.3317634048
 30
0.0
 10
9.8015964935
 20
9.3381756043
 30
0.0
 10
9.7974872145
 20
9.3455536283
 30
0.0
 10
9.7955484964
 20
9.3509473164
 30
0.0
 10
9.7947928931
 20
9.3537425797
 30
0.0
  0
SPLINE
  5
41A
100
AcDbEntity
  8
0
100
AcDbSpline
 62
7
  6
CONTINUOUS
 70
0
 71
3
 72
10
 73
6
 74
0
 42
0.0000001
 43
0.0000001
 44
0.0000000001
 40
0.0
 40
0.0
 40
0.0
 40
0.0
 40
0.4654322564
 40
0.72437268
 40
1.0
 40
1.0
 40
1.0
 40
1.0
 10
9.8135251945
 20
9.4089828665
 30
0.0
 10
9.8168935671
 20
9.4054171826
 30
0.0
 10
9.8213280349
 20
9.3990514936
 30
0.0
 10
9.8255724294
 20
9.3893868481
 30
0.0
 10
9.8271279305
 20
9.3839471821
 30
0.0
 10
9.8277303471
 20
9.381105551
 30
0.0
  0
SPLINE
  5
41B
100
AcDbEntity
  8
0
100
AcDbSpline
 62
7
  6
CONTINUOUS
 70
0
 71
3
 72
9
 73
5
 74
0
 42
0.0000001
 43
0.0000001
 44
0.0000000001
 40
0.0
 40
0.0
 40
0.0
 40
0.0
 40
0.5204700722
 40
1.0
 40
1.0
 40
1.0
 40
1.0
 10
9.8277303471
 20
9.381105551
 30
0.0
 10
9.8292123076
 20
9.3867096824
 30
0.0
 10
9.8338863022
 20
9.3970643326
 30
0.0
 10
9.841377494
 20
9.4055271265
 30
0.0
 10
9.8454495853
 20
9.4089828665
 30
0.0
  0
SPLINE
  5
41C
100
AcDbEntity
  8
0
100
AcDbSpline
 62
7
  6
CONTINUOUS
 70
0
 71
3
 72
11
 73
7
 74
0
 42
0.0000001
 43
0.0000001
 44
0.0000000001
 40
0.0
 40
0.0
 40
0.0
 40
0.0
 40
0.2346890117
 40
0.479286179
 40
0.7346871881
 40
1.0
 40
1.0
 40
1.0
 40
1.0
 10
9.8445439062
 20
9.3264314197
 30
0.0
 10
9.8426250449
 20
9.3281045276
 30
0.0
 10
9.838927697
 20
9.3317873347
 30
0.0
 10
9.8341486844
 20
9.3382031983
 30
0.0
 10
9.8302681026
 20
9.3455796384
 30
0.0
 10
9.8284433147
 20
9.3509542462
 30
0.0
 10
9.8277303471
 20
9.3537425797
 30
0.0
  0
SPLINE
  5
41D
100
AcDbEntity
  8
0
100
AcDbSpline
 62
7
  6
CONTINUOUS
 70
0
 71
3
 72
9
 73
5
 74
0
 42
0.0000001
 43
0.0000001
 44
0.0000000001
 40
0.0
 40
0.0
 40
0.0
 40
0.0
 40
0.2490858106
 40
1.0
 40
1.0
 40
1.0
 40
1.0
 10
10.2959762175
 20
9.3264326639
 30
0.0
 10
10.2968612702
 20
9.3270429305
 30
0.0
 10
10.3003576508
 20
9.3295732576
 30
0.0
 10
10.3036099454
 20
9.3324495599
 30
0.0
 10
10.305839097
 20
9.334802139
 30
0.0
  0
SPLINE
  5
41E
100
AcDbEntity
  8
0
100
AcDbSpline
 62
7
  6
CONTINUOUS
 70
0
 71
3
 72
9
 73
5
 74
0
 42
0.0000001
 43
0.0000001
 44
0.0000000001
 40
0.0
 40
0.0
 40
0.0
 40
0.0
 40
0.2492436297
 40
1.0
 40
1.0
 40
1.0
 40
1.0
 10
10.305839097
 20
9.334802139
 30
0.0
 10
10.3064975128
 20
9.335497011
 30
0.0
 10
10.3090660778
 20
9.338352891
 30
0.0
 10
10.3113277723
 20
9.3414879422
 30
0.0
 10
10.3128022341
 20
9.3439658575
 30
0.0
  0
SPLINE
  5
41F
100
AcDbEntity
  8
0
100
AcDbSpline
 62
7
  6
CONTINUOUS
 70
0
 71
3
 72
9
 73
5
 74
0
 42
0.0000001
 43
0.0000001
 44
0.0000000001
 40
0.0
 40
0.0
 40
0.0
 40
0.0
 40
0.2495823836
 40
1.0
 40
1.0
 40
1.0
 40
1.0
 10
10.3128022341
 20
9.3439658575
 30
0.0
 10
10.3132594806
 20
9.3447342858
 30
0.0
 10
10.3150071077
 20
9.3478624236
 30
0.0
 10
10.3164101291
 20
9.3511844683
 30
0.0
 10
10.3172373038
 20
9.3537425797
 30
0.0
  0
SPLINE
  5
420
100
AcDbEntity
  8
0
100
AcDbSpline
 62
7
  6
CONTINUOUS
 70
0
 71
3
 72
11
 73
7
 74
0
 42
0.0000001
 43
0.0000001
 44
0.0000000001
 40
0.0
 40
0.0
 40
0.0
 40
0.0
 40
0.2472932704
 40
0.4963650487
 40
0.7472671986
 40
1.0
 40
1.0
 40
1.0
 40
1.0
 10
10.2948295722
 20
9.4089828665
 30
0.0
 10
10.2973189124
 20
9.4073123339
 30
0.0
 10
10.302103718
 20
9.4036284466
 30
0.0
 10
10.3084480714
 20
9.3971144045
 30
0.0
 10
10.3137097977
 20
9.3896084554
 30
0.0
 10
10.3162656079
 20
9.3840112406
 30
0.0
 10
10.3172373038
 20
9.381105551
 30
0.0
  0
SPLINE
  5
421
100
AcDbEntity
  8
0
100
AcDbSpline
 62
7
  6
CONTINUOUS
 70
0
 71
3
 72
9
 73
5
 74
0
 42
0.0000001
 43
0.0000001
 44
0.0000000001
 40
0.0
 40
0.0
 40
0.0
 40
0.0
 40
0.4795704195
 40
1.0
 40
1.0
 40
1.0
 40
1.0
 10
9.9095974539
 20
9.4089828665
 30
0.0
 10
9.913669892
 20
9.4055268321
 30
0.0
 10
9.9211611257
 20
9.3970639987
 30
0.0
 10
9.9258348457
 20
9.3867092506
 30
0.0
 10
9.9273166921
 20
9.381105551
 30
0.0
  0
SPLINE
  5
422
100
AcDbEntity
  8
0
100
AcDbSpline
 62
7
  6
CONTINUOUS
 70
0
 71
3
 72
9
 73
5
 74
0
 42
0.0000001
 43
0.0000001
 44
0.0000000001
 40
0.0
 40
0.0
 40
0.0
 40
0.0
 40
0.4962418522
 40
1.0
 40
1.0
 40
1.0
 40
1.0
 10
10.3097310205
 20
9.3264317514
 30
0.0
 10
10.3129957954
 20
9.3287381444
 30
0.0
 10
10.3191909906
 20
9.3339721991
 30
0.0
 10
10.3241163229
 20
9.3404567389
 30
0.0
 10
10.3261542417
 20
9.3439656963
 30
0.0
  0
SPLINE
  5
423
100
AcDbEntity
  8
0
100
AcDbSpline
 62
7
  6
CONTINUOUS
 70
0
 71
3
 72
9
 73
5
 74
0
 42
0.0000001
 43
0.0000001
 44
0.0000000001
 40
0.0
 40
0.0
 40
0.0
 40
0.0
 40
0.2491903099
 40
1.0
 40
1.0
 40
1.0
 40
1.0
 10
10.3261542417
 20
9.3439656963
 30
0.0
 10
10.3266007853
 20
9.3447345701
 30
0.0
 10
10.3283091119
 20
9.3478677493
 30
0.0
 10
10.3296767182
 20
9.3511878156
 30
0.0
 10
10.3304829925
 20
9.3537425797
 30
0.0
  0
SPLINE
  5
424
100
AcDbEntity
  8
0
100
AcDbSpline
 62
7
  6
CONTINUOUS
 70
0
 71
3
 72
11
 73
7
 74
0
 42
0.0000001
 43
0.0000001
 44
0.0000000001
 40
0.0
 40
0.0
 40
0.0
 40
0.0
 40
0.2246440668
 40
0.4659730509
 40
0.7250333688
 40
1.0
 40
1.0
 40
1.0
 40
1.0
 10
9.9407957868
 20
9.3264314091
 30
0.0
 10
9.9392341833
 20
9.3281298487
 30
0.0
 10
9.9362304861
 20
9.3318777505
 30
0.0
 10
9.9324140975
 20
9.3382996135
 30
0.0
 10
9.9293229947
 20
9.345664551
 30
0.0
 10
9.9278837973
 20
9.3509760351
 30
0.0
 10
9.9273166921
 20
9.3537425797
 30
0.0
  0
SPLINE
  5
425
100
AcDbEntity
  8
0
100
AcDbSpline
 62
7
  6
CONTINUOUS
 70
0
 71
3
 72
11
 73
7
 74
0
 42
0.0000001
 43
0.0000001
 44
0.0000000001
 40
0.0
 40
0.0
 40
0.0
 40
0.0
 40
0.2459411869
 40
0.4945087802
 40
0.745859748
 40
1.0
 40
1.0
 40
1.0
 40
1.0
 10
10.3086128313
 20
9.4089828665
 30
0.0
 10
10.3110462335
 20
9.4073097333
 30
0.0
 10
10.3157240006
 20
9.4036180682
 30
0.0
 10
10.3219155913
 20
9.3971009996
 30
0.0
 10
10.3270486565
 20
9.3895931192
 30
0.0
 10
10.3295361568
 20
9.3840064951
 30
0.0
 10
10.3304829925
 20
9.381105551
 30
0.0
  0
SPLINE
  5
426
100
AcDbEntity
  8
0
100
AcDbSpline
 62
7
  6
CONTINUOUS
 70
0
 71
3
 72
10
 73
6
 74
0
 42
0.0000001
 43
0.0000001
 44
0.0000000001
 40
0.0
 40
0.0
 40
0.0
 40
0.0
 40
0.2756463681
 40
0.5346077355
 40
1.0
 40
1.0
 40
1.0
 40
1.0
 10
9.9273166921
 20
9.381105551
 30
0.0
 10
9.9279191497
 20
9.383947376
 30
0.0
 10
9.9294750642
 20
9.3893873566
 30
0.0
 10
9.9337193028
 20
9.3990520481
 30
0.0
 10
9.9381537644
 20
9.4054174922
 30
0.0
 10
9.9415218447
 20
9.4089828665
 30
0.0
  0
SPLINE
  5
427
100
AcDbEntity
  8
0
100
AcDbSpline
 62
7
  6
CONTINUOUS
 70
0
 71
3
 72
9
 73
5
 74
0
 42
0.0000001
 43
0.0000001
 44
0.0000000001
 40
0.0
 40
0.0
 40
0.0
 40
0.0
 40
0.4946581751
 40
1.0
 40
1.0
 40
1.0
 40
1.0
 10
10.3214721715
 20
9.3264322649
 30
0.0
 10
10.3246496412
 20
9.3287446552
 30
0.0
 10
10.3306809514
 20
9.3339999491
 30
0.0
 10
10.3354414208
 20
9.3404662112
 30
0.0
 10
10.3374132846
 20
9.3439632838
 30
0.0
  0
SPLINE
  5
428
100
AcDbEntity
  8
0
100
AcDbSpline
 62
7
  6
CONTINUOUS
 70
0
 71
3
 72
11
 73
7
 74
0
 42
0.0000001
 43
0.0000001
 44
0.0000000001
 40
0.0
 40
0.0
 40
0.0
 40
0.0
 40
0.2375081473
 40
0.4830618126
 40
0.7374568786
 40
1.0
 40
1.0
 40
1.0
 40
1.0
 10
9.9424792952
 20
9.3264314091
 30
0.0
 10
9.9445001807
 20
9.3280981719
 30
0.0
 10
9.94839443
 20
9.3317630873
 30
0.0
 10
9.9534503614
 20
9.3381753107
 30
0.0
 10
9.9575594686
 20
9.3455534913
 30
0.0
 10
9.9594985201
 20
9.3509472325
 30
0.0
 10
9.9602541461
 20
9.3537425797
 30
0.0
  0
SPLINE
  5
429
100
AcDbEntity
  8
0
100
AcDbSpline
 62
7
  6
CONTINUOUS
 70
0
 71
3
 72
11
 73
7
 74
0
 42
0.0000001
 43
0.0000001
 44
0.0000000001
 40
0.0
 40
0.0
 40
0.0
 40
0.0
 40
0.2443038125
 40
0.4922686372
 40
0.744163295
 40
1.0
 40
1.0
 40
1.0
 40
1.0
 10
10.320386153
 20
9.4089828665
 30
0.0
 10
10.3227529597
 20
9.4073065011
 30
0.0
 10
10.3273027599
 20
9.4036048354
 30
0.0
 10
10.3333126085
 20
9.3970846448
 30
0.0
 10
10.3382933526
 20
9.3895752003
 30
0.0
 10
10.3406993845
 20
9.3840009486
 30
0.0
 10
10.3416167749
 20
9.381105551
 30
0.0
  0
SPLINE
  5
42A
100
AcDbEntity
  8
0
100
AcDbSpline
 62
7
  6
CONTINUOUS
 70
0
 71
3
 72
9
 73
5
 74
0
 42
0.0000001
 43
0.0000001
 44
0.0000000001
 40
0.0
 40
0.0
 40
0.0
 40
0.0
 40
0.4927769659
 40
1.0
 40
1.0
 40
1.0
 40
1.0
 10
10.3311428706
 20
9.3264322603
 30
0.0
 10
10.3342202966
 20
9.3287525462
 30
0.0
 10
10.3400629651
 20
9.3340346314
 30
0.0
 10
10.3446345946
 20
9.3404812183
 30
0.0
 10
10.3465308137
 20
9.3439658018
 30
0.0
  0
SPLINE
  5
42B
100
AcDbEntity
  8
0
100
AcDbSpline
 62
7
  6
CONTINUOUS
 70
0
 71
3
 72
11
 73
7
 74
0
 42
0.0000001
 43
0.0000001
 44
0.0000000001
 40
0.0
 40
0.0
 40
0.0
 40
0.0
 40
0.2423763938
 40
0.4896359051
 40
0.7421814949
 40
1.0
 40
1.0
 40
1.0
 40
1.0
 10
10.3300946446
 20
9.4089828665
 30
0.0
 10
10.3323844843
 20
9.4073025646
 30
0.0
 10
10.3367868787
 20
9.4035900031
 30
0.0
 10
10.3425861505
 20
9.3970657184
 30
0.0
 10
10.3473891839
 20
9.3895539273
 30
0.0
 10
10.3497031954
 20
9.3839946274
 30
0.0
 10
10.3505867404
 20
9.381105551
 30
0.0
  0
SPLINE
  5
42C
100
AcDbEntity
  8
0
100
AcDbSpline
 62
7
  6
CONTINUOUS
 70
0
 71
3
 72
11
 73
7
 74
0
 42
0.0000001
 43
0.0000001
 44
0.0000000001
 40
0.0
 40
0.0
 40
0.0
 40
0.0
 40
0.2282249944
 40
0.4706907055
 40
0.7284365064
 40
1.0
 40
1.0
 40
1.0
 40
1.0
 10
9.9088077473
 20
9.3264314129
 30
0.0
 10
9.9071188623
 20
9.3281202446
 30
0.0
 10
9.9038672738
 20
9.3318445503
 30
0.0
 10
9.8997096861
 20
9.3382655733
 30
0.0
 10
9.8963396602
 20
9.3456355736
 30
0.0
 10
9.8947655241
 20
9.3509687367
 30
0.0
 10
9.8941470793
 20
9.3537425797
 30
0.0
  0
SPLINE
  5
42D
100
AcDbEntity
  8
0
100
AcDbSpline
 62
7
  6
CONTINUOUS
 70
0
 71
3
 72
11
 73
7
 74
0
 42
0.0000001
 43
0.0000001
 44
0.0000000001
 40
0.0
 40
0.0
 40
0.0
 40
0.0
 40
0.2683653937
 40
0.524909028
 40
0.7684410022
 40
1.0
 40
1.0
 40
1.0
 40
1.0
 10
9.8941470793
 20
9.3537425797
 30
0.0
 10
9.8934798406
 20
9.350961092
 30
0.0
 10
9.8917764337
 20
9.3456062995
 30
0.0
 10
9.8881424137
 20
9.3382323792
 30
0.0
 10
9.8836634852
 20
9.3318138967
 30
0.0
 10
9.880181073
 20
9.3281116619
 30
0.0
 10
9.8783732138
 20
9.3264314434
 30
0.0
  0
SPLINE
  5
42E
100
AcDbEntity
  8
0
100
AcDbSpline
 62
7
  6
CONTINUOUS
 70
0
 71
3
 72
9
 73
5
 74
0
 42
0.0000001
 43
0.0000001
 44
0.0000000001
 40
0.0
 40
0.0
 40
0.0
 40
0.0
 40
0.4905925103
 40
1.0
 40
1.0
 40
1.0
 40
1.0
 10
10.3386981091
 20
9.3264317323
 30
0.0
 10
10.3416619728
 20
9.3287611642
 30
0.0
 10
10.3472893427
 20
9.3340737006
 30
0.0
 10
10.351648747
 20
9.340495761
 30
0.0
 10
10.3534601615
 20
9.343965693
 30
0.0
  0
SPLINE
  5
42F
100
AcDbEntity
  8
0
100
AcDbSpline
 62
7
  6
CONTINUOUS
 70
0
 71
3
 72
9
 73
5
 74
0
 42
0.0000001
 43
0.0000001
 44
0.0000000001
 40
0.0
 40
0.0
 40
0.0
 40
0.0
 40
0.4753622784
 40
1.0
 40
1.0
 40
1.0
 40
1.0
 10
9.8775235196
 20
9.4089828665
 30
0.0
 10
9.8813791502
 20
9.4054951595
 30
0.0
 10
9.8884462328
 20
9.3969390969
 30
0.0
 10
9.8927654384
 20
9.3866746879
 30
0.0
 10
9.8941470793
 20
9.381105551
 30
0.0
  0
SPLINE
  5
430
100
AcDbEntity
  8
0
100
AcDbSpline
 62
7
  6
CONTINUOUS
 70
0
 71
3
 72
9
 73
5
 74
0
 42
0.0000001
 43
0.0000001
 44
0.0000000001
 40
0.0
 40
0.0
 40
0.0
 40
0.0
 40
0.5246780994
 40
1.0
 40
1.0
 40
1.0
 40
1.0
 10
9.8608999598
 20
9.381105551
 30
0.0
 10
9.8622817061
 20
9.3866751125
 30
0.0
 10
9.866601172
 20
9.3969394351
 30
0.0
 10
9.8736682192
 20
9.4054954582
 30
0.0
 10
9.8775235196
 20
9.4089828665
 30
0.0
  0
SPLINE
  5
431
100
AcDbEntity
  8
0
100
AcDbSpline
 62
7
  6
CONTINUOUS
 70
0
 71
3
 72
9
 73
5
 74
0
 42
0.0000001
 43
0.0000001
 44
0.0000000001
 40
0.0
 40
0.0
 40
0.0
 40
0.0
 40
0.4907154197
 40
1.0
 40
1.0
 40
1.0
 40
1.0
 10
10.3376930408
 20
9.4089828665
 30
0.0
 10
10.3408196297
 20
9.4065912063
 30
0.0
 10
10.3467317641
 20
9.4010845949
 30
0.0
 10
10.3513794796
 20
9.3944520165
 30
0.0
 10
10.3533199854
 20
9.3908568864
 30
0.0
  0
SPLINE
  5
432
100
AcDbEntity
  8
0
100
AcDbSpline
 62
7
  6
CONTINUOUS
 70
0
 71
3
 72
9
 73
5
 74
0
 42
0.0000001
 43
0.0000001
 44
0.0000000001
 40
0.0
 40
0.0
 40
0.0
 40
0.0
 40
0.2479869552
 40
1.0
 40
1.0
 40
1.0
 40
1.0
 10
10.3533199854
 20
9.3908568864
 30
0.0
 10
10.3536324813
 20
9.3902779323
 30
0.0
 10
10.3548488471
 20
9.3879200387
 30
0.0
 10
10.355885328
 20
9.3854687039
 30
0.0
 10
10.3565493112
 20
9.3835873525
 30
0.0
  0
SPLINE
  5
433
100
AcDbEntity
  8
0
100
AcDbSpline
 62
7
  6
CONTINUOUS
 70
0
 71
3
 72
11
 73
7
 74
0
 42
0.0000001
 43
0.0000001
 44
0.0000000001
 40
0.0
 40
0.0
 40
0.0
 40
0.0
 40
0.2315849271
 40
0.4751457941
 40
0.7316681221
 40
1.0
 40
1.0
 40
1.0
 40
1.0
 10
9.8766738292
 20
9.3264314383
 30
0.0
 10
9.8748657632
 20
9.3281118513
 30
0.0
 10
9.8713827929
 20
9.3318143887
 30
0.0
 10
9.8669037721
 20
9.3382332989
 30
0.0
 10
9.8632700839
 20
9.3456071064
 30
0.0
 10
9.8615671172
 20
9.3509614309
 30
0.0
 10
9.8608999598
 20
9.3537425797
 30
0.0
  0
SPLINE
  5
434
100
AcDbEntity
  8
0
100
AcDbSpline
 62
7
  6
CONTINUOUS
 70
0
 71
3
 72
9
 73
5
 74
0
 42
0.0000001
 43
0.0000001
 44
0.0000000001
 40
0.0
 40
0.0
 40
0.0
 40
0.0
 40
0.4708260433
 40
1.0
 40
1.0
 40
1.0
 40
1.0
 10
9.8454495853
 20
9.4089828665
 30
0.0
 10
9.8490705543
 20
9.4054587163
 30
0.0
 10
9.8556743647
 20
9.3968047989
 30
0.0
 10
9.8596239737
 20
9.3866393535
 30
0.0
 10
9.8608999598
 20
9.381105551
 30
0.0
  0
SPLINE
  5
435
100
AcDbEntity
  8
0
100
AcDbSpline
 62
7
  6
CONTINUOUS
 70
0
 71
3
 72
9
 73
5
 74
0
 42
0.0000001
 43
0.0000001
 44
0.0000000001
 40
0.0
 40
0.0
 40
0.0
 40
0.0
 40
0.4834159303
 40
1.0
 40
1.0
 40
1.0
 40
1.0
 10
9.9415218447
 20
9.4089828665
 30
0.0
 10
9.9457931104
 20
9.4055541304
 30
0.0
 10
9.9536692911
 20
9.3971782276
 30
0.0
 10
9.9586782979
 20
9.3867424461
 30
0.0
 10
9.9602541461
 20
9.381105551
 30
0.0
  0
SPLINE
  5
436
100
AcDbEntity
  8
0
100
AcDbSpline
 62
7
  6
CONTINUOUS
 70
0
 71
3
 72
9
 73
5
 74
0
 42
0.0000001
 43
0.0000001
 44
0.0000000001
 40
0.0
 40
0.0
 40
0.0
 40
0.0
 40
0.2456713596
 40
1.0
 40
1.0
 40
1.0
 40
1.0
 10
10.3441045363
 20
9.3264327262
 30
0.0
 10
10.3448474948
 20
9.3270455323
 30
0.0
 10
10.3478110664
 20
9.3296120144
 30
0.0
 10
10.3505135732
 20
9.3324842467
 30
0.0
 10
10.3523496954
 20
9.3348022521
 30
0.0
  0
SPLINE
  5
437
100
AcDbEntity
  8
0
100
AcDbSpline
 62
7
  6
CONTINUOUS
 70
0
 71
3
 72
11
 73
7
 74
0
 42
0.0000001
 43
0.0000001
 44
0.0000000001
 40
0.0
 40
0.0
 40
0.0
 40
0.0
 40
0.2208938578
 40
0.4610662817
 40
0.7215142257
 40
1.0
 40
1.0
 40
1.0
 40
1.0
 10
9.9724887525
 20
9.3264315232
 30
0.0
 10
9.9710622846
 20
9.3281407903
 30
0.0
 10
9.9683224656
 20
9.3319137512
 30
0.0
 10
9.9648651501
 20
9.3383348702
 30
0.0
 10
9.9620665987
 20
9.3456934862
 30
0.0
 10
9.9607675629
 20
9.3509831933
 30
0.0
 10
9.9602541461
 20
9.3537425797
 30
0.0
  0
SPLINE
  5
438
100
AcDbEntity
  8
0
100
AcDbSpline
 62
7
  6
CONTINUOUS
 70
0
 71
3
 72
9
 73
5
 74
0
 42
0.0000001
 43
0.0000001
 44
0.0000000001
 40
0.0
 40
0.0
 40
0.0
 40
0.0
 40
0.2800901888
 40
1.0
 40
1.0
 40
1.0
 40
1.0
 10
9.9602541461
 20
9.381105551
 30
0.0
 10
9.9607993989
 20
9.3839391414
 30
0.0
 10
9.963378252
 20
9.3939133357
 30
0.0
 10
9.9683201055
 20
9.4033525222
 30
0.0
 10
9.9731478457
 20
9.4089828665
 30
0.0
  0
SPLINE
  5
439
100
AcDbEntity
  8
0
100
AcDbSpline
 62
7
  6
CONTINUOUS
 70
0
 71
3
 72
9
 73
5
 74
0
 42
0.0000001
 43
0.0000001
 44
0.0000000001
 40
0.0
 40
0.0
 40
0.0
 40
0.0
 40
0.2459070784
 40
1.0
 40
1.0
 40
1.0
 40
1.0
 10
10.3518363861
 20
9.4003408651
 30
0.0
 10
10.3524217468
 20
9.399618578
 30
0.0
 10
10.354729742
 20
9.3966235703
 30
0.0
 10
10.3567329515
 20
9.3933921907
 30
0.0
 10
10.3580369636
 20
9.3908568864
 30
0.0
  0
SPLINE
  5
43A
100
AcDbEntity
  8
0
100
AcDbSpline
 62
7
  6
CONTINUOUS
 70
0
 71
3
 72
9
 73
5
 74
0
 42
0.0000001
 43
0.0000001
 44
0.0000000001
 40
0.0
 40
0.0
 40
0.0
 40
0.0
 40
0.2472561418
 40
1.0
 40
1.0
 40
1.0
 40
1.0
 10
10.3580369636
 20
9.3908568864
 30
0.0
 10
10.358369296
 20
9.3902107546
 30
0.0
 10
10.3596601798
 20
9.3875706253
 30
0.0
 10
10.3607323552
 20
9.3848227548
 30
0.0
 10
10.3613992494
 20
9.3827136608
 30
0.0
  0
SPLINE
  5
43B
100
AcDbEntity
  8
0
100
AcDbSpline
 62
7
  6
CONTINUOUS
 70
0
 71
3
 72
11
 73
7
 74
0
 42
0.0000001
 43
0.0000001
 44
0.0000000001
 40
0.0
 40
0.0
 40
0.0
 40
0.0
 40
0.2400455312
 40
0.4864808735
 40
0.7399735559
 40
1.0
 40
1.0
 40
1.0
 40
1.0
 10
9.9741527158
 20
9.32643152
 30
0.0
 10
9.9762666235
 20
9.3280929176
 30
0.0
 10
9.9803397733
 20
9.3317422582
 30
0.0
 10
9.9856484923
 20
9.3381504744
 30
0.0
 10
9.9899667817
 20
9.3455293554
 30
0.0
 10
9.9920110462
 20
9.3509406847
 30
0.0
 10
9.9928058717
 20
9.3537425797
 30
0.0
  0
SPLINE
  5
43C
100
AcDbEntity
  8
0
100
AcDbSpline
 62
7
  6
CONTINUOUS
 70
0
 71
3
 72
11
 73
7
 74
0
 42
0.0000001
 43
0.0000001
 44
0.0000000001
 40
0.0
 40
0.0
 40
0.0
 40
0.0
 40
0.2401535447
 40
0.4866130045
 40
0.7399114724
 40
1.0
 40
1.0
 40
1.0
 40
1.0
 10
9.9731478457
 20
9.4089828665
 30
0.0
 10
9.9753506446
 20
9.4072978524
 30
0.0
 10
9.9795855916
 20
9.4035719822
 30
0.0
 10
9.9851469419
 20
9.3970437822
 30
0.0
 10
9.9897501545
 20
9.3895303789
 30
0.0
 10
9.9919603303
 20
9.3839876688
 30
0.0
 10
9.9928058717
 20
9.381105551
 30
0.0
  0
SPLINE
  5
43D
100
AcDbEntity
  8
0
100
AcDbSpline
 62
7
  6
CONTINUOUS
 70
0
 71
3
 72
11
 73
7
 74
0
 42
0.0000001
 43
0.0000001
 44
0.0000000001
 40
0.0
 40
0.0
 40
0.0
 40
0.0
 40
0.217053121
 40
0.456076136
 40
0.717947195
 40
1.0
 40
1.0
 40
1.0
 40
1.0
 10
10.0037390508
 20
9.326431497
 30
0.0
 10
10.002455321
 20
9.3281528402
 30
0.0
 10
9.9999951706
 20
9.3319521863
 30
0.0
 10
9.996912418
 20
9.3383706173
 30
0.0
 10
9.994417613
 20
9.3457215931
 30
0.0
 10
9.9932635416
 20
9.3509900022
 30
0.0
 10
9.9928058717
 20
9.3537425797
 30
0.0
  0
SPLINE
  5
43E
100
AcDbEntity
  8
0
100
AcDbSpline
 62
7
  6
CONTINUOUS
 70
0
 71
3
 72
11
 73
7
 74
0
 42
0.0000001
 43
0.0000001
 44
0.0000000001
 40
0.0
 40
0.0
 40
0.0
 40
0.0
 40
0.2826429792
 40
0.5440800168
 40
0.7829258709
 40
1.0
 40
1.0
 40
1.0
 40
1.0
 10
9.9928058717
 20
9.381105551
 30
0.0
 10
9.9932917649
 20
9.3839312422
 30
0.0
 10
9.9945377817
 20
9.3893228278
 30
0.0
 10
9.9972020176
 20
9.3968228873
 30
0.0
 10
10.0004340595
 20
9.4033612429
 30
0.0
 10
10.0029886916
 20
9.4072349646
 30
0.0
 10
10.004328002
 20
9.4089828665
 30
0.0
  0
SPLINE
  5
43F
100
AcDbEntity
  8
0
100
AcDbSpline
 62
7
  6
CONTINUOUS
 70
0
 71
3
 72
11
 73
7
 74
0
 42
0.0000001
 43
0.0000001
 44
0.0000000001
 40
0.0
 40
0.0
 40
0.0
 40
0.0
 40
0.2422887844
 40
0.4895166442
 40
0.7422171582
 40
1.0
 40
1.0
 40
1.0
 40
1.0
 10
10.005375593
 20
9.3264316077
 30
0.0
 10
10.0075731609
 20
9.3280884577
 30
0.0
 10
10.0118067687
 20
9.3317242704
 30
0.0
 10
10.0173429181
 20
9.3381284117
 30
0.0
 10
10.0218498321
 20
9.3455073219
 30
0.0
 10
10.0239897516
 20
9.350934607
 30
0.0
 10
10.0248200978
 20
9.3537425797
 30
0.0
  0
SPLINE
  5
440
100
AcDbEntity
  8
0
100
AcDbSpline
 62
7
  6
CONTINUOUS
 70
0
 71
3
 72
11
 73
7
 74
0
 42
0.0000001
 43
0.0000001
 44
0.0000000001
 40
0.0
 40
0.0
 40
0.0
 40
0.0
 40
0.2423763938
 40
0.4896359051
 40
0.7421814949
 40
1.0
 40
1.0
 40
1.0
 40
1.0
 10
10.004328002
 20
9.4089828665
 30
0.0
 10
10.0066178417
 20
9.4073025646
 30
0.0
 10
10.011020236
 20
9.4035900031
 30
0.0
 10
10.0168195079
 20
9.3970657184
 30
0.0
 10
10.0216225413
 20
9.3895539273
 30
0.0
 10
10.0239365528
 20
9.3839946274
 30
0.0
 10
10.0248200978
 20
9.381105551
 30
0.0
  0
SPLINE
  5
441
100
AcDbEntity
  8
0
100
AcDbSpline
 62
7
  6
CONTINUOUS
 70
0
 71
3
 72
11
 73
7
 74
0
 42
0.0000001
 43
0.0000001
 44
0.0000000001
 40
0.0
 40
0.0
 40
0.0
 40
0.0
 40
0.213199483
 40
0.4511079655
 40
0.7144331424
 40
1.0
 40
1.0
 40
1.0
 40
1.0
 10
10.0344008585
 20
9.3264314227
 30
0.0
 10
10.0332674122
 20
9.3281657819
 30
0.0
 10
10.0311007317
 20
9.3319910095
 30
0.0
 10
10.0284063652
 20
9.3384053989
 30
0.0
 10
10.0262266466
 20
9.3457484076
 30
0.0
 10
10.0252202184
 20
9.3509964221
 30
0.0
 10
10.0248200978
 20
9.3537425797
 30
0.0
  0
SPLINE
  5
442
100
AcDbEntity
  8
0
100
AcDbSpline
 62
7
  6
CONTINUOUS
 70
0
 71
3
 72
11
 73
7
 74
0
 42
0.0000001
 43
0.0000001
 44
0.0000000001
 40
0.0
 40
0.0
 40
0.0
 40
0.0
 40
0.2862838874
 40
0.5491414397
 40
0.7868326693
 40
1.0
 40
1.0
 40
1.0
 40
1.0
 10
10.0248200978
 20
9.381105551
 30
0.0
 10
10.0252447727
 20
9.383923855
 30
0.0
 10
10.0263305292
 20
9.3892934311
 30
0.0
 10
10.0286594087
 20
9.3967869579
 30
0.0
 10
10.0314849246
 20
9.4033211603
 30
0.0
 10
10.0337339168
 20
9.4072209902
 30
0.0
 10
10.0349169373
 20
9.4089828665
 30
0.0
  0
SPLINE
  5
443
100
AcDbEntity
  8
0
100
AcDbSpline
 62
7
  6
CONTINUOUS
 70
0
 71
3
 72
11
 73
7
 74
0
 42
0.0000001
 43
0.0000001
 44
0.0000000001
 40
0.0
 40
0.0
 40
0.0
 40
0.0
 40
0.2442379664
 40
0.4921643781
 40
0.7441810237
 40
1.0
 40
1.0
 40
1.0
 40
1.0
 10
10.0360021153
 20
9.3264314414
 30
0.0
 10
10.0382736809
 20
9.3280845007
 30
0.0
 10
10.042648882
 20
9.3317087913
 30
0.0
 10
10.0483861829
 20
9.3381090527
 30
0.0
 10
10.053060264
 20
9.3454875616
 30
0.0
 10
10.0552855901
 20
9.3509290664
 30
0.0
 10
10.0561475593
 20
9.3537425797
 30
0.0
  0
LINE
  5
444
100
AcDbEntity
  8
0
100
AcDbLine
 62
7
  6
CONTINUOUS
 10
9.5567235423
 20
9.3256303033
 11
9.5567645983
 21
9.3264322391
  0
SPLINE
  5
445
100
AcDbEntity
  8
0
100
AcDbSpline
 62
7
  6
CONTINUOUS
 70
0
 71
3
 72
9
 73
5
 74
0
 42
0.0000001
 43
0.0000001
 44
0.0000000001
 40
0.0
 40
0.0
 40
0.0
 40
0.0
 40
0.2445982966
 40
1.0
 40
1.0
 40
1.0
 40
1.0
 10
10.3473335165
 20
9.3264314148
 30
0.0
 10
10.3480371875
 20
9.3270449648
 30
0.0
 10
10.3508524878
 20
9.3296226924
 30
0.0
 10
10.3534031318
 20
9.3324926228
 30
0.0
 10
10.3551321031
 20
9.334799956
 30
0.0
  0
SPLINE
  5
446
100
AcDbEntity
  8
0
100
AcDbSpline
 62
7
  6
CONTINUOUS
 70
0
 71
3
 72
11
 73
7
 74
0
 42
0.0000001
 43
0.0000001
 44
0.0000000001
 40
0.0
 40
0.0
 40
0.0
 40
0.0
 40
0.2443041263
 40
0.4922671856
 40
0.744164759
 40
1.0
 40
1.0
 40
1.0
 40
1.0
 10
10.0349169373
 20
9.4089828665
 30
0.0
 10
10.0372837474
 20
9.4073064987
 30
0.0
 10
10.0418339033
 20
9.4036053069
 30
0.0
 10
10.0478435498
 20
9.3970847845
 30
0.0
 10
10.0528234815
 20
9.3895748996
 30
0.0
 10
10.0552301739
 20
9.3840009325
 30
0.0
 10
10.0561475593
 20
9.381105551
 30
0.0
  0
SPLINE
  5
447
100
AcDbEntity
  8
0
100
AcDbSpline
 62
7
  6
CONTINUOUS
 70
0
 71
3
 72
10
 73
6
 74
0
 42
0.0000001
 43
0.0000001
 44
0.0000000001
 40
0.0
 40
0.0
 40
0.0
 40
0.0
 40
0.44599256
 40
0.7108897798
 40
1.0
 40
1.0
 40
1.0
 40
1.0
 10
10.0643311296
 20
9.3264316282
 30
0.0
 10
10.0622547526
 20
9.3301512876
 30
0.0
 10
10.0596888344
 20
9.3365080281
 30
0.0
 10
10.0573448022
 20
9.3457714627
 30
0.0
 10
10.0564886074
 20
9.3510022481
 30
0.0
 10
10.0561475593
 20
9.3537425797
 30
0.0
  0
SPLINE
  5
448
100
AcDbEntity
  8
0
100
AcDbSpline
 62
7
  6
CONTINUOUS
 70
0
 71
3
 72
11
 73
7
 74
0
 42
0.0000001
 43
0.0000001
 44
0.0000000001
 40
0.0
 40
0.0
 40
0.0
 40
0.0
 40
0.289778005
 40
0.5540273922
 40
0.7906324832
 40
1.0
 40
1.0
 40
1.0
 40
1.0
 10
10.0561475593
 20
9.381105551
 30
0.0
 10
10.0565094423
 20
9.383917144
 30
0.0
 10
10.0574320484
 20
9.3892662598
 30
0.0
 10
10.059416401
 20
9.3967525812
 30
0.0
 10
10.061823711
 20
9.4032810365
 30
0.0
 10
10.063753032
 20
9.4072061827
 30
0.0
 10
10.0647720318
 20
9.4089828665
 30
0.0
  0
SPLINE
  5
449
100
AcDbEntity
  8
0
100
AcDbSpline
 62
7
  6
CONTINUOUS
 70
0
 71
3
 72
11
 73
7
 74
0
 42
0.0000001
 43
0.0000001
 44
0.0000000001
 40
0.0
 40
0.0
 40
0.0
 40
0.0
 40
0.2458960454
 40
0.4944237118
 40
0.7458622224
 40
1.0
 40
1.0
 40
1.0
 40
1.0
 10
10.0658900959
 20
9.3264316309
 30
0.0
 10
10.0682256367
 20
9.3280815594
 30
0.0
 10
10.0727230504
 20
9.331696117
 30
0.0
 10
10.0786342211
 20
9.338092729
 30
0.0
 10
10.0834529562
 20
9.3454704691
 30
0.0
 10
10.0857527266
 20
9.350924213
 30
0.0
 10
10.086642193
 20
9.3537425797
 30
0.0
  0
SPLINE
  5
44A
100
AcDbEntity
  8
0
100
AcDbSpline
 62
7
  6
CONTINUOUS
 70
0
 71
3
 72
11
 73
7
 74
0
 42
0.0000001
 43
0.0000001
 44
0.0000000001
 40
0.0
 40
0.0
 40
0.0
 40
0.0
 40
0.2459411868
 40
0.4945087802
 40
0.745859748
 40
1.0
 40
1.0
 40
1.0
 40
1.0
 10
10.0647720318
 20
9.4089828665
 30
0.0
 10
10.067205434
 20
9.4073097333
 30
0.0
 10
10.0718832011
 20
9.4036180682
 30
0.0
 10
10.0780747918
 20
9.3971009996
 30
0.0
 10
10.083207857
 20
9.3895931192
 30
0.0
 10
10.0856953573
 20
9.3840064951
 30
0.0
 10
10.086642193
 20
9.381105551
 30
0.0
  0
SPLINE
  5
44B
100
AcDbEntity
  8
0
100
AcDbSpline
 62
7
  6
CONTINUOUS
 70
0
 71
3
 72
10
 73
6
 74
0
 42
0.0000001
 43
0.0000001
 44
0.0000000001
 40
0.0
 40
0.0
 40
0.0
 40
0.0
 40
0.4416812428
 40
0.7078387629
 40
1.0
 40
1.0
 40
1.0
 40
1.0
 10
10.0933905576
 20
9.3264315315
 30
0.0
 10
10.0916523798
 20
9.3302075671
 30
0.0
 10
10.0895476531
 20
9.336578756
 30
0.0
 10
10.0876252822
 20
9.3457935149
 30
0.0
 10
10.0869229121
 20
9.3510072689
 30
0.0
 10
10.086642193
 20
9.3537425797
 30
0.0
  0
SPLINE
  5
44C
100
AcDbEntity
  8
0
100
AcDbSpline
 62
7
  6
CONTINUOUS
 70
0
 71
3
 72
11
 73
7
 74
0
 42
0.0000001
 43
0.0000001
 44
0.0000000001
 40
0.0
 40
0.0
 40
0.0
 40
0.0
 40
0.2929973128
 40
0.5585538898
 40
0.7941783873
 40
1.0
 40
1.0
 40
1.0
 40
1.0
 10
10.086642193
 20
9.381105551
 30
0.0
 10
10.0869399846
 20
9.3839112686
 30
0.0
 10
10.0876972635
 20
9.3892421091
 30
0.0
 10
10.0893297439
 20
9.3967210365
 30
0.0
 10
10.0913096929
 20
9.4032426261
 30
0.0
 10
10.0929066921
 20
9.4071911499
 30
0.0
 10
10.0937540873
 20
9.4089828665
 30
0.0
  0
SPLINE
  5
44D
100
AcDbEntity
  8
0
100
AcDbSpline
 62
7
  6
CONTINUOUS
 70
0
 71
3
 72
11
 73
7
 74
0
 42
0.0000001
 43
0.0000001
 44
0.0000000001
 40
0.0
 40
0.0
 40
0.0
 40
0.0
 40
0.247267371
 40
0.4962973794
 40
0.7472601207
 40
1.0
 40
1.0
 40
1.0
 40
1.0
 10
10.09489972
 20
9.3264317121
 30
0.0
 10
10.0972890098
 20
9.3280791167
 30
0.0
 10
10.1018889278
 20
9.3316857387
 30
0.0
 10
10.1079460939
 20
9.3380791592
 30
0.0
 10
10.1128864469
 20
9.345456017
 30
0.0
 10
10.1152491464
 20
9.3509200593
 30
0.0
 10
10.1161618189
 20
9.3537425797
 30
0.0
  0
SPLINE
  5
44E
100
AcDbEntity
  8
0
100
AcDbSpline
 62
7
  6
CONTINUOUS
 70
0
 71
3
 72
11
 73
7
 74
0
 42
0.0000001
 43
0.0000001
 44
0.0000000001
 40
0.0
 40
0.0
 40
0.0
 40
0.0
 40
0.2472932704
 40
0.4963650487
 40
0.7472671986
 40
1.0
 40
1.0
 40
1.0
 40
1.0
 10
10.0937540873
 20
9.4089828665
 30
0.0
 10
10.0962434275
 20
9.4073123339
 30
0.0
 10
10.1010282331
 20
9.4036284466
 30
0.0
 10
10.1073725865
 20
9.3971144045
 30
0.0
 10
10.1126343128
 20
9.3896084554
 30
0.0
 10
10.115190123
 20
9.3840112406
 30
0.0
 10
10.1161618189
 20
9.381105551
 30
0.0
  0
SPLINE
  5
44F
100
AcDbEntity
  8
0
100
AcDbSpline
 62
7
  6
CONTINUOUS
 70
0
 71
3
 72
11
 73
7
 74
0
 42
0.0000001
 43
0.0000001
 44
0.0000000001
 40
0.0
 40
0.0
 40
0.0
 40
0.0
 40
0.2029561592
 40
0.4380799219
 40
0.7052905475
 40
1.0
 40
1.0
 40
1.0
 40
1.0
 10
10.1214434333
 20
9.3264315827
 30
0.0
 10
10.1208039019
 20
9.3282067243
 30
0.0
 10
10.1195951032
 20
9.332101253
 30
0.0
 10
10.1181217386
 20
9.3384955537
 30
0.0
 10
10.1169289955
 20
9.3458133717
 30
0.0
 10
10.116381182
 20
9.3510115389
 30
0.0
 10
10.1161618189
 20
9.3537425797
 30
0.0
  0
SPLINE
  5
450
100
AcDbEntity
  8
0
100
AcDbSpline
 62
7
  6
CONTINUOUS
 70
0
 71
3
 72
11
 73
7
 74
0
 42
0.0000001
 43
0.0000001
 44
0.0000000001
 40
0.0
 40
0.0
 40
0.0
 40
0.0
 40
0.2958043748
 40
0.5625196899
 40
0.7973054963
 40
1.0
 40
1.0
 40
1.0
 40
1.0
 10
10.1161618189
 20
9.381105551
 30
0.0
 10
10.1163944807
 20
9.3839063785
 30
0.0
 10
10.1169848472
 20
9.3892217406
 30
0.0
 10
10.1182598234
 20
9.3966936647
 30
0.0
 10
10.1198056491
 20
9.403208017
 30
0.0
 10
10.1210594468
 20
9.4071768007
 30
0.0
 10
10.1217279761
 20
9.4089828665
 30
0.0
  0
SPLINE
  5
451
100
AcDbEntity
  8
0
100
AcDbSpline
 62
7
  6
CONTINUOUS
 70
0
 71
3
 72
11
 73
7
 74
0
 42
0.0000001
 43
0.0000001
 44
0.0000000001
 40
0.0
 40
0.0
 40
0.0
 40
0.0
 40
0.2483568862
 40
0.4977892912
 40
0.7483756282
 40
1.0
 40
1.0
 40
1.0
 40
1.0
 10
10.1228955889
 20
9.3264315622
 30
0.0
 10
10.1253281815
 20
9.3280770166
 30
0.0
 10
10.1300105686
 20
9.3316774435
 30
0.0
 10
10.1361852914
 20
9.3380682618
 30
0.0
 10
10.1412236947
 20
9.3454442821
 30
0.0
 10
10.1436373657
 20
9.3509166474
 30
0.0
 10
10.1445688029
 20
9.3537425797
 30
0.0
  0
SPLINE
  5
452
100
AcDbEntity
  8
0
100
AcDbSpline
 62
7
  6
CONTINUOUS
 70
0
 71
3
 72
11
 73
7
 74
0
 42
0.0000001
 43
0.0000001
 44
0.0000000001
 40
0.0
 40
0.0
 40
0.0
 40
0.0
 40
0.2483663125
 40
0.4978413647
 40
0.7483890595
 40
1.0
 40
1.0
 40
1.0
 40
1.0
 10
10.1217279761
 20
9.4089828665
 30
0.0
 10
10.1242623623
 20
9.4073143535
 30
0.0
 10
10.1291332652
 20
9.4036365799
 30
0.0
 10
10.1356005761
 20
9.3971250488
 30
0.0
 10
10.1409659121
 20
9.3896208147
 30
0.0
 10
10.1435770078
 20
9.3840151081
 30
0.0
 10
10.1445688029
 20
9.381105551
 30
0.0
  0
SPLINE
  5
453
100
AcDbEntity
  8
0
100
AcDbSpline
 62
7
  6
CONTINUOUS
 70
0
 71
3
 72
11
 73
7
 74
0
 42
0.0000001
 43
0.0000001
 44
0.0000000001
 40
0.0
 40
0.0
 40
0.0
 40
0.0
 40
0.2004878637
 40
0.4349798822
 40
0.703135717
 40
1.0
 40
1.0
 40
1.0
 40
1.0
 10
10.1483590035
 20
9.3264319672
 30
0.0
 10
10.1478971279
 20
9.3282184641
 30
0.0
 10
10.147027417
 20
9.3321291876
 30
0.0
 10
10.1459724338
 20
9.3385167355
 30
0.0
 10
10.1451180618
 20
9.3458278329
 30
0.0
 10
10.1447260349
 20
9.3510148473
 30
0.0
 10
10.1445688029
 20
9.3537425797
 30
0.0
  0
SPLINE
  5
454
100
AcDbEntity
  8
0
100
AcDbSpline
 62
7
  6
CONTINUOUS
 70
0
 71
3
 72
11
 73
7
 74
0
 42
0.0000001
 43
0.0000001
 44
0.0000000001
 40
0.0
 40
0.0
 40
0.0
 40
0.0
 40
0.2980612813
 40
0.5657214034
 40
0.7998445906
 40
1.0
 40
1.0
 40
1.0
 40
1.0
 10
10.1445688029
 20
9.381105551
 30
0.0
 10
10.1447355435
 20
9.383902593
 30
0.0
 10
10.1451579148
 20
9.3892058157
 30
0.0
 10
10.1460712958
 20
9.3966717523
 30
0.0
 10
10.1471783208
 20
9.4031794484
 30
0.0
 10
10.1480801953
 20
9.4071643183
 30
0.0
 10
10.148563271
 20
9.4089828665
 30
0.0
  0
SPLINE
  5
455
100
AcDbEntity
  8
0
100
AcDbSpline
 62
7
  6
CONTINUOUS
 70
0
 71
3
 72
11
 73
7
 74
0
 42
0.0000001
 43
0.0000001
 44
0.0000000001
 40
0.0
 40
0.0
 40
0.0
 40
0.0
 40
0.2491700325
 40
0.4989036068
 40
0.749209745
 40
1.0
 40
1.0
 40
1.0
 40
1.0
 10
10.1497479565
 20
9.3264319561
 30
0.0
 10
10.1522131415
 20
9.3280759697
 30
0.0
 10
10.156957564
 20
9.3316717144
 30
0.0
 10
10.163220805
 20
9.3380603464
 30
0.0
 10
10.1683329448
 20
9.3454355605
 30
0.0
 10
10.1707850911
 20
9.3509140999
 30
0.0
 10
10.1717306986
 20
9.3537425797
 30
0.0
  0
SPLINE
  5
456
100
AcDbEntity
  8
0
100
AcDbSpline
 62
7
  6
CONTINUOUS
 70
0
 71
3
 72
11
 73
7
 74
0
 42
0.0000001
 43
0.0000001
 44
0.0000000001
 40
0.0
 40
0.0
 40
0.0
 40
0.0
 40
0.249164622
 40
0.4989439156
 40
0.7492269793
 40
1.0
 40
1.0
 40
1.0
 40
1.0
 10
10.148563271
 20
9.4089828665
 30
0.0
 10
10.1511316048
 20
9.4073158409
 30
0.0
 10
10.1560670477
 20
9.4036421419
 30
0.0
 10
10.1626271876
 20
9.3971328511
 30
0.0
 10
10.1680713982
 20
9.389630446
 30
0.0
 10
10.1707237017
 20
9.3840180585
 30
0.0
 10
10.1717306986
 20
9.381105551
 30
0.0
  0
SPLINE
  5
457
100
AcDbEntity
  8
0
100
AcDbSpline
 62
7
  6
CONTINUOUS
 70
0
 71
3
 72
11
 73
7
 74
0
 42
0.0000001
 43
0.0000001
 44
0.0000000001
 40
0.0
 40
0.0
 40
0.0
 40
0.0
 40
0.1987471367
 40
0.4328031273
 40
0.7016258033
 40
1.0
 40
1.0
 40
1.0
 40
1.0
 10
10.1740119225
 20
9.3264318592
 30
0.0
 10
10.1737326133
 20
9.3282268196
 30
0.0
 10
10.1732082667
 20
9.3321488506
 30
0.0
 10
10.1725743205
 20
9.3385313074
 30
0.0
 10
10.1720607486
 20
9.3458376464
 30
0.0
 10
10.1718252552
 20
9.3510170601
 30
0.0
 10
10.1717306986
 20
9.3537425797
 30
0.0
  0
SPLINE
  5
458
100
AcDbEntity
  8
0
100
AcDbSpline
 62
7
  6
CONTINUOUS
 70
0
 71
3
 72
11
 73
7
 74
0
 42
0.0000001
 43
0.0000001
 44
0.0000000001
 40
0.0
 40
0.0
 40
0.0
 40
0.0
 40
0.2996451227
 40
0.5679752198
 40
0.8016398039
 40
1.0
 40
1.0
 40
1.0
 40
1.0
 10
10.1717306986
 20
9.381105551
 30
0.0
 10
10.1718309623
 20
9.3839000121
 30
0.0
 10
10.1720846413
 20
9.3891948795
 30
0.0
 10
10.1726336983
 20
9.3966564303
 30
0.0
 10
10.1732989708
 20
9.4031590149
 30
0.0
 10
10.1738426147
 20
9.4071550025
 30
0.0
 10
10.1741348534
 20
9.4089828665
 30
0.0
  0
SPLINE
  5
459
100
AcDbEntity
  8
0
100
AcDbSpline
 62
7
  6
CONTINUOUS
 70
0
 71
3
 72
11
 73
7
 74
0
 42
0.0000001
 43
0.0000001
 44
0.0000000001
 40
0.0
 40
0.0
 40
0.0
 40
0.0
 40
0.2497087341
 40
0.4996441166
 40
0.7497656162
 40
1.0
 40
1.0
 40
1.0
 40
1.0
 10
10.1753306509
 20
9.326431846
 30
0.0
 10
10.1778176708
 20
9.3280749198
 30
0.0
 10
10.1826036308
 20
9.3316676359
 30
0.0
 10
10.188926056
 20
9.3380549778
 30
0.0
 10
10.1940876673
 20
9.3454296558
 30
0.0
 10
10.1965657473
 20
9.3509123577
 30
0.0
 10
10.1975208645
 20
9.3537425797
 30
0.0
  0
SPLINE
  5
45A
100
AcDbEntity
  8
0
100
AcDbSpline
 62
7
  6
CONTINUOUS
 70
0
 71
3
 72
11
 73
7
 74
0
 42
0.0000001
 43
0.0000001
 44
0.0000000001
 40
0.0
 40
0.0
 40
0.0
 40
0.0
 40
0.2496960982
 40
0.4996747667
 40
0.7497853745
 40
1.0
 40
1.0
 40
1.0
 40
1.0
 10
10.1741348534
 20
9.4089828665
 30
0.0
 10
10.1767259222
 20
9.4073168036
 30
0.0
 10
10.1817050422
 20
9.4036465333
 30
0.0
 10
10.1883269848
 20
9.3971382444
 30
0.0
 10
10.1938226762
 20
9.389636365
 30
0.0
 10
10.1965036785
 20
9.3840200302
 30
0.0
 10
10.1975208645
 20
9.381105551
 30
0.0
  0
SPLINE
  5
45B
100
AcDbEntity
  8
0
100
AcDbSpline
 62
7
  6
CONTINUOUS
 70
0
 71
3
 72
9
 73
5
 74
0
 42
0.0000001
 43
0.0000001
 44
0.0000000001
 40
0.0
 40
0.0
 40
0.0
 40
0.0
 40
0.4316877518
 40
1.0
 40
1.0
 40
1.0
 40
1.0
 10
10.1982824676
 20
9.3264316295
 30
0.0
 10
10.1980784925
 20
9.3303579815
 30
0.0
 10
10.1977459052
 20
9.3394604857
 30
0.0
 10
10.1975808104
 20
9.3485669565
 30
0.0
 10
10.1975208645
 20
9.3537425797
 30
0.0
  0
SPLINE
  5
45C
100
AcDbEntity
  8
0
100
AcDbSpline
 62
7
  6
CONTINUOUS
 70
0
 71
3
 72
9
 73
5
 74
0
 42
0.0000001
 43
0.0000001
 44
0.0000000001
 40
0.0
 40
0.0
 40
0.0
 40
0.0
 40
0.5691421281
 40
1.0
 40
1.0
 40
1.0
 40
1.0
 10
10.1975208645
 20
9.381105551
 30
0.0
 10
10.1975842398
 20
9.3863963333
 30
0.0
 10
10.1977644941
 20
9.3956916716
 30
0.0
 10
10.1981099985
 20
9.4049829902
 30
0.0
 10
10.1983234969
 20
9.4089828665
 30
0.0
  0
SPLINE
  5
45D
100
AcDbEntity
  8
0
100
AcDbSpline
 62
7
  6
CONTINUOUS
 70
0
 71
3
 72
11
 73
7
 74
0
 42
0.0000001
 43
0.0000001
 44
0.0000000001
 40
0.0
 40
0.0
 40
0.0
 40
0.0
 40
0.2499776984
 40
0.5000136369
 40
0.7500429436
 40
1.0
 40
1.0
 40
1.0
 40
1.0
 10
10.1995250223
 20
9.3264319593
 30
0.0
 10
10.202022968
 20
9.3280745654
 30
0.0
 10
10.2068297086
 20
9.3316657453
 30
0.0
 10
10.2131817757
 20
9.3380523646
 30
0.0
 10
10.218368115
 20
9.3454267361
 30
0.0
 10
10.2208591717
 20
9.350911496
 30
0.0
 10
10.2218190551
 20
9.3537425797
 30
0.0
  0
SPLINE
  5
45E
100
AcDbEntity
  8
0
100
AcDbSpline
 62
7
  6
CONTINUOUS
 70
0
 71
3
 72
9
 73
5
 74
0
 42
0.0000001
 43
0.0000001
 44
0.0000000001
 40
0.0
 40
0.0
 40
0.0
 40
0.0
 40
0.431662222
 40
1.0
 40
1.0
 40
1.0
 40
1.0
 10
9.5567645983
 20
9.3264322391
 30
0.0
 10
9.5569685506
 20
9.3303582716
 30
0.0
 10
9.5573011686
 20
9.339460571
 30
0.0
 10
9.5574662274
 20
9.3485668396
 30
0.0
 10
9.5575261746
 20
9.3537425797
 30
0.0
  0
SPLINE
  5
45F
100
AcDbEntity
  8
0
100
AcDbSpline
 62
7
  6
CONTINUOUS
 70
0
 71
3
 72
11
 73
7
 74
0
 42
0.0000001
 43
0.0000001
 44
0.0000000001
 40
0.0
 40
0.0
 40
0.0
 40
0.0
 40
0.1987385343
 40
0.4327886768
 40
0.7016186671
 40
1.0
 40
1.0
 40
1.0
 40
1.0
 10
9.581035076
 20
9.3264314826
 30
0.0
 10
9.5813143815
 20
9.3282263893
 30
0.0
 10
9.5818387409
 20
9.3321483406
 30
0.0
 10
9.5824726694
 20
9.3385308231
 30
0.0
 10
9.5829862431
 20
9.3458373416
 30
0.0
 10
9.5832217804
 20
9.3510169572
 30
0.0
 10
9.5833163406
 20
9.3537425797
 30
0.0
  0
SPLINE
  5
460
100
AcDbEntity
  8
0
100
AcDbSpline
 62
7
  6
CONTINUOUS
 70
0
 71
3
 72
11
 73
7
 74
0
 42
0.0000001
 43
0.0000001
 44
0.0000000001
 40
0.0
 40
0.0
 40
0.0
 40
0.0
 40
0.2004808749
 40
0.4349680588
 40
0.7031278123
 40
1.0
 40
1.0
 40
1.0
 40
1.0
 10
9.6066879819
 20
9.3264317981
 30
0.0
 10
9.6071498488
 20
9.3282182428
 30
0.0
 10
9.6080195395
 20
9.3321288854
 30
0.0
 10
9.6090745163
 20
9.3385164011
 30
0.0
 10
9.6099289586
 20
9.3458276015
 30
0.0
 10
9.6103209991
 20
9.3510147575
 30
0.0
 10
9.6104782362
 20
9.3537425797
 30
0.0
  0
SPLINE
  5
461
100
AcDbEntity
  8
0
100
AcDbSpline
 62
7
  6
CONTINUOUS
 70
0
 71
3
 72
11
 73
7
 74
0
 42
0.0000001
 43
0.0000001
 44
0.0000000001
 40
0.0
 40
0.0
 40
0.0
 40
0.0
 40
0.2029472574
 40
0.4380649417
 40
0.7052836896
 40
1.0
 40
1.0
 40
1.0
 40
1.0
 10
9.6336035645
 20
9.3264314185
 30
0.0
 10
9.6342430759
 20
9.3282064916
 30
0.0
 10
9.635451908
 20
9.3321008897
 30
0.0
 10
9.6369252153
 20
9.3384951827
 30
0.0
 10
9.6381179316
 20
9.3458131307
 30
0.0
 10
9.6386658507
 20
9.3510114588
 30
0.0
 10
9.6388852202
 20
9.3537425797
 30
0.0
  0
SPLINE
  5
462
100
AcDbEntity
  8
0
100
AcDbSpline
 62
7
  6
CONTINUOUS
 70
0
 71
3
 72
10
 73
6
 74
0
 42
0.0000001
 43
0.0000001
 44
0.0000000001
 40
0.0
 40
0.0
 40
0.0
 40
0.0
 40
0.4416567438
 40
0.7078368708
 40
1.0
 40
1.0
 40
1.0
 40
1.0
 10
9.6616565738
 20
9.3264317551
 30
0.0
 10
9.6633946241
 20
9.3302075567
 30
0.0
 10
9.665499762
 20
9.3365785548
 30
0.0
 10
9.6674213066
 20
9.3457934061
 30
0.0
 10
9.6681241276
 20
9.3510072744
 30
0.0
 10
9.6684048462
 20
9.3537425797
 30
0.0
  0
SPLINE
  5
463
100
AcDbEntity
  8
0
100
AcDbSpline
 62
7
  6
CONTINUOUS
 70
0
 71
3
 72
10
 73
6
 74
0
 42
0.0000001
 43
0.0000001
 44
0.0000000001
 40
0.0
 40
0.0
 40
0.0
 40
0.0
 40
0.4459776673
 40
0.7108828877
 40
1.0
 40
1.0
 40
1.0
 40
1.0
 10
9.690715877
 20
9.3264315389
 30
0.0
 10
9.6927921972
 20
9.3301510821
 30
0.0
 10
9.6953581582
 20
9.3365077634
 30
0.0
 10
9.697702056
 20
9.3457712584
 30
0.0
 10
9.6985584226
 20
9.3510021744
 30
0.0
 10
9.6988994799
 20
9.3537425797
 30
0.0
  0
SPLINE
  5
464
100
AcDbEntity
  8
0
100
AcDbSpline
 62
7
  6
CONTINUOUS
 70
0
 71
3
 72
11
 73
7
 74
0
 42
0.0000001
 43
0.0000001
 44
0.0000000001
 40
0.0
 40
0.0
 40
0.0
 40
0.0
 40
0.2131908242
 40
0.4510926954
 40
0.7144262705
 40
1.0
 40
1.0
 40
1.0
 40
1.0
 10
9.7206462082
 20
9.3264314799
 30
0.0
 10
9.7217796039
 20
9.3281657661
 30
0.0
 10
9.7239463295
 20
9.3319907849
 30
0.0
 10
9.7266405781
 20
9.3384051482
 30
0.0
 10
9.7288201915
 20
9.3457482459
 30
0.0
 10
9.729826812
 20
9.3509963621
 30
0.0
 10
9.7302269413
 20
9.3537425797
 30
0.0
  0
SPLINE
  5
465
100
AcDbEntity
  8
0
100
AcDbSpline
 62
7
  6
CONTINUOUS
 70
0
 71
3
 72
11
 73
7
 74
0
 42
0.0000001
 43
0.0000001
 44
0.0000000001
 40
0.0
 40
0.0
 40
0.0
 40
0.0
 40
0.2170388329
 40
0.4560542252
 40
0.7179439661
 40
1.0
 40
1.0
 40
1.0
 40
1.0
 10
9.7513080604
 20
9.3264315937
 30
0.0
 10
9.752591698
 20
9.3281528222
 30
0.0
 10
9.7550522997
 20
9.331951595
 30
0.0
 10
9.7581347132
 20
9.3383702116
 30
0.0
 10
9.7606287653
 20
9.3457215167
 30
0.0
 10
9.7617834935
 20
9.3509899781
 30
0.0
 10
9.7622411674
 20
9.3537425797
 30
0.0
  0
SPLINE
  5
466
100
AcDbEntity
  8
0
100
AcDbSpline
 62
7
  6
CONTINUOUS
 70
0
 71
3
 72
11
 73
7
 74
0
 42
0.0000001
 43
0.0000001
 44
0.0000000001
 40
0.0
 40
0.0
 40
0.0
 40
0.0
 40
0.2208857512
 40
0.4610512816
 40
0.7215069456
 40
1.0
 40
1.0
 40
1.0
 40
1.0
 10
9.7825582719
 20
9.3264314942
 30
0.0
 10
9.7839846898
 20
9.3281406992
 30
0.0
 10
9.7867245453
 20
9.3319134509
 30
0.0
 10
9.7901817453
 20
9.3383345743
 30
0.0
 10
9.7929801904
 20
9.345693309
 30
0.0
 10
9.7942794624
 20
9.3509831186
 30
0.0
 10
9.7947928931
 20
9.3537425797
 30
0.0
  0
SPLINE
  5
467
100
AcDbEntity
  8
0
100
AcDbSpline
 62
7
  6
CONTINUOUS
 70
0
 71
3
 72
11
 73
7
 74
0
 42
0.0000001
 43
0.0000001
 44
0.0000000001
 40
0.0
 40
0.0
 40
0.0
 40
0.0
 40
0.2246360845
 40
0.4659580554
 40
0.7250260986
 40
1.0
 40
1.0
 40
1.0
 40
1.0
 10
9.8142512528
 20
9.32643141
 30
0.0
 10
9.8158128004
 20
9.3281297888
 30
0.0
 10
9.8188165342
 20
9.3318774608
 30
0.0
 10
9.822632791
 20
9.338299335
 30
0.0
 10
9.8257237587
 20
9.3456643947
 30
0.0
 10
9.8271632271
 20
9.3509759627
 30
0.0
 10
9.8277303471
 20
9.3537425797
 30
0.0
  0
SPLINE
  5
468
100
AcDbEntity
  8
0
100
AcDbSpline
 62
7
  6
CONTINUOUS
 70
0
 71
3
 72
11
 73
7
 74
0
 42
0.0000001
 43
0.0000001
 44
0.0000000001
 40
0.0
 40
0.0
 40
0.0
 40
0.0
 40
0.2282171858
 40
0.4706757252
 40
0.7284290925
 40
1.0
 40
1.0
 40
1.0
 40
1.0
 10
9.8462392934
 20
9.3264314151
 30
0.0
 10
9.8479281199
 20
9.3281201884
 30
0.0
 10
9.8511797403
 20
9.3318442539
 30
0.0
 10
9.8553371922
 20
9.3382652945
 30
0.0
 10
9.8587070686
 20
9.3456354252
 30
0.0
 10
9.8602814984
 20
9.3509686621
 30
0.0
 10
9.8608999598
 20
9.3537425797
 30
0.0
  0
LINE
  5
469
100
AcDbEntity
  8
0
100
AcDbLine
 62
7
  6
CONTINUOUS
 10
10.1982824676
 20
9.3264316295
 11
10.1983234969
 21
9.3256301591
  0
SPLINE
  5
46A
100
AcDbEntity
  8
0
100
AcDbSpline
 62
7
  6
CONTINUOUS
 70
0
 71
3
 72
9
 73
5
 74
0
 42
0.0000001
 43
0.0000001
 44
0.0000000001
 40
0.0
 40
0.0
 40
0.0
 40
0.0
 40
0.4708141626
 40
1.0
 40
1.0
 40
1.0
 40
1.0
 10
9.9095974539
 20
9.4089828665
 30
0.0
 10
9.9059765797
 20
9.4054588087
 30
0.0
 10
9.8993729268
 20
9.3968048122
 30
0.0
 10
9.8954230928
 20
9.3866394724
 30
0.0
 10
9.8941470793
 20
9.381105551
 30
0.0
  0
SPLINE
  5
46B
100
AcDbEntity
  8
0
100
AcDbSpline
 62
7
  6
CONTINUOUS
 70
0
 71
3
 72
11
 73
7
 74
0
 42
0.0000001
 43
0.0000001
 44
0.0000000001
 40
0.0
 40
0.0
 40
0.0
 40
0.0
 40
0.2499604538
 40
0.5000397466
 40
0.750063755
 40
1.0
 40
1.0
 40
1.0
 40
1.0
 10
10.1983234969
 20
9.4089828665
 30
0.0
 10
10.2009259526
 20
9.4073172839
 30
0.0
 10
10.2059267967
 20
9.4036484955
 30
0.0
 10
10.2125797903
 20
9.397140868
 30
0.0
 10
10.2181016646
 20
9.3896394874
 30
0.0
 10
10.2207967551
 20
9.3840210261
 30
0.0
 10
10.2218190551
 20
9.381105551
 30
0.0
  0
SPLINE
  5
46C
100
AcDbEntity
  8
0
100
AcDbSpline
 62
7
  6
CONTINUOUS
 70
0
 71
3
 72
11
 73
7
 74
0
 42
0.0000001
 43
0.0000001
 44
0.0000000001
 40
0.0
 40
0.0
 40
0.0
 40
0.0
 40
0.2499777462
 40
0.5000136283
 40
0.7500429514
 40
1.0
 40
1.0
 40
1.0
 40
1.0
 10
10.2222181188
 20
9.3264321122
 30
0.0
 10
10.2247160471
 20
9.3280747113
 30
0.0
 10
10.229522764
 20
9.3316658586
 30
0.0
 10
10.2358747865
 20
9.3380524455
 30
0.0
 10
10.2410610637
 20
9.3454267897
 30
0.0
 10
10.2435521038
 20
9.3509115139
 30
0.0
 10
10.244511981
 20
9.3537425797
 30
0.0
  0
SPLINE
  5
46D
100
AcDbEntity
  8
0
100
AcDbSpline
 62
7
  6
CONTINUOUS
 70
0
 71
3
 72
14
 73
10
 74
0
 42
0.0000001
 43
0.0000001
 44
0.0000000001
 40
0.0
 40
0.0
 40
0.0
 40
0.0
 40
0.2499892182
 40
0.3749944719
 40
0.4999932533
 40
0.6249874119
 40
0.7499907716
 40
0.8750000628
 40
1.0
 40
1.0
 40
1.0
 40
1.0
 10
10.1734155325
 20
8.3431579036
 30
0.0
 10
10.1487465185
 20
8.3440508591
 30
0.0
 10
10.1117682201
 20
8.3460773442
 30
0.0
 10
10.0624956481
 20
8.3491925706
 30
0.0
 10
10.0255383944
 20
8.3515025412
 30
0.0
 10
9.9885674361
 20
8.3535830559
 30
0.0
 10
9.9515718723
 20
8.3552105298
 30
0.0
 10
9.9145543033
 20
8.3562524495
 30
0.0
 10
9.8898666307
 20
8.3565044764
 30
0.0
 10
9.8775235196
 20
8.3565044764
 30
0.0
  0
SPLINE
  5
46E
100
AcDbEntity
  8
0
100
AcDbSpline
 62
7
  6
CONTINUOUS
 70
0
 71
3
 72
11
 73
7
 74
0
 42
0.0000001
 43
0.0000001
 44
0.0000000001
 40
0.0
 40
0.0
 40
0.0
 40
0.0
 40
0.2499604538
 40
0.5000397466
 40
0.750063755
 40
1.0
 40
1.0
 40
1.0
 40
1.0
 10
10.2210164228
 20
9.4089828665
 30
0.0
 10
10.2236188785
 20
9.4073172839
 30
0.0
 10
10.2286197226
 20
9.4036484955
 30
0.0
 10
10.2352727162
 20
9.397140868
 30
0.0
 10
10.2407945905
 20
9.3896394874
 30
0.0
 10
10.243489681
 20
9.3840210261
 30
0.0
 10
10.244511981
 20
9.381105551
 30
0.0
  0
SPLINE
  5
46F
100
AcDbEntity
  8
0
100
AcDbSpline
 62
9
  6
CONTINUOUS
 70
0
 71
3
 72
50
 73
46
 74
0
 42
0.0000001
 43
0.0000001
 44
0.0000000001
 40
0.0
 40
0.0
 40
0.0
 40
0.0
 40
0.0000118474
 40
0.000045416
 40
0.0001006545
 40
0.0001775072
 40
0.000395831
 40
0.0006999379
 40
0.0010893779
 40
0.001563701
 40
0.0021224577
 40
0.0027651981
 40
0.0043008335
 40
0.006167015
 40
0.0083601542
 40
0.0108765947
 40
0.0137103392
 40
0.0168525884
 40
0.0240268028
 40
0.0323278303
 40
0.0416845533
 40
0.0520272498
 40
0.0632899589
 40
0.0754079492
 40
0.0883171554
 40
0.1162647532
 40
0.1467194759
 40
0.1793200738
 40
0.2137506155
 40
0.2497637544
 40
0.2871322672
 40
0.3256368875
 40
0.3650660511
 40
0.4052183398
 40
0.4458918289
 40
0.4868887588
 40
0.5280257114
 40
0.5691129273
 40
0.6099696465
 40
0.6902829554
 40
0.7674069355
 40
0.8395097749
 40
0.9042979462
 40
0.9589333326
 40
1.0
 40
1.0
 40
1.0
 40
1.0
 10
10.2385713172
 20
10.2958099351
 30
0.0
 10
10.2385717694
 20
10.2958120831
 30
0.0
 10
10.2385677954
 20
10.2958202936
 30
0.0
 10
10.2385650893
 20
10.2958383447
 30
0.0
 10
10.2385564246
 20
10.2958680906
 30
0.0
 10
10.238540803
 20
10.2959309388
 30
0.0
 10
10.2385124288
 20
10.2960384127
 30
0.0
 10
10.2384701561
 20
10.2962019251
 30
0.0
 10
10.2384156974
 20
10.2964113611
 30
0.0
 10
10.2383496255
 20
10.2966664945
 30
0.0
 10
10.2382719272
 20
10.2969671068
 30
0.0
 10
10.2381453884
 20
10.2974581882
 30
0.0
 10
10.2379592713
 20
10.2981840658
 30
0.0
 10
10.2377034725
 20
10.2991886173
 30
0.0
 10
10.2374048952
 20
10.3003697923
 30
0.0
 10
10.2370647769
 20
10.3017253688
 30
0.0
 10
10.236684981
 20
10.3032522847
 30
0.0
 10
10.2361028637
 20
10.3056181353
 30
0.0
 10
10.2352937282
 20
10.3089712802
 30
0.0
 10
10.2342446952
 20
10.3134508811
 30
0.0
 10
10.2330999008
 20
10.3185108443
 30
0.0
 10
10.231880563
 20
10.3241163576
 30
0.0
 10
10.2306105893
 20
10.3302341542
 30
0.0
 10
10.2293134907
 20
10.3368316291
 30
0.0
 10
10.2275312837
 20
10.3464835876
 30
0.0
 10
10.2253842288
 20
10.3595219672
 30
0.0
 10
10.2231159607
 20
10.3762317989
 30
0.0
 10
10.2212535942
 20
10.3942006694
 30
0.0
 10
10.2199478497
 20
10.4132516296
 30
0.0
 10
10.2193160109
 20
10.4332214865
 30
0.0
 10
10.2194762556
 20
10.4539560306
 30
0.0
 10
10.2204812929
 20
10.4753007744
 30
0.0
 10
10.2223985614
 20
10.4971010808
 30
0.0
 10
10.225227195
 20
10.5192066362
 30
0.0
 10
10.228935577
 20
10.5414760004
 30
0.0
 10
10.233494136
 20
10.5637726588
 30
0.0
 10
10.2388106244
 20
10.5859788147
 30
0.0
 10
10.2448036677
 20
10.6079846189
 30
0.0
 10
10.2535169658
 20
10.6367598024
 30
0.0
 10
10.2654689581
 20
10.6715148832
 30
0.0
 10
10.2808672574
 20
10.7111657711
 30
0.0
 10
10.2963191881
 20
10.7476877471
 30
0.0
 10
10.3108700103
 20
10.7800545915
 30
0.0
 10
10.3234912545
 20
10.8069790406
 30
0.0
 10
10.3312046916
 20
10.8229448461
 30
0.0
 10
10.3345321278
 20
10.8297873353
 30
0.0
  0
SPLINE
  5
470
100
AcDbEntity
  8
0
100
AcDbSpline
 62
9
  6
CONTINUOUS
 70
0
 71
3
 72
22
 73
18
 74
0
 42
0.0000001
 43
0.0000001
 44
0.0000000001
 40
0.0
 40
0.0
 40
0.0
 40
0.0
 40
0.1802094967
 40
0.3545602906
 40
0.5188385855
 40
0.6688913677
 40
0.7372968211
 40
0.8005048945
 40
0.8573088009
 40
0.9060902033
 40
0.9452179979
 40
0.9608038036
 40
0.9737552049
 40
0.98411157
 40
0.9919117318
 40
0.9971943547
 40
1.0
 40
1.0
 40
1.0
 40
1.0
 10
10.3345315283
 20
10.8297866881
 30
0.0
 10
10.3351348548
 20
10.832412753
 30
0.0
 10
10.33650476
 20
10.8375390464
 30
0.0
 10
10.3389876993
 20
10.844893794
 30
0.0
 10
10.3417634903
 20
10.8516582537
 30
0.0
 10
10.3442640313
 20
10.8568094735
 30
0.0
 10
10.3462531166
 20
10.8605219684
 30
0.0
 10
10.3476435709
 20
10.8629724345
 30
0.0
 10
10.3489354483
 20
10.8651406962
 30
0.0
 10
10.3500768844
 20
10.8669789952
 30
0.0
 10
10.3509143546
 20
10.8682803277
 30
0.0
 10
10.3514718654
 20
10.869124583
 30
0.0
 10
10.3517956409
 20
10.8696076677
 30
0.0
 10
10.3520563477
 20
10.8699928157
 30
0.0
 10
10.3522542558
 20
10.8702821582
 30
0.0
 10
10.3523863006
 20
10.8704794229
 30
0.0
 10
10.3524538444
 20
10.8705800522
 30
0.0
 10
10.3524736437
 20
10.8706170356
 30
0.0
  0
SPLINE
  5
471
100
AcDbEntity
  8
0
100
AcDbSpline
 62
9
  6
CONTINUOUS
 70
0
 71
3
 72
21
 73
17
 74
0
 42
0.0000001
 43
0.0000001
 44
0.0000000001
 40
0.0
 40
0.0
 40
0.0
 40
0.0
 40
0.1005077018
 40
0.1554343741
 40
0.2134765198
 40
0.2746899037
 40
0.338532894
 40
0.4043951874
 40
0.4718409814
 40
0.540556385
 40
0.609869492
 40
0.6789443408
 40
0.7469817177
 40
0.8777529348
 40
0.9401908066
 40
1.0
 40
1.0
 40
1.0
 40
1.0
 10
10.4100534889
 20
10.7708329966
 30
0.0
 10
10.4064792446
 20
10.7700628691
 30
0.0
 10
10.4008246448
 20
10.7693824777
 30
0.0
 10
10.3930515637
 20
10.7695339587
 30
0.0
 10
10.3867488599
 20
10.7702958281
 30
0.0
 10
10.380244501
 20
10.7717846087
 30
0.0
 10
10.3736576543
 20
10.7740262868
 30
0.0
 10
10.3671393299
 20
10.7770516375
 30
0.0
 10
10.3608509332
 20
10.7808888883
 30
0.0
 10
10.3549785618
 20
10.7855426036
 30
0.0
 10
10.3496387794
 20
10.7908799398
 30
0.0
 10
10.3449565893
 20
10.7967735948
 30
0.0
 10
10.3398303329
 20
10.8050847064
 30
0.0
 10
10.3364348938
 20
10.8140884146
 30
0.0
 10
10.3347919485
 20
10.8231593595
 30
0.0
 10
10.3345240034
 20
10.8276123717
 30
0.0
 10
10.3345320298
 20
10.8297880969
 30
0.0
  0
SPLINE
  5
472
100
AcDbEntity
  8
0
100
AcDbSpline
 62
7
  6
CONTINUOUS
 70
0
 71
3
 72
11
 73
7
 74
0
 42
0.0000001
 43
0.0000001
 44
0.0000000001
 40
0.0
 40
0.0
 40
0.0
 40
0.0
 40
0.2497087019
 40
0.499644134
 40
0.7497656113
 40
1.0
 40
1.0
 40
1.0
 40
1.0
 10
10.2433035192
 20
9.3264317519
 30
0.0
 10
10.2457905518
 20
9.3280748269
 30
0.0
 10
10.2505765266
 20
9.331667564
 30
0.0
 10
10.2568989783
 20
9.3380549268
 30
0.0
 10
10.2620606291
 20
9.3454296213
 30
0.0
 10
10.2645387163
 20
9.3509123466
 30
0.0
 10
10.2654938373
 20
9.3537425797
 30
0.0
  0
SPLINE
  5
473
100
AcDbEntity
  8
0
100
AcDbSpline
 62
7
  6
CONTINUOUS
 70
0
 71
3
 72
14
 73
10
 74
0
 42
0.0000001
 43
0.0000001
 44
0.0000000001
 40
0.0
 40
0.0
 40
0.0
 40
0.0
 40
0.1249999354
 40
0.2500092299
 40
0.3750126018
 40
0.50000676
 40
0.6250055319
 40
0.7500107788
 40
1.0
 40
1.0
 40
1.0
 40
1.0
 10
9.8775235196
 20
8.3565044764
 30
0.0
 10
9.8651804086
 20
8.3565044764
 30
0.0
 10
9.8404927359
 20
8.3562524434
 30
0.0
 10
9.803475166
 20
8.3552105136
 30
0.0
 10
9.7664795997
 20
8.3535830641
 30
0.0
 10
9.7295086412
 20
8.3515025469
 30
0.0
 10
9.6925513898
 20
8.349192567
 30
0.0
 10
9.6432788189
 20
8.3460773438
 30
0.0
 10
9.6063005209
 20
8.3440508591
 30
0.0
 10
9.5816315066
 20
8.3431579036
 30
0.0
  0
SPLINE
  5
474
100
AcDbEntity
  8
0
100
AcDbSpline
 62
7
  6
CONTINUOUS
 70
0
 71
3
 72
20
 73
16
 74
0
 42
0.0000001
 43
0.0000001
 44
0.0000000001
 40
0.0
 40
0.0
 40
0.0
 40
0.0
 40
0.1250397624
 40
0.2503574324
 40
0.3756777749
 40
0.4382593958
 40
0.5007648516
 40
0.5631948306
 40
0.6255610482
 40
0.6878862128
 40
0.7502049184
 40
0.8125547067
 40
0.8749621325
 40
0.9374423383
 40
1.0
 40
1.0
 40
1.0
 40
1.0
 10
9.5816315066
 20
8.3431579036
 30
0.0
 10
9.5727796758
 20
8.3437987311
 30
0.0
 10
9.5550906438
 20
8.3455517639
 30
0.0
 10
9.5286347519
 20
8.3488774045
 30
0.0
 10
9.5065766832
 20
8.3516548127
 30
0.0
 10
9.4889069589
 20
8.3535764853
 30
0.0
 10
9.475651556
 20
8.3547845553
 30
0.0
 10
9.4623881043
 20
8.3557048795
 30
0.0
 10
9.4491190964
 20
8.3563088018
 30
0.0
 10
9.4358463009
 20
8.3565636522
 30
0.0
 10
9.4225727965
 20
8.3564319778
 30
0.0
 10
9.4093023532
 20
8.3559378951
 30
0.0
 10
9.3960368956
 20
8.3551168675
 30
0.0
 10
9.3827785496
 20
8.3539995111
 30
0.0
 10
9.3739506151
 20
8.3530836415
 30
0.0
 10
9.3695372421
 20
8.3525964686
 30
0.0
  0
SPLINE
  5
475
100
AcDbEntity
  8
0
100
AcDbSpline
 62
7
  6
CONTINUOUS
 70
0
 71
3
 72
9
 73
5
 74
0
 42
0.0000001
 43
0.0000001
 44
0.0000000001
 40
0.0
 40
0.0
 40
0.0
 40
0.0
 40
0.5003920806
 40
1.0
 40
1.0
 40
1.0
 40
1.0
 10
9.3695372421
 20
8.3525964686
 30
0.0
 10
9.3555559581
 20
8.351053136
 30
0.0
 10
9.3276890861
 20
8.3473782189
 30
0.0
 10
9.2997469987
 20
8.3441719757
 30
0.0
 10
9.2857394937
 20
8.3431579036
 30
0.0
  0
SPLINE
  5
476
100
AcDbEntity
  8
0
100
AcDbSpline
 62
7
  6
CONTINUOUS
 70
0
 71
3
 72
11
 73
7
 74
0
 42
0.0000001
 43
0.0000001
 44
0.0000000001
 40
0.0
 40
0.0
 40
0.0
 40
0.0
 40
0.2496960982
 40
0.4996747667
 40
0.7497853745
 40
1.0
 40
1.0
 40
1.0
 40
1.0
 10
10.2421078262
 20
9.4089828665
 30
0.0
 10
10.244698895
 20
9.4073168036
 30
0.0
 10
10.249678015
 20
9.4036465333
 30
0.0
 10
10.2562999576
 20
9.3971382444
 30
0.0
 10
10.261795649
 20
9.389636365
 30
0.0
 10
10.2644766513
 20
9.3840200302
 30
0.0
 10
10.2654938373
 20
9.381105551
 30
0.0
  0
SPLINE
  5
477
100
AcDbEntity
  8
0
100
AcDbSpline
 62
9
  6
CONTINUOUS
 70
0
 71
3
 72
23
 73
19
 74
0
 42
0.0000001
 43
0.0000001
 44
0.0000000001
 40
0.0
 40
0.0
 40
0.0
 40
0.0
 40
0.187849643
 40
0.3679526332
 40
0.5356765592
 40
0.6860766654
 40
0.7531575307
 40
0.8138508762
 40
0.8673811524
 40
0.912965709
 40
0.9498158592
 40
0.9647176908
 40
0.9771378537
 40
0.9869764309
 40
0.9941332665
 40
0.9966746735
 40
0.9985079865
 40
1.0
 40
1.0
 40
1.0
 40
1.0
 10
10.4100527834
 20
10.7708329856
 30
0.0
 10
10.4106574206
 20
10.7717961733
 30
0.0
 10
10.4119076341
 20
10.7736420547
 30
0.0
 10
10.4138776997
 20
10.7762197194
 30
0.0
 10
10.4158210692
 20
10.7785277288
 30
0.0
 10
10.4173925592
 20
10.7802514744
 30
0.0
 10
10.4185589876
 20
10.7814662641
 30
0.0
 10
10.4193312251
 20
10.7822463303
 30
0.0
 10
10.4200214631
 20
10.7829242972
 30
0.0
 10
10.4206160961
 20
10.7834935032
 30
0.0
 10
10.4210466219
 20
10.7838958738
 30
0.0
 10
10.4213327501
 20
10.7841586854
 30
0.0
 10
10.4214993474
 20
10.7843098422
 30
0.0
 10
10.4216315923
 20
10.7844291857
 30
0.0
 10
10.4217203524
 20
10.7845072042
 30
0.0
 10
10.4217721386
 20
10.7845542382
 30
0.0
 10
10.421799826
 20
10.7845761679
 30
0.0
 10
10.4218130392
 20
10.7845923531
 30
0.0
 10
10.4218211319
 20
10.7845963652
 30
0.0
  0
SPLINE
  5
478
100
AcDbEntity
  8
0
100
AcDbSpline
 62
9
  6
CONTINUOUS
 70
0
 71
3
 72
45
 73
41
 74
0
 42
0.0000001
 43
0.0000001
 44
0.0000000001
 40
0.0
 40
0.0
 40
0.0
 40
0.0
 40
0.0000398627
 40
0.0001588074
 40
0.000356465
 40
0.0006324664
 40
0.0009864428
 40
0.0014180257
 40
0.002512538
 40
0.0039130608
 40
0.0056166559
 40
0.0076203897
 40
0.009921333
 40
0.01539752
 40
0.0219938155
 40
0.029653527
 40
0.0383203788
 40
0.047938103
 40
0.0584493191
 40
0.0697973376
 40
0.0819268276
 40
0.1083155716
 40
0.1372078631
 40
0.1682408864
 40
0.2011328614
 40
0.2356502183
 40
0.2716030889
 40
0.3088444475
 40
0.3472263684
 40
0.3865952071
 40
0.4267840591
 40
0.4676163548
 40
0.5089309787
 40
0.5922164001
 40
0.6748904752
 40
0.7550646793
 40
0.8305819532
 40
0.8986980505
 40
0.9563692558
 40
1.0
 40
1.0
 40
1.0
 40
1.0
 10
10.3123114882
 20
10.3404454859
 30
0.0
 10
10.3123075817
 20
10.3404502463
 30
0.0
 10
10.3123009113
 20
10.3404747165
 30
0.0
 10
10.3122752746
 20
10.340523018
 30
0.0
 10
10.3122399286
 20
10.3406078117
 30
0.0
 10
10.3121873325
 20
10.3407242083
 30
0.0
 10
10.3121213771
 20
10.3408744091
 30
0.0
 10
10.3120041567
 20
10.3411401154
 30
0.0
 10
10.3118227289
 20
10.3415542457
 30
0.0
 10
10.3115635398
 20
10.3421488167
 30
0.0
 10
10.3112498614
 20
10.3428728676
 30
0.0
 10
10.3108827387
 20
10.3437253508
 30
0.0
 10
10.3102881659
 20
10.3451144257
 30
0.0
 10
10.3094219007
 20
10.3471589347
 30
0.0
 10
10.3082518288
 20
10.3499737407
 30
0.0
 10
10.3069191929
 20
10.3532546533
 30
0.0
 10
10.3054450157
 20
10.3569817015
 30
0.0
 10
10.3038506428
 20
10.3611347141
 30
0.0
 10
10.302164173
 20
10.3656956918
 30
0.0
 10
10.3004136097
 20
10.3706461781
 30
0.0
 10
10.2979618175
 20
10.3779493635
 30
0.0
 10
10.2949160723
 20
10.3879106058
 30
0.0
 10
10.2915474905
 20
10.4008166755
 30
0.0
 10
10.2885914831
 20
10.4148534476
 30
0.0
 10
10.2862304106
 20
10.4298841576
 30
0.0
 10
10.2846446114
 20
10.4457821016
 30
0.0
 10
10.2840151066
 20
10.4624215858
 30
0.0
 10
10.2845204618
 20
10.4796634905
 30
0.0
 10
10.2861879367
 20
10.4973615744
 30
0.0
 10
10.2890459304
 20
10.515367253
 30
0.0
 10
10.2930373313
 20
10.5335424148
 30
0.0
 10
10.298108059
 20
10.5517571928
 30
0.0
 10
10.3061373659
 20
10.5760277387
 30
0.0
 10
10.3180732285
 20
10.6057741966
 30
0.0
 10
10.3343732253
 20
10.6401438942
 30
0.0
 10
10.3516095803
 20
10.672693164
 30
0.0
 10
10.3686531262
 20
10.7027783481
 30
0.0
 10
10.3845358129
 20
10.7295163154
 30
0.0
 10
10.3981866857
 20
10.7518469915
 30
0.0
 10
10.4064702815
 20
10.7651244147
 30
0.0
 10
10.4100536853
 20
10.77083313
 30
0.0
  0
ENDSEC
  0
SECTION
  2
OBJECTS
  0
DICTIONARY
  5
C
100
AcDbDictionary
280
0
281
1
  3
ACAD_GROUP
350
D
  3
ACAD_MLINESTYLE
350
17
  3
ACAD_LAYOUT
350
1A
  3
ACAD_PLOTSETTINGS
350
19
  3
ACAD_PLOTSTYLENAME
350
E
  0
DICTIONARY
  5
D
102
{ACAD_REACTORS
330
C
102
}
100
AcDbDictionary
280
0
281
1
  0
ACDBDICTIONARYWDFLT
  5
E
102
{ACAD_REACTORS
330
C
102
}
100
AcDbDictionary
281
1
  3
Normal
350
F
100
AcDbDictionaryWithDefault
340
F
  0
DICTIONARY
  5
17
102
{ACAD_REACTORS
330
C
102
}
100
AcDbDictionary
280
0
281
1
  3
Standard
350
18
  0
DICTIONARY
  5
19
102
{ACAD_REACTORS
330
C
102
}
100
AcDbDictionary
281
1
  0
DICTIONARY
  5
1A
102
{ACAD_REACTORS
330
C
102
}
100
AcDbDictionary
281
1
  3
Model
350
479
  3
Layout1
350
47A
  0
ACDBPLACEHOLDER
  5
F
102
{ACAD_REACTORS
330
E
102
}
  0
MLINESTYLE
  5
18
102
{ACAD_REACTORS
330
17
102
}
100
AcDbMlineStyle
  2
STANDARD
 70
0
  3

 62
256
 51
90.0
 52
90.0
 71
2
 49
0.5
 62
256
  6
BYLAYER
 49
-0.5
 62
256
  6
BYLAYER
  0
LAYOUT
  5
479
102
{ACAD_REACTORS
330
1A
102
}
100
AcDbPlotSettings
  1

  2
none_device
  4
ANSI_C_(22.00_x_17.00_Inches)
  6

 40
0.0
 41
0.0
 42
0.0
 43
0.0
 44
558.8
 45
431.8
 46
0.0
 47
0.0
 48
0.0
 49
0.0
140
0.0
141
0.0
142
1.0
143
1.0
 70
1024
 72
0
 73
0
 74
0
  7

 75
0
147
1.0
148
0.0
149
0.0
100
AcDbLayout
  1
Model
 70
0
 71
0
 10
0.0
 20
0.0
 11
22.0
 21
17.0
 12
0.0
 22
0.0
 32
0.0
 14
0.0
 24
0.0
 34
0.0
 15
0.0
 25
0.0
 35
0.0
146
0.0
 13
0.0
 23
0.0
 33
0.0
 16
1.0
 26
0.0
 36
0.0
 17
0.0
 27
1.0
 37
0.0
 76
0
330
202
345
0
346
0
  0
LAYOUT
  5
47A
102
{ACAD_REACTORS
330
1A
102
}
100
AcDbPlotSettings
  1

  2
none_device
  4
ANSI_C_(22.00_x_17.00_Inches)
  6

 40
0.0
 41
0.0
 42
0.0
 43
0.0
 44
558.8
 45
431.8
 46
0.0
 47
0.0
 48
0.0
 49
0.0
140
0.0
141
0.0
142
1.0
143
1.0
 70
0
 72
0
 73
0
 74
0
  7

 75
0
147
1.0
148
0.0
149
0.0
100
AcDbLayout
  1
Layout1
 70
0
 71
1
 10
0.0
 20
0.0
 11
22.0
 21
17.0
 12
0.0
 22
0.0
 32
0.0
 14
0.0
 24
0.0
 34
0.0
 15
0.0
 25
0.0
 35
0.0
146
0.0
 13
0.0
 23
0.0
 33
0.0
 16
1.0
 26
0.0
 36
0.0
 17
0.0
 27
1.0
 37
0.0
 76
0
330
203
345
0
346
0
  0
ENDSEC
  0
EOF
